  0
SECTION
  2
HEADER
  9
$ACADVER
  1
AC1027
  9
$ACADMAINTVER
 70
   105
  9
$DWGCODEPAGE
  3
ANSI_1252
  9
$REQUIREDVERSIONS
160
                 0
  9
$INSBASE
 10
0.0
 20
0.0
 30
0.0
  9
$EXTMIN
 10
1.000000000000000E+20
 20
1.000000000000000E+20
 30
1.000000000000000E+20
  9
$EXTMAX
 10
-1.000000000000000E+20
 20
-1.000000000000000E+20
 30
-1.000000000000000E+20
  9
$LIMMIN
 10
0.0
 20
0.0
  9
$LIMMAX
 10
12.0
 20
9.0
  9
$ORTHOMODE
 70
     0
  9
$REGENMODE
 70
     1
  9
$FILLMODE
 70
     1
  9
$QTEXTMODE
 70
     0
  9
$MIRRTEXT
 70
     1
  9
$LTSCALE
 40
1.0
  9
$ATTMODE
 70
     1
  9
$TEXTSIZE
 40
0.2
  9
$TRACEWID
 40
0.05
  9
$TEXTSTYLE
  7
Standard
  9
$CLAYER
  8
layer 2
  9
$CELTYPE
  6
ByLayer
  9
$CECOLOR
 62
    18
  9
$CELTSCALE
 40
1.0
  9
$DISPSILH
 70
     0
  9
$DIMSCALE
 40
1.0
  9
$DIMASZ
 40
2.5
  9
$DIMEXO
 40
0.625
  9
$DIMDLI
 40
0.38
  9
$DIMRND
 40
0.0
  9
$DIMDLE
 40
0.0
  9
$DIMEXE
 40
1.25
  9
$DIMTP
 40
0.0
  9
$DIMTM
 40
0.0
  9
$DIMTXT
 40
2.5
  9
$DIMCEN
 40
0.09
  9
$DIMTSZ
 40
0.0
  9
$DIMTOL
 70
     0
  9
$DIMLIM
 70
     0
  9
$DIMTIH
 70
     1
  9
$DIMTOH
 70
     1
  9
$DIMSE1
 70
     0
  9
$DIMSE2
 70
     0
  9
$DIMTAD
 70
     0
  9
$DIMZIN
 70
     8
  9
$DIMBLK
  1

  9
$DIMASO
 70
     1
  9
$DIMSHO
 70
     1
  9
$DIMPOST
  1

  9
$DIMAPOST
  1

  9
$DIMALT
 70
     0
  9
$DIMALTD
 70
     2
  9
$DIMALTF
 40
25.4
  9
$DIMLFAC
 40
1.0
  9
$DIMTOFL
 70
     0
  9
$DIMTVP
 40
0.0
  9
$DIMTIX
 70
     0
  9
$DIMSOXD
 70
     0
  9
$DIMSAH
 70
     0
  9
$DIMBLK1
  1

  9
$DIMBLK2
  1

  9
$DIMSTYLE
  2
Standard
  9
$DIMCLRD
 70
    18
  9
$DIMCLRE
 70
    18
  9
$DIMCLRT
 70
    18
  9
$DIMTFAC
 40
1.0
  9
$DIMGAP
 40
0.625
  9
$DIMJUST
 70
     0
  9
$DIMSD1
 70
     0
  9
$DIMSD2
 70
     0
  9
$DIMTOLJ
 70
     1
  9
$DIMTZIN
 70
     0
  9
$DIMALTZ
 70
     0
  9
$DIMALTTZ
 70
     0
  9
$DIMUPT
 70
     0
  9
$DIMDEC
 70
     4
  9
$DIMTDEC
 70
     4
  9
$DIMALTU
 70
     2
  9
$DIMALTTD
 70
     2
  9
$DIMTXSTY
  7
Standard
  9
$DIMAUNIT
 70
     0
  9
$DIMADEC
 70
     0
  9
$DIMALTRND
 40
0.0
  9
$DIMAZIN
 70
     2
  9
$DIMDSEP
 70
    46
  9
$DIMATFIT
 70
     3
  9
$DIMFRAC
 70
     0
  9
$DIMLDRBLK
  1

  9
$DIMLUNIT
 70
     2
  9
$DIMLWD
 70
    -2
  9
$DIMLWE
 70
    -2
  9
$DIMTMOVE
 70
     0
  9
$DIMFXL
 40
1.0
  9
$DIMFXLON
 70
     0
  9
$DIMJOGANG
 40
0.7853981633974483
  9
$DIMTFILL
 70
     0
  9
$DIMTFILLCLR
 70
     0
  9
$DIMARCSYM
 70
     0
  9
$DIMLTYPE
  6

  9
$DIMLTEX1
  6

  9
$DIMLTEX2
  6

  9
$DIMTXTDIRECTION
 70
     0
  9
$LUNITS
 70
     2
  9
$LUPREC
 70
     4
  9
$SKETCHINC
 40
0.1
  9
$FILLETRAD
 40
0.5
  9
$AUNITS
 70
     0
  9
$AUPREC
 70
     0
  9
$MENU
  1
.
  9
$ELEVATION
 40
0.0
  9
$PELEVATION
 40
0.0
  9
$THICKNESS
 40
0.0
  9
$LIMCHECK
 70
     0
  9
$CHAMFERA
 40
0.0
  9
$CHAMFERB
 40
0.0
  9
$CHAMFERC
 40
0.0
  9
$CHAMFERD
 40
0.0
  9
$SKPOLY
 70
     0
  9
$TDCREATE
 40
2459411.554207326
  9
$TDUCREATE
 40
2459411.470873993
  9
$TDUPDATE
 40
2459411.55420794
  9
$TDUUPDATE
 40
2459411.470874607
  9
$TDINDWG
 40
0.0000000116
  9
$TDUSRTIMER
 40
0.0000000116
  9
$USRTIMER
 70
     1
  9
$ANGBASE
 50
0.0
  9
$ANGDIR
 70
     0
  9
$PDMODE
 70
     0
  9
$PDSIZE
 40
0.0
  9
$PLINEWID
 40
0.0
  9
$SPLFRAME
 70
     0
  9
$SPLINETYPE
 70
     6
  9
$SPLINESEGS
 70
     8
  9
$HANDSEED
  5
15D8
  9
$SURFTAB1
 70
     6
  9
$SURFTAB2
 70
     6
  9
$SURFTYPE
 70
     6
  9
$SURFU
 70
     6
  9
$SURFV
 70
     6
  9
$UCSBASE
  2

  9
$UCSNAME
  2

  9
$UCSORG
 10
0.0
 20
0.0
 30
0.0
  9
$UCSXDIR
 10
1.0
 20
0.0
 30
0.0
  9
$UCSYDIR
 10
0.0
 20
1.0
 30
0.0
  9
$UCSORTHOREF
  2

  9
$UCSORTHOVIEW
 70
     0
  9
$UCSORGTOP
 10
0.0
 20
0.0
 30
0.0
  9
$UCSORGBOTTOM
 10
0.0
 20
0.0
 30
0.0
  9
$UCSORGLEFT
 10
0.0
 20
0.0
 30
0.0
  9
$UCSORGRIGHT
 10
0.0
 20
0.0
 30
0.0
  9
$UCSORGFRONT
 10
0.0
 20
0.0
 30
0.0
  9
$UCSORGBACK
 10
0.0
 20
0.0
 30
0.0
  9
$PUCSBASE
  2

  9
$PUCSNAME
  2

  9
$PUCSORG
 10
0.0
 20
0.0
 30
0.0
  9
$PUCSXDIR
 10
1.0
 20
0.0
 30
0.0
  9
$PUCSYDIR
 10
0.0
 20
1.0
 30
0.0
  9
$PUCSORTHOREF
  2

  9
$PUCSORTHOVIEW
 70
     0
  9
$PUCSORGTOP
 10
0.0
 20
0.0
 30
0.0
  9
$PUCSORGBOTTOM
 10
0.0
 20
0.0
 30
0.0
  9
$PUCSORGLEFT
 10
0.0
 20
0.0
 30
0.0
  9
$PUCSORGRIGHT
 10
0.0
 20
0.0
 30
0.0
  9
$PUCSORGFRONT
 10
0.0
 20
0.0
 30
0.0
  9
$PUCSORGBACK
 10
0.0
 20
0.0
 30
0.0
  9
$USERI1
 70
     0
  9
$USERI2
 70
     0
  9
$USERI3
 70
     0
  9
$USERI4
 70
     0
  9
$USERI5
 70
     0
  9
$USERR1
 40
0.0
  9
$USERR2
 40
0.0
  9
$USERR3
 40
0.0
  9
$USERR4
 40
0.0
  9
$USERR5
 40
0.0
  9
$WORLDVIEW
 70
     1
  9
$SHADEDGE
 70
     3
  9
$SHADEDIF
 70
    70
  9
$TILEMODE
 70
     1
  9
$MAXACTVP
 70
    64
  9
$PINSBASE
 10
0.0
 20
0.0
 30
0.0
  9
$PLIMCHECK
 70
     0
  9
$PEXTMIN
 10
0.0
 20
0.0
 30
0.0
  9
$PEXTMAX
 10
0.0
 20
0.0
 30
0.0
  9
$PLIMMIN
 10
-20.0
 20
-7.5
  9
$PLIMMAX
 10
277.0
 20
202.5
  9
$UNITMODE
 70
     0
  9
$VISRETAIN
 70
     1
  9
$PLINEGEN
 70
     0
  9
$PSLTSCALE
 70
     1
  9
$TREEDEPTH
 70
  3020
  9
$CMLSTYLE
  2
Standard
  9
$CMLJUST
 70
     0
  9
$CMLSCALE
 40
1.0
  9
$PROXYGRAPHICS
 70
     1
  9
$MEASUREMENT
 70
     1
  9
$CELWEIGHT
370
    -1
  9
$ENDCAPS
280
     0
  9
$JOINSTYLE
280
     0
  9
$LWDISPLAY
290
     0
  9
$INSUNITS
 70
     4
  9
$HYPERLINKBASE
  1

  9
$STYLESHEET
  1

  9
$XEDIT
290
     1
  9
$CEPSNTYPE
380
     0
  9
$PSTYLEMODE
290
     1
  9
$FINGERPRINTGUID
  2
{d5a56a94-f0b6-47c8-b108-2f46fdf629a0}
  9
$VERSIONGUID
  2
{FAEB1C32-E019-11D5-929B-00C0DF256EC4}
  9
$EXTNAMES
290
     1
  9
$PSVPSCALE
 40
0.0
  9
$OLESTARTUP
290
     0
  9
$SORTENTS
280
   127
  9
$INDEXCTL
280
     0
  9
$HIDETEXT
280
     1
  9
$XCLIPFRAME
280
     2
  9
$HALOGAP
280
     0
  9
$OBSCOLOR
 70
   257
  9
$OBSLTYPE
280
     0
  9
$INTERSECTIONDISPLAY
280
     0
  9
$INTERSECTIONCOLOR
 70
   257
  9
$DIMASSOC
280
     2
  9
$PROJECTNAME
  1

  9
$CAMERADISPLAY
290
     0
  9
$LENSLENGTH
 40
50.0
  9
$CAMERAHEIGHT
 40
0.0
  9
$STEPSPERSEC
 40
2.0
  9
$STEPSIZE
 40
6.0
  9
$3DDWFPREC
 40
2.0
  9
$PSOLWIDTH
 40
0.25
  9
$PSOLHEIGHT
 40
4.0
  9
$LOFTANG1
 40
1.570796326794897
  9
$LOFTANG2
 40
1.570796326794897
  9
$LOFTMAG1
 40
0.0
  9
$LOFTMAG2
 40
0.0
  9
$LOFTPARAM
 70
     7
  9
$LOFTNORMALS
280
     1
  9
$LATITUDE
 40
37.795
  9
$LONGITUDE
 40
-122.394
  9
$NORTHDIRECTION
 40
0.0
  9
$TIMEZONE
 70
 -8000
  9
$LIGHTGLYPHDISPLAY
280
     1
  9
$TILEMODELIGHTSYNCH
280
     1
  9
$CMATERIAL
347
152F
  9
$SOLIDHIST
280
     0
  9
$SHOWHIST
280
     1
  9
$DWFFRAME
280
     2
  9
$DGNFRAME
280
     2
  9
$REALWORLDSCALE
290
     1
  9
$INTERFERECOLOR
 62
   256
  9
$CSHADOW
280
     0
  9
$SHADOWPLANELOCATION
 40
0.0
  0
ENDSEC
  0
SECTION
  2
CLASSES
  0
CLASS
  1
ACDBDICTIONARYWDFLT
  2
AcDbDictionaryWithDefault
  3
ObjectDBX Classes
 90
        0
 91
        3
280
     0
281
     0
  0
CLASS
  1
VISUALSTYLE
  2
AcDbVisualStyle
  3
ObjectDBX Classes
 90
     4095
 91
        3
280
     0
281
     0
  0
CLASS
  1
MATERIAL
  2
AcDbMaterial
  3
ObjectDBX Classes
 90
     1153
 91
        3
280
     0
281
     0
  0
CLASS
  1
SCALE
  2
AcDbScale
  3
ObjectDBX Classes
 90
     1153
 91
        3
280
     0
281
     0
  0
CLASS
  1
TABLESTYLE
  2
AcDbTableStyle
  3
ObjectDBX Classes
 90
     4095
 91
        3
280
     0
281
     0
  0
CLASS
  1
MLEADERSTYLE
  2
AcDbMLeaderStyle
  3
ACDB_MLEADERSTYLE_CLASS
 90
     4095
 91
        3
280
     0
281
     0
  0
CLASS
  1
SUN
  2
AcDbSun
  3
SCENEOE
 90
     1153
 91
        3
280
     0
281
     0
  0
CLASS
  1
DICTIONARYVAR
  2
AcDbDictionaryVar
  3
ObjectDBX Classes
 90
        0
 91
        3
280
     0
281
     0
  0
CLASS
  1
CELLSTYLEMAP
  2
AcDbCellStyleMap
  3
ObjectDBX Classes
 90
     1152
 91
        3
280
     0
281
     0
  0
ENDSEC
  0
SECTION
  2
TABLES
  0
TABLE
  2
VPORT
  5
14F4
330
0
100
AcDbSymbolTable
 70
     1
  0
VPORT
  5
1514
330
14F4
100
AcDbSymbolTableRecord
100
AcDbViewportTableRecord
  2
*Active
 70
     0
 10
0.0
 20
0.0
 11
1.0
 21
1.0
 12
938.0298780629814
 22
547.1115198105861
 13
0.0
 23
0.0
 14
0.5
 24
0.5
 15
0.5
 25
0.5
 16
0.0
 26
0.0
 36
1.0
 17
0.0
 27
0.0
 37
0.0
 40
73.58009950937503
 41
1.181058495821727
 42
50.0
 43
0.0
 44
0.0
 50
0.0
 51
0.0
 71
     0
 72
   100
 73
     1
 74
     3
 75
     0
 76
     0
 77
     0
 78
     0
281
     0
 65
     1
110
0.0
120
0.0
130
0.0
111
1.0
121
0.0
131
0.0
112
0.0
122
1.0
132
0.0
 79
     0
146
0.0
348
151A
 60
     3
 61
     5
292
     1
282
     1
141
0.0
142
0.0
 63
   250
361
1558
  0
ENDTAB
  0
TABLE
  2
LTYPE
  5
14F1
330
0
100
AcDbSymbolTable
 70
    48
  0
LTYPE
  5
14FF
330
14F1
100
AcDbSymbolTableRecord
100
AcDbLinetypeTableRecord
  2
ByBlock
 70
     0
  3

 72
    65
 73
     0
 40
0.0
  0
LTYPE
  5
1500
330
14F1
100
AcDbSymbolTableRecord
100
AcDbLinetypeTableRecord
  2
ByLayer
 70
     0
  3

 72
    65
 73
     0
 40
0.0
  0
LTYPE
  5
1501
330
14F1
100
AcDbSymbolTableRecord
100
AcDbLinetypeTableRecord
  2
Continuous
 70
     0
  3
Solid line
 72
    65
 73
     0
 40
0.0
  0
LTYPE
  5
1590
330
14F1
100
AcDbSymbolTableRecord
100
AcDbLinetypeTableRecord
  2
GAS_LINE
 70
     0
  3
Gas line ----GAS----GAS----GAS----GAS----GAS----GAS--
 72
    65
 73
     3
 40
24.13
 49
12.7
 74
     0
 49
-5.08
 74
     2
 75
     0
340
158F
 46
2.54
 50
0.0
 44
-2.54
 45
-1.27
  9
GAS
 49
-6.35
 74
     0
  0
LTYPE
  5
1592
330
14F1
100
AcDbSymbolTableRecord
100
AcDbLinetypeTableRecord
  2
DRAINAGE2
 70
     0
  3
Drainage reversed----<----<----<----
 72
    65
 73
     2
 40
10.16
 49
5.08
 74
     2
 75
     0
340
1591
 46
2.54
 50
0.0
 44
0.0
 45
0.0
  9
RIGHT_ARROW
 49
5.08
 74
     0
  0
LTYPE
  5
1594
330
14F1
100
AcDbSymbolTableRecord
100
AcDbLinetypeTableRecord
  2
FENCELINE1
 70
     0
  3
Fenceline circle ----0-----0----0-----0----0-----0--
 72
    65
 73
     4
 40
36.83
 49
6.35
 74
     0
 49
-2.54
 74
     2
 75
     0
340
1593
 46
2.54
 50
0.0
 44
-2.54
 45
0.0
  9
CIRC1
 49
-2.54
 74
     0
 49
25.4
 74
     0
  0
LTYPE
  5
1595
330
14F1
100
AcDbSymbolTableRecord
100
AcDbLinetypeTableRecord
  2
DOTX2
 70
     0
  3
Dot (2x) .  .  .  .  .  .  .  .  .  .  .  .  .  .
 72
    65
 73
     2
 40
12.7
 49
0.0
 74
     0
 49
-12.7
 74
     0
  0
LTYPE
  5
1597
330
14F1
100
AcDbSymbolTableRecord
100
AcDbLinetypeTableRecord
  2
DRAINAGE
 70
     0
  3
Drainage ---->---->---->----
 72
    65
 73
     2
 40
10.16
 49
5.08
 74
     2
 75
     0
340
1596
 46
2.54
 50
180.0
 44
0.0
 45
0.0
  9
RIGHT_ARROW
 49
5.08
 74
     0
  0
LTYPE
  5
1598
330
14F1
100
AcDbSymbolTableRecord
100
AcDbLinetypeTableRecord
  2
DOT
 70
     0
  3
Dot . . . . . . . . . . . . . . . . . . . . . . . .
 72
    65
 73
     2
 40
6.35
 49
0.0
 74
     0
 49
-6.35
 74
     0
  0
LTYPE
  5
1599
330
14F1
100
AcDbSymbolTableRecord
100
AcDbLinetypeTableRecord
  2
DOT2
 70
     0
  3
Dot (.5x) ........................................
 72
    65
 73
     2
 40
3.175
 49
0.0
 74
     0
 49
-3.175
 74
     0
  0
LTYPE
  5
159A
330
14F1
100
AcDbSymbolTableRecord
100
AcDbLinetypeTableRecord
  2
DIVIDE2
 70
     0
  3
Divide (.5x) __..__..__..__..__..__..__..__.._
 72
    65
 73
     6
 40
15.875
 49
6.35
 74
     0
 49
-3.175
 74
     0
 49
0.0
 74
     0
 49
-3.175
 74
     0
 49
0.0
 74
     0
 49
-3.175
 74
     0
  0
LTYPE
  5
159B
330
14F1
100
AcDbSymbolTableRecord
100
AcDbLinetypeTableRecord
  2
DIVIDEX2
 70
     0
  3
Divide (2x) ________  .  .  ________  .  .  _
 72
    65
 73
     6
 40
63.5
 49
25.4
 74
     0
 49
-12.7
 74
     0
 49
0.0
 74
     0
 49
-12.7
 74
     0
 49
0.0
 74
     0
 49
-12.7
 74
     0
  0
LTYPE
  5
159C
330
14F1
100
AcDbSymbolTableRecord
100
AcDbLinetypeTableRecord
  2
DASHEDX2
 70
     0
  3
Dashed (2x) ____  ____  ____  ____  ____  ___
 72
    65
 73
     2
 40
38.09999999999999
 49
25.4
 74
     0
 49
-12.7
 74
     0
  0
LTYPE
  5
159D
330
14F1
100
AcDbSymbolTableRecord
100
AcDbLinetypeTableRecord
  2
DIVIDE
 70
     0
  3
Divide ____ . . ____ . . ____ . . ____ . . ____
 72
    65
 73
     6
 40
31.75
 49
12.7
 74
     0
 49
-6.35
 74
     0
 49
0.0
 74
     0
 49
-6.35
 74
     0
 49
0.0
 74
     0
 49
-6.35
 74
     0
  0
LTYPE
  5
159E
330
14F1
100
AcDbSymbolTableRecord
100
AcDbLinetypeTableRecord
  2
DASHED
 70
     0
  3
Dashed __ __ __ __ __ __ __ __ __ __ __ __ __ _
 72
    65
 73
     2
 40
19.05
 49
12.7
 74
     0
 49
-6.35
 74
     0
  0
LTYPE
  5
159F
330
14F1
100
AcDbSymbolTableRecord
100
AcDbLinetypeTableRecord
  2
DASHED2
 70
     0
  3
Dashed (.5x) _ _ _ _ _ _ _ _ _ _ _ _ _ _ _ _ _ 
 72
    65
 73
     2
 40
9.524999999999999
 49
6.35
 74
     0
 49
-3.175
 74
     0
  0
LTYPE
  5
15A2
330
14F1
100
AcDbSymbolTableRecord
100
AcDbLinetypeTableRecord
  2
ZIGZAG
 70
     0
  3
Zig zag /\/\/\/\/\/\/\/\/\/\/\/\/\/\/\/\/\/\/\/\/\/\/\/
 72
    65
 73
     4
 40
20.32254
 49
0.00254
 74
     0
 49
-5.08
 74
     2
 75
     0
340
15A0
 46
5.08
 50
0.0
 44
-5.08
 45
0.0
  9
ZIG
 49
-10.16
 74
     2
 75
     0
340
15A1
 46
5.08
 50
180.0
 44
5.08
 45
0.0
  9
ZIG
 49
-5.08
 74
     0
  0
LTYPE
  5
15A3
330
14F1
100
AcDbSymbolTableRecord
100
AcDbLinetypeTableRecord
  2
PHANTOMX2
 70
     0
  3
Phantom (2x) ____________    ____    ____   _
 72
    65
 73
     6
 40
127.0
 49
63.5
 74
     0
 49
-12.7
 74
     0
 49
12.7
 74
     0
 49
-12.7
 74
     0
 49
12.7
 74
     0
 49
-12.7
 74
     0
  0
LTYPE
  5
15A5
330
14F1
100
AcDbSymbolTableRecord
100
AcDbLinetypeTableRecord
  2
TRACKS
 70
     0
  3
Tracks -|-|-|-|-|-|-|-|-|-|-|-|-|-|-|-|-|-|-|-|-|-|-|-|-
 72
    65
 73
     2
 40
7.62
 49
3.81
 74
     2
 75
     0
340
15A4
 46
6.35
 50
0.0
 44
0.0
 45
0.0
  9
TRACK1
 49
3.81
 74
     0
  0
LTYPE
  5
15A6
330
14F1
100
AcDbSymbolTableRecord
100
AcDbLinetypeTableRecord
  2
PHANTOM
 70
     0
  3
Phantom ______  __  __  ______  __  __  ______ 
 72
    65
 73
     6
 40
63.50000000000001
 49
31.75
 74
     0
 49
-6.35
 74
     0
 49
6.35
 74
     0
 49
-6.35
 74
     0
 49
6.35
 74
     0
 49
-6.35
 74
     0
  0
LTYPE
  5
15A7
330
14F1
100
AcDbSymbolTableRecord
100
AcDbLinetypeTableRecord
  2
PHANTOM2
 70
     0
  3
Phantom (.5x) ___ _ _ ___ _ _ ___ _ _ ___ _ _
 72
    65
 73
     6
 40
31.75
 49
15.875
 74
     0
 49
-3.175
 74
     0
 49
3.175
 74
     0
 49
-3.175
 74
     0
 49
3.175
 74
     0
 49
-3.175
 74
     0
  0
LTYPE
  5
15A8
330
14F1
100
AcDbSymbolTableRecord
100
AcDbLinetypeTableRecord
  2
HIDDENX2
 70
     0
  3
Hidden (2x) ____ ____ ____ ____ ____ ____ ____ 
 72
    65
 73
     2
 40
19.05
 49
12.7
 74
     0
 49
-6.35
 74
     0
  0
LTYPE
  5
15AA
330
14F1
100
AcDbSymbolTableRecord
100
AcDbLinetypeTableRecord
  2
HOT_WATER_SUPPLY
 70
     0
  3
Hot water supply ---- HW ---- HW ---- HW ----
 72
    65
 73
     3
 40
22.86
 49
12.7
 74
     0
 49
-5.08
 74
     2
 75
     0
340
15A9
 46
2.54
 50
0.0
 44
-2.54
 45
-1.27
  9
HW
 49
-5.08
 74
     0
  0
LTYPE
  5
15AB
330
14F1
100
AcDbSymbolTableRecord
100
AcDbLinetypeTableRecord
  2
ACAD_ISO08W100
 70
     0
  3
ISO long-dash short-dash ____ __ ____ __ ____ _
 72
    65
 73
     4
 40
36.0
 49
24.0
 74
     0
 49
-3.0
 74
     0
 49
6.0
 74
     0
 49
-3.0
 74
     0
  0
LTYPE
  5
15AC
330
14F1
100
AcDbSymbolTableRecord
100
AcDbLinetypeTableRecord
  2
ACAD_ISO09W100
 70
     0
  3
ISO long-dash double-short-dash ____ __ __ ____
 72
    65
 73
     6
 40
45.0
 49
24.0
 74
     0
 49
-3.0
 74
     0
 49
6.0
 74
     0
 49
-3.0
 74
     0
 49
6.0
 74
     0
 49
-3.0
 74
     0
  0
LTYPE
  5
15AD
330
14F1
100
AcDbSymbolTableRecord
100
AcDbLinetypeTableRecord
  2
ACAD_ISO06W100
 70
     0
  3
ISO long-dash triple-dot ____ ... ____ ... ____
 72
    65
 73
     8
 40
36.0
 49
24.0
 74
     0
 49
-3.0
 74
     0
 49
0.0
 74
     0
 49
-3.0
 74
     0
 49
0.0
 74
     0
 49
-3.0
 74
     0
 49
0.0
 74
     0
 49
-3.0
 74
     0
  0
LTYPE
  5
15AE
330
14F1
100
AcDbSymbolTableRecord
100
AcDbLinetypeTableRecord
  2
ACAD_ISO07W100
 70
     0
  3
ISO dot . . . . . . . . . . . . . . . . . . . . 
 72
    65
 73
     2
 40
3.0
 49
0.0
 74
     0
 49
-3.0
 74
     0
  0
LTYPE
  5
15AF
330
14F1
100
AcDbSymbolTableRecord
100
AcDbLinetypeTableRecord
  2
ACAD_ISO04W100
 70
     0
  3
ISO long-dash dot ____ . ____ . ____ . ____ . _
 72
    65
 73
     4
 40
30.0
 49
24.0
 74
     0
 49
-3.0
 74
     0
 49
0.0
 74
     0
 49
-3.0
 74
     0
  0
LTYPE
  5
15B0
330
14F1
100
AcDbSymbolTableRecord
100
AcDbLinetypeTableRecord
  2
ACAD_ISO05W100
 70
     0
  3
ISO long-dash double-dot ____ .. ____ .. ____ . 
 72
    65
 73
     6
 40
33.0
 49
24.0
 74
     0
 49
-3.0
 74
     0
 49
0.0
 74
     0
 49
-3.0
 74
     0
 49
0.0
 74
     0
 49
-3.0
 74
     0
  0
LTYPE
  5
15B1
330
14F1
100
AcDbSymbolTableRecord
100
AcDbLinetypeTableRecord
  2
ACAD_ISO02W100
 70
     0
  3
ISO dash __ __ __ __ __ __ __ __ __ __ __ __ __
 72
    65
 73
     2
 40
15.0
 49
12.0
 74
     0
 49
-3.0
 74
     0
  0
LTYPE
  5
15B2
330
14F1
100
AcDbSymbolTableRecord
100
AcDbLinetypeTableRecord
  2
ACAD_ISO03W100
 70
     0
  3
ISO dash space __    __    __    __    __    __
 72
    65
 73
     2
 40
30.0
 49
12.0
 74
     0
 49
-18.0
 74
     0
  0
LTYPE
  5
15B3
330
14F1
100
AcDbSymbolTableRecord
100
AcDbLinetypeTableRecord
  2
DASHDOT2
 70
     0
  3
Dash dot (.5x) _._._._._._._._._._._._._._._.
 72
    65
 73
     4
 40
12.7
 49
6.35
 74
     0
 49
-3.175
 74
     0
 49
0.0
 74
     0
 49
-3.175
 74
     0
  0
LTYPE
  5
15B4
330
14F1
100
AcDbSymbolTableRecord
100
AcDbLinetypeTableRecord
  2
DASHDOTX2
 70
     0
  3
Dash dot (2x) ____  .  ____  .  ____  .  ___
 72
    65
 73
     4
 40
50.8
 49
25.4
 74
     0
 49
-12.7
 74
     0
 49
0.0
 74
     0
 49
-12.7
 74
     0
  0
LTYPE
  5
15B5
330
14F1
100
AcDbSymbolTableRecord
100
AcDbLinetypeTableRecord
  2
CENTERX2
 70
     0
  3
Center (2x) ________  __  ________  __  _____
 72
    65
 73
     4
 40
101.6
 49
63.5
 74
     0
 49
-12.7
 74
     0
 49
12.7
 74
     0
 49
-12.7
 74
     0
  0
LTYPE
  5
15B6
330
14F1
100
AcDbSymbolTableRecord
100
AcDbLinetypeTableRecord
  2
DASHDOT
 70
     0
  3
Dash dot __ . __ . __ . __ . __ . __ . __ . __
 72
    65
 73
     4
 40
25.4
 49
12.7
 74
     0
 49
-6.35
 74
     0
 49
0.0
 74
     0
 49
-6.35
 74
     0
  0
LTYPE
  5
15B7
330
14F1
100
AcDbSymbolTableRecord
100
AcDbLinetypeTableRecord
  2
CENTER
 70
     0
  3
Center ____ _ ____ _ ____ _ ____ _ ____ _ ____
 72
    65
 73
     4
 40
50.8
 49
31.75
 74
     0
 49
-6.35
 74
     0
 49
6.35
 74
     0
 49
-6.35
 74
     0
  0
LTYPE
  5
15B8
330
14F1
100
AcDbSymbolTableRecord
100
AcDbLinetypeTableRecord
  2
CENTER2
 70
     0
  3
Center (.5x) ___ _ ___ _ ___ _ ___ _ ___ _ ___
 72
    65
 73
     4
 40
28.575
 49
19.05
 74
     0
 49
-3.175
 74
     0
 49
3.175
 74
     0
 49
-3.175
 74
     0
  0
LTYPE
  5
15B9
330
14F1
100
AcDbSymbolTableRecord
100
AcDbLinetypeTableRecord
  2
BORDER2
 70
     0
  3
Border (.5x) __.__.__.__.__.__.__.__.__.__.__.
 72
    65
 73
     6
 40
22.225
 49
6.35
 74
     0
 49
-3.175
 74
     0
 49
6.35
 74
     0
 49
-3.175
 74
     0
 49
0.0
 74
     0
 49
-3.175
 74
     0
  0
LTYPE
  5
15BA
330
14F1
100
AcDbSymbolTableRecord
100
AcDbLinetypeTableRecord
  2
BORDERX2
 70
     0
  3
Border (2x) ____  ____  .  ____  ____  .  ___
 72
    65
 73
     6
 40
88.89999999999999
 49
25.4
 74
     0
 49
-12.7
 74
     0
 49
25.4
 74
     0
 49
-12.7
 74
     0
 49
0.0
 74
     0
 49
-12.7
 74
     0
  0
LTYPE
  5
15BD
330
14F1
100
AcDbSymbolTableRecord
100
AcDbLinetypeTableRecord
  2
BATTING
 70
     0
  3
Batting SSSSSSSSSSSSSSSSSSSSSSSSSSSSSSSSSSSSSSSSSSSSSSS
 72
    65
 73
     4
 40
10.16254
 49
0.00254
 74
     0
 49
-2.54
 74
     2
 75
     0
340
15BB
 46
2.54
 50
0.0
 44
-2.54
 45
0.0
  9
BAT
 49
-5.08
 74
     2
 75
     0
340
15BC
 46
2.54
 50
180.0
 44
2.54
 45
0.0
  9
BAT
 49
-2.54
 74
     0
  0
LTYPE
  5
15BE
330
14F1
100
AcDbSymbolTableRecord
100
AcDbLinetypeTableRecord
  2
BORDER
 70
     0
  3
Border __ __ . __ __ . __ __ . __ __ . __ __ .
 72
    65
 73
     6
 40
44.45
 49
12.7
 74
     0
 49
-6.35
 74
     0
 49
12.7
 74
     0
 49
-6.35
 74
     0
 49
0.0
 74
     0
 49
-6.35
 74
     0
  0
LTYPE
  5
15BF
330
14F1
100
AcDbSymbolTableRecord
100
AcDbLinetypeTableRecord
  2
ACAD_ISO14W100
 70
     0
  3
ISO dash triple-dot __ . . . __ . . . __ . . . _
 72
    65
 73
     8
 40
24.0
 49
12.0
 74
     0
 49
-3.0
 74
     0
 49
0.0
 74
     0
 49
-3.0
 74
     0
 49
0.0
 74
     0
 49
-3.0
 74
     0
 49
0.0
 74
     0
 49
-3.0
 74
     0
  0
LTYPE
  5
15C0
330
14F1
100
AcDbSymbolTableRecord
100
AcDbLinetypeTableRecord
  2
ACAD_ISO15W100
 70
     0
  3
ISO double-dash triple-dot __ __ . . . __ __ . .
 72
    65
 73
    10
 40
39.0
 49
12.0
 74
     0
 49
-3.0
 74
     0
 49
12.0
 74
     0
 49
-3.0
 74
     0
 49
0.0
 74
     0
 49
-3.0
 74
     0
 49
0.0
 74
     0
 49
-3.0
 74
     0
 49
0.0
 74
     0
 49
-3.0
 74
     0
  0
LTYPE
  5
15C1
330
14F1
100
AcDbSymbolTableRecord
100
AcDbLinetypeTableRecord
  2
ACAD_ISO12W100
 70
     0
  3
ISO dash double-dot __ . . __ . . __ . . __ . . 
 72
    65
 73
     6
 40
21.0
 49
12.0
 74
     0
 49
-3.0
 74
     0
 49
0.0
 74
     0
 49
-3.0
 74
     0
 49
0.0
 74
     0
 49
-3.0
 74
     0
  0
LTYPE
  5
15C2
330
14F1
100
AcDbSymbolTableRecord
100
AcDbLinetypeTableRecord
  2
ACAD_ISO13W100
 70
     0
  3
ISO double-dash double-dot __ __ . . __ __ . . _
 72
    65
 73
     8
 40
36.0
 49
12.0
 74
     0
 49
-3.0
 74
     0
 49
12.0
 74
     0
 49
-3.0
 74
     0
 49
0.0
 74
     0
 49
-3.0
 74
     0
 49
0.0
 74
     0
 49
-3.0
 74
     0
  0
LTYPE
  5
15C3
330
14F1
100
AcDbSymbolTableRecord
100
AcDbLinetypeTableRecord
  2
ACAD_ISO10W100
 70
     0
  3
ISO dash dot __ . __ . __ . __ . __ . __ . __ . 
 72
    65
 73
     4
 40
18.0
 49
12.0
 74
     0
 49
-3.0
 74
     0
 49
0.0
 74
     0
 49
-3.0
 74
     0
  0
LTYPE
  5
15C4
330
14F1
100
AcDbSymbolTableRecord
100
AcDbLinetypeTableRecord
  2
ACAD_ISO11W100
 70
     0
  3
ISO double-dash dot __ __ . __ __ . __ __ . __ _
 72
    65
 73
     6
 40
33.0
 49
12.0
 74
     0
 49
-3.0
 74
     0
 49
12.0
 74
     0
 49
-3.0
 74
     0
 49
0.0
 74
     0
 49
-3.0
 74
     0
  0
LTYPE
  5
15C5
330
14F1
100
AcDbSymbolTableRecord
100
AcDbLinetypeTableRecord
  2
HIDDEN
 70
     0
  3
Hidden __ __ __ __ __ __ __ __ __ __ __ __ __ __
 72
    65
 73
     2
 40
9.524999999999999
 49
6.35
 74
     0
 49
-3.175
 74
     0
  0
LTYPE
  5
15C6
330
14F1
100
AcDbSymbolTableRecord
100
AcDbLinetypeTableRecord
  2
HIDDEN2
 70
     0
  3
Hidden (.5x) _ _ _ _ _ _ _ _ _ _ _ _ _ _ _ _ _ 
 72
    65
 73
     2
 40
4.762499999999999
 49
3.175
 74
     0
 49
-1.5875
 74
     0
  0
LTYPE
  5
15C8
330
14F1
100
AcDbSymbolTableRecord
100
AcDbLinetypeTableRecord
  2
FENCELINE2
 70
     0
  3
Fenceline square ----[]-----[]----[]-----[]----[]---
 72
    65
 73
     4
 40
36.83
 49
6.35
 74
     0
 49
-2.54
 74
     2
 75
     0
340
15C7
 46
2.54
 50
0.0
 44
-2.54
 45
0.0
  9
BOX
 49
-2.54
 74
     0
 49
25.4
 74
     0
  0
ENDTAB
  0
TABLE
  2
LAYER
  5
14EF
330
0
100
AcDbSymbolTable
 70
     5
  0
LAYER
  5
14FC
330
14EF
100
AcDbSymbolTableRecord
100
AcDbLayerTableRecord
  2
0
 70
     0
 62
    18
420
        0
  6
Continuous
370
    25
390
14FB
347
1531
348
0
  0
LAYER
  5
15C9
330
14EF
100
AcDbSymbolTableRecord
100
AcDbLayerTableRecord
  2
layer 4
 70
     0
 62
     6
420
 16711935
  6
Continuous
370
    25
390
14FB
347
1531
348
0
  0
LAYER
  5
15CA
330
14EF
100
AcDbSymbolTableRecord
100
AcDbLayerTableRecord
  2
layer 1
 70
     0
 62
     5
420
      255
  6
Continuous
370
    25
390
14FB
347
1531
348
0
  0
LAYER
  5
15CB
330
14EF
100
AcDbSymbolTableRecord
100
AcDbLayerTableRecord
  2
layer 3
 70
     0
 62
     3
420
    65280
  6
Continuous
370
    25
390
14FB
347
1531
348
0
  0
LAYER
  5
15CC
330
14EF
100
AcDbSymbolTableRecord
100
AcDbLayerTableRecord
  2
layer 2
 70
     0
 62
     1
420
 16711680
  6
Continuous
370
    25
390
14FB
347
1531
348
0
  0
ENDTAB
  0
TABLE
  2
STYLE
  5
14F0
330
0
100
AcDbSymbolTable
 70
    13
  0
STYLE
  5
14FD
330
14F0
100
AcDbSymbolTableRecord
100
AcDbTextStyleTableRecord
  2
Standard
 70
     0
 40
0.0
 41
1.0
 50
0.0
 71
     0
 42
0.2
  3
txt
  4

  0
STYLE
  5
158D
330
14F0
100
AcDbSymbolTableRecord
100
AcDbTextStyleTableRecord
  2
QCADDimTextStyle
 70
     0
 40
0.0
 41
1.0
 50
0.0
 71
     0
 42
0.2
  3
txt
  4

  0
STYLE
  5
158F
330
14F0
100
AcDbSymbolTableRecord
100
AcDbTextStyleTableRecord
  2
textstyle0
 70
     0
 40
0.0
 41
1.0
 50
0.0
 71
     0
 42
0.2
  3
STANDARD
  4

  0
STYLE
  5
1591
330
14F0
100
AcDbSymbolTableRecord
100
AcDbTextStyleTableRecord
  2
textstyle1
 70
     0
 40
0.0
 41
1.0
 50
0.0
 71
     0
 42
0.2
  3
qcadshp.shx
  4

  0
STYLE
  5
1593
330
14F0
100
AcDbSymbolTableRecord
100
AcDbTextStyleTableRecord
  2
textstyle2
 70
     0
 40
0.0
 41
1.0
 50
0.0
 71
     0
 42
0.2
  3
ltypeshp.shx
  4

  0
STYLE
  5
1596
330
14F0
100
AcDbSymbolTableRecord
100
AcDbTextStyleTableRecord
  2
textstyle3
 70
     0
 40
0.0
 41
1.0
 50
0.0
 71
     0
 42
0.2
  3
qcadshp.shx
  4

  0
STYLE
  5
15A0
330
14F0
100
AcDbSymbolTableRecord
100
AcDbTextStyleTableRecord
  2
textstyle4
 70
     0
 40
0.0
 41
1.0
 50
0.0
 71
     0
 42
0.2
  3
ltypeshp.shx
  4

  0
STYLE
  5
15A1
330
14F0
100
AcDbSymbolTableRecord
100
AcDbTextStyleTableRecord
  2
textstyle5
 70
     0
 40
0.0
 41
1.0
 50
0.0
 71
     0
 42
0.2
  3
ltypeshp.shx
  4

  0
STYLE
  5
15A4
330
14F0
100
AcDbSymbolTableRecord
100
AcDbTextStyleTableRecord
  2
textstyle6
 70
     0
 40
0.0
 41
1.0
 50
0.0
 71
     0
 42
0.2
  3
ltypeshp.shx
  4

  0
STYLE
  5
15A9
330
14F0
100
AcDbSymbolTableRecord
100
AcDbTextStyleTableRecord
  2
textstyle7
 70
     0
 40
0.0
 41
1.0
 50
0.0
 71
     0
 42
0.2
  3
STANDARD
  4

  0
STYLE
  5
15BB
330
14F0
100
AcDbSymbolTableRecord
100
AcDbTextStyleTableRecord
  2
textstyle8
 70
     0
 40
0.0
 41
1.0
 50
0.0
 71
     0
 42
0.2
  3
ltypeshp.shx
  4

  0
STYLE
  5
15BC
330
14F0
100
AcDbSymbolTableRecord
100
AcDbTextStyleTableRecord
  2
textstyle9
 70
     0
 40
0.0
 41
1.0
 50
0.0
 71
     0
 42
0.2
  3
ltypeshp.shx
  4

  0
STYLE
  5
15C7
330
14F0
100
AcDbSymbolTableRecord
100
AcDbTextStyleTableRecord
  2
textstyle10
 70
     0
 40
0.0
 41
1.0
 50
0.0
 71
     0
 42
0.2
  3
ltypeshp.shx
  4

  0
ENDTAB
  0
TABLE
  2
VIEW
  5
14F2
330
0
100
AcDbSymbolTable
 70
     0
  0
ENDTAB
  0
TABLE
  2
UCS
  5
14F3
330
0
100
AcDbSymbolTable
 70
     0
  0
ENDTAB
  0
TABLE
  2
APPID
  5
14F5
330
0
100
AcDbSymbolTable
 70
     2
  0
APPID
  5
14FE
330
14F5
100
AcDbSymbolTableRecord
100
AcDbRegAppTableRecord
  2
ACAD
 70
     0
  0
APPID
  5
1559
330
14F5
100
AcDbSymbolTableRecord
100
AcDbRegAppTableRecord
  2
QCAD
 70
     0
  0
ENDTAB
  0
TABLE
  2
DIMSTYLE
  5
14F6
330
0
100
AcDbSymbolTable
 70
     2
100
AcDbDimStyleTable
  0
DIMSTYLE
105
1512
330
14F6
100
AcDbSymbolTableRecord
100
AcDbDimStyleTableRecord
  2
Standard
 70
     0
178
     0
340
14FD
  0
DIMSTYLE
105
158E
330
14F6
100
AcDbSymbolTableRecord
100
AcDbDimStyleTableRecord
  2
QCADDimStyle
 70
     0
 41
2.5
 42
0.625
 44
1.25
 73
     0
 77
     1
140
2.5
147
0.625
178
     0
340
158D
  0
ENDTAB
  0
TABLE
  2
BLOCK_RECORD
  5
14EE
330
0
100
AcDbSymbolTable
 70
     0
  0
BLOCK_RECORD
  5
150A
330
14EE
100
AcDbSymbolTableRecord
100
AcDbBlockTableRecord
  2
*Model_Space
340
150D
 70
     0
280
     1
281
     0
  0
BLOCK_RECORD
  5
1506
330
14EE
100
AcDbSymbolTableRecord
100
AcDbBlockTableRecord
  2
*Paper_Space
340
1509
 70
     0
280
     1
281
     0
  0
ENDTAB
  0
ENDSEC
  0
SECTION
  2
BLOCKS
  0
BLOCK
  5
150B
330
150A
100
AcDbEntity
  8
0
100
AcDbBlockBegin
  2
*Model_Space
 70
     0
 10
0.0
 20
0.0
 30
0.0
  3
*Model_Space
  1

  0
ENDBLK
  5
150C
330
150A
100
AcDbEntity
  8
0
100
AcDbBlockEnd
  0
BLOCK
  5
1507
330
1506
100
AcDbEntity
 67
     1
  8
0
100
AcDbBlockBegin
  2
*Paper_Space
 70
     0
 10
0.0
 20
0.0
 30
0.0
  3
*Paper_Space
  1

  0
ENDBLK
  5
1508
330
1506
100
AcDbEntity
 67
     1
  8
0
100
AcDbBlockEnd
  0
ENDSEC
  0
SECTION
  2
ENTITIES
  0
ARC
  5
E3A
330
150A
100
AcDbEntity
  8
layer 1
100
AcDbCircle
 10
580.0
 20
713.0
 30
0.0
 40
3.0
100
AcDbArc
 50
270.0
 51
90.0
1001
QCAD
1000
reversed:1
  0
LINE
  5
A3C
330
150A
100
AcDbEntity
  8
layer 1
100
AcDbLine
 10
1376.795975697606
 20
599.0685777590231
 30
0.0
 11
1374.445975697606
 21
599.0685777590231
 31
0.0
  0
LINE
  5
E49
330
150A
100
AcDbEntity
  8
layer 1
100
AcDbLine
 10
571.5
 20
707.9384471871912
 30
0.0
 11
571.5
 21
712.35
 31
0.0
  0
ARC
  5
120F
330
150A
100
AcDbEntity
  8
layer 1
100
AcDbCircle
 10
833.425122597813
 20
560.0175970873788
 30
0.0
 40
20.0
100
AcDbArc
 50
89.99999999999999
 51
180.0
  0
LINE
  5
E4A
330
150A
100
AcDbEntity
  8
layer 1
100
AcDbLine
 10
571.5
 20
713.65
 30
0.0
 11
571.5
 21
718.0615528128088
 31
0.0
  0
LINE
  5
A3D
330
150A
100
AcDbEntity
  8
layer 1
100
AcDbLine
 10
1384.795975697606
 20
599.0685777590231
 30
0.0
 11
1387.145975697606
 21
599.0685777590231
 31
0.0
  0
ARC
  5
1210
330
150A
100
AcDbEntity
  8
layer 1
100
AcDbCircle
 10
1051.425122597813
 20
560.0175970873788
 30
0.0
 40
20.0
100
AcDbArc
 50
0.0
 51
90.0
  0
LINE
  5
E3D
330
150A
100
AcDbEntity
  8
layer 1
100
AcDbLine
 10
571.5
 20
713.65
 30
0.0
 11
575.3
 21
713.65
 31
0.0
  0
ARC
  5
2C1
330
150A
100
AcDbEntity
  8
layer 1
100
AcDbCircle
 10
347.4275018384865
 20
365.7614128996543
 30
0.0
 40
20.0
100
AcDbArc
 50
89.99999999999999
 51
180.0
  0
ARC
  5
1211
330
150A
100
AcDbEntity
  8
layer 1
100
AcDbCircle
 10
1051.425122597813
 20
514.0175970873788
 30
0.0
 40
20.0
100
AcDbArc
 50
270.0
 51
0.0
  0
LINE
  5
E3E
330
150A
100
AcDbEntity
  8
layer 1
100
AcDbLine
 10
571.5
 20
712.35
 30
0.0
 11
575.3
 21
712.35
 31
0.0
  0
ARC
  5
349
330
150A
100
AcDbEntity
  8
layer 1
100
AcDbCircle
 10
1.0
 20
356.0
 30
0.0
 40
20.0
100
AcDbArc
 50
89.99999999999999
 51
180.0
  0
ARC
  5
1212
330
150A
100
AcDbEntity
  8
layer 1
100
AcDbCircle
 10
833.425122597813
 20
514.0175970873788
 30
0.0
 40
20.0
100
AcDbArc
 50
180.0
 51
270.0
  0
LINE
  5
E4D
330
150A
100
AcDbEntity
  8
layer 1
100
AcDbLine
 10
575.3
 20
712.35
 30
0.0
 11
575.3
 21
713.65
 31
0.0
  0
LINE
  5
E4E
330
150A
100
AcDbEntity
  8
layer 1
100
AcDbLine
 10
575.5
 20
716.0
 30
0.0
 11
575.5
 21
720.5
 31
0.0
  0
ARC
  5
A3E
330
150A
100
AcDbEntity
  8
layer 1
100
AcDbCircle
 10
1252.0
 20
663.0
 30
0.0
 40
20.0
100
AcDbArc
 50
89.99999999999999
 51
180.0
  0
LINE
  5
1213
330
150A
100
AcDbEntity
  8
layer 1
100
AcDbLine
 10
833.425122597813
 20
580.0175970873788
 30
0.0
 11
1051.425122597813
 21
580.0175970873788
 31
0.0
  0
LINE
  5
E4F
330
150A
100
AcDbEntity
  8
layer 1
100
AcDbLine
 10
575.5
 20
705.5
 30
0.0
 11
575.5
 21
710.0
 31
0.0
  0
ARC
  5
6C1
330
150A
100
AcDbEntity
  8
layer 1
100
AcDbCircle
 10
528.5701126536962
 20
559.0177149306941
 30
0.0
 40
20.0
100
AcDbArc
 50
89.99999999999999
 51
180.0
  0
ARC
  5
133D
330
150A
100
AcDbEntity
  8
layer 1
100
AcDbCircle
 10
211.7861724635906
 20
561.8863719884998
 30
0.0
 40
20.0
100
AcDbArc
 50
89.99999999999999
 51
180.0
  0
ARC
  5
E50
330
150A
100
AcDbEntity
  8
layer 1
100
AcDbCircle
 10
575.5
 20
716.0
 30
0.0
 40
4.5
100
AcDbArc
 50
90.0
 51
152.7339555492672
  0
ARC
  5
90B
330
150A
100
AcDbEntity
  8
layer 1
100
AcDbCircle
 10
1254.704614127664
 20
776.0
 30
0.0
 40
20.0
100
AcDbArc
 50
89.99999999999999
 51
180.0
  0
LINE
  5
1214
330
150A
100
AcDbEntity
  8
layer 1
100
AcDbLine
 10
921.6210982954196
 20
494.0175970873788
 30
0.0
 11
833.425122597813
 21
494.0175970873788
 31
0.0
  0
ARC
  5
E52
330
150A
100
AcDbEntity
  8
layer 1
100
AcDbCircle
 10
575.5
 20
710.0
 30
0.0
 40
4.5
100
AcDbArc
 50
207.2660444507328
 51
270.0
  0
LINE
  5
1215
330
150A
100
AcDbEntity
  8
layer 1
100
AcDbLine
 10
1051.425122597813
 20
494.0175970873788
 30
0.0
 11
966.2210982954189
 21
494.0175970873788
 31
0.0
  0
ARC
  5
7CE
330
150A
100
AcDbEntity
  8
layer 1
100
AcDbCircle
 10
800.9999999999999
 20
773.0
 30
0.0
 40
20.0
100
AcDbArc
 50
89.99999999999999
 51
180.0
  0
ARC
  5
FF
330
150A
100
AcDbEntity
  8
layer 1
100
AcDbCircle
 10
341.0
 20
106.0
 30
0.0
 40
20.0
100
AcDbArc
 50
89.99999999999999
 51
180.0
  0
LINE
  5
E46
330
150A
100
AcDbEntity
  8
layer 1
100
AcDbLine
 10
575.5
 20
710.0
 30
0.0
 11
580.0
 21
710.0
 31
0.0
  0
ARC
  5
2C2
330
150A
100
AcDbEntity
  8
layer 1
100
AcDbCircle
 10
565.4275018384865
 20
365.7614128996543
 30
0.0
 40
20.0
100
AcDbArc
 50
0.0
 51
90.0
  0
LINE
  5
E55
330
150A
100
AcDbEntity
  8
layer 1
100
AcDbLine
 10
575.5
 20
716.0
 30
0.0
 11
580.0
 21
716.0
 31
0.0
  0
ARC
  5
34A
330
150A
100
AcDbEntity
  8
layer 1
100
AcDbCircle
 10
219.0
 20
356.0
 30
0.0
 40
20.0
100
AcDbArc
 50
0.0
 51
90.0
  0
ARC
  5
A3F
330
150A
100
AcDbEntity
  8
layer 1
100
AcDbCircle
 10
1470.0
 20
663.0
 30
0.0
 40
20.0
100
AcDbArc
 50
0.0
 51
90.0
  0
ARC
  5
6C2
330
150A
100
AcDbEntity
  8
layer 1
100
AcDbCircle
 10
746.5701126536962
 20
559.0177149306941
 30
0.0
 40
20.0
100
AcDbArc
 50
0.0
 51
90.0
  0
ARC
  5
133E
330
150A
100
AcDbEntity
  8
layer 1
100
AcDbCircle
 10
429.7861724635906
 20
561.8863719884998
 30
0.0
 40
20.0
100
AcDbArc
 50
0.0
 51
90.0
  0
ARC
  5
90C
330
150A
100
AcDbEntity
  8
layer 1
100
AcDbCircle
 10
1472.704614127665
 20
776.0
 30
0.0
 40
20.0
100
AcDbArc
 50
0.0
 51
90.0
  0
ARC
  5
7CF
330
150A
100
AcDbEntity
  8
layer 1
100
AcDbCircle
 10
1019.0
 20
773.0
 30
0.0
 40
20.0
100
AcDbArc
 50
0.0
 51
90.0
  0
ARC
  5
100
330
150A
100
AcDbEntity
  8
layer 1
100
AcDbCircle
 10
559.0
 20
106.0
 30
0.0
 40
20.0
100
AcDbArc
 50
0.0
 51
90.0
  0
ARC
  5
2C3
330
150A
100
AcDbEntity
  8
layer 1
100
AcDbCircle
 10
565.4275018384865
 20
193.7614128996543
 30
0.0
 40
20.0
100
AcDbArc
 50
270.0
 51
0.0
  0
ARC
  5
34B
330
150A
100
AcDbEntity
  8
layer 1
100
AcDbCircle
 10
219.0
 20
184.0
 30
0.0
 40
20.0
100
AcDbArc
 50
270.0
 51
0.0
  0
ARC
  5
A40
330
150A
100
AcDbEntity
  8
layer 1
100
AcDbCircle
 10
1470.0
 20
617.0
 30
0.0
 40
20.0
100
AcDbArc
 50
270.0
 51
0.0
  0
ARC
  5
6C3
330
150A
100
AcDbEntity
  8
layer 1
100
AcDbCircle
 10
746.5701126536962
 20
513.0177149306941
 30
0.0
 40
20.0
100
AcDbArc
 50
270.0
 51
0.0
  0
ARC
  5
133F
330
150A
100
AcDbEntity
  8
layer 1
100
AcDbCircle
 10
429.7861724635906
 20
515.8863719884998
 30
0.0
 40
20.0
100
AcDbArc
 50
270.0
 51
0.0
  0
ARC
  5
90D
330
150A
100
AcDbEntity
  8
layer 1
100
AcDbCircle
 10
1472.704614127665
 20
730.0
 30
0.0
 40
20.0
100
AcDbArc
 50
270.0
 51
0.0
  0
ARC
  5
7D0
330
150A
100
AcDbEntity
  8
layer 1
100
AcDbCircle
 10
1019.0
 20
727.0
 30
0.0
 40
20.0
100
AcDbArc
 50
270.0
 51
0.0
  0
ARC
  5
101
330
150A
100
AcDbEntity
  8
layer 1
100
AcDbCircle
 10
559.0
 20
-66.0
 30
0.0
 40
20.0
100
AcDbArc
 50
270.0
 51
0.0
  0
ARC
  5
2C4
330
150A
100
AcDbEntity
  8
layer 1
100
AcDbCircle
 10
347.4275018384865
 20
193.7614128996543
 30
0.0
 40
20.0
100
AcDbArc
 50
180.0
 51
270.0
  0
ARC
  5
34C
330
150A
100
AcDbEntity
  8
layer 1
100
AcDbCircle
 10
1.0
 20
184.0
 30
0.0
 40
20.0
100
AcDbArc
 50
180.0
 51
270.0
  0
ARC
  5
A41
330
150A
100
AcDbEntity
  8
layer 1
100
AcDbCircle
 10
1252.0
 20
617.0
 30
0.0
 40
20.0
100
AcDbArc
 50
180.0
 51
270.0
  0
ARC
  5
6C4
330
150A
100
AcDbEntity
  8
layer 1
100
AcDbCircle
 10
528.5701126536962
 20
513.0177149306941
 30
0.0
 40
20.0
100
AcDbArc
 50
180.0
 51
270.0
  0
ARC
  5
1340
330
150A
100
AcDbEntity
  8
layer 1
100
AcDbCircle
 10
211.7861724635906
 20
515.8863719884998
 30
0.0
 40
20.0
100
AcDbArc
 50
180.0
 51
270.0
  0
ARC
  5
90E
330
150A
100
AcDbEntity
  8
layer 1
100
AcDbCircle
 10
1254.704614127664
 20
730.0
 30
0.0
 40
20.0
100
AcDbArc
 50
180.0
 51
270.0
  0
ARC
  5
7D1
330
150A
100
AcDbEntity
  8
layer 1
100
AcDbCircle
 10
800.9999999999999
 20
727.0
 30
0.0
 40
20.0
100
AcDbArc
 50
180.0
 51
270.0
  0
ARC
  5
102
330
150A
100
AcDbEntity
  8
layer 1
100
AcDbCircle
 10
341.0
 20
-66.0
 30
0.0
 40
20.0
100
AcDbArc
 50
180.0
 51
270.0
  0
LINE
  5
2C5
330
150A
100
AcDbEntity
  8
layer 1
100
AcDbLine
 10
327.4275018384865
 20
193.7614128996543
 30
0.0
 11
327.4275018384865
 21
365.7614128996543
 31
0.0
  0
LINE
  5
34D
330
150A
100
AcDbEntity
  8
layer 1
100
AcDbLine
 10
-19.0
 20
184.0
 30
0.0
 11
-19.0
 21
356.0
 31
0.0
  0
LINE
  5
103
330
150A
100
AcDbEntity
  8
layer 1
100
AcDbLine
 10
321.0
 20
-66.0
 30
0.0
 11
321.0
 21
106.0
 31
0.0
  0
LINE
  5
2C6
330
150A
100
AcDbEntity
  8
layer 1
100
AcDbLine
 10
347.4275018384865
 20
385.7614128996543
 30
0.0
 11
565.4275018384865
 21
385.7614128996543
 31
0.0
  0
LINE
  5
34E
330
150A
100
AcDbEntity
  8
layer 1
100
AcDbLine
 10
1.0
 20
376.0
 30
0.0
 11
219.0
 21
376.0
 31
0.0
  0
LINE
  5
A42
330
150A
100
AcDbEntity
  8
layer 1
100
AcDbLine
 10
1252.0
 20
683.0
 30
0.0
 11
1470.0
 21
683.0
 31
0.0
  0
LINE
  5
6C5
330
150A
100
AcDbEntity
  8
layer 1
100
AcDbLine
 10
528.5701126536962
 20
579.0177149306941
 30
0.0
 11
746.5701126536962
 21
579.0177149306941
 31
0.0
  0
LINE
  5
1341
330
150A
100
AcDbEntity
  8
layer 1
100
AcDbLine
 10
211.7861724635906
 20
581.8863719884998
 30
0.0
 11
429.7861724635906
 21
581.8863719884998
 31
0.0
  0
LINE
  5
90F
330
150A
100
AcDbEntity
  8
layer 1
100
AcDbLine
 10
1254.704614127664
 20
796.0
 30
0.0
 11
1472.704614127665
 21
796.0
 31
0.0
  0
LINE
  5
7D2
330
150A
100
AcDbEntity
  8
layer 1
100
AcDbLine
 10
800.9999999999999
 20
793.0
 30
0.0
 11
1019.0
 21
793.0
 31
0.0
  0
LINE
  5
104
330
150A
100
AcDbEntity
  8
layer 1
100
AcDbLine
 10
341.0
 20
126.0
 30
0.0
 11
559.0
 21
126.0
 31
0.0
  0
LINE
  5
2C7
330
150A
100
AcDbEntity
  8
layer 1
100
AcDbLine
 10
585.4275018384865
 20
365.7614128996543
 30
0.0
 11
585.4275018384865
 21
193.7614128996543
 31
0.0
  0
LINE
  5
34F
330
150A
100
AcDbEntity
  8
layer 1
100
AcDbLine
 10
239.0
 20
356.0
 30
0.0
 11
239.0
 21
184.0
 31
0.0
  0
LINE
  5
105
330
150A
100
AcDbEntity
  8
layer 1
100
AcDbLine
 10
579.0
 20
106.0
 30
0.0
 11
579.0
 21
-66.0
 31
0.0
  0
LINE
  5
2C8
330
150A
100
AcDbEntity
  8
layer 1
100
AcDbLine
 10
565.4275018384865
 20
173.7614128996543
 30
0.0
 11
347.4275018384865
 21
173.7614128996543
 31
0.0
  0
LINE
  5
350
330
150A
100
AcDbEntity
  8
layer 1
100
AcDbLine
 10
219.0
 20
164.0
 30
0.0
 11
1.0
 21
164.0
 31
0.0
  0
LINE
  5
6C6
330
150A
100
AcDbEntity
  8
layer 1
100
AcDbLine
 10
746.5701126536962
 20
493.0177149306941
 30
0.0
 11
528.5701126536962
 21
493.0177149306941
 31
0.0
  0
LINE
  5
1342
330
150A
100
AcDbEntity
  8
layer 1
100
AcDbLine
 10
429.7861724635906
 20
495.8863719884999
 30
0.0
 11
360.7861724635906
 21
495.8863719884999
 31
0.0
  0
LINE
  5
1343
330
150A
100
AcDbEntity
  8
layer 1
100
AcDbLine
 10
280.7861724635906
 20
495.8863719884999
 30
0.0
 11
211.7861724635906
 21
495.8863719884999
 31
0.0
  0
LINE
  5
A43
330
150A
100
AcDbEntity
  8
layer 1
100
AcDbLine
 10
1340.195975697607
 20
597.0
 30
0.0
 11
1252.0
 21
597.0
 31
0.0
  0
LINE
  5
A44
330
150A
100
AcDbEntity
  8
layer 1
100
AcDbLine
 10
1470.0
 20
597.0
 30
0.0
 11
1384.795975697606
 21
597.0
 31
0.0
  0
LINE
  5
1216
330
150A
100
AcDbEntity
  8
layer 1
100
AcDbLine
 10
813.425122597813
 20
560.0175970873788
 30
0.0
 11
813.425122597813
 21
514.0175970873788
 31
0.0
  0
LINE
  5
A45
330
150A
100
AcDbEntity
  8
layer 1
100
AcDbLine
 10
1376.795975697606
 20
597.0
 30
0.0
 11
1348.795975697606
 21
597.0
 31
0.0
  0
LINE
  5
910
330
150A
100
AcDbEntity
  8
layer 1
100
AcDbLine
 10
1342.900589825271
 20
710.0
 30
0.0
 11
1254.704614127664
 21
710.0
 31
0.0
  0
LINE
  5
1217
330
150A
100
AcDbEntity
  8
layer 1
100
AcDbLine
 10
1071.425122597813
 20
560.0175970873788
 30
0.0
 11
1071.425122597813
 21
514.0175970873788
 31
0.0
  0
LINE
  5
911
330
150A
100
AcDbEntity
  8
layer 1
100
AcDbLine
 10
1472.704614127665
 20
710.0
 30
0.0
 11
1387.50058982527
 21
710.0
 31
0.0
  0
LINE
  5
1400
330
150A
100
AcDbEntity
  8
layer 2
100
AcDbLine
 10
1063.425122597813
 20
514.0175970873788
 30
0.0
 11
1063.425122597813
 21
514.0175970873788
 31
0.0
  0
LINE
  5
1401
330
150A
100
AcDbEntity
  8
layer 2
100
AcDbLine
 10
1063.425122597813
 20
514.0175970873788
 30
0.0
 11
1063.425122597813
 21
560.0175970873788
 31
0.0
  0
LINE
  5
7D3
330
150A
100
AcDbEntity
  8
layer 1
100
AcDbLine
 10
889.1959756976065
 20
707.0
 30
0.0
 11
800.9999999999999
 21
707.0
 31
0.0
  0
LINE
  5
13FF
330
150A
100
AcDbEntity
  8
layer 2
100
AcDbLine
 10
953.953005281668
 20
572.0175970873788
 30
0.0
 11
949.2205084701488
 21
572.0175970873788
 31
0.0
  0
LINE
  5
7D4
330
150A
100
AcDbEntity
  8
layer 1
100
AcDbLine
 10
1019.0
 20
707.0
 30
0.0
 11
933.7959756976059
 21
707.0
 31
0.0
  0
LINE
  5
1405
330
150A
100
AcDbEntity
  8
layer 2
100
AcDbLine
 10
996.1539681427408
 20
572.0175970873788
 30
0.0
 11
970.0661001922593
 21
572.0175970873788
 31
0.0
  0
LINE
  5
1403
330
150A
100
AcDbEntity
  8
layer 2
100
AcDbLine
 10
1051.425122597813
 20
572.0175970873788
 30
0.0
 11
1051.425122597813
 21
572.0175970873788
 31
0.0
  0
LINE
  5
1404
330
150A
100
AcDbEntity
  8
layer 2
100
AcDbLine
 10
1051.425122597813
 20
572.0175970873788
 30
0.0
 11
1021.026372014215
 21
572.0175970873788
 31
0.0
  0
LINE
  5
106
330
150A
100
AcDbEntity
  8
layer 1
100
AcDbLine
 10
559.0
 20
-86.0
 30
0.0
 11
341.0
 21
-86.0
 31
0.0
  0
LINE
  5
1402
330
150A
100
AcDbEntity
  8
layer 2
100
AcDbLine
 10
868.5280259144051
 20
572.0175970873788
 30
0.0
 11
840.1382872624107
 21
572.0175970873788
 31
0.0
  0
LINE
  5
A46
330
150A
100
AcDbEntity
  8
layer 1
100
AcDbLine
 10
1353.295975697607
 20
604.8457120610444
 30
0.0
 11
1353.295975697607
 21
600.8457120610444
 31
0.0
  0
LINE
  5
1407
330
150A
100
AcDbEntity
  8
layer 2
100
AcDbLine
 10
939.2205084701488
 20
572.0175970873788
 30
0.0
 11
926.5863202747903
 21
572.0175970873788
 31
0.0
  0
LINE
  5
1406
330
150A
100
AcDbEntity
  8
layer 2
100
AcDbLine
 10
910.2174619529196
 20
572.0175970873788
 30
0.0
 11
883.8738305911589
 21
572.0175970873788
 31
0.0
  0
LINE
  5
A47
330
150A
100
AcDbEntity
  8
layer 1
100
AcDbLine
 10
1335.695975697607
 20
604.8457120610444
 30
0.0
 11
1335.695975697607
 21
600.8457120610444
 31
0.0
  0
LINE
  5
A48
330
150A
100
AcDbEntity
  8
layer 1
100
AcDbLine
 10
1341.495975697607
 20
614.9457120610443
 30
0.0
 11
1341.495975697607
 21
608.4457120610442
 31
0.0
  0
LINE
  5
A49
330
150A
100
AcDbEntity
  8
layer 1
100
AcDbLine
 10
1341.495975697607
 20
618.1957120610443
 30
0.0
 11
1341.495975697607
 21
614.9457120610443
 31
0.0
  0
LINE
  5
13FB
330
150A
100
AcDbEntity
  8
layer 2
100
AcDbLine
 10
982.425122597813
 20
502.0175970873788
 30
0.0
 11
1051.425122597813
 21
502.0175970873788
 31
0.0
  0
LINE
  5
912
330
150A
100
AcDbEntity
  8
layer 2
100
AcDbLine
 10
1344.200589825271
 20
731.1957120610443
 30
0.0
 11
1344.200589825271
 21
728.1141029198375
 31
0.0
  0
LWPOLYLINE
  5
13FD
330
150A
100
AcDbEntity
  8
layer 2
100
AcDbPolyline
 90
        3
 70
   128
 43
0.0
 10
1056.925122597813
 20
510.0175970873788
 42
0.9999999999999999
 10
1053.925122597813
 20
510.0175970873788
 42
0.9999999999999999
 10
1056.925122597813
 20
510.0175970873788
  0
LINE
  5
A4A
330
150A
100
AcDbEntity
  8
layer 1
100
AcDbLine
 10
1347.495975697607
 20
618.1957120610443
 30
0.0
 11
1347.495975697607
 21
614.9457120610443
 31
0.0
  0
LWPOLYLINE
  5
13FC
330
150A
100
AcDbEntity
  8
layer 2
100
AcDbPolyline
 90
        3
 70
   128
 43
0.0
 10
1056.925122597813
 20
564.0175970873788
 42
0.9999999999999999
 10
1053.925122597813
 20
564.0175970873788
 42
0.9999999999999999
 10
1056.925122597813
 20
564.0175970873788
  0
LINE
  5
913
330
150A
100
AcDbEntity
  8
layer 2
100
AcDbLine
 10
1350.200589825271
 20
731.1957120610443
 30
0.0
 11
1350.200589825271
 21
728.1141029198375
 31
0.0
  0
LINE
  5
A4B
330
150A
100
AcDbEntity
  8
layer 1
100
AcDbLine
 10
1347.495975697607
 20
614.9457120610443
 30
0.0
 11
1347.495975697607
 21
608.4457120610442
 31
0.0
  0
LINE
  5
A4C
330
150A
100
AcDbEntity
  8
layer 1
100
AcDbLine
 10
1340.295975697606
 20
608.4457120610443
 30
0.0
 11
1340.295975697606
 21
606.8457120610442
 31
0.0
  0
LWPOLYLINE
  5
13FE
330
150A
100
AcDbEntity
  8
layer 2
100
AcDbPolyline
 90
        3
 70
   128
 43
0.0
 10
830.925122597813
 20
510.0175970873788
 42
0.9999999999999999
 10
827.925122597813
 20
510.0175970873788
 42
0.9999999999999999
 10
830.925122597813
 20
510.0175970873788
  0
LINE
  5
A4D
330
150A
100
AcDbEntity
  8
layer 1
100
AcDbLine
 10
1348.695975697607
 20
608.4457120610442
 30
0.0
 11
1348.695975697607
 21
606.8457120610444
 31
0.0
  0
LINE
  5
A4E
330
150A
100
AcDbEntity
  8
layer 1
100
AcDbLine
 10
1347.495975697607
 20
618.1957120610443
 30
0.0
 11
1341.495975697607
 21
618.1957120610443
 31
0.0
  0
LINE
  5
914
330
150A
100
AcDbEntity
  8
layer 2
100
AcDbLine
 10
1350.200589825271
 20
731.1957120610443
 30
0.0
 11
1344.200589825271
 21
731.1957120610443
 31
0.0
  0
LINE
  5
A4F
330
150A
100
AcDbEntity
  8
layer 1
100
AcDbLine
 10
1348.695975697607
 20
608.4457120610442
 30
0.0
 11
1347.495975697607
 21
608.4457120610443
 31
0.0
  0
ARC
  5
1223
330
150A
100
AcDbEntity
  8
layer 2
100
AcDbCircle
 10
1055.425122597813
 20
510.0175970873788
 30
0.0
 40
4.0
100
AcDbArc
 50
90.0
 51
180.0
  0
LINE
  5
A50
330
150A
100
AcDbEntity
  8
layer 1
100
AcDbLine
 10
1341.495975697607
 20
608.4457120610442
 30
0.0
 11
1340.295975697607
 21
608.4457120610443
 31
0.0
  0
ARC
  5
1224
330
150A
100
AcDbEntity
  8
layer 2
100
AcDbCircle
 10
1055.425122597813
 20
564.0175970873788
 30
0.0
 40
4.0
100
AcDbArc
 50
180.0
 51
270.0
  0
LINE
  5
A51
330
150A
100
AcDbEntity
  8
layer 1
100
AcDbLine
 10
1338.295975697606
 20
604.8457120610444
 30
0.0
 11
1335.695975697607
 21
604.8457120610444
 31
0.0
  0
LINE
  5
A52
330
150A
100
AcDbEntity
  8
layer 1
100
AcDbLine
 10
1353.295975697607
 20
604.8457120610444
 30
0.0
 11
1350.695975697607
 21
604.8457120610442
 31
0.0
  0
ARC
  5
37C
330
150A
100
AcDbEntity
  8
layer 3
100
AcDbCircle
 10
683.8193775745658
 20
368.3717791258222
 30
0.0
 40
10.0
100
AcDbArc
 50
89.99999999999999
 51
180.0
  0
ARC
  5
4C7
330
150A
100
AcDbEntity
  8
layer 2
100
AcDbCircle
 10
387.0
 20
106.0
 30
0.0
 40
10.0
100
AcDbArc
 50
89.99999999999999
 51
180.0
  0
LINE
  5
1225
330
150A
100
AcDbEntity
  8
layer 2
100
AcDbLine
 10
1051.425122597813
 20
564.0175970873788
 30
0.0
 11
1051.425122597813
 21
572.0175970873788
 31
0.0
  0
ARC
  5
A53
330
150A
100
AcDbEntity
  8
layer 1
100
AcDbCircle
 10
1338.295975697606
 20
606.8457120610444
 30
0.0
 40
2.0
100
AcDbArc
 50
269.9999999999998
 51
0.0
1001
QCAD
1000
reversed:1
  0
ARC
  5
37D
330
150A
100
AcDbEntity
  8
layer 3
100
AcDbCircle
 10
857.8193775745658
 20
194.3717791258222
 30
0.0
 40
10.0
100
AcDbArc
 50
270.0
 51
0.0
  0
LINE
  5
1226
330
150A
100
AcDbEntity
  8
layer 2
100
AcDbLine
 10
1051.425122597813
 20
502.0175970873788
 30
0.0
 11
1051.425122597813
 21
510.0175970873788
 31
0.0
  0
ARC
  5
4C8
330
150A
100
AcDbEntity
  8
layer 2
100
AcDbCircle
 10
561.0
 20
-68.0
 30
0.0
 40
10.0
100
AcDbArc
 50
270.0
 51
0.0
  0
ARC
  5
A54
330
150A
100
AcDbEntity
  8
layer 1
100
AcDbCircle
 10
1350.695975697607
 20
606.8457120610442
 30
0.0
 40
2.0
100
AcDbArc
 50
180.0
 51
270.0
1001
QCAD
1000
reversed:1
  0
LINE
  5
1227
330
150A
100
AcDbEntity
  8
layer 2
100
AcDbLine
 10
1055.425111101214
 20
514.0175970873621
 30
0.0
 11
1063.425122597813
 21
514.0175970873621
 31
0.0
  0
ARC
  5
37E
330
150A
100
AcDbEntity
  8
layer 3
100
AcDbCircle
 10
683.8193775745658
 20
194.3717791258222
 30
0.0
 40
10.0
100
AcDbArc
 50
180.0
 51
270.0
  0
ARC
  5
4C9
330
150A
100
AcDbEntity
  8
layer 2
100
AcDbCircle
 10
387.0
 20
-68.0
 30
0.0
 40
10.0
100
AcDbArc
 50
180.0
 51
270.0
  0
LINE
  5
1228
330
150A
100
AcDbEntity
  8
layer 2
100
AcDbLine
 10
1055.425121678085
 20
560.0175970873789
 30
0.0
 11
1063.425122597813
 21
560.0175970873789
 31
0.0
  0
LINE
  5
A55
330
150A
100
AcDbEntity
  8
layer 1
100
AcDbLine
 10
1348.795975697606
 20
600.8457120610444
 30
0.0
 11
1353.295975697607
 21
600.8457120610444
 31
0.0
  0
ARC
  5
37F
330
150A
100
AcDbEntity
  8
layer 3
100
AcDbCircle
 10
857.8193775745658
 20
368.3717791258222
 30
0.0
 40
10.0
100
AcDbArc
 50
0.0
 51
90.0
  0
ARC
  5
4CA
330
150A
100
AcDbEntity
  8
layer 2
100
AcDbCircle
 10
561.0
 20
106.0
 30
0.0
 40
10.0
100
AcDbArc
 50
0.0
 51
90.0
  0
LINE
  5
A56
330
150A
100
AcDbEntity
  8
layer 1
100
AcDbLine
 10
1335.695975697607
 20
600.8457120610444
 30
0.0
 11
1340.195975697607
 21
600.8457120610444
 31
0.0
  0
LINE
  5
1229
330
150A
100
AcDbEntity
  8
layer 2
100
AcDbLine
 10
982.425122597813
 20
522.0175970873788
 30
0.0
 11
982.425122597813
 21
502.0175970873788
 31
0.0
  0
LINE
  5
380
330
150A
100
AcDbEntity
  8
layer 3
100
AcDbLine
 10
673.8193775745658
 20
368.3717791258222
 30
0.0
 11
673.8193775745658
 21
194.3717791258222
 31
0.0
  0
LWPOLYLINE
  5
13FA
330
150A
100
AcDbEntity
  8
layer 2
100
AcDbPolyline
 90
        3
 70
   128
 43
0.0
 10
945.7210982954193
 20
510.0175970873788
 42
0.9999999999999999
 10
942.7210982954193
 20
510.0175970873788
 42
0.9999999999999999
 10
945.7210982954193
 20
510.0175970873788
  0
LINE
  5
4CB
330
150A
100
AcDbEntity
  8
layer 2
100
AcDbLine
 10
377.0
 20
106.0
 30
0.0
 11
377.0
 21
-68.0
 31
0.0
  0
LINE
  5
381
330
150A
100
AcDbEntity
  8
layer 3
100
AcDbLine
 10
683.8193775745658
 20
184.3717791258222
 30
0.0
 11
857.8193775745658
 21
184.3717791258222
 31
0.0
  0
LINE
  5
122B
330
150A
100
AcDbEntity
  8
layer 2
100
AcDbLine
 10
955.8710982954192
 20
506.381406849532
 30
0.0
 11
968.5710982954192
 21
506.381406849532
 31
0.0
  0
LINE
  5
4CC
330
150A
100
AcDbEntity
  8
layer 2
100
AcDbLine
 10
387.0
 20
-78.0
 30
0.0
 11
561.0
 21
-78.0
 31
0.0
  0
LINE
  5
122C
330
150A
100
AcDbEntity
  8
layer 2
100
AcDbLine
 10
922.9210982954196
 20
512.1317000072163
 30
0.0
 11
928.9210982954196
 21
512.1317000072163
 31
0.0
  0
LINE
  5
382
330
150A
100
AcDbEntity
  8
layer 3
100
AcDbLine
 10
867.8193775745658
 20
194.3717791258222
 30
0.0
 11
867.8193775745658
 21
368.3717791258222
 31
0.0
  0
LINE
  5
4CD
330
150A
100
AcDbEntity
  8
layer 2
100
AcDbLine
 10
571.0
 20
-68.0
 30
0.0
 11
571.0
 21
106.0
 31
0.0
  0
LINE
  5
122D
330
150A
100
AcDbEntity
  8
layer 1
100
AcDbLine
 10
921.6210982954196
 20
494.0175970873788
 30
0.0
 11
966.2210982954189
 21
494.0175970873788
 31
0.0
  0
LINE
  5
383
330
150A
100
AcDbEntity
  8
layer 3
100
AcDbLine
 10
857.8193775745658
 20
378.3717791258222
 30
0.0
 11
683.8193775745658
 21
378.3717791258222
 31
0.0
  0
LINE
  5
122E
330
150A
100
AcDbEntity
  8
layer 2
100
AcDbLine
 10
922.9210982954196
 20
512.1317000072163
 30
0.0
 11
922.9210982954196
 21
522.0175970873788
 31
0.0
  0
LINE
  5
4CE
330
150A
100
AcDbEntity
  8
layer 2
100
AcDbLine
 10
561.0
 20
116.0
 30
0.0
 11
387.0
 21
116.0
 31
0.0
  0
LINE
  5
122F
330
150A
100
AcDbEntity
  8
layer 2
100
AcDbLine
 10
928.9210982954196
 20
512.1317000072163
 30
0.0
 11
928.9210982954196
 21
522.0175970873788
 31
0.0
  0
LINE
  5
A57
330
150A
100
AcDbEntity
  8
layer 1
100
AcDbLine
 10
1348.795975697606
 20
600.8457120610444
 30
0.0
 11
1348.795975697606
 21
597.0
 31
0.0
  0
LINE
  5
A58
330
150A
100
AcDbEntity
  8
layer 1
100
AcDbLine
 10
1340.195975697607
 20
600.8457120610444
 30
0.0
 11
1340.195975697607
 21
597.0
 31
0.0
  0
LINE
  5
1230
330
150A
100
AcDbEntity
  8
layer 2
100
AcDbLine
 10
955.8710982954192
 20
506.381406849532
 30
0.0
 11
955.8710982954192
 21
522.0175970873788
 31
0.0
  0
LINE
  5
A59
330
150A
100
AcDbEntity
  8
layer 1
100
AcDbLine
 10
1384.795975697606
 20
599.0685777590231
 30
0.0
 11
1384.795975697606
 21
597.0
 31
0.0
  0
LINE
  5
1231
330
150A
100
AcDbEntity
  8
layer 2
100
AcDbLine
 10
968.5710982954192
 20
506.381406849532
 30
0.0
 11
968.5710982954192
 21
522.0175970873788
 31
0.0
  0
LINE
  5
A5A
330
150A
100
AcDbEntity
  8
layer 1
100
AcDbLine
 10
1376.795975697606
 20
599.0685777590231
 30
0.0
 11
1376.795975697606
 21
597.0
 31
0.0
  0
LINE
  5
A5D
330
150A
100
AcDbEntity
  8
layer 1
100
AcDbLine
 10
1387.145975697606
 20
621.2685777590231
 30
0.0
 11
1374.445975697606
 21
621.2685777590231
 31
0.0
  0
LINE
  5
917
330
150A
100
AcDbEntity
  8
layer 2
100
AcDbLine
 10
1389.85058982527
 20
726.2685777590231
 30
0.0
 11
1377.15058982527
 21
726.2685777590231
 31
0.0
  0
LWPOLYLINE
  5
13F9
330
150A
100
AcDbEntity
  8
layer 2
100
AcDbPolyline
 90
        3
 70
   128
 43
0.0
 10
351.0
 20
99.5
 42
0.9999999999999999
 10
347.0
 20
99.5
 42
0.9999999999999999
 10
351.0
 20
99.5
  0
LWPOLYLINE
  5
13F8
330
150A
100
AcDbEntity
  8
layer 2
100
AcDbPolyline
 90
        3
 70
   128
 43
0.0
 10
351.0
 20
91.5
 42
0.9999999999999999
 10
347.0
 20
91.5
 42
0.9999999999999999
 10
351.0
 20
91.5
  0
LWPOLYLINE
  5
13F7
330
150A
100
AcDbEntity
  8
layer 2
100
AcDbPolyline
 90
        3
 70
   128
 43
0.0
 10
351.0
 20
83.5
 42
0.9999999999999999
 10
347.0
 20
83.5
 42
0.9999999999999999
 10
351.0
 20
83.5
  0
LINE
  5
1234
330
150A
100
AcDbEntity
  8
layer 2
100
AcDbLine
 10
1005.208657673466
 20
522.0175970873788
 30
0.0
 11
1005.208657673466
 21
557.2663360016753
 31
0.0
  0
LWPOLYLINE
  5
13F0
330
150A
100
AcDbEntity
  8
layer 2
100
AcDbPolyline
 90
        3
 70
   128
 43
0.0
 10
351.0
 20
75.5
 42
0.9999999999999999
 10
347.0
 20
75.5
 42
0.9999999999999999
 10
351.0
 20
75.5
  0
LINE
  5
1235
330
150A
100
AcDbEntity
  8
layer 2
100
AcDbLine
 10
982.425122597813
 20
522.0175970873788
 30
0.0
 11
1005.208657673466
 21
522.0175970873788
 31
0.0
  0
LINE
  5
1236
330
150A
100
AcDbEntity
  8
layer 2
100
AcDbLine
 10
968.5710982954192
 20
522.0175970873788
 30
0.0
 11
968.5710982954192
 21
527.0175970873788
 31
0.0
  0
LWPOLYLINE
  5
13F2
330
150A
100
AcDbEntity
  8
layer 2
100
AcDbPolyline
 90
        3
 70
   128
 43
0.0
 10
351.0
 20
67.5
 42
0.9999999999999999
 10
347.0
 20
67.5
 42
0.9999999999999999
 10
351.0
 20
67.5
  0
LINE
  5
1237
330
150A
100
AcDbEntity
  8
layer 2
100
AcDbLine
 10
922.9210982954195
 20
522.0175970873788
 30
0.0
 11
922.9210982954195
 21
527.0175970873788
 31
0.0
  0
LWPOLYLINE
  5
13F1
330
150A
100
AcDbEntity
  8
layer 2
100
AcDbPolyline
 90
        3
 70
   128
 43
0.0
 10
335.0
 20
83.5
 42
0.9999999999999999
 10
331.0
 20
83.5
 42
0.9999999999999999
 10
335.0
 20
83.5
  0
LINE
  5
1238
330
150A
100
AcDbEntity
  8
layer 2
100
AcDbLine
 10
928.9210982954195
 20
522.0175970873788
 30
0.0
 11
928.9210982954195
 21
527.0175970873788
 31
0.0
  0
LINE
  5
1239
330
150A
100
AcDbEntity
  8
layer 2
100
AcDbLine
 10
922.9210982954195
 20
527.0175970873788
 30
0.0
 11
928.9210982954195
 21
527.0175970873788
 31
0.0
  0
LWPOLYLINE
  5
13F4
330
150A
100
AcDbEntity
  8
layer 2
100
AcDbPolyline
 90
        3
 70
   128
 43
0.0
 10
343.0
 20
83.5
 42
0.9999999999999999
 10
339.0
 20
83.5
 42
0.9999999999999999
 10
343.0
 20
83.5
  0
LINE
  5
123A
330
150A
100
AcDbEntity
  8
layer 2
100
AcDbLine
 10
955.8710982954192
 20
522.0175970873788
 30
0.0
 11
955.8710982954192
 21
527.0175970873788
 31
0.0
  0
LWPOLYLINE
  5
13F3
330
150A
100
AcDbEntity
  8
layer 2
100
AcDbPolyline
 90
        3
 70
   128
 43
0.0
 10
359.0
 20
83.5
 42
0.9999999999999999
 10
355.0
 20
83.5
 42
0.9999999999999999
 10
359.0
 20
83.5
  0
LINE
  5
123B
330
150A
100
AcDbEntity
  8
layer 2
100
AcDbLine
 10
955.8710982954192
 20
527.0175970873788
 30
0.0
 11
968.5710982954192
 21
527.0175970873788
 31
0.0
  0
LINE
  5
123C
330
150A
100
AcDbEntity
  8
layer 2
100
AcDbLine
 10
840.1382872624107
 20
564.0175970873788
 30
0.0
 11
868.5280259144051
 21
564.0175970873788
 31
0.0
  0
LWPOLYLINE
  5
13F5
330
150A
100
AcDbEntity
  8
layer 2
100
AcDbPolyline
 90
        3
 70
   128
 43
0.0
 10
367.0
 20
83.5
 42
0.9999999999999999
 10
363.0
 20
83.5
 42
0.9999999999999999
 10
367.0
 20
83.5
  0
LINE
  5
123D
330
150A
100
AcDbEntity
  8
layer 2
100
AcDbLine
 10
883.8738305911589
 20
564.0175970873788
 30
0.0
 11
910.2174619529196
 21
564.0175970873788
 31
0.0
  0
LWPOLYLINE
  5
13EA
330
150A
100
AcDbEntity
  8
layer 2
100
AcDbPolyline
 90
        3
 70
   128
 43
0.0
 10
359.0
 20
91.5
 42
0.9999999999999999
 10
355.0
 20
91.5
 42
0.9999999999999999
 10
359.0
 20
91.5
  0
LWPOLYLINE
  5
13E9
330
150A
100
AcDbEntity
  8
layer 2
100
AcDbPolyline
 90
        3
 70
   128
 43
0.0
 10
343.0
 20
91.5
 42
0.9999999999999999
 10
339.0
 20
91.5
 42
0.9999999999999999
 10
343.0
 20
91.5
  0
LINE
  5
1240
330
150A
100
AcDbEntity
  8
layer 2
100
AcDbLine
 10
970.0661001922593
 20
564.0175970873788
 30
0.0
 11
996.1539681427408
 21
564.0175970873788
 31
0.0
  0
LWPOLYLINE
  5
13EC
330
150A
100
AcDbEntity
  8
layer 2
100
AcDbPolyline
 90
        3
 70
   128
 43
0.0
 10
343.0
 20
75.5
 42
0.9999999999999999
 10
339.0
 20
75.5
 42
0.9999999999999999
 10
343.0
 20
75.5
  0
LINE
  5
1241
330
150A
100
AcDbEntity
  8
layer 2
100
AcDbLine
 10
939.2205084701488
 20
572.0175970873788
 30
0.0
 11
949.2205084701488
 21
572.0175970873788
 31
0.0
  0
LWPOLYLINE
  5
13EB
330
150A
100
AcDbEntity
  8
layer 2
100
AcDbPolyline
 90
        3
 70
   128
 43
0.0
 10
359.0
 20
75.5
 42
0.9999999999999999
 10
355.0
 20
75.5
 42
0.9999999999999999
 10
359.0
 20
75.5
  0
LWPOLYLINE
  5
13EE
330
150A
100
AcDbEntity
  8
layer 2
100
AcDbPolyline
 90
        3
 70
   128
 43
0.0
 10
351.5
 20
114.75
 42
0.9999999999999999
 10
346.5
 20
114.75
 42
0.9999999999999999
 10
351.5
 20
114.75
  0
LINE
  5
1242
330
150A
100
AcDbEntity
  8
layer 2
100
AcDbLine
 10
835.0230190368261
 20
502.0175970873788
 30
0.0
 11
875.0230190368261
 21
502.0175970873788
 31
0.0
  0
LINE
  5
1243
330
150A
100
AcDbEntity
  8
layer 2
100
AcDbLine
 10
875.0230190368261
 20
532.0175970873788
 30
0.0
 11
875.0230190368261
 21
557.0175970873788
 31
0.0
  0
LWPOLYLINE
  5
13ED
330
150A
100
AcDbEntity
  8
layer 3
100
AcDbPolyline
 90
        3
 70
   128
 43
0.0
 10
682.2838436686332
 20
371.9073130317549
 42
0.9999999999999999
 10
678.2838436686332
 20
371.9073130317549
 42
0.9999999999999999
 10
682.2838436686332
 20
371.9073130317549
  0
LINE
  5
1244
330
150A
100
AcDbEntity
  8
layer 2
100
AcDbLine
 10
875.0230190368261
 20
557.0175970873788
 30
0.0
 11
835.0230190368261
 21
557.0175970873788
 31
0.0
  0
LWPOLYLINE
  5
13EF
330
150A
100
AcDbEntity
  8
layer 3
100
AcDbPolyline
 90
        3
 70
   128
 43
0.0
 10
385.4644660940673
 20
109.5355339059327
 42
0.9999999999999999
 10
381.4644660940673
 20
109.5355339059327
 42
0.9999999999999999
 10
385.4644660940673
 20
109.5355339059327
  0
LINE
  5
1245
330
150A
100
AcDbEntity
  8
layer 2
100
AcDbLine
 10
835.0230190368261
 20
557.0175970873788
 30
0.0
 11
835.0230190368261
 21
502.0175970873788
 31
0.0
  0
LINE
  5
1246
330
150A
100
AcDbEntity
  8
layer 2
100
AcDbLine
 10
875.0230190368261
 20
502.0175970873788
 30
0.0
 11
895.0230190368261
 21
502.0175970873788
 31
0.0
  0
LWPOLYLINE
  5
13E3
330
150A
100
AcDbEntity
  8
layer 3
100
AcDbPolyline
 90
        3
 70
   128
 43
0.0
 10
863.3549114804986
 20
371.9073130317549
 42
0.9999999999999999
 10
859.3549114804986
 20
371.9073130317549
 42
0.9999999999999999
 10
863.3549114804986
 20
371.9073130317549
  0
LINE
  5
1247
330
150A
100
AcDbEntity
  8
layer 2
100
AcDbLine
 10
895.0230190368261
 20
502.0175970873788
 30
0.0
 11
895.0230190368261
 21
532.0175970873788
 31
0.0
  0
LWPOLYLINE
  5
13E2
330
150A
100
AcDbEntity
  8
layer 3
100
AcDbPolyline
 90
        3
 70
   128
 43
0.0
 10
566.5355339059328
 20
109.5355339059327
 42
0.9999999999999999
 10
562.5355339059328
 20
109.5355339059327
 42
0.9999999999999999
 10
566.5355339059328
 20
109.5355339059327
  0
LINE
  5
1248
330
150A
100
AcDbEntity
  8
layer 2
100
AcDbLine
 10
895.0230190368261
 20
532.0175970873788
 30
0.0
 11
875.0230190368261
 21
532.0175970873788
 31
0.0
  0
LINE
  5
1249
330
150A
100
AcDbEntity
  8
layer 2
100
AcDbLine
 10
900.2822762582841
 20
534.4065490472765
 30
0.0
 11
935.2822762582841
 21
534.4065490472765
 31
0.0
  0
LWPOLYLINE
  5
13E5
330
150A
100
AcDbEntity
  8
layer 3
100
AcDbPolyline
 90
        3
 70
   128
 43
0.0
 10
863.3549114804986
 20
190.8362452198895
 42
0.9999999999999999
 10
859.3549114804986
 20
190.8362452198895
 42
0.9999999999999999
 10
863.3549114804986
 20
190.8362452198895
  0
LINE
  5
124A
330
150A
100
AcDbEntity
  8
layer 2
100
AcDbLine
 10
935.2822762582841
 20
534.4065490472765
 30
0.0
 11
935.2822762582841
 21
559.4065490472765
 31
0.0
  0
LWPOLYLINE
  5
13E4
330
150A
100
AcDbEntity
  8
layer 3
100
AcDbPolyline
 90
        3
 70
   128
 43
0.0
 10
566.5355339059328
 20
-71.53553390593274
 42
0.9999999999999999
 10
562.5355339059328
 20
-71.53553390593274
 42
0.9999999999999999
 10
566.5355339059328
 20
-71.53553390593274
  0
LINE
  5
124B
330
150A
100
AcDbEntity
  8
layer 2
100
AcDbLine
 10
935.2822762582841
 20
559.4065490472765
 30
0.0
 11
900.2822762582841
 21
559.4065490472765
 31
0.0
  0
LINE
  5
124C
330
150A
100
AcDbEntity
  8
layer 2
100
AcDbLine
 10
900.2822762582841
 20
559.4065490472765
 30
0.0
 11
900.2822762582841
 21
534.4065490472765
 31
0.0
  0
LWPOLYLINE
  5
13E6
330
150A
100
AcDbEntity
  8
layer 3
100
AcDbPolyline
 90
        3
 70
   128
 43
0.0
 10
682.2838436686332
 20
190.8362452198895
 42
0.9999999999999999
 10
678.2838436686332
 20
190.8362452198895
 42
0.9999999999999999
 10
682.2838436686332
 20
190.8362452198895
  0
LINE
  5
124D
330
150A
100
AcDbEntity
  8
layer 2
100
AcDbLine
 10
952.425122597813
 20
534.0175970873788
 30
0.0
 11
987.425122597813
 21
534.0175970873788
 31
0.0
  0
LWPOLYLINE
  5
13E8
330
150A
100
AcDbEntity
  8
layer 3
100
AcDbPolyline
 90
        3
 70
   128
 43
0.0
 10
385.4644660940673
 20
-71.53553390593274
 42
0.9999999999999999
 10
381.4644660940673
 20
-71.53553390593274
 42
0.9999999999999999
 10
385.4644660940673
 20
-71.53553390593274
  0
LINE
  5
124E
330
150A
100
AcDbEntity
  8
layer 2
100
AcDbLine
 10
987.425122597813
 20
534.0175970873788
 30
0.0
 11
987.425122597813
 21
559.0175970873788
 31
0.0
  0
LINE
  5
124F
330
150A
100
AcDbEntity
  8
layer 2
100
AcDbLine
 10
987.425122597813
 20
559.0175970873788
 30
0.0
 11
952.425122597813
 21
559.0175970873788
 31
0.0
  0
LWPOLYLINE
  5
13E7
330
150A
100
AcDbEntity
  8
layer 2
100
AcDbPolyline
 90
        3
 70
   128
 43
0.0
 10
375.4275018384865
 20
343.2614128996543
 42
0.9999999999999999
 10
335.4275018384865
 20
343.2614128996543
 42
0.9999999999999999
 10
375.4275018384865
 20
343.2614128996543
  0
LINE
  5
1250
330
150A
100
AcDbEntity
  8
layer 2
100
AcDbLine
 10
952.425122597813
 20
559.0175970873788
 30
0.0
 11
952.425122597813
 21
534.0175970873788
 31
0.0
  0
LWPOLYLINE
  5
13E0
330
150A
100
AcDbEntity
  8
layer 2
100
AcDbPolyline
 90
        3
 70
   128
 43
0.0
 10
29.0
 20
333.5
 42
0.9999999999999999
 10
-11.0
 20
333.5
 42
0.9999999999999999
 10
29.0
 20
333.5
  0
LINE
  5
1251
330
150A
100
AcDbEntity
  8
layer 2
100
AcDbLine
 10
840.1382872624107
 20
564.0175970873788
 30
0.0
 11
840.1382872624107
 21
572.0175970873788
 31
0.0
  0
LINE
  5
1252
330
150A
100
AcDbEntity
  8
layer 2
100
AcDbLine
 10
868.5280259144051
 20
564.0175970873788
 30
0.0
 11
868.5280259144051
 21
572.0175970873788
 31
0.0
  0
LINE
  5
2CE
330
150A
100
AcDbEntity
  8
layer 2
100
AcDbLine
 10
393.4275018384865
 20
365.7614128996543
 30
0.0
 11
405.9275018384865
 21
365.7614128996543
 31
0.0
  0
LINE
  5
1253
330
150A
100
AcDbEntity
  8
layer 2
100
AcDbLine
 10
883.8738305911589
 20
564.0175970873788
 30
0.0
 11
883.8738305911589
 21
572.0175970873788
 31
0.0
  0
LINE
  5
2CF
330
150A
100
AcDbEntity
  8
layer 2
100
AcDbLine
 10
405.9275018384865
 20
365.7614128996543
 30
0.0
 11
405.9275018384865
 21
375.7614128996543
 31
0.0
  0
LINE
  5
1254
330
150A
100
AcDbEntity
  8
layer 2
100
AcDbLine
 10
910.2174619529196
 20
564.0175970873788
 30
0.0
 11
910.2174619529196
 21
572.0175970873788
 31
0.0
  0
LINE
  5
352
330
150A
100
AcDbEntity
  8
layer 2
100
AcDbLine
 10
59.50000000000001
 20
364.0
 30
0.0
 11
59.50000000000001
 21
366.0
 31
0.0
  0
LINE
  5
1255
330
150A
100
AcDbEntity
  8
layer 2
100
AcDbLine
 10
926.5863202747903
 20
564.0175970873788
 30
0.0
 11
926.5863202747903
 21
572.0175970873788
 31
0.0
  0
LINE
  5
1256
330
150A
100
AcDbEntity
  8
layer 2
100
AcDbLine
 10
953.9530052816679
 20
564.0175970873788
 30
0.0
 11
953.9530052816679
 21
572.0175970873788
 31
0.0
  0
LINE
  5
2D0
330
150A
100
AcDbEntity
  8
layer 2
100
AcDbLine
 10
405.9275018384865
 20
375.7614128996543
 30
0.0
 11
425.9275018384865
 21
375.7614128996543
 31
0.0
  0
LINE
  5
1257
330
150A
100
AcDbEntity
  8
layer 2
100
AcDbLine
 10
970.0661001922593
 20
564.0175970873788
 30
0.0
 11
970.0661001922593
 21
572.0175970873788
 31
0.0
  0
LINE
  5
1258
330
150A
100
AcDbEntity
  8
layer 2
100
AcDbLine
 10
996.1539681427408
 20
564.0175970873788
 30
0.0
 11
996.1539681427408
 21
572.0175970873788
 31
0.0
  0
LINE
  5
353
330
150A
100
AcDbEntity
  8
layer 2
100
AcDbLine
 10
59.50000000000001
 20
366.0
 30
0.0
 11
79.50000000000001
 21
366.0
 31
0.0
  0
LINE
  5
1259
330
150A
100
AcDbEntity
  8
layer 2
100
AcDbLine
 10
1005.208657673466
 20
557.2663360016753
 30
0.0
 11
1021.026372014215
 21
557.2663360016753
 31
0.0
  0
LINE
  5
125A
330
150A
100
AcDbEntity
  8
layer 2
100
AcDbLine
 10
1021.026372014215
 20
557.2663360016753
 30
0.0
 11
1021.026372014215
 21
572.0175970873788
 31
0.0
  0
LINE
  5
2D1
330
150A
100
AcDbEntity
  8
layer 2
100
AcDbLine
 10
425.9275018384865
 20
375.7614128996543
 30
0.0
 11
425.9275018384865
 21
365.7614128996543
 31
0.0
  0
LWPOLYLINE
  5
13DE
330
150A
100
AcDbEntity
  8
layer 2
100
AcDbPolyline
 90
        3
 70
   128
 43
0.0
 10
1010.460656503746
 20
563.5531309933115
 42
0.9999999999999999
 10
1007.460656503746
 20
563.5531309933115
 42
0.9999999999999999
 10
1010.460656503746
 20
563.5531309933115
  0
LINE
  5
354
330
150A
100
AcDbEntity
  8
layer 2
100
AcDbLine
 10
79.50000000000001
 20
366.0
 30
0.0
 11
79.50000000000001
 21
364.0
 31
0.0
  0
LWPOLYLINE
  5
13DF
330
150A
100
AcDbEntity
  8
layer 2
100
AcDbPolyline
 90
        3
 70
   128
 43
0.0
 10
830.8895886918802
 20
563.5531309933115
 42
0.9999999999999999
 10
824.8895886918802
 20
563.5531309933115
 42
0.9999999999999999
 10
830.8895886918802
 20
563.5531309933115
  0
LINE
  5
2D2
330
150A
100
AcDbEntity
  8
layer 2
100
AcDbLine
 10
425.9275018384865
 20
365.7614128996543
 30
0.0
 11
448.9275018384865
 21
365.7614128996543
 31
0.0
  0
LINE
  5
2D3
330
150A
100
AcDbEntity
  8
layer 2
100
AcDbLine
 10
448.9275018384865
 20
365.7614128996543
 30
0.0
 11
448.9275018384865
 21
375.7614128996543
 31
0.0
  0
LINE
  5
355
330
150A
100
AcDbEntity
  8
layer 2
100
AcDbLine
 10
102.5
 20
364.0
 30
0.0
 11
102.5
 21
366.0
 31
0.0
  0
LINE
  5
2D4
330
150A
100
AcDbEntity
  8
layer 2
100
AcDbLine
 10
448.9275018384865
 20
375.7614128996543
 30
0.0
 11
468.9275018384865
 21
375.7614128996543
 31
0.0
  0
LINE
  5
356
330
150A
100
AcDbEntity
  8
layer 2
100
AcDbLine
 10
102.5
 20
366.0
 30
0.0
 11
122.5
 21
366.0
 31
0.0
  0
LINE
  5
2D5
330
150A
100
AcDbEntity
  8
layer 2
100
AcDbLine
 10
468.9275018384865
 20
375.7614128996543
 30
0.0
 11
468.9275018384865
 21
365.7614128996543
 31
0.0
  0
LINE
  5
357
330
150A
100
AcDbEntity
  8
layer 2
100
AcDbLine
 10
122.5
 20
366.0
 30
0.0
 11
122.5
 21
364.0
 31
0.0
  0
LINE
  5
2D6
330
150A
100
AcDbEntity
  8
layer 2
100
AcDbLine
 10
468.9275018384865
 20
365.7614128996543
 30
0.0
 11
491.9275018384865
 21
365.7614128996543
 31
0.0
  0
LINE
  5
2D7
330
150A
100
AcDbEntity
  8
layer 2
100
AcDbLine
 10
491.9275018384865
 20
365.7614128996543
 30
0.0
 11
491.9275018384865
 21
375.7614128996543
 31
0.0
  0
LINE
  5
358
330
150A
100
AcDbEntity
  8
layer 2
100
AcDbLine
 10
145.5
 20
364.0
 30
0.0
 11
145.5
 21
366.0
 31
0.0
  0
LINE
  5
2D8
330
150A
100
AcDbEntity
  8
layer 2
100
AcDbLine
 10
491.9275018384865
 20
375.7614128996543
 30
0.0
 11
511.9275018384865
 21
375.7614128996543
 31
0.0
  0
LINE
  5
359
330
150A
100
AcDbEntity
  8
layer 2
100
AcDbLine
 10
145.5
 20
366.0
 30
0.0
 11
165.5
 21
366.0
 31
0.0
  0
LINE
  5
2D9
330
150A
100
AcDbEntity
  8
layer 2
100
AcDbLine
 10
511.9275018384865
 20
375.7614128996543
 30
0.0
 11
511.9275018384865
 21
365.7614128996543
 31
0.0
  0
LINE
  5
35A
330
150A
100
AcDbEntity
  8
layer 2
100
AcDbLine
 10
165.5
 20
366.0
 30
0.0
 11
165.5
 21
364.0
 31
0.0
  0
LINE
  5
2DA
330
150A
100
AcDbEntity
  8
layer 2
100
AcDbLine
 10
511.9275018384865
 20
365.7614128996543
 30
0.0
 11
534.9275018384865
 21
365.7614128996543
 31
0.0
  0
LINE
  5
2DB
330
150A
100
AcDbEntity
  8
layer 2
100
AcDbLine
 10
534.9275018384865
 20
365.7614128996543
 30
0.0
 11
534.9275018384865
 21
375.7614128996543
 31
0.0
  0
LINE
  5
35B
330
150A
100
AcDbEntity
  8
layer 2
100
AcDbLine
 10
188.5
 20
364.0
 30
0.0
 11
188.5
 21
366.0
 31
0.0
  0
LINE
  5
2DC
330
150A
100
AcDbEntity
  8
layer 2
100
AcDbLine
 10
534.9275018384865
 20
375.7614128996543
 30
0.0
 11
554.9275018384865
 21
375.7614128996543
 31
0.0
  0
LINE
  5
35C
330
150A
100
AcDbEntity
  8
layer 2
100
AcDbLine
 10
188.5
 20
366.0
 30
0.0
 11
208.5
 21
366.0
 31
0.0
  0
LINE
  5
2DD
330
150A
100
AcDbEntity
  8
layer 2
100
AcDbLine
 10
554.9275018384865
 20
375.7614128996543
 30
0.0
 11
554.9275018384865
 21
365.7614128996543
 31
0.0
  0
LINE
  5
35D
330
150A
100
AcDbEntity
  8
layer 2
100
AcDbLine
 10
208.5
 20
366.0
 30
0.0
 11
208.5
 21
364.0
 31
0.0
  0
LINE
  5
2DE
330
150A
100
AcDbEntity
  8
layer 2
100
AcDbLine
 10
554.9275018384865
 20
365.7614128996543
 30
0.0
 11
567.4275018384865
 21
365.7614128996543
 31
0.0
  0
LINE
  5
2DF
330
150A
100
AcDbEntity
  8
layer 2
100
AcDbLine
 10
567.4275018384865
 20
365.7614128996543
 30
0.0
 11
567.4275018384865
 21
191.7614128996543
 31
0.0
  0
LINE
  5
B76
330
150A
100
AcDbEntity
  8
layer 2
100
AcDbLine
 10
1206.312438014091
 20
350.8730039920159
 30
0.0
 11
1206.312438014091
 21
176.8730039920159
 31
0.0
  0
LINE
  5
2E0
330
150A
100
AcDbEntity
  8
layer 2
100
AcDbLine
 10
567.4275018384865
 20
191.7614128996543
 30
0.0
 11
393.4275018384865
 21
191.7614128996543
 31
0.0
  0
LINE
  5
B77
330
150A
100
AcDbEntity
  8
layer 2
100
AcDbLine
 10
1206.312438014091
 20
176.8730039920159
 30
0.0
 11
1032.312438014091
 21
176.8730039920159
 31
0.0
  0
LINE
  5
2E1
330
150A
100
AcDbEntity
  8
layer 2
100
AcDbLine
 10
393.4275018384865
 20
191.7614128996543
 30
0.0
 11
393.4275018384865
 21
204.2614128996543
 31
0.0
  0
LINE
  5
B78
330
150A
100
AcDbEntity
  8
layer 2
100
AcDbLine
 10
1032.312438014091
 20
176.8730039920159
 30
0.0
 11
1032.312438014091
 21
189.3730039920159
 31
0.0
  0
LINE
  5
2E2
330
150A
100
AcDbEntity
  8
layer 2
100
AcDbLine
 10
393.4275018384865
 20
204.2614128996543
 30
0.0
 11
383.4275018384865
 21
204.2614128996543
 31
0.0
  0
LINE
  5
B9F
330
150A
100
AcDbEntity
  8
layer 2
100
AcDbLine
 10
1032.312438014091
 20
189.3730039920159
 30
0.0
 11
1027.312438014091
 21
189.3730039920159
 31
0.0
  0
LINE
  5
2E3
330
150A
100
AcDbEntity
  8
layer 2
100
AcDbLine
 10
383.4275018384865
 20
224.2614128996543
 30
0.0
 11
393.4275018384865
 21
224.2614128996543
 31
0.0
  0
LINE
  5
BA0
330
150A
100
AcDbEntity
  8
layer 2
100
AcDbLine
 10
1027.312438014091
 20
209.3730039920159
 30
0.0
 11
1032.312438014091
 21
209.3730039920159
 31
0.0
  0
LINE
  5
2E4
330
150A
100
AcDbEntity
  8
layer 2
100
AcDbLine
 10
393.4275018384865
 20
224.2614128996543
 30
0.0
 11
393.4275018384865
 21
247.2614128996543
 31
0.0
  0
LINE
  5
B7B
330
150A
100
AcDbEntity
  8
layer 2
100
AcDbLine
 10
1032.312438014091
 20
209.3730039920159
 30
0.0
 11
1032.312438014091
 21
232.3730039920159
 31
0.0
  0
LINE
  5
2E5
330
150A
100
AcDbEntity
  8
layer 2
100
AcDbLine
 10
393.4275018384865
 20
247.2614128996543
 30
0.0
 11
383.4275018384865
 21
247.2614128996543
 31
0.0
  0
LINE
  5
BA1
330
150A
100
AcDbEntity
  8
layer 2
100
AcDbLine
 10
1032.312438014091
 20
232.3730039920159
 30
0.0
 11
1027.312438014091
 21
232.3730039920159
 31
0.0
  0
LINE
  5
2E6
330
150A
100
AcDbEntity
  8
layer 2
100
AcDbLine
 10
383.4275018384865
 20
267.2614128996543
 30
0.0
 11
393.4275018384865
 21
267.2614128996543
 31
0.0
  0
LINE
  5
BA2
330
150A
100
AcDbEntity
  8
layer 2
100
AcDbLine
 10
1027.312438014091
 20
252.3730039920159
 30
0.0
 11
1032.312438014091
 21
252.3730039920159
 31
0.0
  0
LINE
  5
2E7
330
150A
100
AcDbEntity
  8
layer 2
100
AcDbLine
 10
393.4275018384865
 20
267.2614128996543
 30
0.0
 11
393.4275018384865
 21
290.2614128996543
 31
0.0
  0
LINE
  5
B7E
330
150A
100
AcDbEntity
  8
layer 2
100
AcDbLine
 10
1032.312438014091
 20
252.3730039920159
 30
0.0
 11
1032.312438014091
 21
275.3730039920159
 31
0.0
  0
LINE
  5
2E8
330
150A
100
AcDbEntity
  8
layer 2
100
AcDbLine
 10
393.4275018384865
 20
290.2614128996543
 30
0.0
 11
383.4275018384865
 21
290.2614128996543
 31
0.0
  0
LINE
  5
BA3
330
150A
100
AcDbEntity
  8
layer 2
100
AcDbLine
 10
1032.312438014091
 20
275.3730039920159
 30
0.0
 11
1027.312438014091
 21
275.3730039920159
 31
0.0
  0
LINE
  5
2E9
330
150A
100
AcDbEntity
  8
layer 2
100
AcDbLine
 10
383.4275018384865
 20
310.2614128996543
 30
0.0
 11
393.4275018384865
 21
310.2614128996543
 31
0.0
  0
LINE
  5
BA4
330
150A
100
AcDbEntity
  8
layer 2
100
AcDbLine
 10
1027.312438014091
 20
295.3730039920159
 30
0.0
 11
1032.312438014091
 21
295.3730039920159
 31
0.0
  0
LINE
  5
2EA
330
150A
100
AcDbEntity
  8
layer 2
100
AcDbLine
 10
393.4275018384865
 20
310.2614128996543
 30
0.0
 11
393.4275018384865
 21
333.2614128996543
 31
0.0
  0
LINE
  5
B81
330
150A
100
AcDbEntity
  8
layer 2
100
AcDbLine
 10
1032.312438014091
 20
295.3730039920159
 30
0.0
 11
1032.312438014091
 21
318.3730039920159
 31
0.0
  0
LINE
  5
2EB
330
150A
100
AcDbEntity
  8
layer 2
100
AcDbLine
 10
393.4275018384865
 20
333.2614128996543
 30
0.0
 11
383.4275018384865
 21
333.2614128996543
 31
0.0
  0
LINE
  5
BA5
330
150A
100
AcDbEntity
  8
layer 2
100
AcDbLine
 10
1032.312438014091
 20
318.3730039920159
 30
0.0
 11
1027.312438014091
 21
318.3730039920159
 31
0.0
  0
LINE
  5
2EC
330
150A
100
AcDbEntity
  8
layer 2
100
AcDbLine
 10
383.4275018384865
 20
353.2614128996543
 30
0.0
 11
393.4275018384865
 21
353.2614128996543
 31
0.0
  0
LINE
  5
BA6
330
150A
100
AcDbEntity
  8
layer 2
100
AcDbLine
 10
1027.312438014091
 20
338.3730039920159
 30
0.0
 11
1032.312438014091
 21
338.3730039920159
 31
0.0
  0
LINE
  5
2ED
330
150A
100
AcDbEntity
  8
layer 2
100
AcDbLine
 10
393.4275018384865
 20
353.2614128996543
 30
0.0
 11
393.4275018384865
 21
365.7614128996543
 31
0.0
  0
LINE
  5
B84
330
150A
100
AcDbEntity
  8
layer 2
100
AcDbLine
 10
1032.312438014091
 20
338.3730039920159
 30
0.0
 11
1032.312438014091
 21
350.8730039920159
 31
0.0
  0
LINE
  5
2EE
330
150A
100
AcDbEntity
  8
layer 2
100
AcDbLine
 10
383.4275018384865
 20
353.2614128996543
 30
0.0
 11
378.4275018384865
 21
353.2614128996543
 31
0.0
  0
LINE
  5
2EF
330
150A
100
AcDbEntity
  8
layer 2
100
AcDbLine
 10
378.4275018384865
 20
233.7614128996543
 30
0.0
 11
378.4275018384865
 21
204.2614128996543
 31
0.0
  0
LINE
  5
2F0
330
150A
100
AcDbEntity
  8
layer 2
100
AcDbLine
 10
378.4275018384865
 20
276.7614128996543
 30
0.0
 11
378.4275018384865
 21
237.7614128996543
 31
0.0
  0
LINE
  5
2F1
330
150A
100
AcDbEntity
  8
layer 2
100
AcDbLine
 10
378.4275018384865
 20
353.2614128996543
 30
0.0
 11
378.4275018384865
 21
323.7614128996543
 31
0.0
  0
LINE
  5
2F2
330
150A
100
AcDbEntity
  8
layer 2
100
AcDbLine
 10
378.4275018384865
 20
319.7614128996543
 30
0.0
 11
378.4275018384865
 21
280.7614128996543
 31
0.0
  0
LINE
  5
2F3
330
150A
100
AcDbEntity
  8
layer 2
100
AcDbLine
 10
378.4275018384865
 20
204.2614128996543
 30
0.0
 11
383.4275018384865
 21
204.2614128996543
 31
0.0
  0
LINE
  5
2F4
330
150A
100
AcDbEntity
  8
layer 2
100
AcDbLine
 10
383.4275018384865
 20
333.2614128996543
 30
0.0
 11
383.4275018384865
 21
323.7614128996543
 31
0.0
  0
LINE
  5
2F5
330
150A
100
AcDbEntity
  8
layer 2
100
AcDbLine
 10
383.4275018384865
 20
319.7614128996543
 30
0.0
 11
383.4275018384865
 21
310.2614128996543
 31
0.0
  0
LINE
  5
2F6
330
150A
100
AcDbEntity
  8
layer 2
100
AcDbLine
 10
383.4275018384865
 20
290.2614128996543
 30
0.0
 11
383.4275018384865
 21
280.7614128996543
 31
0.0
  0
LINE
  5
2F7
330
150A
100
AcDbEntity
  8
layer 2
100
AcDbLine
 10
383.4275018384865
 20
276.7614128996543
 30
0.0
 11
383.4275018384865
 21
267.2614128996543
 31
0.0
  0
LINE
  5
2F8
330
150A
100
AcDbEntity
  8
layer 2
100
AcDbLine
 10
383.4275018384865
 20
247.2614128996543
 30
0.0
 11
383.4275018384865
 21
237.7614128996543
 31
0.0
  0
LINE
  5
2F9
330
150A
100
AcDbEntity
  8
layer 2
100
AcDbLine
 10
383.4275018384865
 20
233.7614128996543
 30
0.0
 11
383.4275018384865
 21
224.2614128996543
 31
0.0
  0
LINE
  5
2FA
330
150A
100
AcDbEntity
  8
layer 2
100
AcDbLine
 10
378.4275018384865
 20
323.7614128996543
 30
0.0
 11
383.4275018384865
 21
323.7614128996543
 31
0.0
  0
LINE
  5
2FB
330
150A
100
AcDbEntity
  8
layer 2
100
AcDbLine
 10
378.4275018384865
 20
319.7614128996543
 30
0.0
 11
383.4275018384865
 21
319.7614128996543
 31
0.0
  0
LINE
  5
2FC
330
150A
100
AcDbEntity
  8
layer 2
100
AcDbLine
 10
378.4275018384865
 20
280.7614128996543
 30
0.0
 11
383.4275018384865
 21
280.7614128996543
 31
0.0
  0
LINE
  5
2FD
330
150A
100
AcDbEntity
  8
layer 2
100
AcDbLine
 10
378.4275018384865
 20
276.7614128996543
 30
0.0
 11
383.4275018384865
 21
276.7614128996543
 31
0.0
  0
LINE
  5
2FE
330
150A
100
AcDbEntity
  8
layer 2
100
AcDbLine
 10
378.4275018384865
 20
237.7614128996543
 30
0.0
 11
383.4275018384865
 21
237.7614128996543
 31
0.0
  0
LINE
  5
2FF
330
150A
100
AcDbEntity
  8
layer 2
100
AcDbLine
 10
378.4275018384865
 20
233.7614128996543
 30
0.0
 11
383.4275018384865
 21
233.7614128996543
 31
0.0
  0
LWPOLYLINE
  5
13D9
330
150A
100
AcDbEntity
  8
layer 2
100
AcDbPolyline
 90
        3
 70
   128
 43
0.0
 10
360.4275018384865
 20
374.5114128996543
 42
0.9999999999999999
 10
350.4275018384865
 20
374.5114128996543
 42
0.9999999999999999
 10
360.4275018384865
 20
374.5114128996543
  0
LWPOLYLINE
  5
13DD
330
150A
100
AcDbEntity
  8
layer 2
100
AcDbPolyline
 90
        3
 70
   128
 43
0.0
 10
14.0
 20
364.75
 42
0.9999999999999999
 10
4.0
 20
364.75
 42
0.9999999999999999
 10
14.0
 20
364.75
  0
LWPOLYLINE
  5
13DC
330
150A
100
AcDbEntity
  8
layer 2
100
AcDbPolyline
 90
        3
 70
   128
 43
0.0
 10
391.3919679325538
 20
369.296946805587
 42
0.9999999999999999
 10
388.3919679325538
 20
369.296946805587
 42
0.9999999999999999
 10
391.3919679325538
 20
369.296946805587
  0
LWPOLYLINE
  5
13DB
330
150A
100
AcDbEntity
  8
layer 2
100
AcDbPolyline
 90
        3
 70
   128
 43
0.0
 10
572.4630357444191
 20
369.296946805587
 42
0.9999999999999999
 10
569.4630357444191
 20
369.296946805587
 42
0.9999999999999999
 10
572.4630357444191
 20
369.296946805587
  0
LWPOLYLINE
  5
13DA
330
150A
100
AcDbEntity
  8
layer 2
100
AcDbPolyline
 90
        3
 70
   128
 43
0.0
 10
572.4630357444191
 20
188.2258789937215
 42
0.9999999999999999
 10
569.4630357444191
 20
188.2258789937215
 42
0.9999999999999999
 10
572.4630357444191
 20
188.2258789937215
  0
LWPOLYLINE
  5
13D8
330
150A
100
AcDbEntity
  8
layer 2
100
AcDbPolyline
 90
        3
 70
   128
 43
0.0
 10
391.3919679325538
 20
188.2258789937215
 42
0.9999999999999999
 10
388.3919679325538
 20
188.2258789937215
 42
0.9999999999999999
 10
391.3919679325538
 20
188.2258789937215
  0
LINE
  5
35F
330
150A
100
AcDbEntity
  8
layer 2
100
AcDbLine
 10
43.46446609406726
 20
356.3601074253898
 30
0.0
 11
46.21446609406726
 21
357.9478206656613
 31
0.0
  0
LINE
  5
360
330
150A
100
AcDbEntity
  8
layer 2
100
AcDbLine
 10
224.5355339059327
 20
356.3601074253898
 30
0.0
 11
227.2855339059327
 21
357.9478206656613
 31
0.0
  0
LINE
  5
361
330
150A
100
AcDbEntity
  8
layer 2
100
AcDbLine
 10
224.5355339059327
 20
175.2890396135244
 30
0.0
 11
227.2855339059327
 21
176.8767528537958
 31
0.0
  0
LINE
  5
362
330
150A
100
AcDbEntity
  8
layer 2
100
AcDbLine
 10
43.46446609406726
 20
175.2890396135244
 30
0.0
 11
46.21446609406726
 21
176.8767528537958
 31
0.0
  0
LINE
  5
EA1
330
150A
100
AcDbEntity
  8
layer 2
100
AcDbLine
 10
1250.20461411145
 20
776.8239497114738
 30
0.0
 11
1252.95461411145
 21
778.4116629517454
 31
0.0
  0
LINE
  5
EA2
330
150A
100
AcDbEntity
  8
layer 2
100
AcDbLine
 10
1365.499999983786
 20
776.8239497114738
 30
0.0
 11
1368.249999983786
 21
778.4116629517454
 31
0.0
  0
LINE
  5
919
330
150A
100
AcDbEntity
  8
layer 2
100
AcDbLine
 10
1250.704614127664
 20
722.8245735194571
 30
0.0
 11
1253.454614127664
 21
724.4122867597287
 31
0.0
  0
LINE
  5
91A
330
150A
100
AcDbEntity
  8
layer 2
100
AcDbLine
 10
1476.704614127665
 20
722.8245735194571
 30
0.0
 11
1479.454614127665
 21
724.4122867597287
 31
0.0
  0
LINE
  5
EA3
330
150A
100
AcDbEntity
  8
layer 2
100
AcDbLine
 10
1476.704614111451
 20
776.8239497114738
 30
0.0
 11
1479.454614111451
 21
778.4116629517454
 31
0.0
  0
LINE
  5
91C
330
150A
100
AcDbEntity
  8
layer 2
100
AcDbLine
 10
1365.500589825271
 20
722.8245735194571
 30
0.0
 11
1368.250589825271
 21
724.4122867597287
 31
0.0
  0
LINE
  5
363
330
150A
100
AcDbEntity
  8
layer 2
100
AcDbLine
 10
46.21446609406726
 20
357.9478206656613
 30
0.0
 11
46.21446609406727
 21
361.1232471462042
 31
0.0
  0
LINE
  5
364
330
150A
100
AcDbEntity
  8
layer 2
100
AcDbLine
 10
227.2855339059327
 20
357.9478206656613
 30
0.0
 11
227.2855339059327
 21
361.1232471462042
 31
0.0
  0
LINE
  5
365
330
150A
100
AcDbEntity
  8
layer 2
100
AcDbLine
 10
227.2855339059327
 20
176.8767528537958
 30
0.0
 11
227.2855339059327
 21
180.0521793343387
 31
0.0
  0
LINE
  5
366
330
150A
100
AcDbEntity
  8
layer 2
100
AcDbLine
 10
46.21446609406726
 20
176.8767528537958
 30
0.0
 11
46.21446609406727
 21
180.0521793343387
 31
0.0
  0
LINE
  5
EA4
330
150A
100
AcDbEntity
  8
layer 2
100
AcDbLine
 10
1252.95461411145
 20
778.4116629517454
 30
0.0
 11
1252.95461411145
 21
781.5870894322883
 31
0.0
  0
LINE
  5
EA5
330
150A
100
AcDbEntity
  8
layer 2
100
AcDbLine
 10
1368.249999983786
 20
778.4116629517454
 30
0.0
 11
1368.249999983786
 21
781.5870894322883
 31
0.0
  0
LINE
  5
91E
330
150A
100
AcDbEntity
  8
layer 2
100
AcDbLine
 10
1253.454614127664
 20
724.4122867597287
 30
0.0
 11
1253.454614127664
 21
727.5877132402716
 31
0.0
  0
LINE
  5
91F
330
150A
100
AcDbEntity
  8
layer 2
100
AcDbLine
 10
1479.454614127665
 20
724.4122867597287
 30
0.0
 11
1479.454614127665
 21
727.5877132402716
 31
0.0
  0
LINE
  5
EA6
330
150A
100
AcDbEntity
  8
layer 2
100
AcDbLine
 10
1479.454614111451
 20
778.4116629517454
 30
0.0
 11
1479.454614111451
 21
781.5870894322883
 31
0.0
  0
LINE
  5
921
330
150A
100
AcDbEntity
  8
layer 2
100
AcDbLine
 10
1368.250589825271
 20
724.4122867597287
 30
0.0
 11
1368.250589825271
 21
727.5877132402716
 31
0.0
  0
LINE
  5
367
330
150A
100
AcDbEntity
  8
layer 2
100
AcDbLine
 10
46.21446609406727
 20
361.1232471462042
 30
0.0
 11
43.46446609406729
 21
362.7109603864756
 31
0.0
  0
LINE
  5
368
330
150A
100
AcDbEntity
  8
layer 2
100
AcDbLine
 10
227.2855339059327
 20
361.1232471462042
 30
0.0
 11
224.5355339059327
 21
362.7109603864756
 31
0.0
  0
LINE
  5
369
330
150A
100
AcDbEntity
  8
layer 2
100
AcDbLine
 10
227.2855339059327
 20
180.0521793343387
 30
0.0
 11
224.5355339059327
 21
181.6398925746102
 31
0.0
  0
LINE
  5
36A
330
150A
100
AcDbEntity
  8
layer 2
100
AcDbLine
 10
46.21446609406727
 20
180.0521793343387
 30
0.0
 11
43.46446609406729
 21
181.6398925746102
 31
0.0
  0
LINE
  5
EA7
330
150A
100
AcDbEntity
  8
layer 2
100
AcDbLine
 10
1252.95461411145
 20
781.5870894322883
 30
0.0
 11
1250.204614111451
 21
783.1748026725596
 31
0.0
  0
LINE
  5
EA8
330
150A
100
AcDbEntity
  8
layer 2
100
AcDbLine
 10
1368.249999983786
 20
781.5870894322883
 30
0.0
 11
1365.499999983786
 21
783.1748026725596
 31
0.0
  0
LINE
  5
923
330
150A
100
AcDbEntity
  8
layer 2
100
AcDbLine
 10
1253.454614127664
 20
727.5877132402716
 30
0.0
 11
1250.704614127664
 21
729.1754264805429
 31
0.0
  0
LINE
  5
924
330
150A
100
AcDbEntity
  8
layer 2
100
AcDbLine
 10
1479.454614127665
 20
727.5877132402716
 30
0.0
 11
1476.704614127665
 21
729.1754264805429
 31
0.0
  0
LINE
  5
EA9
330
150A
100
AcDbEntity
  8
layer 2
100
AcDbLine
 10
1479.454614111451
 20
781.5870894322883
 30
0.0
 11
1476.704614111451
 21
783.1748026725596
 31
0.0
  0
LINE
  5
926
330
150A
100
AcDbEntity
  8
layer 2
100
AcDbLine
 10
1368.250589825271
 20
727.5877132402716
 30
0.0
 11
1365.500589825271
 21
729.1754264805429
 31
0.0
  0
LINE
  5
36B
330
150A
100
AcDbEntity
  8
layer 2
100
AcDbLine
 10
43.46446609406729
 20
362.7109603864756
 30
0.0
 11
40.71446609406729
 21
361.1232471462042
 31
0.0
  0
LINE
  5
36C
330
150A
100
AcDbEntity
  8
layer 2
100
AcDbLine
 10
224.5355339059327
 20
362.7109603864756
 30
0.0
 11
221.7855339059327
 21
361.1232471462042
 31
0.0
  0
LINE
  5
36D
330
150A
100
AcDbEntity
  8
layer 2
100
AcDbLine
 10
224.5355339059327
 20
181.6398925746102
 30
0.0
 11
221.7855339059327
 21
180.0521793343387
 31
0.0
  0
LINE
  5
36E
330
150A
100
AcDbEntity
  8
layer 2
100
AcDbLine
 10
43.46446609406729
 20
181.6398925746102
 30
0.0
 11
40.71446609406729
 21
180.0521793343387
 31
0.0
  0
LINE
  5
EAA
330
150A
100
AcDbEntity
  8
layer 2
100
AcDbLine
 10
1250.204614111451
 20
783.1748026725596
 30
0.0
 11
1247.454614111451
 21
781.5870894322883
 31
0.0
  0
LINE
  5
EAB
330
150A
100
AcDbEntity
  8
layer 2
100
AcDbLine
 10
1365.499999983786
 20
783.1748026725596
 30
0.0
 11
1362.749999983786
 21
781.5870894322883
 31
0.0
  0
LINE
  5
928
330
150A
100
AcDbEntity
  8
layer 2
100
AcDbLine
 10
1250.704614127664
 20
729.1754264805429
 30
0.0
 11
1247.954614127664
 21
727.5877132402716
 31
0.0
  0
LINE
  5
929
330
150A
100
AcDbEntity
  8
layer 2
100
AcDbLine
 10
1476.704614127665
 20
729.1754264805429
 30
0.0
 11
1473.954614127665
 21
727.5877132402716
 31
0.0
  0
LINE
  5
EAC
330
150A
100
AcDbEntity
  8
layer 2
100
AcDbLine
 10
1476.704614111451
 20
783.1748026725596
 30
0.0
 11
1473.954614111451
 21
781.5870894322883
 31
0.0
  0
LINE
  5
92B
330
150A
100
AcDbEntity
  8
layer 2
100
AcDbLine
 10
1365.500589825271
 20
729.1754264805429
 30
0.0
 11
1362.750589825271
 21
727.5877132402716
 31
0.0
  0
LINE
  5
36F
330
150A
100
AcDbEntity
  8
layer 2
100
AcDbLine
 10
40.71446609406729
 20
361.1232471462042
 30
0.0
 11
40.71446609406728
 21
357.9478206656613
 31
0.0
  0
LINE
  5
370
330
150A
100
AcDbEntity
  8
layer 2
100
AcDbLine
 10
221.7855339059327
 20
361.1232471462042
 30
0.0
 11
221.7855339059327
 21
357.9478206656613
 31
0.0
  0
LINE
  5
371
330
150A
100
AcDbEntity
  8
layer 2
100
AcDbLine
 10
221.7855339059327
 20
180.0521793343387
 30
0.0
 11
221.7855339059327
 21
176.8767528537958
 31
0.0
  0
LINE
  5
372
330
150A
100
AcDbEntity
  8
layer 2
100
AcDbLine
 10
40.71446609406729
 20
180.0521793343387
 30
0.0
 11
40.71446609406728
 21
176.8767528537958
 31
0.0
  0
LINE
  5
EAD
330
150A
100
AcDbEntity
  8
layer 2
100
AcDbLine
 10
1247.454614111451
 20
781.5870894322883
 30
0.0
 11
1247.45461411145
 21
778.4116629517454
 31
0.0
  0
LINE
  5
EAE
330
150A
100
AcDbEntity
  8
layer 2
100
AcDbLine
 10
1362.749999983786
 20
781.5870894322883
 30
0.0
 11
1362.749999983786
 21
778.4116629517454
 31
0.0
  0
LINE
  5
92D
330
150A
100
AcDbEntity
  8
layer 2
100
AcDbLine
 10
1247.954614127664
 20
727.5877132402716
 30
0.0
 11
1247.954614127664
 21
724.4122867597287
 31
0.0
  0
LINE
  5
92E
330
150A
100
AcDbEntity
  8
layer 2
100
AcDbLine
 10
1473.954614127665
 20
727.5877132402716
 30
0.0
 11
1473.954614127665
 21
724.4122867597287
 31
0.0
  0
LINE
  5
EAF
330
150A
100
AcDbEntity
  8
layer 2
100
AcDbLine
 10
1473.954614111451
 20
781.5870894322883
 30
0.0
 11
1473.954614111451
 21
778.4116629517454
 31
0.0
  0
LINE
  5
930
330
150A
100
AcDbEntity
  8
layer 2
100
AcDbLine
 10
1362.750589825271
 20
727.5877132402716
 30
0.0
 11
1362.750589825271
 21
724.4122867597287
 31
0.0
  0
LINE
  5
373
330
150A
100
AcDbEntity
  8
layer 2
100
AcDbLine
 10
40.71446609406728
 20
357.9478206656613
 30
0.0
 11
43.46446609406726
 21
356.3601074253898
 31
0.0
  0
LINE
  5
374
330
150A
100
AcDbEntity
  8
layer 2
100
AcDbLine
 10
221.7855339059327
 20
357.9478206656613
 30
0.0
 11
224.5355339059327
 21
356.3601074253898
 31
0.0
  0
LINE
  5
375
330
150A
100
AcDbEntity
  8
layer 2
100
AcDbLine
 10
221.7855339059327
 20
176.8767528537958
 30
0.0
 11
224.5355339059327
 21
175.2890396135244
 31
0.0
  0
LINE
  5
376
330
150A
100
AcDbEntity
  8
layer 2
100
AcDbLine
 10
40.71446609406728
 20
176.8767528537958
 30
0.0
 11
43.46446609406726
 21
175.2890396135244
 31
0.0
  0
LINE
  5
EB0
330
150A
100
AcDbEntity
  8
layer 2
100
AcDbLine
 10
1247.45461411145
 20
778.4116629517454
 30
0.0
 11
1250.20461411145
 21
776.8239497114738
 31
0.0
  0
LINE
  5
EB1
330
150A
100
AcDbEntity
  8
layer 2
100
AcDbLine
 10
1362.749999983786
 20
778.4116629517454
 30
0.0
 11
1365.499999983786
 21
776.8239497114738
 31
0.0
  0
LINE
  5
932
330
150A
100
AcDbEntity
  8
layer 2
100
AcDbLine
 10
1247.954614127664
 20
724.4122867597287
 30
0.0
 11
1250.704614127664
 21
722.8245735194571
 31
0.0
  0
LINE
  5
933
330
150A
100
AcDbEntity
  8
layer 2
100
AcDbLine
 10
1473.954614127665
 20
724.4122867597287
 30
0.0
 11
1476.704614127665
 21
722.8245735194571
 31
0.0
  0
LINE
  5
EB2
330
150A
100
AcDbEntity
  8
layer 2
100
AcDbLine
 10
1473.954614111451
 20
778.4116629517454
 30
0.0
 11
1476.704614111451
 21
776.8239497114738
 31
0.0
  0
LINE
  5
935
330
150A
100
AcDbEntity
  8
layer 2
100
AcDbLine
 10
1362.750589825271
 20
724.4122867597287
 30
0.0
 11
1365.500589825271
 21
722.8245735194571
 31
0.0
  0
LINE
  5
377
330
150A
100
AcDbEntity
  8
layer 2
100
AcDbLine
 10
59.50000000000001
 20
364.0
 30
0.0
 11
79.50000000000001
 21
364.0
 31
0.0
  0
LINE
  5
378
330
150A
100
AcDbEntity
  8
layer 2
100
AcDbLine
 10
102.5
 20
364.0
 30
0.0
 11
122.5
 21
364.0
 31
0.0
  0
LINE
  5
379
330
150A
100
AcDbEntity
  8
layer 2
100
AcDbLine
 10
145.5
 20
364.0
 30
0.0
 11
165.5
 21
364.0
 31
0.0
  0
LINE
  5
37A
330
150A
100
AcDbEntity
  8
layer 2
100
AcDbLine
 10
188.5
 20
364.0
 30
0.0
 11
208.5
 21
364.0
 31
0.0
  0
LWPOLYLINE
  5
13E1
330
150A
100
AcDbEntity
  8
layer 2
100
AcDbPolyline
 90
        3
 70
   128
 43
0.0
 10
42.00000000000001
 20
333.5
 42
0.9999999999999999
 10
32.00000000000001
 20
333.5
 42
0.9999999999999999
 10
42.00000000000001
 20
333.5
  0
ARC
  5
44B
330
150A
100
AcDbEntity
  8
layer 3
100
AcDbCircle
 10
691.8193775745655
 20
360.3717791258221
 30
0.0
 40
3.0
100
AcDbArc
 50
90.0
 51
180.0
  0
ARC
  5
44F
330
150A
100
AcDbEntity
  8
layer 3
100
AcDbCircle
 10
734.8193775745655
 20
360.3717791258221
 30
0.0
 40
3.0
100
AcDbArc
 50
90.0
 51
180.0
  0
ARC
  5
457
330
150A
100
AcDbEntity
  8
layer 3
100
AcDbCircle
 10
777.8193775745655
 20
360.3717791258221
 30
0.0
 40
3.0
100
AcDbArc
 50
90.0
 51
180.0
  0
ARC
  5
45F
330
150A
100
AcDbEntity
  8
layer 3
100
AcDbCircle
 10
820.8193775745655
 20
360.3717791258221
 30
0.0
 40
3.0
100
AcDbArc
 50
90.0
 51
180.0
  0
ARC
  5
467
330
150A
100
AcDbEntity
  8
layer 3
100
AcDbCircle
 10
691.8193775745655
 20
317.3717791258222
 30
0.0
 40
3.0
100
AcDbArc
 50
90.0
 51
180.0
  0
ARC
  5
468
330
150A
100
AcDbEntity
  8
layer 3
100
AcDbCircle
 10
734.8193775745655
 20
317.3717791258222
 30
0.0
 40
3.0
100
AcDbArc
 50
90.0
 51
180.0
  0
ARC
  5
469
330
150A
100
AcDbEntity
  8
layer 3
100
AcDbCircle
 10
777.8193775745655
 20
317.3717791258222
 30
0.0
 40
3.0
100
AcDbArc
 50
90.0
 51
180.0
  0
ARC
  5
46A
330
150A
100
AcDbEntity
  8
layer 3
100
AcDbCircle
 10
820.8193775745655
 20
317.3717791258222
 30
0.0
 40
3.0
100
AcDbArc
 50
90.0
 51
180.0
  0
ARC
  5
487
330
150A
100
AcDbEntity
  8
layer 3
100
AcDbCircle
 10
691.8193775745655
 20
274.3717791258223
 30
0.0
 40
3.0
100
AcDbArc
 50
90.0
 51
180.0
  0
ARC
  5
488
330
150A
100
AcDbEntity
  8
layer 3
100
AcDbCircle
 10
734.8193775745655
 20
274.3717791258223
 30
0.0
 40
3.0
100
AcDbArc
 50
90.0
 51
180.0
  0
ARC
  5
489
330
150A
100
AcDbEntity
  8
layer 3
100
AcDbCircle
 10
777.8193775745655
 20
274.3717791258223
 30
0.0
 40
3.0
100
AcDbArc
 50
90.0
 51
180.0
  0
ARC
  5
48A
330
150A
100
AcDbEntity
  8
layer 3
100
AcDbCircle
 10
820.8193775745655
 20
274.3717791258223
 30
0.0
 40
3.0
100
AcDbArc
 50
90.0
 51
180.0
  0
ARC
  5
4A7
330
150A
100
AcDbEntity
  8
layer 3
100
AcDbCircle
 10
691.8193775745655
 20
231.3717791258225
 30
0.0
 40
3.0
100
AcDbArc
 50
90.0
 51
180.0
  0
ARC
  5
4A8
330
150A
100
AcDbEntity
  8
layer 3
100
AcDbCircle
 10
734.8193775745655
 20
231.3717791258225
 30
0.0
 40
3.0
100
AcDbArc
 50
90.0
 51
180.0
  0
ARC
  5
4A9
330
150A
100
AcDbEntity
  8
layer 3
100
AcDbCircle
 10
777.8193775745655
 20
231.3717791258225
 30
0.0
 40
3.0
100
AcDbArc
 50
90.0
 51
180.0
  0
ARC
  5
4AA
330
150A
100
AcDbEntity
  8
layer 3
100
AcDbCircle
 10
820.8193775745655
 20
231.3717791258225
 30
0.0
 40
3.0
100
AcDbArc
 50
90.0
 51
180.0
  0
ARC
  5
4D3
330
150A
100
AcDbEntity
  8
layer 3
100
AcDbCircle
 10
394.9999999999997
 20
97.99999999999989
 30
0.0
 40
3.0
100
AcDbArc
 50
90.0
 51
180.0
  0
ARC
  5
4D4
330
150A
100
AcDbEntity
  8
layer 3
100
AcDbCircle
 10
437.9999999999997
 20
97.99999999999989
 30
0.0
 40
3.0
100
AcDbArc
 50
90.0
 51
180.0
  0
ARC
  5
4D5
330
150A
100
AcDbEntity
  8
layer 3
100
AcDbCircle
 10
480.9999999999997
 20
97.99999999999989
 30
0.0
 40
3.0
100
AcDbArc
 50
90.0
 51
180.0
  0
ARC
  5
4D6
330
150A
100
AcDbEntity
  8
layer 3
100
AcDbCircle
 10
523.9999999999997
 20
97.99999999999989
 30
0.0
 40
3.0
100
AcDbArc
 50
90.0
 51
180.0
  0
ARC
  5
4D7
330
150A
100
AcDbEntity
  8
layer 3
100
AcDbCircle
 10
394.9999999999997
 20
55.0
 30
0.0
 40
3.0
100
AcDbArc
 50
90.0
 51
180.0
  0
ARC
  5
4D8
330
150A
100
AcDbEntity
  8
layer 3
100
AcDbCircle
 10
437.9999999999997
 20
55.0
 30
0.0
 40
3.0
100
AcDbArc
 50
90.0
 51
180.0
  0
ARC
  5
4D9
330
150A
100
AcDbEntity
  8
layer 3
100
AcDbCircle
 10
480.9999999999997
 20
55.0
 30
0.0
 40
3.0
100
AcDbArc
 50
90.0
 51
180.0
  0
ARC
  5
4DA
330
150A
100
AcDbEntity
  8
layer 3
100
AcDbCircle
 10
523.9999999999997
 20
55.0
 30
0.0
 40
3.0
100
AcDbArc
 50
90.0
 51
180.0
  0
ARC
  5
4DB
330
150A
100
AcDbEntity
  8
layer 3
100
AcDbCircle
 10
394.9999999999997
 20
12.00000000000011
 30
0.0
 40
3.0
100
AcDbArc
 50
90.0
 51
180.0
  0
ARC
  5
4DC
330
150A
100
AcDbEntity
  8
layer 3
100
AcDbCircle
 10
437.9999999999997
 20
12.00000000000011
 30
0.0
 40
3.0
100
AcDbArc
 50
90.0
 51
180.0
  0
ARC
  5
4DD
330
150A
100
AcDbEntity
  8
layer 3
100
AcDbCircle
 10
480.9999999999997
 20
12.00000000000011
 30
0.0
 40
3.0
100
AcDbArc
 50
90.0
 51
180.0
  0
ARC
  5
4DE
330
150A
100
AcDbEntity
  8
layer 3
100
AcDbCircle
 10
523.9999999999997
 20
12.00000000000011
 30
0.0
 40
3.0
100
AcDbArc
 50
90.0
 51
180.0
  0
ARC
  5
4DF
330
150A
100
AcDbEntity
  8
layer 3
100
AcDbCircle
 10
394.9999999999997
 20
-30.99999999999977
 30
0.0
 40
3.0
100
AcDbArc
 50
90.0
 51
180.0
  0
ARC
  5
4E0
330
150A
100
AcDbEntity
  8
layer 3
100
AcDbCircle
 10
437.9999999999997
 20
-30.99999999999977
 30
0.0
 40
3.0
100
AcDbArc
 50
90.0
 51
180.0
  0
ARC
  5
4E1
330
150A
100
AcDbEntity
  8
layer 3
100
AcDbCircle
 10
480.9999999999997
 20
-30.99999999999977
 30
0.0
 40
3.0
100
AcDbArc
 50
90.0
 51
180.0
  0
ARC
  5
4E2
330
150A
100
AcDbEntity
  8
layer 3
100
AcDbCircle
 10
523.9999999999997
 20
-30.99999999999977
 30
0.0
 40
3.0
100
AcDbArc
 50
90.0
 51
180.0
  0
ARC
  5
44C
330
150A
100
AcDbEntity
  8
layer 3
100
AcDbCircle
 10
720.8193775745655
 20
360.3717791258221
 30
0.0
 40
3.0
100
AcDbArc
 50
0.0
 51
90.0
  0
ARC
  5
450
330
150A
100
AcDbEntity
  8
layer 3
100
AcDbCircle
 10
763.8193775745655
 20
360.3717791258221
 30
0.0
 40
3.0
100
AcDbArc
 50
0.0
 51
90.0
  0
ARC
  5
458
330
150A
100
AcDbEntity
  8
layer 3
100
AcDbCircle
 10
806.8193775745655
 20
360.3717791258221
 30
0.0
 40
3.0
100
AcDbArc
 50
0.0
 51
90.0
  0
ARC
  5
460
330
150A
100
AcDbEntity
  8
layer 3
100
AcDbCircle
 10
849.8193775745655
 20
360.3717791258221
 30
0.0
 40
3.0
100
AcDbArc
 50
0.0
 51
90.0
  0
ARC
  5
46B
330
150A
100
AcDbEntity
  8
layer 3
100
AcDbCircle
 10
720.8193775745655
 20
317.3717791258222
 30
0.0
 40
3.0
100
AcDbArc
 50
0.0
 51
90.0
  0
ARC
  5
46C
330
150A
100
AcDbEntity
  8
layer 3
100
AcDbCircle
 10
763.8193775745655
 20
317.3717791258222
 30
0.0
 40
3.0
100
AcDbArc
 50
0.0
 51
90.0
  0
ARC
  5
46D
330
150A
100
AcDbEntity
  8
layer 3
100
AcDbCircle
 10
806.8193775745655
 20
317.3717791258222
 30
0.0
 40
3.0
100
AcDbArc
 50
0.0
 51
90.0
  0
ARC
  5
46E
330
150A
100
AcDbEntity
  8
layer 3
100
AcDbCircle
 10
849.8193775745655
 20
317.3717791258222
 30
0.0
 40
3.0
100
AcDbArc
 50
0.0
 51
90.0
  0
ARC
  5
48B
330
150A
100
AcDbEntity
  8
layer 3
100
AcDbCircle
 10
720.8193775745655
 20
274.3717791258223
 30
0.0
 40
3.0
100
AcDbArc
 50
0.0
 51
90.0
  0
ARC
  5
48C
330
150A
100
AcDbEntity
  8
layer 3
100
AcDbCircle
 10
763.8193775745655
 20
274.3717791258223
 30
0.0
 40
3.0
100
AcDbArc
 50
0.0
 51
90.0
  0
ARC
  5
48D
330
150A
100
AcDbEntity
  8
layer 3
100
AcDbCircle
 10
806.8193775745655
 20
274.3717791258223
 30
0.0
 40
3.0
100
AcDbArc
 50
0.0
 51
90.0
  0
ARC
  5
48E
330
150A
100
AcDbEntity
  8
layer 3
100
AcDbCircle
 10
849.8193775745655
 20
274.3717791258223
 30
0.0
 40
3.0
100
AcDbArc
 50
0.0
 51
90.0
  0
ARC
  5
4AB
330
150A
100
AcDbEntity
  8
layer 3
100
AcDbCircle
 10
720.8193775745655
 20
231.3717791258225
 30
0.0
 40
3.0
100
AcDbArc
 50
0.0
 51
90.0
  0
ARC
  5
4AC
330
150A
100
AcDbEntity
  8
layer 3
100
AcDbCircle
 10
763.8193775745655
 20
231.3717791258225
 30
0.0
 40
3.0
100
AcDbArc
 50
0.0
 51
90.0
  0
ARC
  5
4AD
330
150A
100
AcDbEntity
  8
layer 3
100
AcDbCircle
 10
806.8193775745655
 20
231.3717791258225
 30
0.0
 40
3.0
100
AcDbArc
 50
0.0
 51
90.0
  0
ARC
  5
4AE
330
150A
100
AcDbEntity
  8
layer 3
100
AcDbCircle
 10
849.8193775745655
 20
231.3717791258225
 30
0.0
 40
3.0
100
AcDbArc
 50
0.0
 51
90.0
  0
ARC
  5
4E3
330
150A
100
AcDbEntity
  8
layer 3
100
AcDbCircle
 10
423.9999999999997
 20
97.99999999999989
 30
0.0
 40
3.0
100
AcDbArc
 50
0.0
 51
90.0
  0
ARC
  5
4E4
330
150A
100
AcDbEntity
  8
layer 3
100
AcDbCircle
 10
466.9999999999997
 20
97.99999999999989
 30
0.0
 40
3.0
100
AcDbArc
 50
0.0
 51
90.0
  0
ARC
  5
4E5
330
150A
100
AcDbEntity
  8
layer 3
100
AcDbCircle
 10
509.9999999999997
 20
97.99999999999989
 30
0.0
 40
3.0
100
AcDbArc
 50
0.0
 51
90.0
  0
ARC
  5
4E6
330
150A
100
AcDbEntity
  8
layer 3
100
AcDbCircle
 10
552.9999999999997
 20
97.99999999999989
 30
0.0
 40
3.0
100
AcDbArc
 50
0.0
 51
90.0
  0
ARC
  5
4E7
330
150A
100
AcDbEntity
  8
layer 3
100
AcDbCircle
 10
423.9999999999997
 20
55.0
 30
0.0
 40
3.0
100
AcDbArc
 50
0.0
 51
90.0
  0
ARC
  5
4E8
330
150A
100
AcDbEntity
  8
layer 3
100
AcDbCircle
 10
466.9999999999997
 20
55.0
 30
0.0
 40
3.0
100
AcDbArc
 50
0.0
 51
90.0
  0
ARC
  5
4E9
330
150A
100
AcDbEntity
  8
layer 3
100
AcDbCircle
 10
509.9999999999997
 20
55.0
 30
0.0
 40
3.0
100
AcDbArc
 50
0.0
 51
90.0
  0
ARC
  5
4EA
330
150A
100
AcDbEntity
  8
layer 3
100
AcDbCircle
 10
552.9999999999997
 20
55.0
 30
0.0
 40
3.0
100
AcDbArc
 50
0.0
 51
90.0
  0
ARC
  5
4EB
330
150A
100
AcDbEntity
  8
layer 3
100
AcDbCircle
 10
423.9999999999997
 20
12.00000000000011
 30
0.0
 40
3.0
100
AcDbArc
 50
0.0
 51
90.0
  0
ARC
  5
4EC
330
150A
100
AcDbEntity
  8
layer 3
100
AcDbCircle
 10
466.9999999999997
 20
12.00000000000011
 30
0.0
 40
3.0
100
AcDbArc
 50
0.0
 51
90.0
  0
ARC
  5
4ED
330
150A
100
AcDbEntity
  8
layer 3
100
AcDbCircle
 10
509.9999999999997
 20
12.00000000000011
 30
0.0
 40
3.0
100
AcDbArc
 50
0.0
 51
90.0
  0
ARC
  5
4EE
330
150A
100
AcDbEntity
  8
layer 3
100
AcDbCircle
 10
552.9999999999997
 20
12.00000000000011
 30
0.0
 40
3.0
100
AcDbArc
 50
0.0
 51
90.0
  0
ARC
  5
4EF
330
150A
100
AcDbEntity
  8
layer 3
100
AcDbCircle
 10
423.9999999999997
 20
-30.99999999999977
 30
0.0
 40
3.0
100
AcDbArc
 50
0.0
 51
90.0
  0
ARC
  5
4F0
330
150A
100
AcDbEntity
  8
layer 3
100
AcDbCircle
 10
466.9999999999997
 20
-30.99999999999977
 30
0.0
 40
3.0
100
AcDbArc
 50
0.0
 51
90.0
  0
ARC
  5
4F1
330
150A
100
AcDbEntity
  8
layer 3
100
AcDbCircle
 10
509.9999999999997
 20
-30.99999999999977
 30
0.0
 40
3.0
100
AcDbArc
 50
0.0
 51
90.0
  0
ARC
  5
4F2
330
150A
100
AcDbEntity
  8
layer 3
100
AcDbCircle
 10
552.9999999999997
 20
-30.99999999999977
 30
0.0
 40
3.0
100
AcDbArc
 50
0.0
 51
90.0
  0
ARC
  5
44D
330
150A
100
AcDbEntity
  8
layer 3
100
AcDbCircle
 10
720.8193775745655
 20
331.3717791258223
 30
0.0
 40
3.0
100
AcDbArc
 50
270.0
 51
0.0
  0
ARC
  5
451
330
150A
100
AcDbEntity
  8
layer 3
100
AcDbCircle
 10
763.8193775745655
 20
331.3717791258223
 30
0.0
 40
3.0
100
AcDbArc
 50
270.0
 51
0.0
  0
ARC
  5
459
330
150A
100
AcDbEntity
  8
layer 3
100
AcDbCircle
 10
806.8193775745655
 20
331.3717791258223
 30
0.0
 40
3.0
100
AcDbArc
 50
270.0
 51
0.0
  0
ARC
  5
461
330
150A
100
AcDbEntity
  8
layer 3
100
AcDbCircle
 10
849.8193775745655
 20
331.3717791258223
 30
0.0
 40
3.0
100
AcDbArc
 50
270.0
 51
0.0
  0
ARC
  5
46F
330
150A
100
AcDbEntity
  8
layer 3
100
AcDbCircle
 10
720.8193775745655
 20
288.3717791258224
 30
0.0
 40
3.0
100
AcDbArc
 50
270.0
 51
0.0
  0
ARC
  5
470
330
150A
100
AcDbEntity
  8
layer 3
100
AcDbCircle
 10
763.8193775745655
 20
288.3717791258224
 30
0.0
 40
3.0
100
AcDbArc
 50
270.0
 51
0.0
  0
ARC
  5
471
330
150A
100
AcDbEntity
  8
layer 3
100
AcDbCircle
 10
806.8193775745655
 20
288.3717791258224
 30
0.0
 40
3.0
100
AcDbArc
 50
270.0
 51
0.0
  0
ARC
  5
472
330
150A
100
AcDbEntity
  8
layer 3
100
AcDbCircle
 10
849.8193775745655
 20
288.3717791258224
 30
0.0
 40
3.0
100
AcDbArc
 50
270.0
 51
0.0
  0
ARC
  5
48F
330
150A
100
AcDbEntity
  8
layer 3
100
AcDbCircle
 10
720.8193775745655
 20
245.3717791258225
 30
0.0
 40
3.0
100
AcDbArc
 50
270.0
 51
0.0
  0
ARC
  5
490
330
150A
100
AcDbEntity
  8
layer 3
100
AcDbCircle
 10
763.8193775745655
 20
245.3717791258225
 30
0.0
 40
3.0
100
AcDbArc
 50
270.0
 51
0.0
  0
ARC
  5
491
330
150A
100
AcDbEntity
  8
layer 3
100
AcDbCircle
 10
806.8193775745655
 20
245.3717791258225
 30
0.0
 40
3.0
100
AcDbArc
 50
270.0
 51
0.0
  0
ARC
  5
492
330
150A
100
AcDbEntity
  8
layer 3
100
AcDbCircle
 10
849.8193775745655
 20
245.3717791258225
 30
0.0
 40
3.0
100
AcDbArc
 50
270.0
 51
0.0
  0
ARC
  5
4AF
330
150A
100
AcDbEntity
  8
layer 3
100
AcDbCircle
 10
720.8193775745655
 20
202.3717791258226
 30
0.0
 40
3.0
100
AcDbArc
 50
270.0
 51
0.0
  0
ARC
  5
4B0
330
150A
100
AcDbEntity
  8
layer 3
100
AcDbCircle
 10
763.8193775745655
 20
202.3717791258226
 30
0.0
 40
3.0
100
AcDbArc
 50
270.0
 51
0.0
  0
ARC
  5
4B1
330
150A
100
AcDbEntity
  8
layer 3
100
AcDbCircle
 10
806.8193775745655
 20
202.3717791258226
 30
0.0
 40
3.0
100
AcDbArc
 50
270.0
 51
0.0
  0
ARC
  5
4B2
330
150A
100
AcDbEntity
  8
layer 3
100
AcDbCircle
 10
849.8193775745655
 20
202.3717791258226
 30
0.0
 40
3.0
100
AcDbArc
 50
270.0
 51
0.0
  0
ARC
  5
4F3
330
150A
100
AcDbEntity
  8
layer 3
100
AcDbCircle
 10
423.9999999999997
 20
69.00000000000006
 30
0.0
 40
3.0
100
AcDbArc
 50
270.0
 51
0.0
  0
ARC
  5
4F4
330
150A
100
AcDbEntity
  8
layer 3
100
AcDbCircle
 10
466.9999999999997
 20
69.00000000000006
 30
0.0
 40
3.0
100
AcDbArc
 50
270.0
 51
0.0
  0
ARC
  5
4F5
330
150A
100
AcDbEntity
  8
layer 3
100
AcDbCircle
 10
509.9999999999997
 20
69.00000000000006
 30
0.0
 40
3.0
100
AcDbArc
 50
270.0
 51
0.0
  0
ARC
  5
4F6
330
150A
100
AcDbEntity
  8
layer 3
100
AcDbCircle
 10
552.9999999999997
 20
69.00000000000006
 30
0.0
 40
3.0
100
AcDbArc
 50
270.0
 51
0.0
  0
ARC
  5
4F7
330
150A
100
AcDbEntity
  8
layer 3
100
AcDbCircle
 10
423.9999999999997
 20
26.00000000000017
 30
0.0
 40
3.0
100
AcDbArc
 50
270.0
 51
0.0
  0
ARC
  5
4F8
330
150A
100
AcDbEntity
  8
layer 3
100
AcDbCircle
 10
466.9999999999997
 20
26.00000000000017
 30
0.0
 40
3.0
100
AcDbArc
 50
270.0
 51
0.0
  0
ARC
  5
4F9
330
150A
100
AcDbEntity
  8
layer 3
100
AcDbCircle
 10
509.9999999999997
 20
26.00000000000017
 30
0.0
 40
3.0
100
AcDbArc
 50
270.0
 51
0.0
  0
ARC
  5
4FA
330
150A
100
AcDbEntity
  8
layer 3
100
AcDbCircle
 10
552.9999999999997
 20
26.00000000000017
 30
0.0
 40
3.0
100
AcDbArc
 50
270.0
 51
0.0
  0
ARC
  5
4FB
330
150A
100
AcDbEntity
  8
layer 3
100
AcDbCircle
 10
423.9999999999997
 20
-16.99999999999972
 30
0.0
 40
3.0
100
AcDbArc
 50
270.0
 51
0.0
  0
ARC
  5
4FC
330
150A
100
AcDbEntity
  8
layer 3
100
AcDbCircle
 10
466.9999999999997
 20
-16.99999999999972
 30
0.0
 40
3.0
100
AcDbArc
 50
270.0
 51
0.0
  0
ARC
  5
4FD
330
150A
100
AcDbEntity
  8
layer 3
100
AcDbCircle
 10
509.9999999999997
 20
-16.99999999999972
 30
0.0
 40
3.0
100
AcDbArc
 50
270.0
 51
0.0
  0
ARC
  5
4FE
330
150A
100
AcDbEntity
  8
layer 3
100
AcDbCircle
 10
552.9999999999997
 20
-16.99999999999972
 30
0.0
 40
3.0
100
AcDbArc
 50
270.0
 51
0.0
  0
ARC
  5
4FF
330
150A
100
AcDbEntity
  8
layer 3
100
AcDbCircle
 10
423.9999999999997
 20
-59.9999999999996
 30
0.0
 40
3.0
100
AcDbArc
 50
270.0
 51
0.0
  0
ARC
  5
500
330
150A
100
AcDbEntity
  8
layer 3
100
AcDbCircle
 10
466.9999999999997
 20
-59.9999999999996
 30
0.0
 40
3.0
100
AcDbArc
 50
270.0
 51
0.0
  0
ARC
  5
501
330
150A
100
AcDbEntity
  8
layer 3
100
AcDbCircle
 10
509.9999999999997
 20
-59.9999999999996
 30
0.0
 40
3.0
100
AcDbArc
 50
270.0
 51
0.0
  0
ARC
  5
502
330
150A
100
AcDbEntity
  8
layer 3
100
AcDbCircle
 10
552.9999999999997
 20
-59.9999999999996
 30
0.0
 40
3.0
100
AcDbArc
 50
270.0
 51
0.0
  0
ARC
  5
44E
330
150A
100
AcDbEntity
  8
layer 3
100
AcDbCircle
 10
691.8193775745656
 20
331.3717791258223
 30
0.0
 40
3.0
100
AcDbArc
 50
180.0
 51
270.0
  0
ARC
  5
452
330
150A
100
AcDbEntity
  8
layer 3
100
AcDbCircle
 10
734.8193775745656
 20
331.3717791258223
 30
0.0
 40
3.0
100
AcDbArc
 50
180.0
 51
270.0
  0
ARC
  5
45A
330
150A
100
AcDbEntity
  8
layer 3
100
AcDbCircle
 10
777.8193775745656
 20
331.3717791258223
 30
0.0
 40
3.0
100
AcDbArc
 50
180.0
 51
270.0
  0
ARC
  5
462
330
150A
100
AcDbEntity
  8
layer 3
100
AcDbCircle
 10
820.8193775745656
 20
331.3717791258223
 30
0.0
 40
3.0
100
AcDbArc
 50
180.0
 51
270.0
  0
ARC
  5
473
330
150A
100
AcDbEntity
  8
layer 3
100
AcDbCircle
 10
691.8193775745656
 20
288.3717791258224
 30
0.0
 40
3.0
100
AcDbArc
 50
180.0
 51
270.0
  0
ARC
  5
474
330
150A
100
AcDbEntity
  8
layer 3
100
AcDbCircle
 10
734.8193775745656
 20
288.3717791258224
 30
0.0
 40
3.0
100
AcDbArc
 50
180.0
 51
270.0
  0
ARC
  5
475
330
150A
100
AcDbEntity
  8
layer 3
100
AcDbCircle
 10
777.8193775745656
 20
288.3717791258224
 30
0.0
 40
3.0
100
AcDbArc
 50
180.0
 51
270.0
  0
ARC
  5
476
330
150A
100
AcDbEntity
  8
layer 3
100
AcDbCircle
 10
820.8193775745656
 20
288.3717791258224
 30
0.0
 40
3.0
100
AcDbArc
 50
180.0
 51
270.0
  0
ARC
  5
493
330
150A
100
AcDbEntity
  8
layer 3
100
AcDbCircle
 10
691.8193775745656
 20
245.3717791258225
 30
0.0
 40
3.0
100
AcDbArc
 50
180.0
 51
270.0
  0
ARC
  5
494
330
150A
100
AcDbEntity
  8
layer 3
100
AcDbCircle
 10
734.8193775745656
 20
245.3717791258225
 30
0.0
 40
3.0
100
AcDbArc
 50
180.0
 51
270.0
  0
ARC
  5
495
330
150A
100
AcDbEntity
  8
layer 3
100
AcDbCircle
 10
777.8193775745656
 20
245.3717791258225
 30
0.0
 40
3.0
100
AcDbArc
 50
180.0
 51
270.0
  0
ARC
  5
496
330
150A
100
AcDbEntity
  8
layer 3
100
AcDbCircle
 10
820.8193775745656
 20
245.3717791258225
 30
0.0
 40
3.0
100
AcDbArc
 50
180.0
 51
270.0
  0
ARC
  5
4B3
330
150A
100
AcDbEntity
  8
layer 3
100
AcDbCircle
 10
691.8193775745656
 20
202.3717791258226
 30
0.0
 40
3.0
100
AcDbArc
 50
180.0
 51
270.0
  0
ARC
  5
4B4
330
150A
100
AcDbEntity
  8
layer 3
100
AcDbCircle
 10
734.8193775745656
 20
202.3717791258226
 30
0.0
 40
3.0
100
AcDbArc
 50
180.0
 51
270.0
  0
ARC
  5
4B5
330
150A
100
AcDbEntity
  8
layer 3
100
AcDbCircle
 10
777.8193775745656
 20
202.3717791258226
 30
0.0
 40
3.0
100
AcDbArc
 50
180.0
 51
270.0
  0
ARC
  5
4B6
330
150A
100
AcDbEntity
  8
layer 3
100
AcDbCircle
 10
820.8193775745656
 20
202.3717791258226
 30
0.0
 40
3.0
100
AcDbArc
 50
180.0
 51
270.0
  0
ARC
  5
503
330
150A
100
AcDbEntity
  8
layer 3
100
AcDbCircle
 10
394.9999999999998
 20
69.00000000000006
 30
0.0
 40
3.0
100
AcDbArc
 50
180.0
 51
270.0
  0
ARC
  5
504
330
150A
100
AcDbEntity
  8
layer 3
100
AcDbCircle
 10
437.9999999999998
 20
69.00000000000006
 30
0.0
 40
3.0
100
AcDbArc
 50
180.0
 51
270.0
  0
ARC
  5
505
330
150A
100
AcDbEntity
  8
layer 3
100
AcDbCircle
 10
480.9999999999998
 20
69.00000000000006
 30
0.0
 40
3.0
100
AcDbArc
 50
180.0
 51
270.0
  0
ARC
  5
506
330
150A
100
AcDbEntity
  8
layer 3
100
AcDbCircle
 10
523.9999999999998
 20
69.00000000000006
 30
0.0
 40
3.0
100
AcDbArc
 50
180.0
 51
270.0
  0
ARC
  5
507
330
150A
100
AcDbEntity
  8
layer 3
100
AcDbCircle
 10
394.9999999999998
 20
26.00000000000017
 30
0.0
 40
3.0
100
AcDbArc
 50
180.0
 51
270.0
  0
ARC
  5
508
330
150A
100
AcDbEntity
  8
layer 3
100
AcDbCircle
 10
437.9999999999998
 20
26.00000000000017
 30
0.0
 40
3.0
100
AcDbArc
 50
180.0
 51
270.0
  0
ARC
  5
509
330
150A
100
AcDbEntity
  8
layer 3
100
AcDbCircle
 10
480.9999999999998
 20
26.00000000000017
 30
0.0
 40
3.0
100
AcDbArc
 50
180.0
 51
270.0
  0
ARC
  5
50A
330
150A
100
AcDbEntity
  8
layer 3
100
AcDbCircle
 10
523.9999999999998
 20
26.00000000000017
 30
0.0
 40
3.0
100
AcDbArc
 50
180.0
 51
270.0
  0
ARC
  5
50B
330
150A
100
AcDbEntity
  8
layer 3
100
AcDbCircle
 10
394.9999999999998
 20
-16.99999999999972
 30
0.0
 40
3.0
100
AcDbArc
 50
180.0
 51
270.0
  0
ARC
  5
50C
330
150A
100
AcDbEntity
  8
layer 3
100
AcDbCircle
 10
437.9999999999998
 20
-16.99999999999972
 30
0.0
 40
3.0
100
AcDbArc
 50
180.0
 51
270.0
  0
ARC
  5
50D
330
150A
100
AcDbEntity
  8
layer 3
100
AcDbCircle
 10
480.9999999999998
 20
-16.99999999999972
 30
0.0
 40
3.0
100
AcDbArc
 50
180.0
 51
270.0
  0
ARC
  5
50E
330
150A
100
AcDbEntity
  8
layer 3
100
AcDbCircle
 10
523.9999999999998
 20
-16.99999999999972
 30
0.0
 40
3.0
100
AcDbArc
 50
180.0
 51
270.0
  0
ARC
  5
50F
330
150A
100
AcDbEntity
  8
layer 3
100
AcDbCircle
 10
394.9999999999998
 20
-59.9999999999996
 30
0.0
 40
3.0
100
AcDbArc
 50
180.0
 51
270.0
  0
ARC
  5
510
330
150A
100
AcDbEntity
  8
layer 3
100
AcDbCircle
 10
437.9999999999998
 20
-59.9999999999996
 30
0.0
 40
3.0
100
AcDbArc
 50
180.0
 51
270.0
  0
ARC
  5
511
330
150A
100
AcDbEntity
  8
layer 3
100
AcDbCircle
 10
480.9999999999998
 20
-59.9999999999996
 30
0.0
 40
3.0
100
AcDbArc
 50
180.0
 51
270.0
  0
ARC
  5
512
330
150A
100
AcDbEntity
  8
layer 3
100
AcDbCircle
 10
523.9999999999998
 20
-59.9999999999996
 30
0.0
 40
3.0
100
AcDbArc
 50
180.0
 51
270.0
  0
LINE
  5
447
330
150A
100
AcDbEntity
  8
layer 3
100
AcDbLine
 10
688.8193775745655
 20
360.3717791258221
 30
0.0
 11
688.8193775745656
 21
331.3717791258223
 31
0.0
  0
LINE
  5
453
330
150A
100
AcDbEntity
  8
layer 3
100
AcDbLine
 10
731.8193775745655
 20
360.3717791258221
 30
0.0
 11
731.8193775745656
 21
331.3717791258223
 31
0.0
  0
LINE
  5
45B
330
150A
100
AcDbEntity
  8
layer 3
100
AcDbLine
 10
774.8193775745655
 20
360.3717791258221
 30
0.0
 11
774.8193775745656
 21
331.3717791258223
 31
0.0
  0
LINE
  5
463
330
150A
100
AcDbEntity
  8
layer 3
100
AcDbLine
 10
817.8193775745655
 20
360.3717791258221
 30
0.0
 11
817.8193775745656
 21
331.3717791258223
 31
0.0
  0
LINE
  5
477
330
150A
100
AcDbEntity
  8
layer 3
100
AcDbLine
 10
688.8193775745655
 20
317.3717791258222
 30
0.0
 11
688.8193775745656
 21
288.3717791258224
 31
0.0
  0
LINE
  5
478
330
150A
100
AcDbEntity
  8
layer 3
100
AcDbLine
 10
731.8193775745655
 20
317.3717791258222
 30
0.0
 11
731.8193775745656
 21
288.3717791258224
 31
0.0
  0
LINE
  5
479
330
150A
100
AcDbEntity
  8
layer 3
100
AcDbLine
 10
774.8193775745655
 20
317.3717791258222
 30
0.0
 11
774.8193775745656
 21
288.3717791258224
 31
0.0
  0
LINE
  5
47A
330
150A
100
AcDbEntity
  8
layer 3
100
AcDbLine
 10
817.8193775745655
 20
317.3717791258222
 30
0.0
 11
817.8193775745656
 21
288.3717791258224
 31
0.0
  0
LINE
  5
497
330
150A
100
AcDbEntity
  8
layer 3
100
AcDbLine
 10
688.8193775745655
 20
274.3717791258223
 30
0.0
 11
688.8193775745656
 21
245.3717791258225
 31
0.0
  0
LINE
  5
498
330
150A
100
AcDbEntity
  8
layer 3
100
AcDbLine
 10
731.8193775745655
 20
274.3717791258223
 30
0.0
 11
731.8193775745656
 21
245.3717791258225
 31
0.0
  0
LINE
  5
499
330
150A
100
AcDbEntity
  8
layer 3
100
AcDbLine
 10
774.8193775745655
 20
274.3717791258223
 30
0.0
 11
774.8193775745656
 21
245.3717791258225
 31
0.0
  0
LINE
  5
49A
330
150A
100
AcDbEntity
  8
layer 3
100
AcDbLine
 10
817.8193775745655
 20
274.3717791258223
 30
0.0
 11
817.8193775745656
 21
245.3717791258225
 31
0.0
  0
LINE
  5
4B7
330
150A
100
AcDbEntity
  8
layer 3
100
AcDbLine
 10
688.8193775745655
 20
231.3717791258225
 30
0.0
 11
688.8193775745656
 21
202.3717791258226
 31
0.0
  0
LINE
  5
4B8
330
150A
100
AcDbEntity
  8
layer 3
100
AcDbLine
 10
731.8193775745655
 20
231.3717791258225
 30
0.0
 11
731.8193775745656
 21
202.3717791258226
 31
0.0
  0
LINE
  5
4B9
330
150A
100
AcDbEntity
  8
layer 3
100
AcDbLine
 10
774.8193775745655
 20
231.3717791258225
 30
0.0
 11
774.8193775745656
 21
202.3717791258226
 31
0.0
  0
LINE
  5
4BA
330
150A
100
AcDbEntity
  8
layer 3
100
AcDbLine
 10
817.8193775745655
 20
231.3717791258225
 30
0.0
 11
817.8193775745656
 21
202.3717791258226
 31
0.0
  0
LINE
  5
513
330
150A
100
AcDbEntity
  8
layer 3
100
AcDbLine
 10
391.9999999999997
 20
97.99999999999989
 30
0.0
 11
391.9999999999998
 21
69.00000000000006
 31
0.0
  0
LINE
  5
514
330
150A
100
AcDbEntity
  8
layer 3
100
AcDbLine
 10
434.9999999999997
 20
97.99999999999989
 30
0.0
 11
434.9999999999998
 21
69.00000000000006
 31
0.0
  0
LINE
  5
515
330
150A
100
AcDbEntity
  8
layer 3
100
AcDbLine
 10
477.9999999999997
 20
97.99999999999989
 30
0.0
 11
477.9999999999998
 21
69.00000000000006
 31
0.0
  0
LINE
  5
516
330
150A
100
AcDbEntity
  8
layer 3
100
AcDbLine
 10
520.9999999999997
 20
97.99999999999989
 30
0.0
 11
520.9999999999998
 21
69.00000000000006
 31
0.0
  0
LINE
  5
517
330
150A
100
AcDbEntity
  8
layer 3
100
AcDbLine
 10
391.9999999999997
 20
55.0
 30
0.0
 11
391.9999999999998
 21
26.00000000000017
 31
0.0
  0
LINE
  5
518
330
150A
100
AcDbEntity
  8
layer 3
100
AcDbLine
 10
434.9999999999997
 20
55.0
 30
0.0
 11
434.9999999999998
 21
26.00000000000017
 31
0.0
  0
LINE
  5
519
330
150A
100
AcDbEntity
  8
layer 3
100
AcDbLine
 10
477.9999999999997
 20
55.0
 30
0.0
 11
477.9999999999998
 21
26.00000000000017
 31
0.0
  0
LINE
  5
51A
330
150A
100
AcDbEntity
  8
layer 3
100
AcDbLine
 10
520.9999999999997
 20
55.0
 30
0.0
 11
520.9999999999998
 21
26.00000000000017
 31
0.0
  0
LINE
  5
51B
330
150A
100
AcDbEntity
  8
layer 3
100
AcDbLine
 10
391.9999999999997
 20
12.00000000000011
 30
0.0
 11
391.9999999999998
 21
-16.99999999999972
 31
0.0
  0
LINE
  5
51C
330
150A
100
AcDbEntity
  8
layer 3
100
AcDbLine
 10
434.9999999999997
 20
12.00000000000011
 30
0.0
 11
434.9999999999998
 21
-16.99999999999972
 31
0.0
  0
LINE
  5
51D
330
150A
100
AcDbEntity
  8
layer 3
100
AcDbLine
 10
477.9999999999997
 20
12.00000000000011
 30
0.0
 11
477.9999999999998
 21
-16.99999999999972
 31
0.0
  0
LINE
  5
51E
330
150A
100
AcDbEntity
  8
layer 3
100
AcDbLine
 10
520.9999999999997
 20
12.00000000000011
 30
0.0
 11
520.9999999999998
 21
-16.99999999999972
 31
0.0
  0
LINE
  5
51F
330
150A
100
AcDbEntity
  8
layer 3
100
AcDbLine
 10
391.9999999999997
 20
-30.99999999999977
 30
0.0
 11
391.9999999999998
 21
-59.9999999999996
 31
0.0
  0
LINE
  5
520
330
150A
100
AcDbEntity
  8
layer 3
100
AcDbLine
 10
434.9999999999997
 20
-30.99999999999977
 30
0.0
 11
434.9999999999998
 21
-59.9999999999996
 31
0.0
  0
LINE
  5
521
330
150A
100
AcDbEntity
  8
layer 3
100
AcDbLine
 10
477.9999999999997
 20
-30.99999999999977
 30
0.0
 11
477.9999999999998
 21
-59.9999999999996
 31
0.0
  0
LINE
  5
522
330
150A
100
AcDbEntity
  8
layer 3
100
AcDbLine
 10
520.9999999999997
 20
-30.99999999999977
 30
0.0
 11
520.9999999999998
 21
-59.9999999999996
 31
0.0
  0
LINE
  5
448
330
150A
100
AcDbEntity
  8
layer 3
100
AcDbLine
 10
723.8193775745657
 20
360.3717791258221
 30
0.0
 11
723.8193775745657
 21
331.3717791258223
 31
0.0
  0
LINE
  5
454
330
150A
100
AcDbEntity
  8
layer 3
100
AcDbLine
 10
766.8193775745657
 20
360.3717791258221
 30
0.0
 11
766.8193775745657
 21
331.3717791258223
 31
0.0
  0
LINE
  5
45C
330
150A
100
AcDbEntity
  8
layer 3
100
AcDbLine
 10
809.8193775745657
 20
360.3717791258221
 30
0.0
 11
809.8193775745657
 21
331.3717791258223
 31
0.0
  0
LINE
  5
464
330
150A
100
AcDbEntity
  8
layer 3
100
AcDbLine
 10
852.8193775745657
 20
360.3717791258221
 30
0.0
 11
852.8193775745657
 21
331.3717791258223
 31
0.0
  0
LINE
  5
47B
330
150A
100
AcDbEntity
  8
layer 3
100
AcDbLine
 10
723.8193775745657
 20
317.3717791258222
 30
0.0
 11
723.8193775745657
 21
288.3717791258224
 31
0.0
  0
LINE
  5
47C
330
150A
100
AcDbEntity
  8
layer 3
100
AcDbLine
 10
766.8193775745657
 20
317.3717791258222
 30
0.0
 11
766.8193775745657
 21
288.3717791258224
 31
0.0
  0
LINE
  5
47D
330
150A
100
AcDbEntity
  8
layer 3
100
AcDbLine
 10
809.8193775745657
 20
317.3717791258222
 30
0.0
 11
809.8193775745657
 21
288.3717791258224
 31
0.0
  0
LINE
  5
47E
330
150A
100
AcDbEntity
  8
layer 3
100
AcDbLine
 10
852.8193775745657
 20
317.3717791258222
 30
0.0
 11
852.8193775745657
 21
288.3717791258224
 31
0.0
  0
LINE
  5
49B
330
150A
100
AcDbEntity
  8
layer 3
100
AcDbLine
 10
723.8193775745657
 20
274.3717791258223
 30
0.0
 11
723.8193775745657
 21
245.3717791258225
 31
0.0
  0
LINE
  5
49C
330
150A
100
AcDbEntity
  8
layer 3
100
AcDbLine
 10
766.8193775745657
 20
274.3717791258223
 30
0.0
 11
766.8193775745657
 21
245.3717791258225
 31
0.0
  0
LINE
  5
49D
330
150A
100
AcDbEntity
  8
layer 3
100
AcDbLine
 10
809.8193775745657
 20
274.3717791258223
 30
0.0
 11
809.8193775745657
 21
245.3717791258225
 31
0.0
  0
LINE
  5
49E
330
150A
100
AcDbEntity
  8
layer 3
100
AcDbLine
 10
852.8193775745657
 20
274.3717791258223
 30
0.0
 11
852.8193775745657
 21
245.3717791258225
 31
0.0
  0
LINE
  5
4BB
330
150A
100
AcDbEntity
  8
layer 3
100
AcDbLine
 10
723.8193775745657
 20
231.3717791258225
 30
0.0
 11
723.8193775745657
 21
202.3717791258226
 31
0.0
  0
LINE
  5
4BC
330
150A
100
AcDbEntity
  8
layer 3
100
AcDbLine
 10
766.8193775745657
 20
231.3717791258225
 30
0.0
 11
766.8193775745657
 21
202.3717791258226
 31
0.0
  0
LINE
  5
4BD
330
150A
100
AcDbEntity
  8
layer 3
100
AcDbLine
 10
809.8193775745657
 20
231.3717791258225
 30
0.0
 11
809.8193775745657
 21
202.3717791258226
 31
0.0
  0
LINE
  5
4BE
330
150A
100
AcDbEntity
  8
layer 3
100
AcDbLine
 10
852.8193775745657
 20
231.3717791258225
 30
0.0
 11
852.8193775745657
 21
202.3717791258226
 31
0.0
  0
LINE
  5
523
330
150A
100
AcDbEntity
  8
layer 3
100
AcDbLine
 10
426.9999999999999
 20
97.99999999999989
 30
0.0
 11
426.9999999999999
 21
69.00000000000006
 31
0.0
  0
LINE
  5
524
330
150A
100
AcDbEntity
  8
layer 3
100
AcDbLine
 10
469.9999999999999
 20
97.99999999999989
 30
0.0
 11
469.9999999999999
 21
69.00000000000006
 31
0.0
  0
LINE
  5
525
330
150A
100
AcDbEntity
  8
layer 3
100
AcDbLine
 10
512.9999999999999
 20
97.99999999999989
 30
0.0
 11
512.9999999999999
 21
69.00000000000006
 31
0.0
  0
LINE
  5
526
330
150A
100
AcDbEntity
  8
layer 3
100
AcDbLine
 10
555.9999999999999
 20
97.99999999999989
 30
0.0
 11
555.9999999999999
 21
69.00000000000006
 31
0.0
  0
LINE
  5
527
330
150A
100
AcDbEntity
  8
layer 3
100
AcDbLine
 10
426.9999999999999
 20
55.0
 30
0.0
 11
426.9999999999999
 21
26.00000000000017
 31
0.0
  0
LINE
  5
528
330
150A
100
AcDbEntity
  8
layer 3
100
AcDbLine
 10
469.9999999999999
 20
55.0
 30
0.0
 11
469.9999999999999
 21
26.00000000000017
 31
0.0
  0
LINE
  5
529
330
150A
100
AcDbEntity
  8
layer 3
100
AcDbLine
 10
512.9999999999999
 20
55.0
 30
0.0
 11
512.9999999999999
 21
26.00000000000017
 31
0.0
  0
LINE
  5
52A
330
150A
100
AcDbEntity
  8
layer 3
100
AcDbLine
 10
555.9999999999999
 20
55.0
 30
0.0
 11
555.9999999999999
 21
26.00000000000017
 31
0.0
  0
LINE
  5
52B
330
150A
100
AcDbEntity
  8
layer 3
100
AcDbLine
 10
426.9999999999999
 20
12.00000000000011
 30
0.0
 11
426.9999999999999
 21
-16.99999999999972
 31
0.0
  0
LINE
  5
52C
330
150A
100
AcDbEntity
  8
layer 3
100
AcDbLine
 10
469.9999999999999
 20
12.00000000000011
 30
0.0
 11
469.9999999999999
 21
-16.99999999999972
 31
0.0
  0
LINE
  5
52D
330
150A
100
AcDbEntity
  8
layer 3
100
AcDbLine
 10
512.9999999999999
 20
12.00000000000011
 30
0.0
 11
512.9999999999999
 21
-16.99999999999972
 31
0.0
  0
LINE
  5
52E
330
150A
100
AcDbEntity
  8
layer 3
100
AcDbLine
 10
555.9999999999999
 20
12.00000000000011
 30
0.0
 11
555.9999999999999
 21
-16.99999999999972
 31
0.0
  0
LINE
  5
52F
330
150A
100
AcDbEntity
  8
layer 3
100
AcDbLine
 10
426.9999999999999
 20
-30.99999999999977
 30
0.0
 11
426.9999999999999
 21
-59.9999999999996
 31
0.0
  0
LINE
  5
530
330
150A
100
AcDbEntity
  8
layer 3
100
AcDbLine
 10
469.9999999999999
 20
-30.99999999999977
 30
0.0
 11
469.9999999999999
 21
-59.9999999999996
 31
0.0
  0
LINE
  5
531
330
150A
100
AcDbEntity
  8
layer 3
100
AcDbLine
 10
512.9999999999999
 20
-30.99999999999977
 30
0.0
 11
512.9999999999999
 21
-59.9999999999996
 31
0.0
  0
LINE
  5
532
330
150A
100
AcDbEntity
  8
layer 3
100
AcDbLine
 10
555.9999999999999
 20
-30.99999999999977
 30
0.0
 11
555.9999999999999
 21
-59.9999999999996
 31
0.0
  0
LINE
  5
449
330
150A
100
AcDbEntity
  8
layer 3
100
AcDbLine
 10
691.8193775745657
 20
328.3717791258223
 30
0.0
 11
720.8193775745656
 21
328.3717791258223
 31
0.0
  0
LINE
  5
455
330
150A
100
AcDbEntity
  8
layer 3
100
AcDbLine
 10
734.8193775745657
 20
328.3717791258223
 30
0.0
 11
763.8193775745656
 21
328.3717791258223
 31
0.0
  0
LINE
  5
45D
330
150A
100
AcDbEntity
  8
layer 3
100
AcDbLine
 10
777.8193775745657
 20
328.3717791258223
 30
0.0
 11
806.8193775745656
 21
328.3717791258223
 31
0.0
  0
LINE
  5
465
330
150A
100
AcDbEntity
  8
layer 3
100
AcDbLine
 10
820.8193775745657
 20
328.3717791258223
 30
0.0
 11
849.8193775745656
 21
328.3717791258223
 31
0.0
  0
LINE
  5
47F
330
150A
100
AcDbEntity
  8
layer 3
100
AcDbLine
 10
691.8193775745657
 20
285.3717791258224
 30
0.0
 11
720.8193775745656
 21
285.3717791258224
 31
0.0
  0
LINE
  5
480
330
150A
100
AcDbEntity
  8
layer 3
100
AcDbLine
 10
734.8193775745657
 20
285.3717791258224
 30
0.0
 11
763.8193775745656
 21
285.3717791258224
 31
0.0
  0
LINE
  5
481
330
150A
100
AcDbEntity
  8
layer 3
100
AcDbLine
 10
777.8193775745657
 20
285.3717791258224
 30
0.0
 11
806.8193775745656
 21
285.3717791258224
 31
0.0
  0
LINE
  5
482
330
150A
100
AcDbEntity
  8
layer 3
100
AcDbLine
 10
820.8193775745657
 20
285.3717791258224
 30
0.0
 11
849.8193775745656
 21
285.3717791258224
 31
0.0
  0
LINE
  5
49F
330
150A
100
AcDbEntity
  8
layer 3
100
AcDbLine
 10
691.8193775745657
 20
242.3717791258225
 30
0.0
 11
720.8193775745656
 21
242.3717791258225
 31
0.0
  0
LINE
  5
4A0
330
150A
100
AcDbEntity
  8
layer 3
100
AcDbLine
 10
734.8193775745657
 20
242.3717791258225
 30
0.0
 11
763.8193775745656
 21
242.3717791258225
 31
0.0
  0
LINE
  5
4A1
330
150A
100
AcDbEntity
  8
layer 3
100
AcDbLine
 10
777.8193775745657
 20
242.3717791258225
 30
0.0
 11
806.8193775745656
 21
242.3717791258225
 31
0.0
  0
LINE
  5
4A2
330
150A
100
AcDbEntity
  8
layer 3
100
AcDbLine
 10
820.8193775745657
 20
242.3717791258225
 30
0.0
 11
849.8193775745656
 21
242.3717791258225
 31
0.0
  0
LINE
  5
4BF
330
150A
100
AcDbEntity
  8
layer 3
100
AcDbLine
 10
691.8193775745657
 20
199.3717791258226
 30
0.0
 11
720.8193775745656
 21
199.3717791258226
 31
0.0
  0
LINE
  5
4C0
330
150A
100
AcDbEntity
  8
layer 3
100
AcDbLine
 10
734.8193775745657
 20
199.3717791258226
 30
0.0
 11
763.8193775745656
 21
199.3717791258226
 31
0.0
  0
LINE
  5
4C1
330
150A
100
AcDbEntity
  8
layer 3
100
AcDbLine
 10
777.8193775745657
 20
199.3717791258226
 30
0.0
 11
806.8193775745656
 21
199.3717791258226
 31
0.0
  0
LINE
  5
4C2
330
150A
100
AcDbEntity
  8
layer 3
100
AcDbLine
 10
820.8193775745657
 20
199.3717791258226
 30
0.0
 11
849.8193775745656
 21
199.3717791258226
 31
0.0
  0
LINE
  5
533
330
150A
100
AcDbEntity
  8
layer 3
100
AcDbLine
 10
394.9999999999999
 20
66.00000000000006
 30
0.0
 11
423.9999999999998
 21
66.00000000000006
 31
0.0
  0
LINE
  5
534
330
150A
100
AcDbEntity
  8
layer 3
100
AcDbLine
 10
437.9999999999999
 20
66.00000000000006
 30
0.0
 11
466.9999999999998
 21
66.00000000000006
 31
0.0
  0
LINE
  5
535
330
150A
100
AcDbEntity
  8
layer 3
100
AcDbLine
 10
480.9999999999999
 20
66.00000000000006
 30
0.0
 11
509.9999999999998
 21
66.00000000000006
 31
0.0
  0
LINE
  5
536
330
150A
100
AcDbEntity
  8
layer 3
100
AcDbLine
 10
523.9999999999999
 20
66.00000000000006
 30
0.0
 11
552.9999999999998
 21
66.00000000000006
 31
0.0
  0
LINE
  5
537
330
150A
100
AcDbEntity
  8
layer 3
100
AcDbLine
 10
394.9999999999999
 20
23.00000000000017
 30
0.0
 11
423.9999999999998
 21
23.00000000000017
 31
0.0
  0
LINE
  5
538
330
150A
100
AcDbEntity
  8
layer 3
100
AcDbLine
 10
437.9999999999999
 20
23.00000000000017
 30
0.0
 11
466.9999999999998
 21
23.00000000000017
 31
0.0
  0
LINE
  5
539
330
150A
100
AcDbEntity
  8
layer 3
100
AcDbLine
 10
480.9999999999999
 20
23.00000000000017
 30
0.0
 11
509.9999999999998
 21
23.00000000000017
 31
0.0
  0
LINE
  5
53A
330
150A
100
AcDbEntity
  8
layer 3
100
AcDbLine
 10
523.9999999999999
 20
23.00000000000017
 30
0.0
 11
552.9999999999998
 21
23.00000000000017
 31
0.0
  0
LINE
  5
53B
330
150A
100
AcDbEntity
  8
layer 3
100
AcDbLine
 10
394.9999999999999
 20
-19.99999999999972
 30
0.0
 11
423.9999999999998
 21
-19.99999999999972
 31
0.0
  0
LINE
  5
53C
330
150A
100
AcDbEntity
  8
layer 3
100
AcDbLine
 10
437.9999999999999
 20
-19.99999999999972
 30
0.0
 11
466.9999999999998
 21
-19.99999999999972
 31
0.0
  0
LINE
  5
53D
330
150A
100
AcDbEntity
  8
layer 3
100
AcDbLine
 10
480.9999999999999
 20
-19.99999999999972
 30
0.0
 11
509.9999999999998
 21
-19.99999999999972
 31
0.0
  0
LINE
  5
53E
330
150A
100
AcDbEntity
  8
layer 3
100
AcDbLine
 10
523.9999999999999
 20
-19.99999999999972
 30
0.0
 11
552.9999999999998
 21
-19.99999999999972
 31
0.0
  0
LINE
  5
53F
330
150A
100
AcDbEntity
  8
layer 3
100
AcDbLine
 10
394.9999999999999
 20
-62.9999999999996
 30
0.0
 11
423.9999999999998
 21
-62.9999999999996
 31
0.0
  0
LINE
  5
540
330
150A
100
AcDbEntity
  8
layer 3
100
AcDbLine
 10
437.9999999999999
 20
-62.9999999999996
 30
0.0
 11
466.9999999999998
 21
-62.9999999999996
 31
0.0
  0
LINE
  5
541
330
150A
100
AcDbEntity
  8
layer 3
100
AcDbLine
 10
480.9999999999999
 20
-62.9999999999996
 30
0.0
 11
509.9999999999998
 21
-62.9999999999996
 31
0.0
  0
LINE
  5
542
330
150A
100
AcDbEntity
  8
layer 3
100
AcDbLine
 10
523.9999999999999
 20
-62.9999999999996
 30
0.0
 11
552.9999999999998
 21
-62.9999999999996
 31
0.0
  0
LINE
  5
44A
330
150A
100
AcDbEntity
  8
layer 3
100
AcDbLine
 10
691.8193775745656
 20
363.3717791258221
 30
0.0
 11
720.8193775745655
 21
363.3717791258223
 31
0.0
  0
LINE
  5
456
330
150A
100
AcDbEntity
  8
layer 3
100
AcDbLine
 10
734.8193775745656
 20
363.3717791258221
 30
0.0
 11
763.8193775745655
 21
363.3717791258223
 31
0.0
  0
LINE
  5
45E
330
150A
100
AcDbEntity
  8
layer 3
100
AcDbLine
 10
777.8193775745656
 20
363.3717791258221
 30
0.0
 11
806.8193775745655
 21
363.3717791258223
 31
0.0
  0
LINE
  5
466
330
150A
100
AcDbEntity
  8
layer 3
100
AcDbLine
 10
820.8193775745656
 20
363.3717791258221
 30
0.0
 11
849.8193775745655
 21
363.3717791258223
 31
0.0
  0
LINE
  5
483
330
150A
100
AcDbEntity
  8
layer 3
100
AcDbLine
 10
691.8193775745656
 20
320.3717791258222
 30
0.0
 11
720.8193775745655
 21
320.3717791258224
 31
0.0
  0
LINE
  5
484
330
150A
100
AcDbEntity
  8
layer 3
100
AcDbLine
 10
734.8193775745656
 20
320.3717791258222
 30
0.0
 11
763.8193775745655
 21
320.3717791258224
 31
0.0
  0
LINE
  5
485
330
150A
100
AcDbEntity
  8
layer 3
100
AcDbLine
 10
777.8193775745656
 20
320.3717791258222
 30
0.0
 11
806.8193775745655
 21
320.3717791258224
 31
0.0
  0
LINE
  5
486
330
150A
100
AcDbEntity
  8
layer 3
100
AcDbLine
 10
820.8193775745656
 20
320.3717791258222
 30
0.0
 11
849.8193775745655
 21
320.3717791258224
 31
0.0
  0
LINE
  5
4A3
330
150A
100
AcDbEntity
  8
layer 3
100
AcDbLine
 10
691.8193775745656
 20
277.3717791258223
 30
0.0
 11
720.8193775745655
 21
277.3717791258225
 31
0.0
  0
LINE
  5
4A4
330
150A
100
AcDbEntity
  8
layer 3
100
AcDbLine
 10
734.8193775745656
 20
277.3717791258223
 30
0.0
 11
763.8193775745655
 21
277.3717791258225
 31
0.0
  0
LINE
  5
4A5
330
150A
100
AcDbEntity
  8
layer 3
100
AcDbLine
 10
777.8193775745656
 20
277.3717791258223
 30
0.0
 11
806.8193775745655
 21
277.3717791258225
 31
0.0
  0
LINE
  5
4A6
330
150A
100
AcDbEntity
  8
layer 3
100
AcDbLine
 10
820.8193775745656
 20
277.3717791258223
 30
0.0
 11
849.8193775745655
 21
277.3717791258225
 31
0.0
  0
LINE
  5
4C3
330
150A
100
AcDbEntity
  8
layer 3
100
AcDbLine
 10
691.8193775745656
 20
234.3717791258225
 30
0.0
 11
720.8193775745655
 21
234.3717791258226
 31
0.0
  0
LINE
  5
4C4
330
150A
100
AcDbEntity
  8
layer 3
100
AcDbLine
 10
734.8193775745656
 20
234.3717791258225
 30
0.0
 11
763.8193775745655
 21
234.3717791258226
 31
0.0
  0
LINE
  5
4C5
330
150A
100
AcDbEntity
  8
layer 3
100
AcDbLine
 10
777.8193775745656
 20
234.3717791258225
 30
0.0
 11
806.8193775745655
 21
234.3717791258226
 31
0.0
  0
LINE
  5
4C6
330
150A
100
AcDbEntity
  8
layer 3
100
AcDbLine
 10
820.8193775745656
 20
234.3717791258225
 30
0.0
 11
849.8193775745655
 21
234.3717791258226
 31
0.0
  0
LINE
  5
543
330
150A
100
AcDbEntity
  8
layer 3
100
AcDbLine
 10
394.9999999999998
 20
100.9999999999999
 30
0.0
 11
423.9999999999997
 21
101.0000000000001
 31
0.0
  0
LINE
  5
544
330
150A
100
AcDbEntity
  8
layer 3
100
AcDbLine
 10
437.9999999999998
 20
100.9999999999999
 30
0.0
 11
466.9999999999997
 21
101.0000000000001
 31
0.0
  0
LINE
  5
545
330
150A
100
AcDbEntity
  8
layer 3
100
AcDbLine
 10
480.9999999999998
 20
100.9999999999999
 30
0.0
 11
509.9999999999997
 21
101.0000000000001
 31
0.0
  0
LINE
  5
546
330
150A
100
AcDbEntity
  8
layer 3
100
AcDbLine
 10
523.9999999999998
 20
100.9999999999999
 30
0.0
 11
552.9999999999997
 21
101.0000000000001
 31
0.0
  0
LINE
  5
547
330
150A
100
AcDbEntity
  8
layer 3
100
AcDbLine
 10
394.9999999999998
 20
58.0
 30
0.0
 11
423.9999999999997
 21
58.00000000000017
 31
0.0
  0
LINE
  5
548
330
150A
100
AcDbEntity
  8
layer 3
100
AcDbLine
 10
437.9999999999998
 20
58.0
 30
0.0
 11
466.9999999999997
 21
58.00000000000017
 31
0.0
  0
LINE
  5
549
330
150A
100
AcDbEntity
  8
layer 3
100
AcDbLine
 10
480.9999999999998
 20
58.0
 30
0.0
 11
509.9999999999997
 21
58.00000000000017
 31
0.0
  0
LINE
  5
54A
330
150A
100
AcDbEntity
  8
layer 3
100
AcDbLine
 10
523.9999999999998
 20
58.0
 30
0.0
 11
552.9999999999997
 21
58.00000000000017
 31
0.0
  0
LINE
  5
54B
330
150A
100
AcDbEntity
  8
layer 3
100
AcDbLine
 10
394.9999999999998
 20
15.00000000000011
 30
0.0
 11
423.9999999999997
 21
15.00000000000028
 31
0.0
  0
LINE
  5
54C
330
150A
100
AcDbEntity
  8
layer 3
100
AcDbLine
 10
437.9999999999998
 20
15.00000000000011
 30
0.0
 11
466.9999999999997
 21
15.00000000000028
 31
0.0
  0
LINE
  5
54D
330
150A
100
AcDbEntity
  8
layer 3
100
AcDbLine
 10
480.9999999999998
 20
15.00000000000011
 30
0.0
 11
509.9999999999997
 21
15.00000000000028
 31
0.0
  0
LINE
  5
54E
330
150A
100
AcDbEntity
  8
layer 3
100
AcDbLine
 10
523.9999999999998
 20
15.00000000000011
 30
0.0
 11
552.9999999999997
 21
15.00000000000028
 31
0.0
  0
LINE
  5
54F
330
150A
100
AcDbEntity
  8
layer 3
100
AcDbLine
 10
394.9999999999998
 20
-27.99999999999977
 30
0.0
 11
423.9999999999997
 21
-27.9999999999996
 31
0.0
  0
LINE
  5
550
330
150A
100
AcDbEntity
  8
layer 3
100
AcDbLine
 10
437.9999999999998
 20
-27.99999999999977
 30
0.0
 11
466.9999999999997
 21
-27.9999999999996
 31
0.0
  0
LINE
  5
551
330
150A
100
AcDbEntity
  8
layer 3
100
AcDbLine
 10
480.9999999999998
 20
-27.99999999999977
 30
0.0
 11
509.9999999999997
 21
-27.9999999999996
 31
0.0
  0
LINE
  5
552
330
150A
100
AcDbEntity
  8
layer 3
100
AcDbLine
 10
523.9999999999998
 20
-27.99999999999977
 30
0.0
 11
552.9999999999997
 21
-27.9999999999996
 31
0.0
  0
LINE
  5
A5E
330
150A
100
AcDbEntity
  8
layer 1
100
AcDbLine
 10
1232.0
 20
663.0
 30
0.0
 11
1232.0
 21
617.0
 31
0.0
  0
LINE
  5
6D7
330
150A
100
AcDbEntity
  8
layer 1
100
AcDbLine
 10
508.5701126536962
 20
559.0177149306941
 30
0.0
 11
508.5701126536962
 21
513.0177149306941
 31
0.0
  0
LINE
  5
1344
330
150A
100
AcDbEntity
  8
layer 1
100
AcDbLine
 10
191.7861724635905
 20
561.8863719884998
 30
0.0
 11
191.7861724635905
 21
515.8863719884998
 31
0.0
  0
LINE
  5
936
330
150A
100
AcDbEntity
  8
layer 1
100
AcDbLine
 10
1234.704614127664
 20
776.0
 30
0.0
 11
1234.704614127664
 21
730.0
 31
0.0
  0
LINE
  5
7F3
330
150A
100
AcDbEntity
  8
layer 1
100
AcDbLine
 10
780.9999999999999
 20
773.0
 30
0.0
 11
780.9999999999999
 21
727.0
 31
0.0
  0
LINE
  5
A5F
330
150A
100
AcDbEntity
  8
layer 1
100
AcDbLine
 10
1490.0
 20
663.0
 30
0.0
 11
1490.0
 21
617.0
 31
0.0
  0
LINE
  5
6D8
330
150A
100
AcDbEntity
  8
layer 1
100
AcDbLine
 10
766.5701126536962
 20
559.0177149306941
 30
0.0
 11
766.5701126536962
 21
513.0177149306941
 31
0.0
  0
LINE
  5
1345
330
150A
100
AcDbEntity
  8
layer 1
100
AcDbLine
 10
449.7861724635906
 20
561.8863719884998
 30
0.0
 11
449.7861724635906
 21
515.8863719884998
 31
0.0
  0
LINE
  5
937
330
150A
100
AcDbEntity
  8
layer 1
100
AcDbLine
 10
1492.704614127665
 20
776.0
 30
0.0
 11
1492.704614127665
 21
730.0
 31
0.0
  0
LINE
  5
7F4
330
150A
100
AcDbEntity
  8
layer 1
100
AcDbLine
 10
1039.0
 20
773.0
 30
0.0
 11
1039.0
 21
727.0
 31
0.0
  0
LINE
  5
1352
330
150A
100
AcDbEntity
  8
layer 2
100
AcDbLine
 10
360.7861724635906
 20
503.8863719884999
 30
0.0
 11
429.7861724635906
 21
503.8863719884999
 31
0.0
  0
ARC
  5
1353
330
150A
100
AcDbEntity
  8
layer 2
100
AcDbCircle
 10
429.7861724635906
 20
515.8863719884998
 30
0.0
 40
11.99999999999994
100
AcDbArc
 50
269.9999999999997
 51
0.0
  0
LINE
  5
1354
330
150A
100
AcDbEntity
  8
layer 2
100
AcDbLine
 10
441.7861724635906
 20
515.8863719884998
 30
0.0
 11
441.7861724635906
 21
561.8863719884998
 31
0.0
  0
ARC
  5
1355
330
150A
100
AcDbEntity
  8
layer 2
100
AcDbCircle
 10
429.7861724635906
 20
561.8863719884998
 30
0.0
 40
12.0
100
AcDbArc
 50
0.0
 51
90.0
  0
LINE
  5
1356
330
150A
100
AcDbEntity
  8
layer 2
100
AcDbLine
 10
429.7861724635906
 20
573.8863719884998
 30
0.0
 11
211.7861724635906
 21
573.8863719884998
 31
0.0
  0
ARC
  5
1357
330
150A
100
AcDbEntity
  8
layer 2
100
AcDbCircle
 10
211.7861724635906
 20
561.8863719884998
 30
0.0
 40
12.0
100
AcDbArc
 50
90.0
 51
180.0
  0
LINE
  5
1358
330
150A
100
AcDbEntity
  8
layer 2
100
AcDbLine
 10
199.7861724635906
 20
561.8863719884998
 30
0.0
 11
199.7861724635906
 21
515.8863719884998
 31
0.0
  0
ARC
  5
1359
330
150A
100
AcDbEntity
  8
layer 2
100
AcDbCircle
 10
211.7861724635906
 20
515.8863719884998
 30
0.0
 40
11.99999999999996
100
AcDbArc
 50
180.0
 51
270.0000000000001
  0
LINE
  5
135A
330
150A
100
AcDbEntity
  8
layer 2
100
AcDbLine
 10
211.7861724635906
 20
503.8863719884999
 30
0.0
 11
280.7861724635906
 21
503.8863719884999
 31
0.0
  0
LINE
  5
13C9
330
150A
100
AcDbEntity
  8
layer 2
100
AcDbLine
 10
516.5701126536962
 20
559.0177149306941
 30
0.0
 11
516.5701126536962
 21
513.0177149306941
 31
0.0
  0
ARC
  5
13CA
330
150A
100
AcDbEntity
  8
layer 2
100
AcDbCircle
 10
528.5701126536962
 20
513.0177149306941
 30
0.0
 40
11.99999999999997
100
AcDbArc
 50
180.0
 51
270.0
  0
LINE
  5
13CB
330
150A
100
AcDbEntity
  8
layer 2
100
AcDbLine
 10
528.5701126536962
 20
501.0177149306941
 30
0.0
 11
746.5701126536962
 21
501.0177149306941
 31
0.0
  0
ARC
  5
13CC
330
150A
100
AcDbEntity
  8
layer 2
100
AcDbCircle
 10
746.5701126536962
 20
513.0177149306941
 30
0.0
 40
11.99999999999997
100
AcDbArc
 50
270.0
 51
0.0
  0
LINE
  5
13CD
330
150A
100
AcDbEntity
  8
layer 2
100
AcDbLine
 10
758.5701126536962
 20
513.0177149306941
 30
0.0
 11
758.5701126536962
 21
559.0177149306941
 31
0.0
  0
ARC
  5
13CE
330
150A
100
AcDbEntity
  8
layer 2
100
AcDbCircle
 10
746.5701126536962
 20
559.0177149306941
 30
0.0
 40
12.0
100
AcDbArc
 50
0.0
 51
90.0
  0
LINE
  5
13CF
330
150A
100
AcDbEntity
  8
layer 2
100
AcDbLine
 10
746.5701126536962
 20
571.0177149306941
 30
0.0
 11
528.5701126536962
 21
571.0177149306941
 31
0.0
  0
ARC
  5
13D0
330
150A
100
AcDbEntity
  8
layer 2
100
AcDbCircle
 10
528.5701126536962
 20
559.0177149306941
 30
0.0
 40
12.0
100
AcDbArc
 50
90.0
 51
180.0
  0
LINE
  5
13C7
330
150A
100
AcDbEntity
  8
layer 2
100
AcDbLine
 10
1482.0
 20
617.0
 30
0.0
 11
1482.0
 21
617.0
 31
0.0
  0
LINE
  5
13C8
330
150A
100
AcDbEntity
  8
layer 2
100
AcDbLine
 10
1482.0
 20
617.0
 30
0.0
 11
1482.0
 21
663.0
 31
0.0
  0
ARC
  5
13D5
330
150A
100
AcDbEntity
  8
layer 2
100
AcDbCircle
 10
1251.999999999069
 20
662.9999999949767
 30
0.0
 40
11.999999999069
100
AcDbArc
 50
179.9970215362654
 51
180.0
  0
LINE
  5
13D6
330
150A
100
AcDbEntity
  8
layer 2
100
AcDbLine
 10
1240.0
 20
663.0
 30
0.0
 11
1240.0
 21
617.0
 31
0.0
  0
ARC
  5
13D7
330
150A
100
AcDbEntity
  8
layer 2
100
AcDbCircle
 10
1251.99999999906
 20
616.999999998613
 30
0.0
 40
11.99999999905961
100
AcDbArc
 50
180.0
 51
180.0031004144311
  0
LINE
  5
13D4
330
150A
100
AcDbEntity
  8
layer 2
100
AcDbLine
 10
1252.0
 20
605.0
 30
0.0
 11
1321.0
 21
605.0
 31
0.0
  0
LINE
  5
13D3
330
150A
100
AcDbEntity
  8
layer 2
100
AcDbLine
 10
1401.0
 20
605.0
 30
0.0
 11
1470.0
 21
605.0
 31
0.0
  0
LINE
  5
13D1
330
150A
100
AcDbEntity
  8
layer 2
100
AcDbLine
 10
1484.704614127665
 20
730.0
 30
0.0
 11
1484.704614127665
 21
730.0
 31
0.0
  0
LINE
  5
13D2
330
150A
100
AcDbEntity
  8
layer 2
100
AcDbLine
 10
1484.704614127665
 20
730.0
 30
0.0
 11
1484.704614127665
 21
776.0
 31
0.0
  0
LINE
  5
13B2
330
150A
100
AcDbEntity
  8
layer 2
100
AcDbLine
 10
1472.704614111451
 20
787.9993761920167
 30
0.0
 11
1472.704614111451
 21
787.9993761920167
 31
0.0
  0
LINE
  5
13B3
330
150A
100
AcDbEntity
  8
layer 2
100
AcDbLine
 10
1472.704614111451
 20
787.9993761920167
 30
0.0
 11
1370.499999983786
 21
787.9993761920167
 31
0.0
  0
LINE
  5
13B0
330
150A
100
AcDbEntity
  8
layer 2
100
AcDbLine
 10
1360.499999983786
 20
787.9993761920167
 30
0.0
 11
1254.70461411145
 21
787.9993761920167
 31
0.0
  0
ARC
  5
13B1
330
150A
100
AcDbEntity
  8
layer 2
100
AcDbCircle
 10
1254.704614111451
 20
775.9993761920167
 30
0.0
 40
11.99999999999996
100
AcDbArc
 50
90.00000000000543
 51
92.38801546327421
  0
ARC
  5
13AD
330
150A
100
AcDbEntity
  8
layer 2
100
AcDbCircle
 10
1254.704614126733
 20
775.9999999949767
 30
0.0
 40
11.999999999069
100
AcDbArc
 50
179.9970215362654
 51
180.0
  0
LINE
  5
13AE
330
150A
100
AcDbEntity
  8
layer 2
100
AcDbLine
 10
1242.704614127664
 20
776.0
 30
0.0
 11
1242.704614127664
 21
730.0
 31
0.0
  0
ARC
  5
13AF
330
150A
100
AcDbEntity
  8
layer 2
100
AcDbCircle
 10
1254.704614126724
 20
730.0000000028149
 30
0.0
 40
11.99999999905972
100
AcDbArc
 50
180.0
 51
180.0031004344152
  0
LINE
  5
13AC
330
150A
100
AcDbEntity
  8
layer 2
100
AcDbLine
 10
1254.704614127664
 20
718.0
 30
0.0
 11
1323.704614127664
 21
718.0
 31
0.0
  0
LINE
  5
13BA
330
150A
100
AcDbEntity
  8
layer 2
100
AcDbLine
 10
1403.704614127664
 20
718.0
 30
0.0
 11
1472.704614127665
 21
718.0
 31
0.0
  0
LINE
  5
13B8
330
150A
100
AcDbEntity
  8
layer 2
100
AcDbLine
 10
1031.0
 20
727.0
 30
0.0
 11
1031.0
 21
727.0
 31
0.0
  0
LINE
  5
13B9
330
150A
100
AcDbEntity
  8
layer 2
100
AcDbLine
 10
1031.0
 20
727.0
 30
0.0
 11
1031.0
 21
773.0
 31
0.0
  0
LINE
  5
13B6
330
150A
100
AcDbEntity
  8
layer 2
100
AcDbLine
 10
1019.0
 20
785.0
 30
0.0
 11
1019.0
 21
785.0
 31
0.0
  0
LINE
  5
13B7
330
150A
100
AcDbEntity
  8
layer 2
100
AcDbLine
 10
1019.0
 20
785.0
 30
0.0
 11
916.7953858723357
 21
785.0
 31
0.0
  0
LINE
  5
13B4
330
150A
100
AcDbEntity
  8
layer 2
100
AcDbLine
 10
906.7953858723357
 20
785.0
 30
0.0
 11
800.9999999999999
 21
785.0
 31
0.0
  0
ARC
  5
13B5
330
150A
100
AcDbEntity
  8
layer 2
100
AcDbCircle
 10
801.000000000001
 20
773.0
 30
0.0
 40
11.99999999999996
100
AcDbArc
 50
90.00000000000543
 51
92.38801546327421
  0
LINE
  5
13C1
330
150A
100
AcDbEntity
  8
layer 2
100
AcDbLine
 10
1470.0
 20
675.0000000000022
 30
0.0
 11
1470.0
 21
675.0000000000022
 31
0.0
  0
LINE
  5
13C2
330
150A
100
AcDbEntity
  8
layer 2
100
AcDbLine
 10
1470.0
 20
675.0000000000022
 30
0.0
 11
1367.795385872336
 21
675.0000000000022
 31
0.0
  0
LINE
  5
13BF
330
150A
100
AcDbEntity
  8
layer 2
100
AcDbLine
 10
1357.795385872336
 20
675.0000000000022
 30
0.0
 11
1252.0
 21
675.0000000000022
 31
0.0
  0
ARC
  5
13C0
330
150A
100
AcDbEntity
  8
layer 2
100
AcDbCircle
 10
1252.000000000001
 20
663.0000000000022
 30
0.0
 40
11.99999999999996
100
AcDbArc
 50
90.00000000000543
 51
92.38801546327421
  0
ARC
  5
13BC
330
150A
100
AcDbEntity
  8
layer 2
100
AcDbCircle
 10
800.9999999990688
 20
772.9999999993507
 30
0.0
 40
11.99999999906888
100
AcDbArc
 50
179.9970215571902
 51
180.0
  0
LINE
  5
13BD
330
150A
100
AcDbEntity
  8
layer 2
100
AcDbLine
 10
788.9999999999999
 20
773.0
 30
0.0
 11
788.9999999999999
 21
727.0
 31
0.0
  0
ARC
  5
13BE
330
150A
100
AcDbEntity
  8
layer 2
100
AcDbCircle
 10
800.9999999990595
 20
727.000000000714
 30
0.0
 40
11.99999999905966
100
AcDbArc
 50
180.0
 51
180.0031004244232
  0
LINE
  5
13BB
330
150A
100
AcDbEntity
  8
layer 2
100
AcDbLine
 10
800.9999999999999
 20
715.0
 30
0.0
 11
869.9999999999999
 21
715.0
 31
0.0
  0
LINE
  5
13C6
330
150A
100
AcDbEntity
  8
layer 2
100
AcDbLine
 10
949.9999999999999
 20
715.0
 30
0.0
 11
1019.0
 21
715.0
 31
0.0
  0
LWPOLYLINE
  5
13C5
330
150A
100
AcDbEntity
  8
layer 2
100
AcDbPolyline
 90
        3
 70
   128
 43
0.0
 10
1475.5
 20
613.0
 42
0.9999999999999999
 10
1472.5
 20
613.0
 42
0.9999999999999999
 10
1475.5
 20
613.0
  0
LWPOLYLINE
  5
13C4
330
150A
100
AcDbEntity
  8
layer 2
100
AcDbPolyline
 90
        3
 70
   128
 43
0.0
 10
1024.5
 20
723.0
 42
0.9999999999999999
 10
1021.5
 20
723.0
 42
0.9999999999999999
 10
1024.5
 20
723.0
  0
LWPOLYLINE
  5
13C3
330
150A
100
AcDbEntity
  8
layer 2
100
AcDbPolyline
 90
        3
 70
   128
 43
0.0
 10
1024.5
 20
777.0
 42
0.9999999999999999
 10
1021.5
 20
777.0
 42
0.9999999999999999
 10
1024.5
 20
777.0
  0
LWPOLYLINE
  5
13AA
330
150A
100
AcDbEntity
  8
layer 2
100
AcDbPolyline
 90
        3
 70
   128
 43
0.0
 10
1475.5
 20
667.0000000000022
 42
0.9999999999999999
 10
1472.5
 20
667.0000000000022
 42
0.9999999999999999
 10
1475.5
 20
667.0000000000022
  0
LWPOLYLINE
  5
13A9
330
150A
100
AcDbEntity
  8
layer 2
100
AcDbPolyline
 90
        3
 70
   128
 43
0.0
 10
797.9999999999999
 20
777.0
 42
0.9999999999999999
 10
794.9999999999999
 20
777.0
 42
0.9999999999999999
 10
797.9999999999999
 20
777.0
  0
LWPOLYLINE
  5
13A8
330
150A
100
AcDbEntity
  8
layer 2
100
AcDbPolyline
 90
        3
 70
   128
 43
0.0
 10
1249.0
 20
667.0000000000022
 42
0.9999999999999999
 10
1246.0
 20
667.0000000000022
 42
0.9999999999999999
 10
1249.0
 20
667.0000000000022
  0
LWPOLYLINE
  5
13A7
330
150A
100
AcDbEntity
  8
layer 2
100
AcDbPolyline
 90
        3
 70
   128
 43
0.0
 10
1249.5
 20
613.0
 42
0.9999999999999999
 10
1246.5
 20
613.0
 42
0.9999999999999999
 10
1249.5
 20
613.0
  0
LWPOLYLINE
  5
13AB
330
150A
100
AcDbEntity
  8
layer 2
100
AcDbPolyline
 90
        3
 70
   128
 43
0.0
 10
798.4999999999999
 20
723.0
 42
0.9999999999999999
 10
795.4999999999999
 20
723.0
 42
0.9999999999999999
 10
798.4999999999999
 20
723.0
  0
ARC
  5
EB5
330
150A
100
AcDbEntity
  8
layer 2
100
AcDbCircle
 10
1250.20461411145
 20
779.9993761920167
 30
0.0
 40
4.0
100
AcDbArc
 50
268.9881014015248
 51
0.0
  0
ARC
  5
7FE
330
150A
100
AcDbEntity
  8
layer 2
100
AcDbCircle
 10
796.4999999999999
 20
777.0
 30
0.0
 40
4.0
100
AcDbArc
 50
268.9881014015248
 51
0.0
  0
ARC
  5
EC2
330
150A
100
AcDbEntity
  8
layer 2
100
AcDbCircle
 10
1247.5
 20
667.0000000000022
 30
0.0
 40
4.0
100
AcDbArc
 50
268.9881014015248
 51
0.0
  0
ARC
  5
A6A
330
150A
100
AcDbEntity
  8
layer 2
100
AcDbCircle
 10
1248.0
 20
613.0
 30
0.0
 40
4.0
100
AcDbArc
 50
0.0
 51
91.03241225456959
  0
ARC
  5
93E
330
150A
100
AcDbEntity
  8
layer 2
100
AcDbCircle
 10
1250.704614127664
 20
726.0
 30
0.0
 40
4.0
100
AcDbArc
 50
0.0
 51
91.03241225456959
  0
ARC
  5
7FF
330
150A
100
AcDbEntity
  8
layer 2
100
AcDbCircle
 10
796.9999999999999
 20
723.0
 30
0.0
 40
4.0
100
AcDbArc
 50
0.0
 51
91.03241225456959
  0
ARC
  5
A6B
330
150A
100
AcDbEntity
  8
layer 2
100
AcDbCircle
 10
1474.0
 20
613.0
 30
0.0
 40
4.0
100
AcDbArc
 50
90.0
 51
180.0
  0
ARC
  5
93F
330
150A
100
AcDbEntity
  8
layer 2
100
AcDbCircle
 10
1476.704614127665
 20
726.0
 30
0.0
 40
4.0
100
AcDbArc
 50
90.0
 51
180.0
  0
ARC
  5
800
330
150A
100
AcDbEntity
  8
layer 2
100
AcDbCircle
 10
1023.0
 20
723.0
 30
0.0
 40
4.0
100
AcDbArc
 50
90.0
 51
180.0
  0
ARC
  5
EB6
330
150A
100
AcDbEntity
  8
layer 2
100
AcDbCircle
 10
1476.704614111451
 20
779.9993761920167
 30
0.0
 40
4.0
100
AcDbArc
 50
180.0
 51
270.0
  0
ARC
  5
801
330
150A
100
AcDbEntity
  8
layer 2
100
AcDbCircle
 10
1023.0
 20
777.0
 30
0.0
 40
4.0
100
AcDbArc
 50
180.0
 51
270.0
  0
ARC
  5
EC3
330
150A
100
AcDbEntity
  8
layer 2
100
AcDbCircle
 10
1474.0
 20
667.0000000000022
 30
0.0
 40
4.0
100
AcDbArc
 50
180.0
 51
270.0
  0
LINE
  5
EB7
330
150A
100
AcDbEntity
  8
layer 2
100
AcDbLine
 10
1242.704614127664
 20
775.9999999949767
 30
0.0
 11
1250.275254288051
 21
775.9999999949767
 31
0.0
  0
LINE
  5
802
330
150A
100
AcDbEntity
  8
layer 2
100
AcDbLine
 10
789.0000000162137
 20
773.00062380296
 30
0.0
 11
796.5706401766004
 21
773.00062380296
 31
0.0
  0
LINE
  5
EC4
330
150A
100
AcDbEntity
  8
layer 2
100
AcDbLine
 10
1240.000000016214
 20
663.0006238029622
 30
0.0
 11
1247.570640176601
 21
663.0006238029622
 31
0.0
  0
LINE
  5
EB8
330
150A
100
AcDbEntity
  8
layer 2
100
AcDbLine
 10
1254.20461411145
 20
779.9993761920167
 30
0.0
 11
1254.20461411145
 21
787.9889550002985
 31
0.0
  0
LINE
  5
803
330
150A
100
AcDbEntity
  8
layer 2
100
AcDbLine
 10
800.4999999999999
 20
777.0
 30
0.0
 11
800.4999999999999
 21
784.9895788082817
 31
0.0
  0
LINE
  5
EC5
330
150A
100
AcDbEntity
  8
layer 2
100
AcDbLine
 10
1251.5
 20
667.0000000000022
 30
0.0
 11
1251.5
 21
674.9895788082839
 31
0.0
  0
LINE
  5
EB9
330
150A
100
AcDbEntity
  8
layer 2
100
AcDbLine
 10
1472.704614111451
 20
779.9993761920167
 30
0.0
 11
1472.704614111451
 21
787.9993761920167
 31
0.0
  0
LINE
  5
804
330
150A
100
AcDbEntity
  8
layer 2
100
AcDbLine
 10
1019.0
 20
777.0
 30
0.0
 11
1019.0
 21
785.0
 31
0.0
  0
LINE
  5
EC6
330
150A
100
AcDbEntity
  8
layer 2
100
AcDbLine
 10
1470.0
 20
667.0000000000022
 30
0.0
 11
1470.0
 21
675.0000000000022
 31
0.0
  0
LINE
  5
A70
330
150A
100
AcDbEntity
  8
layer 2
100
AcDbLine
 10
1252.0
 20
605.0
 30
0.0
 11
1252.0
 21
613.0
 31
0.0
  0
LINE
  5
944
330
150A
100
AcDbEntity
  8
layer 2
100
AcDbLine
 10
1254.704614127664
 20
718.0
 30
0.0
 11
1254.704614127664
 21
726.0
 31
0.0
  0
LINE
  5
805
330
150A
100
AcDbEntity
  8
layer 2
100
AcDbLine
 10
800.9999999999999
 20
715.0
 30
0.0
 11
800.9999999999999
 21
723.0
 31
0.0
  0
LINE
  5
A71
330
150A
100
AcDbEntity
  8
layer 2
100
AcDbLine
 10
1470.0
 20
605.0
 30
0.0
 11
1470.0
 21
613.0
 31
0.0
  0
LINE
  5
945
330
150A
100
AcDbEntity
  8
layer 2
100
AcDbLine
 10
1472.704614127665
 20
718.0
 30
0.0
 11
1472.704614127665
 21
726.0
 31
0.0
  0
LINE
  5
806
330
150A
100
AcDbEntity
  8
layer 2
100
AcDbLine
 10
1019.0
 20
715.0
 30
0.0
 11
1019.0
 21
723.0
 31
0.0
  0
LINE
  5
A72
330
150A
100
AcDbEntity
  8
layer 2
100
AcDbLine
 10
1240.000000017569
 20
616.9993506493465
 30
0.0
 11
1248.072072072072
 21
616.9993506493465
 31
0.0
  0
LINE
  5
946
330
150A
100
AcDbEntity
  8
layer 2
100
AcDbLine
 10
1242.704614145233
 20
729.9993506493465
 30
0.0
 11
1250.776686199736
 21
729.9993506493465
 31
0.0
  0
LINE
  5
807
330
150A
100
AcDbEntity
  8
layer 2
100
AcDbLine
 10
789.0000000175689
 20
726.9993506493465
 30
0.0
 11
797.0720720720719
 21
726.9993506493465
 31
0.0
  0
LINE
  5
A73
330
150A
100
AcDbEntity
  8
layer 2
100
AcDbLine
 10
1473.999988503401
 20
616.9999999999832
 30
0.0
 11
1482.0
 21
616.9999999999832
 31
0.0
  0
LINE
  5
947
330
150A
100
AcDbEntity
  8
layer 2
100
AcDbLine
 10
1476.704602631066
 20
729.9999999999833
 30
0.0
 11
1484.704614127665
 21
729.9999999999833
 31
0.0
  0
LINE
  5
808
330
150A
100
AcDbEntity
  8
layer 2
100
AcDbLine
 10
1022.999988503401
 20
726.9999999999833
 30
0.0
 11
1031.0
 21
726.9999999999833
 31
0.0
  0
LINE
  5
EBA
330
150A
100
AcDbEntity
  8
layer 2
100
AcDbLine
 10
1476.704613191723
 20
775.9993761920168
 30
0.0
 11
1484.704614111451
 21
775.9993761920168
 31
0.0
  0
LINE
  5
809
330
150A
100
AcDbEntity
  8
layer 2
100
AcDbLine
 10
1022.999999080272
 20
773.0000000000001
 30
0.0
 11
1031.0
 21
773.0000000000001
 31
0.0
  0
LINE
  5
EC7
330
150A
100
AcDbEntity
  8
layer 2
100
AcDbLine
 10
1473.999999080272
 20
663.0000000000023
 30
0.0
 11
1482.0
 21
663.0000000000023
 31
0.0
  0
LINE
  5
A75
330
150A
100
AcDbEntity
  8
layer 2
100
AcDbLine
 10
1321.0
 20
605.0
 30
0.0
 11
1321.0
 21
625.0
 31
0.0
  0
LINE
  5
949
330
150A
100
AcDbEntity
  8
layer 2
100
AcDbLine
 10
1323.704614127664
 20
718.0
 30
0.0
 11
1323.704614127664
 21
738.0
 31
0.0
  0
LINE
  5
80A
330
150A
100
AcDbEntity
  8
layer 2
100
AcDbLine
 10
869.9999999999999
 20
715.0
 30
0.0
 11
869.9999999999999
 21
735.0
 31
0.0
  0
LINE
  5
A76
330
150A
100
AcDbEntity
  8
layer 2
100
AcDbLine
 10
1321.0
 20
625.0
 30
0.0
 11
1401.0
 21
625.0
 31
0.0
  0
LINE
  5
94A
330
150A
100
AcDbEntity
  8
layer 2
100
AcDbLine
 10
1323.704614127664
 20
738.0
 30
0.0
 11
1403.704614127664
 21
738.0
 31
0.0
  0
LINE
  5
81D
330
150A
100
AcDbEntity
  8
layer 2
100
AcDbLine
 10
936.1459756976061
 20
735.0
 30
0.0
 11
949.9999999999999
 21
735.0
 31
0.0
  0
LINE
  5
81E
330
150A
100
AcDbEntity
  8
layer 2
100
AcDbLine
 10
869.9999999999999
 20
735.0
 30
0.0
 11
890.4959756976064
 21
735.0
 31
0.0
  0
LINE
  5
81F
330
150A
100
AcDbEntity
  8
layer 2
100
AcDbLine
 10
896.4959756976065
 20
735.0
 30
0.0
 11
923.4459756976061
 21
735.0
 31
0.0
  0
LINE
  5
A77
330
150A
100
AcDbEntity
  8
layer 2
100
AcDbLine
 10
1401.0
 20
625.0
 30
0.0
 11
1401.0
 21
605.0
 31
0.0
  0
LINE
  5
94B
330
150A
100
AcDbEntity
  8
layer 2
100
AcDbLine
 10
1403.704614127664
 20
738.0
 30
0.0
 11
1403.704614127664
 21
718.0
 31
0.0
  0
LINE
  5
80C
330
150A
100
AcDbEntity
  8
layer 2
100
AcDbLine
 10
949.9999999999999
 20
735.0
 30
0.0
 11
949.9999999999999
 21
715.0
 31
0.0
  0
LWPOLYLINE
  5
13A5
330
150A
100
AcDbEntity
  8
layer 2
100
AcDbPolyline
 90
        3
 70
   128
 43
0.0
 10
1364.295975697606
 20
613.0
 42
0.9999999999999999
 10
1361.295975697606
 20
613.0
 42
0.9999999999999999
 10
1364.295975697606
 20
613.0
  0
LWPOLYLINE
  5
13A4
330
150A
100
AcDbEntity
  8
layer 2
100
AcDbPolyline
 90
        3
 70
   128
 43
0.0
 10
913.2959756976062
 20
723.0
 42
0.9999999999999999
 10
910.2959756976062
 20
723.0
 42
0.9999999999999999
 10
913.2959756976062
 20
723.0
  0
LINE
  5
80E
330
150A
100
AcDbEntity
  8
layer 2
100
AcDbLine
 10
923.4459756976061
 20
719.3638097621532
 30
0.0
 11
936.1459756976061
 21
719.3638097621532
 31
0.0
  0
LINE
  5
94D
330
150A
100
AcDbEntity
  8
layer 2
100
AcDbLine
 10
1344.200589825271
 20
728.1141029198375
 30
0.0
 11
1350.200589825271
 21
728.1141029198375
 31
0.0
  0
LINE
  5
80F
330
150A
100
AcDbEntity
  8
layer 2
100
AcDbLine
 10
890.4959756976065
 20
725.1141029198375
 30
0.0
 11
896.4959756976065
 21
725.1141029198375
 31
0.0
  0
LINE
  5
94E
330
150A
100
AcDbEntity
  8
layer 1
100
AcDbLine
 10
1342.900589825271
 20
710.0
 30
0.0
 11
1387.50058982527
 21
710.0
 31
0.0
  0
LINE
  5
810
330
150A
100
AcDbEntity
  8
layer 1
100
AcDbLine
 10
889.1959756976065
 20
707.0
 30
0.0
 11
933.7959756976059
 21
707.0
 31
0.0
  0
LINE
  5
818
330
150A
100
AcDbEntity
  8
layer 2
100
AcDbLine
 10
890.4959756976065
 20
725.1141029198375
 30
0.0
 11
890.4959756976065
 21
735.0
 31
0.0
  0
LINE
  5
819
330
150A
100
AcDbEntity
  8
layer 2
100
AcDbLine
 10
896.4959756976065
 20
725.1141029198375
 30
0.0
 11
896.4959756976065
 21
735.0
 31
0.0
  0
LINE
  5
81A
330
150A
100
AcDbEntity
  8
layer 2
100
AcDbLine
 10
923.4459756976061
 20
719.3638097621532
 30
0.0
 11
923.4459756976061
 21
735.0
 31
0.0
  0
LINE
  5
81B
330
150A
100
AcDbEntity
  8
layer 2
100
AcDbLine
 10
936.1459756976061
 20
719.3638097621532
 30
0.0
 11
936.1459756976061
 21
735.0
 31
0.0
  0
LWPOLYLINE
  5
1351
330
150A
100
AcDbEntity
  8
layer 2
100
AcDbPolyline
 90
        3
 70
   128
 43
0.0
 10
324.5815583359262
 20
511.8593392678962
 42
0.9999999999999999
 10
320.5815583359262
 20
511.8593392678962
 42
0.9999999999999999
 10
324.5815583359262
 20
511.8593392678962
  0
LWPOLYLINE
  5
13A6
330
150A
100
AcDbEntity
  8
layer 2
100
AcDbPolyline
 90
        3
 70
   128
 43
0.0
 10
641.3654985260318
 20
508.9906822100905
 42
0.9999999999999999
 10
637.3654985260318
 20
508.9906822100905
 42
0.9999999999999999
 10
641.3654985260318
 20
508.9906822100905
  0
LWPOLYLINE
  5
1350
330
150A
100
AcDbEntity
  8
layer 2
100
AcDbPolyline
 90
        3
 70
   128
 43
0.0
 10
209.7861724635906
 20
511.8863719884999
 42
0.9999999999999999
 10
205.7861724635906
 20
511.8863719884999
 42
0.9999999999999999
 10
209.7861724635906
 20
511.8863719884999
  0
LWPOLYLINE
  5
13A2
330
150A
100
AcDbEntity
  8
layer 2
100
AcDbPolyline
 90
        3
 70
   128
 43
0.0
 10
526.5701126536962
 20
509.0177149306941
 42
0.9999999999999999
 10
522.5701126536962
 20
509.0177149306941
 42
0.9999999999999999
 10
526.5701126536962
 20
509.0177149306941
  0
LWPOLYLINE
  5
13A1
330
150A
100
AcDbEntity
  8
layer 2
100
AcDbPolyline
 90
        3
 70
   128
 43
0.0
 10
526.0701126536962
 20
563.0177149306941
 42
0.9999999999999999
 10
522.0701126536962
 20
563.0177149306941
 42
0.9999999999999999
 10
526.0701126536962
 20
563.0177149306941
  0
LWPOLYLINE
  5
140B
330
150A
100
AcDbEntity
  8
layer 2
100
AcDbPolyline
 90
        3
 70
   128
 43
0.0
 10
209.2861724635906
 20
565.8863719884998
 42
0.9999999999999999
 10
205.2861724635906
 20
565.8863719884998
 42
0.9999999999999999
 10
209.2861724635906
 20
565.8863719884998
  0
LWPOLYLINE
  5
13A0
330
150A
100
AcDbEntity
  8
layer 2
100
AcDbPolyline
 90
        3
 70
   128
 43
0.0
 10
641.365498526032
 20
563.0177149306941
 42
0.9999999999999999
 10
637.365498526032
 20
563.0177149306941
 42
0.9999999999999999
 10
641.365498526032
 20
563.0177149306941
  0
LWPOLYLINE
  5
140A
330
150A
100
AcDbEntity
  8
layer 2
100
AcDbPolyline
 90
        3
 70
   128
 43
0.0
 10
324.5815583359263
 20
565.8863719884998
 42
0.9999999999999999
 10
320.5815583359263
 20
565.8863719884998
 42
0.9999999999999999
 10
324.5815583359263
 20
565.8863719884998
  0
LWPOLYLINE
  5
139F
330
150A
100
AcDbEntity
  8
layer 2
100
AcDbPolyline
 90
        3
 70
   128
 43
0.0
 10
752.5701126536962
 20
563.0177149306941
 42
0.9999999999999999
 10
748.5701126536962
 20
563.0177149306941
 42
0.9999999999999999
 10
752.5701126536962
 20
563.0177149306941
  0
LWPOLYLINE
  5
1409
330
150A
100
AcDbEntity
  8
layer 2
100
AcDbPolyline
 90
        3
 70
   128
 43
0.0
 10
435.7861724635906
 20
565.8863719884998
 42
0.9999999999999999
 10
431.7861724635906
 20
565.8863719884998
 42
0.9999999999999999
 10
435.7861724635906
 20
565.8863719884998
  0
LWPOLYLINE
  5
13A3
330
150A
100
AcDbEntity
  8
layer 2
100
AcDbPolyline
 90
        3
 70
   128
 43
0.0
 10
752.5701126536962
 20
509.0177149306941
 42
0.9999999999999999
 10
748.5701126536962
 20
509.0177149306941
 42
0.9999999999999999
 10
752.5701126536962
 20
509.0177149306941
  0
LWPOLYLINE
  5
1408
330
150A
100
AcDbEntity
  8
layer 2
100
AcDbPolyline
 90
        3
 70
   128
 43
0.0
 10
435.7861724635906
 20
511.8863719884999
 42
0.9999999999999999
 10
431.7861724635906
 20
511.8863719884999
 42
0.9999999999999999
 10
435.7861724635906
 20
511.8863719884999
  0
LINE
  5
959
330
150A
100
AcDbEntity
  8
layer 2
100
AcDbLine
 10
1377.15058982527
 20
726.268577759023
 30
0.0
 11
1377.15058982527
 21
712.0685777590231
 31
0.0
  0
LINE
  5
95A
330
150A
100
AcDbEntity
  8
layer 2
100
AcDbLine
 10
1377.15058982527
 20
712.0685777590231
 30
0.0
 11
1389.85058982527
 21
712.0685777590231
 31
0.0
  0
LINE
  5
95B
330
150A
100
AcDbEntity
  8
layer 2
100
AcDbLine
 10
1389.85058982527
 20
712.0685777590231
 30
0.0
 11
1389.850589825271
 21
726.268577759023
 31
0.0
  0
LINE
  5
A7A
330
150A
100
AcDbEntity
  8
layer 1
100
AcDbLine
 10
1374.445975697606
 20
621.2685777590231
 30
0.0
 11
1374.445975697606
 21
599.0685777590231
 31
0.0
  0
LINE
  5
A7B
330
150A
100
AcDbEntity
  8
layer 1
100
AcDbLine
 10
1387.145975697606
 20
621.2685777590231
 30
0.0
 11
1387.145975697606
 21
599.0685777590231
 31
0.0
  0
LINE
  5
B9C
330
150A
100
AcDbEntity
  8
layer 2
100
AcDbLine
 10
1032.312438014091
 20
350.8730039920159
 30
0.0
 11
1206.312438014091
 21
350.8730039920159
 31
0.0
  0
LINE
  5
BA9
330
150A
100
AcDbEntity
  8
layer 2
100
AcDbLine
 10
1027.312438014091
 20
189.3730039920159
 30
0.0
 11
1027.312438014091
 21
209.3730039920159
 31
0.0
  0
LINE
  5
BAB
330
150A
100
AcDbEntity
  8
layer 2
100
AcDbLine
 10
1027.312438014091
 20
232.3730039920159
 30
0.0
 11
1027.312438014091
 21
252.373003992016
 31
0.0
  0
LINE
  5
BAD
330
150A
100
AcDbEntity
  8
layer 2
100
AcDbLine
 10
1027.312438014091
 20
275.373003992016
 30
0.0
 11
1027.312438014091
 21
295.3730039920159
 31
0.0
  0
LINE
  5
BAE
330
150A
100
AcDbEntity
  8
layer 2
100
AcDbLine
 10
1027.312438014091
 20
318.3730039920159
 30
0.0
 11
1027.312438014091
 21
338.3730039920159
 31
0.0
  0
LINE
  5
C3F
330
150A
100
AcDbEntity
  8
layer 2
100
AcDbLine
 10
1043.0
 20
-27.0
 30
0.0
 11
1217.0
 21
-27.0
 31
0.0
  0
LINE
  5
C40
330
150A
100
AcDbEntity
  8
layer 2
100
AcDbLine
 10
1217.0
 20
-27.0
 30
0.0
 11
1217.0
 21
147.0
 31
0.0
  0
LINE
  5
C41
330
150A
100
AcDbEntity
  8
layer 2
100
AcDbLine
 10
1217.0
 20
147.0
 30
0.0
 11
1043.0
 21
147.0
 31
0.0
  0
LINE
  5
C42
330
150A
100
AcDbEntity
  8
layer 2
100
AcDbLine
 10
1043.0
 20
147.0
 30
0.0
 11
1043.0
 21
-27.0
 31
0.0
  0
LINE
  5
136B
330
150A
100
AcDbEntity
  8
layer 1
100
AcDbLine
 10
1052.0
 20
111.0000000000001
 30
0.0
 11
1079.0
 21
111.0000000000001
 31
0.0
  0
LINE
  5
136C
330
150A
100
AcDbEntity
  8
layer 1
100
AcDbLine
 10
1079.0
 20
111.0000000000001
 30
0.0
 11
1079.0
 21
138.0000000000001
 31
0.0
  0
LINE
  5
136D
330
150A
100
AcDbEntity
  8
layer 1
100
AcDbLine
 10
1079.0
 20
138.0000000000001
 30
0.0
 11
1052.0
 21
137.9999999999999
 31
0.0
  0
LINE
  5
136E
330
150A
100
AcDbEntity
  8
layer 1
100
AcDbLine
 10
1052.0
 20
137.9999999999999
 30
0.0
 11
1052.0
 21
111.0000000000001
 31
0.0
  0
LINE
  5
137B
330
150A
100
AcDbEntity
  8
layer 1
100
AcDbLine
 10
1095.0
 20
111.0000000000001
 30
0.0
 11
1122.0
 21
111.0000000000001
 31
0.0
  0
LINE
  5
137C
330
150A
100
AcDbEntity
  8
layer 1
100
AcDbLine
 10
1122.0
 20
111.0000000000001
 30
0.0
 11
1122.0
 21
138.0000000000001
 31
0.0
  0
LINE
  5
137D
330
150A
100
AcDbEntity
  8
layer 1
100
AcDbLine
 10
1122.0
 20
138.0000000000001
 30
0.0
 11
1095.0
 21
137.9999999999999
 31
0.0
  0
LINE
  5
137E
330
150A
100
AcDbEntity
  8
layer 1
100
AcDbLine
 10
1095.0
 20
137.9999999999999
 30
0.0
 11
1095.0
 21
111.0000000000001
 31
0.0
  0
LINE
  5
1377
330
150A
100
AcDbEntity
  8
layer 1
100
AcDbLine
 10
1138.0
 20
111.0000000000001
 30
0.0
 11
1165.0
 21
111.0000000000001
 31
0.0
  0
LINE
  5
1378
330
150A
100
AcDbEntity
  8
layer 1
100
AcDbLine
 10
1165.0
 20
111.0000000000001
 30
0.0
 11
1165.0
 21
138.0000000000001
 31
0.0
  0
LINE
  5
1379
330
150A
100
AcDbEntity
  8
layer 1
100
AcDbLine
 10
1165.0
 20
138.0000000000001
 30
0.0
 11
1138.0
 21
137.9999999999999
 31
0.0
  0
LINE
  5
137A
330
150A
100
AcDbEntity
  8
layer 1
100
AcDbLine
 10
1138.0
 20
137.9999999999999
 30
0.0
 11
1138.0
 21
111.0000000000001
 31
0.0
  0
LINE
  5
1373
330
150A
100
AcDbEntity
  8
layer 1
100
AcDbLine
 10
1181.0
 20
111.0000000000001
 30
0.0
 11
1208.0
 21
111.0000000000001
 31
0.0
  0
LINE
  5
1374
330
150A
100
AcDbEntity
  8
layer 1
100
AcDbLine
 10
1208.0
 20
111.0000000000001
 30
0.0
 11
1208.0
 21
138.0000000000001
 31
0.0
  0
LINE
  5
1375
330
150A
100
AcDbEntity
  8
layer 1
100
AcDbLine
 10
1208.0
 20
138.0000000000001
 30
0.0
 11
1181.0
 21
137.9999999999999
 31
0.0
  0
LINE
  5
1376
330
150A
100
AcDbEntity
  8
layer 1
100
AcDbLine
 10
1181.0
 20
137.9999999999999
 30
0.0
 11
1181.0
 21
111.0000000000001
 31
0.0
  0
LINE
  5
136F
330
150A
100
AcDbEntity
  8
layer 1
100
AcDbLine
 10
1181.0
 20
68.00000000000023
 30
0.0
 11
1208.0
 21
68.00000000000026
 31
0.0
  0
LINE
  5
1370
330
150A
100
AcDbEntity
  8
layer 1
100
AcDbLine
 10
1208.0
 20
68.00000000000026
 30
0.0
 11
1208.0
 21
95.00000000000024
 31
0.0
  0
LINE
  5
1371
330
150A
100
AcDbEntity
  8
layer 1
100
AcDbLine
 10
1208.0
 20
95.00000000000024
 30
0.0
 11
1181.0
 21
95.00000000000001
 31
0.0
  0
LINE
  5
1372
330
150A
100
AcDbEntity
  8
layer 1
100
AcDbLine
 10
1181.0
 20
95.00000000000001
 30
0.0
 11
1181.0
 21
68.00000000000023
 31
0.0
  0
LINE
  5
138B
330
150A
100
AcDbEntity
  8
layer 1
100
AcDbLine
 10
1138.0
 20
68.00000000000023
 30
0.0
 11
1165.0
 21
68.00000000000026
 31
0.0
  0
LINE
  5
138C
330
150A
100
AcDbEntity
  8
layer 1
100
AcDbLine
 10
1165.0
 20
68.00000000000026
 30
0.0
 11
1165.0
 21
95.00000000000024
 31
0.0
  0
LINE
  5
138D
330
150A
100
AcDbEntity
  8
layer 1
100
AcDbLine
 10
1165.0
 20
95.00000000000024
 30
0.0
 11
1138.0
 21
95.00000000000001
 31
0.0
  0
LINE
  5
138E
330
150A
100
AcDbEntity
  8
layer 1
100
AcDbLine
 10
1138.0
 20
95.00000000000001
 30
0.0
 11
1138.0
 21
68.00000000000023
 31
0.0
  0
LINE
  5
1387
330
150A
100
AcDbEntity
  8
layer 1
100
AcDbLine
 10
1121.999999999999
 20
68.00000000000023
 30
0.0
 11
1095.0
 21
68.00000000000023
 31
0.0
  0
LINE
  5
1388
330
150A
100
AcDbEntity
  8
layer 1
100
AcDbLine
 10
1095.0
 20
68.00000000000023
 30
0.0
 11
1095.0
 21
95.0
 31
0.0
  0
LINE
  5
1389
330
150A
100
AcDbEntity
  8
layer 1
100
AcDbLine
 10
1095.0
 20
95.0
 30
0.0
 11
1122.0
 21
95.00000000000001
 31
0.0
  0
LINE
  5
138A
330
150A
100
AcDbEntity
  8
layer 1
100
AcDbLine
 10
1122.0
 20
95.00000000000001
 30
0.0
 11
1121.999999999999
 21
68.00000000000023
 31
0.0
  0
LINE
  5
1383
330
150A
100
AcDbEntity
  8
layer 1
100
AcDbLine
 10
1078.999999999999
 20
68.00000000000023
 30
0.0
 11
1052.0
 21
68.00000000000023
 31
0.0
  0
LINE
  5
1384
330
150A
100
AcDbEntity
  8
layer 1
100
AcDbLine
 10
1052.0
 20
68.00000000000023
 30
0.0
 11
1052.0
 21
95.0
 31
0.0
  0
LINE
  5
1385
330
150A
100
AcDbEntity
  8
layer 1
100
AcDbLine
 10
1052.0
 20
95.0
 30
0.0
 11
1079.0
 21
95.00000000000001
 31
0.0
  0
LINE
  5
1386
330
150A
100
AcDbEntity
  8
layer 1
100
AcDbLine
 10
1079.0
 20
95.00000000000001
 30
0.0
 11
1078.999999999999
 21
68.00000000000023
 31
0.0
  0
LINE
  5
137F
330
150A
100
AcDbEntity
  8
layer 1
100
AcDbLine
 10
1208.0
 20
25.00000000000034
 30
0.0
 11
1181.0
 21
25.00000000000034
 31
0.0
  0
LINE
  5
1380
330
150A
100
AcDbEntity
  8
layer 1
100
AcDbLine
 10
1181.0
 20
25.00000000000034
 30
0.0
 11
1180.999999999999
 21
52.00000000000011
 31
0.0
  0
LINE
  5
1381
330
150A
100
AcDbEntity
  8
layer 1
100
AcDbLine
 10
1180.999999999999
 20
52.00000000000011
 30
0.0
 11
1208.0
 21
52.00000000000012
 31
0.0
  0
LINE
  5
1382
330
150A
100
AcDbEntity
  8
layer 1
100
AcDbLine
 10
1208.0
 20
52.00000000000012
 30
0.0
 11
1208.0
 21
25.00000000000034
 31
0.0
  0
LINE
  5
139B
330
150A
100
AcDbEntity
  8
layer 1
100
AcDbLine
 10
1164.999999999999
 20
25.00000000000034
 30
0.0
 11
1138.0
 21
25.00000000000034
 31
0.0
  0
LINE
  5
139C
330
150A
100
AcDbEntity
  8
layer 1
100
AcDbLine
 10
1138.0
 20
25.00000000000034
 30
0.0
 11
1137.999999999999
 21
52.00000000000011
 31
0.0
  0
LINE
  5
139D
330
150A
100
AcDbEntity
  8
layer 1
100
AcDbLine
 10
1137.999999999999
 20
52.00000000000011
 30
0.0
 11
1165.0
 21
52.00000000000012
 31
0.0
  0
LINE
  5
139E
330
150A
100
AcDbEntity
  8
layer 1
100
AcDbLine
 10
1165.0
 20
52.00000000000012
 30
0.0
 11
1164.999999999999
 21
25.00000000000034
 31
0.0
  0
LINE
  5
1397
330
150A
100
AcDbEntity
  8
layer 1
100
AcDbLine
 10
1122.0
 20
25.00000000000034
 30
0.0
 11
1095.0
 21
25.00000000000034
 31
0.0
  0
LINE
  5
1398
330
150A
100
AcDbEntity
  8
layer 1
100
AcDbLine
 10
1095.0
 20
25.00000000000034
 30
0.0
 11
1094.999999999999
 21
52.00000000000011
 31
0.0
  0
LINE
  5
1399
330
150A
100
AcDbEntity
  8
layer 1
100
AcDbLine
 10
1094.999999999999
 20
52.00000000000011
 30
0.0
 11
1122.0
 21
52.00000000000012
 31
0.0
  0
LINE
  5
139A
330
150A
100
AcDbEntity
  8
layer 1
100
AcDbLine
 10
1122.0
 20
52.00000000000012
 30
0.0
 11
1122.0
 21
25.00000000000034
 31
0.0
  0
LINE
  5
1393
330
150A
100
AcDbEntity
  8
layer 1
100
AcDbLine
 10
1079.0
 20
25.00000000000034
 30
0.0
 11
1052.0
 21
25.00000000000034
 31
0.0
  0
LINE
  5
1394
330
150A
100
AcDbEntity
  8
layer 1
100
AcDbLine
 10
1052.0
 20
25.00000000000034
 30
0.0
 11
1051.999999999999
 21
52.00000000000011
 31
0.0
  0
LINE
  5
1395
330
150A
100
AcDbEntity
  8
layer 1
100
AcDbLine
 10
1051.999999999999
 20
52.00000000000011
 30
0.0
 11
1079.0
 21
52.00000000000012
 31
0.0
  0
LINE
  5
1396
330
150A
100
AcDbEntity
  8
layer 1
100
AcDbLine
 10
1079.0
 20
52.00000000000012
 30
0.0
 11
1079.0
 21
25.00000000000034
 31
0.0
  0
LINE
  5
138F
330
150A
100
AcDbEntity
  8
layer 1
100
AcDbLine
 10
1078.999999999999
 20
-17.99999999999957
 30
0.0
 11
1052.0
 21
-17.99999999999957
 31
0.0
  0
LINE
  5
1390
330
150A
100
AcDbEntity
  8
layer 1
100
AcDbLine
 10
1052.0
 20
-17.99999999999957
 30
0.0
 11
1052.0
 21
9.000000000000343
 31
0.0
  0
LINE
  5
1391
330
150A
100
AcDbEntity
  8
layer 1
100
AcDbLine
 10
1052.0
 20
9.000000000000343
 30
0.0
 11
1079.0
 21
9.000000000000343
 31
0.0
  0
LINE
  5
1392
330
150A
100
AcDbEntity
  8
layer 1
100
AcDbLine
 10
1079.0
 20
9.000000000000343
 30
0.0
 11
1078.999999999999
 21
-17.99999999999957
 31
0.0
  0
LINE
  5
1363
330
150A
100
AcDbEntity
  8
layer 1
100
AcDbLine
 10
1121.999999999999
 20
-17.99999999999957
 30
0.0
 11
1095.0
 21
-17.99999999999957
 31
0.0
  0
LINE
  5
1364
330
150A
100
AcDbEntity
  8
layer 1
100
AcDbLine
 10
1095.0
 20
-17.99999999999957
 30
0.0
 11
1095.0
 21
9.000000000000343
 31
0.0
  0
LINE
  5
1365
330
150A
100
AcDbEntity
  8
layer 1
100
AcDbLine
 10
1095.0
 20
9.000000000000343
 30
0.0
 11
1122.0
 21
9.000000000000343
 31
0.0
  0
LINE
  5
1366
330
150A
100
AcDbEntity
  8
layer 1
100
AcDbLine
 10
1122.0
 20
9.000000000000343
 30
0.0
 11
1121.999999999999
 21
-17.99999999999957
 31
0.0
  0
LINE
  5
135F
330
150A
100
AcDbEntity
  8
layer 1
100
AcDbLine
 10
1164.999999999999
 20
-17.99999999999957
 30
0.0
 11
1138.0
 21
-17.99999999999957
 31
0.0
  0
LINE
  5
1360
330
150A
100
AcDbEntity
  8
layer 1
100
AcDbLine
 10
1138.0
 20
-17.99999999999957
 30
0.0
 11
1138.0
 21
9.000000000000343
 31
0.0
  0
LINE
  5
1361
330
150A
100
AcDbEntity
  8
layer 1
100
AcDbLine
 10
1138.0
 20
9.000000000000343
 30
0.0
 11
1165.0
 21
9.000000000000343
 31
0.0
  0
LINE
  5
1362
330
150A
100
AcDbEntity
  8
layer 1
100
AcDbLine
 10
1165.0
 20
9.000000000000343
 30
0.0
 11
1164.999999999999
 21
-17.99999999999957
 31
0.0
  0
LINE
  5
135B
330
150A
100
AcDbEntity
  8
layer 1
100
AcDbLine
 10
1208.0
 20
-17.99999999999957
 30
0.0
 11
1181.0
 21
-17.99999999999957
 31
0.0
  0
LINE
  5
135C
330
150A
100
AcDbEntity
  8
layer 1
100
AcDbLine
 10
1181.0
 20
-17.99999999999957
 30
0.0
 11
1181.0
 21
9.000000000000343
 31
0.0
  0
LINE
  5
135D
330
150A
100
AcDbEntity
  8
layer 1
100
AcDbLine
 10
1181.0
 20
9.000000000000343
 30
0.0
 11
1208.0
 21
9.000000000000343
 31
0.0
  0
LINE
  5
135E
330
150A
100
AcDbEntity
  8
layer 1
100
AcDbLine
 10
1208.0
 20
9.000000000000343
 30
0.0
 11
1208.0
 21
-17.99999999999957
 31
0.0
  0
ARC
  5
E38
330
150A
100
AcDbEntity
  8
layer 1
100
AcDbCircle
 10
654.6796238156653
 20
56.81556022890234
 30
0.0
 40
6.0
100
AcDbArc
 50
90.0
 51
270.0
  0
ARC
  5
E39
330
150A
100
AcDbEntity
  8
layer 1
100
AcDbCircle
 10
838.6796238156653
 20
56.81556022890234
 30
0.0
 40
6.0
100
AcDbArc
 50
270.0
 51
90.0
  0
LWPOLYLINE
  5
1368
330
150A
100
AcDbEntity
  8
layer 2
100
AcDbPolyline
 90
        3
 70
   128
 43
0.0
 10
838.7506916275306
 20
56.81556022890234
 42
0.9999999999999999
 10
835.7506916275306
 20
56.81556022890234
 42
0.9999999999999999
 10
838.7506916275306
 20
56.81556022890234
  0
LWPOLYLINE
  5
1367
330
150A
100
AcDbEntity
  8
layer 2
100
AcDbPolyline
 90
        3
 70
   128
 43
0.0
 10
657.6796238156653
 20
56.81556022890234
 42
0.9999999999999999
 10
654.6796238156653
 20
56.81556022890234
 42
0.9999999999999999
 10
657.6796238156653
 20
56.81556022890234
  0
LINE
  5
E36
330
150A
100
AcDbEntity
  8
layer 1
100
AcDbLine
 10
654.6796238156653
 20
62.81556022890237
 30
0.0
 11
838.6796238156653
 21
62.81556022890234
 31
0.0
  0
LINE
  5
E37
330
150A
100
AcDbEntity
  8
layer 1
100
AcDbLine
 10
838.6796238156653
 20
50.81556022890234
 30
0.0
 11
654.6796238156653
 21
50.81556022890237
 31
0.0
  0
LWPOLYLINE
  5
136A
330
150A
100
AcDbEntity
  8
layer 2
100
AcDbPolyline
 90
        3
 70
   128
 43
0.0
 10
913.2953858723356
 20
777.0
 42
0.9999999999999999
 10
910.2953858723356
 20
777.0
 42
0.9999999999999999
 10
913.2953858723356
 20
777.0
  0
LWPOLYLINE
  5
1369
330
150A
100
AcDbEntity
  8
layer 2
100
AcDbPolyline
 90
        3
 70
   128
 43
0.0
 10
1364.295385872336
 20
667.0000000000022
 42
0.9999999999999999
 10
1361.295385872336
 20
667.0000000000022
 42
0.9999999999999999
 10
1364.295385872336
 20
667.0000000000022
  0
ARC
  5
E9E
330
150A
100
AcDbEntity
  8
layer 2
100
AcDbCircle
 10
911.7953858723357
 20
777.0
 30
0.0
 40
4.5
100
AcDbArc
 50
180.0
 51
0.0
  0
ARC
  5
EBB
330
150A
100
AcDbEntity
  8
layer 2
100
AcDbCircle
 10
1365.499999983786
 20
779.9993761920167
 30
0.0
 40
4.5
100
AcDbArc
 50
180.0
 51
0.0
  0
ARC
  5
EC9
330
150A
100
AcDbEntity
  8
layer 2
100
AcDbCircle
 10
1362.795385872336
 20
667.0000000000022
 30
0.0
 40
4.5
100
AcDbArc
 50
180.0
 51
0.0
  0
LINE
  5
E9F
330
150A
100
AcDbEntity
  8
layer 2
100
AcDbLine
 10
907.2953858723357
 20
777.0
 30
0.0
 11
906.7953858723357
 21
785.0
 31
0.0
  0
LINE
  5
EBC
330
150A
100
AcDbEntity
  8
layer 2
100
AcDbLine
 10
1360.999999983786
 20
779.9993761920167
 30
0.0
 11
1360.499999983786
 21
787.9993761920167
 31
0.0
  0
LINE
  5
ECA
330
150A
100
AcDbEntity
  8
layer 2
100
AcDbLine
 10
1358.295385872336
 20
667.0000000000022
 30
0.0
 11
1357.795385872336
 21
675.0000000000022
 31
0.0
  0
LINE
  5
EA0
330
150A
100
AcDbEntity
  8
layer 2
100
AcDbLine
 10
916.2953858723357
 20
777.0
 30
0.0
 11
916.7953858723357
 21
785.0
 31
0.0
  0
LINE
  5
EBD
330
150A
100
AcDbEntity
  8
layer 2
100
AcDbLine
 10
1369.999999983786
 20
779.9993761920167
 30
0.0
 11
1370.499999983786
 21
787.9993761920167
 31
0.0
  0
LINE
  5
ECB
330
150A
100
AcDbEntity
  8
layer 2
100
AcDbLine
 10
1367.295385872336
 20
667.0000000000022
 30
0.0
 11
1367.795385872336
 21
675.0000000000022
 31
0.0
  0
LINE
  5
134D
330
150A
100
AcDbEntity
  8
layer 2
100
AcDbLine
 10
360.7861724635906
 20
495.8863719884999
 30
0.0
 11
360.7861724635906
 21
503.8863719884998
 31
0.0
  0
LINE
  5
134E
330
150A
100
AcDbEntity
  8
layer 2
100
AcDbLine
 10
280.7861724635906
 20
495.8863719884999
 30
0.0
 11
280.7861724635906
 21
503.8863719884998
 31
0.0
  0
LINE
  5
134F
330
150A
100
AcDbEntity
  8
layer 1
100
AcDbLine
 10
280.7861724635906
 20
495.8863719884999
 30
0.0
 11
360.7861724635906
 21
495.8863719884999
 31
0.0
  0
LINE
  5
14EC
330
150A
100
AcDbEntity
  8
layer 2
100
AcDbLine
 10
926.5863202747903
 20
564.0175970873788
 30
0.0
 11
953.9530052816679
 21
564.0175970873788
 31
0.0
  0
VIEWPORT
  5
15CD
330
1506
100
AcDbEntity
 67
     1
  8
0
 62
    18
420
        0
100
AcDbViewport
 10
128.5
 20
97.5
 30
0.0
 40
314.226
 41
222.18
 68
     1
 69
     1
 12
128.5
 22
97.5
 13
0.0
 23
0.0
 14
10.0
 24
10.0
 15
10.0
 25
10.0
 16
0.0
 26
0.0
 36
1.0
 17
0.0
 27
0.0
 37
0.0
 42
50.0
 43
0.0
 44
0.0
 45
222.18
 50
0.0
 51
0.0
 72
   100
 90
   557152
  1

281
     0
 71
     1
 74
     0
110
0.0
120
0.0
130
0.0
111
1.0
121
0.0
131
0.0
112
0.0
122
1.0
132
0.0
 79
     0
146
0.0
170
     0
 61
     5
348
151A
292
     1
282
     1
141
0.0
142
0.0
 63
   256
361
15CE
  0
ENDSEC
  0
SECTION
  2
OBJECTS
  0
DICTIONARY
  5
14F8
330
0
100
AcDbDictionary
281
     1
  3
ACAD_DETAILVIEWSTYLE
350
15D6
  3
ACAD_GROUP
350
14F9
  3
ACAD_LAYOUT
350
1505
  3
ACAD_MATERIAL
350
152E
  3
ACAD_MLEADERSTYLE
350
1556
  3
ACAD_MLINESTYLE
350
1502
  3
ACAD_PLOTSETTINGS
350
1504
  3
ACAD_PLOTSTYLENAME
350
14FA
  3
ACAD_SCALELIST
350
1532
  3
ACAD_SECTIONVIEWSTYLE
350
15D7
  3
ACAD_TABLESTYLE
350
1554
  3
ACAD_VISUALSTYLE
350
1515
  3
ACDB_RECOMPOSE_DATA
350
15D3
  3
AcDbVariableDictionary
350
15CF
  3
QCAD_OBJECTS
350
155A
  0
SUN
  5
1558
330
1514
100
AcDbSun
 90
        1
290
     0
 63
     7
421
 16777215
 40
1.0
291
     1
 91
  2455826
 92
 54000000
292
     0
 70
     2
 71
   256
280
     1
  0
SUN
  5
15CE
330
15CD
100
AcDbSun
 90
        1
290
     0
 63
     7
421
 16777215
 40
1.0
291
     1
 91
  2455826
 92
 54000000
292
     0
 70
     2
 71
   256
280
     1
  0
DICTIONARY
  5
15D6
102
{ACAD_REACTORS
330
14F8
102
}
330
14F8
100
AcDbDictionary
281
     1
  0
DICTIONARY
  5
14F9
102
{ACAD_REACTORS
330
14F8
102
}
330
14F8
100
AcDbDictionary
281
     1
  0
DICTIONARY
  5
1505
102
{ACAD_REACTORS
330
14F8
102
}
330
14F8
100
AcDbDictionary
281
     1
  3
Layout1
350
1509
  3
Model
350
150D
  0
DICTIONARY
  5
152E
102
{ACAD_REACTORS
330
14F8
102
}
330
14F8
100
AcDbDictionary
281
     1
  3
ByBlock
350
1530
  3
ByLayer
350
152F
  3
Global
350
1531
  0
DICTIONARY
  5
1556
102
{ACAD_REACTORS
330
14F8
102
}
330
14F8
100
AcDbDictionary
281
     1
  3
Standard
350
1557
  0
DICTIONARY
  5
1502
102
{ACAD_REACTORS
330
14F8
102
}
330
14F8
100
AcDbDictionary
281
     1
  3
Standard
350
1503
  0
DICTIONARY
  5
1504
102
{ACAD_REACTORS
330
14F8
102
}
330
14F8
100
AcDbDictionary
281
     1
  0
ACDBDICTIONARYWDFLT
  5
14FA
102
{ACAD_REACTORS
330
14F8
102
}
330
14F8
100
AcDbDictionary
281
     1
  3
Normal
350
14FB
100
AcDbDictionaryWithDefault
340
14FB
  0
DICTIONARY
  5
1532
102
{ACAD_REACTORS
330
14F8
102
}
330
14F8
100
AcDbDictionary
281
     1
  3
A0
350
1533
  3
A1
350
1534
  3
A2
350
1535
  3
A3
350
1536
  3
A4
350
1537
  3
A5
350
1538
  3
A6
350
1539
  3
A7
350
153A
  3
A8
350
153B
  3
A9
350
153C
  3
B0
350
153D
  3
B1
350
153E
  3
B2
350
153F
  3
B3
350
1540
  3
B4
350
1541
  3
B5
350
1542
  3
B6
350
1543
  3
B7
350
1544
  3
B8
350
1545
  3
B9
350
1546
  3
C0
350
1547
  3
C1
350
1548
  3
C2
350
1549
  3
C3
350
154A
  3
C4
350
154B
  3
C5
350
154C
  3
C6
350
154D
  3
C7
350
154E
  3
C8
350
154F
  3
C9
350
1550
  3
D0
350
1551
  3
D1
350
1552
  3
D2
350
1553
  0
DICTIONARY
  5
15D7
102
{ACAD_REACTORS
330
14F8
102
}
330
14F8
100
AcDbDictionary
281
     1
  0
DICTIONARY
  5
1554
102
{ACAD_REACTORS
330
14F8
102
}
330
14F8
100
AcDbDictionary
281
     1
  3
Standard
350
1555
  0
DICTIONARY
  5
1515
102
{ACAD_REACTORS
330
14F8
102
}
330
14F8
100
AcDbDictionary
281
     1
  3
2dWireframe
350
151A
  3
Basic
350
151D
  3
Brighten
350
1521
  3
ColorChange
350
1525
  3
Conceptual
350
151F
  3
Dim
350
1520
  3
EdgeColorOff
350
1528
  3
Facepattern
350
1524
  3
Flat
350
1516
  3
FlatWithEdges
350
1517
  3
Gouraud
350
1518
  3
GouraudWithEdges
350
1519
  3
Hidden
350
151C
  3
JitterOff
350
1526
  3
Linepattern
350
1523
  3
OverhangOff
350
1527
  3
Realistic
350
151E
  3
Shaded
350
152D
  3
Shaded with edges
350
152C
  3
Shades of Gray
350
1529
  3
Sketchy
350
152A
  3
Thicken
350
1522
  3
Wireframe
350
151B
  3
X-Ray
350
152B
  0
XRECORD
  5
15D3
102
{ACAD_REACTORS
330
14F8
102
}
330
14F8
100
AcDbXrecord
280
     1
 90
        1
330
1555
  0
DICTIONARY
  5
15CF
102
{ACAD_REACTORS
330
14F8
102
}
330
14F8
100
AcDbDictionary
281
     1
  3
CANNOSCALE
350
15D0
  3
CMLEADERSTYLE
350
15D5
  3
CTABLESTYLE
350
15D4
  0
DICTIONARY
  5
155A
102
{ACAD_REACTORS
330
14F8
102
}
330
14F8
100
AcDbDictionary
281
     1
  3
ColorSettings/BackgroundColor
350
155C
  3
ColorSettings/ColorMode
350
155D
  3
Grid/DisplayGrid00
350
155E
  3
Grid/DisplayGrid01
350
155F
  3
Grid/DisplayGrid02
350
1560
  3
Grid/DisplayGrid03
350
1561
  3
Grid/GridSpacingX00
350
1562
  3
Grid/GridSpacingX01
350
1563
  3
Grid/GridSpacingX02
350
1564
  3
Grid/GridSpacingX03
350
1565
  3
Grid/GridSpacingY00
350
1566
  3
Grid/GridSpacingY01
350
1567
  3
Grid/GridSpacingY02
350
1568
  3
Grid/GridSpacingY03
350
1569
  3
Grid/IsometricGrid00
350
156A
  3
Grid/IsometricGrid01
350
156B
  3
Grid/IsometricGrid02
350
156C
  3
Grid/IsometricGrid03
350
156D
  3
Grid/IsometricProjection00
350
156E
  3
Grid/IsometricProjection01
350
156F
  3
Grid/IsometricProjection02
350
1570
  3
Grid/IsometricProjection03
350
1571
  3
Grid/MetaGridSpacingX00
350
1572
  3
Grid/MetaGridSpacingX01
350
1573
  3
Grid/MetaGridSpacingX02
350
1574
  3
Grid/MetaGridSpacingX03
350
1575
  3
Grid/MetaGridSpacingY00
350
1576
  3
Grid/MetaGridSpacingY01
350
1577
  3
Grid/MetaGridSpacingY02
350
1578
  3
Grid/MetaGridSpacingY03
350
1579
  3
MultiPageSettings/Columns
350
157A
  3
MultiPageSettings/GlueMarginsBottom
350
157B
  3
MultiPageSettings/GlueMarginsLeft
350
157C
  3
MultiPageSettings/GlueMarginsRight
350
157D
  3
MultiPageSettings/GlueMarginsTop
350
157E
  3
MultiPageSettings/PrintCropMarks
350
157F
  3
MultiPageSettings/Rows
350
1580
  3
PageSettings/OffsetX
350
1581
  3
PageSettings/OffsetY
350
1582
  3
PageSettings/PageOrientation
350
1583
  3
PageSettings/PaperHeight
350
1584
  3
PageSettings/PaperWidth
350
1585
  3
PageSettings/Scale
350
1586
  3
PageSettings/ShowPaperBorders
350
1587
  3
QCADVersion
350
1588
  3
UnitSettings/PaperUnit
350
1589
  3
ViewportCenter
350
158A
  3
ViewportHeight
350
158B
  3
ViewportWidth
350
158C
  0
LAYOUT
  5
1509
102
{ACAD_REACTORS
330
1505
102
}
330
1505
100
AcDbPlotSettings
  1

  2
none_device
  4
ISO_A4_(210.00_x_297.00_MM)
  6

 40
7.5
 41
20.0
 42
7.5
 43
20.0
 44
210.0
 45
297.0
 46
0.0
 47
0.0
 48
0.0
 49
0.0
140
0.0
141
0.0
142
1.0
143
1.0
 70
   688
 72
     1
 73
     1
 74
     5
  7

 75
    16
 76
     0
 77
     2
 78
   300
147
1.0
148
0.0
149
0.0
100
AcDbLayout
  1
Layout1
 70
     1
 71
     0
 10
-20.0
 20
-7.5
 11
277.0
 21
202.5
 12
0.0
 22
0.0
 32
0.0
 14
0.0
 24
0.0
 34
0.0
 15
0.0
 25
0.0
 35
0.0
146
0.0
 13
0.0
 23
0.0
 33
0.0
 16
1.0
 26
0.0
 36
0.0
 17
0.0
 27
1.0
 37
0.0
 76
     0
330
1506
331
15CD
  0
LAYOUT
  5
150D
102
{ACAD_REACTORS
330
1505
102
}
330
1505
100
AcDbPlotSettings
  1

  2
none_device
  4
Letter_(8.50_x_11.00_Inches)
  6

 40
6.35
 41
6.35
 42
6.35000508
 43
6.35000508
 44
215.9
 45
279.4
 46
0.0
 47
0.0
 48
0.0
 49
0.0
140
0.0
141
0.0
142
1.0
143
1.0
 70
  1712
 72
     0
 73
     0
 74
     0
  7

 75
     0
 76
     0
 77
     2
 78
   300
147
1.0
148
0.0
149
0.0
100
AcDbLayout
  1
Model
 70
     1
 71
     0
 10
0.0
 20
0.0
 11
12.0
 21
9.0
 12
0.0
 22
0.0
 32
0.0
 14
1.000000000000000E+20
 24
1.000000000000000E+20
 34
1.000000000000000E+20
 15
-1.000000000000000E+20
 25
-1.000000000000000E+20
 35
-1.000000000000000E+20
146
0.0
 13
0.0
 23
0.0
 33
0.0
 16
1.0
 26
0.0
 36
0.0
 17
0.0
 27
1.0
 37
0.0
 76
     0
330
150A
331
1514
  0
MATERIAL
  5
1530
102
{ACAD_REACTORS
330
152E
102
}
330
152E
100
AcDbMaterial
  1
ByBlock
 72
     1
 94
      127
  0
MATERIAL
  5
152F
102
{ACAD_REACTORS
330
152E
102
}
330
152E
100
AcDbMaterial
  1
ByLayer
 72
     1
 94
      127
  0
MATERIAL
  5
1531
102
{ACAD_REACTORS
330
152E
102
}
330
152E
100
AcDbMaterial
  1
Global
 72
     1
 94
      127
  0
MLEADERSTYLE
  5
1557
102
{ACAD_REACTORS
330
1556
102
}
330
1556
100
AcDbMLeaderStyle
179
     2
170
     2
171
     1
172
     0
 90
        2
 40
0.0
 41
0.0
173
     1
 91
-1056964608
340
14FF
 92
       -2
290
     1
 42
0.09
291
     1
 43
0.36
  3
Standard
341
0
 44
0.18
300

342
14FD
174
     1
178
     6
175
     1
176
     0
 93
-1056964608
 45
0.18
292
     0
297
     0
 46
0.18
343
0
 94
-1056964608
 47
1.0
 49
1.0
140
1.0
293
     1
141
0.0
294
     1
177
     0
142
1.0
295
     0
296
     0
143
0.125
271
     0
272
     9
273
     9
298
     0
  0
MLINESTYLE
  5
1503
102
{ACAD_REACTORS
330
1502
102
}
330
1502
100
AcDbMlineStyle
  2
Standard
 70
     0
  3

 62
   256
 51
90.0
 52
90.0
 71
     2
 49
0.5
 62
   256
  6
BYLAYER
 49
-0.5
 62
   256
  6
BYLAYER
  0
ACDBPLACEHOLDER
  5
14FB
102
{ACAD_REACTORS
330
14FA
102
}
330
14FA
  0
SCALE
  5
1533
102
{ACAD_REACTORS
330
1532
102
}
330
1532
100
AcDbScale
 70
     0
300
1:1
140
1.0
141
1.0
290
     1
  0
SCALE
  5
1534
102
{ACAD_REACTORS
330
1532
102
}
330
1532
100
AcDbScale
 70
     0
300
1:2
140
1.0
141
2.0
290
     0
  0
SCALE
  5
1535
102
{ACAD_REACTORS
330
1532
102
}
330
1532
100
AcDbScale
 70
     0
300
1:4
140
1.0
141
4.0
290
     0
  0
SCALE
  5
1536
102
{ACAD_REACTORS
330
1532
102
}
330
1532
100
AcDbScale
 70
     0
300
1:5
140
1.0
141
5.0
290
     0
  0
SCALE
  5
1537
102
{ACAD_REACTORS
330
1532
102
}
330
1532
100
AcDbScale
 70
     0
300
1:8
140
1.0
141
8.0
290
     0
  0
SCALE
  5
1538
102
{ACAD_REACTORS
330
1532
102
}
330
1532
100
AcDbScale
 70
     0
300
1:10
140
1.0
141
10.0
290
     0
  0
SCALE
  5
1539
102
{ACAD_REACTORS
330
1532
102
}
330
1532
100
AcDbScale
 70
     0
300
1:16
140
1.0
141
16.0
290
     0
  0
SCALE
  5
153A
102
{ACAD_REACTORS
330
1532
102
}
330
1532
100
AcDbScale
 70
     0
300
1:20
140
1.0
141
20.0
290
     0
  0
SCALE
  5
153B
102
{ACAD_REACTORS
330
1532
102
}
330
1532
100
AcDbScale
 70
     0
300
1:30
140
1.0
141
30.0
290
     0
  0
SCALE
  5
153C
102
{ACAD_REACTORS
330
1532
102
}
330
1532
100
AcDbScale
 70
     0
300
1:40
140
1.0
141
40.0
290
     0
  0
SCALE
  5
153D
102
{ACAD_REACTORS
330
1532
102
}
330
1532
100
AcDbScale
 70
     0
300
1:50
140
1.0
141
50.0
290
     0
  0
SCALE
  5
153E
102
{ACAD_REACTORS
330
1532
102
}
330
1532
100
AcDbScale
 70
     0
300
1:100
140
1.0
141
100.0
290
     0
  0
SCALE
  5
153F
102
{ACAD_REACTORS
330
1532
102
}
330
1532
100
AcDbScale
 70
     0
300
2:1
140
2.0
141
1.0
290
     0
  0
SCALE
  5
1540
102
{ACAD_REACTORS
330
1532
102
}
330
1532
100
AcDbScale
 70
     0
300
4:1
140
4.0
141
1.0
290
     0
  0
SCALE
  5
1541
102
{ACAD_REACTORS
330
1532
102
}
330
1532
100
AcDbScale
 70
     0
300
8:1
140
8.0
141
1.0
290
     0
  0
SCALE
  5
1542
102
{ACAD_REACTORS
330
1532
102
}
330
1532
100
AcDbScale
 70
     0
300
10:1
140
10.0
141
1.0
290
     0
  0
SCALE
  5
1543
102
{ACAD_REACTORS
330
1532
102
}
330
1532
100
AcDbScale
 70
     0
300
100:1
140
100.0
141
1.0
290
     0
  0
SCALE
  5
1544
102
{ACAD_REACTORS
330
1532
102
}
330
1532
100
AcDbScale
 70
     0
300
1/128" = 1'-0"
140
0.0078125
141
12.0
290
     0
  0
SCALE
  5
1545
102
{ACAD_REACTORS
330
1532
102
}
330
1532
100
AcDbScale
 70
     0
300
1/64" = 1'-0"
140
0.015625
141
12.0
290
     0
  0
SCALE
  5
1546
102
{ACAD_REACTORS
330
1532
102
}
330
1532
100
AcDbScale
 70
     0
300
1/32" = 1'-0"
140
0.03125
141
12.0
290
     0
  0
SCALE
  5
1547
102
{ACAD_REACTORS
330
1532
102
}
330
1532
100
AcDbScale
 70
     0
300
1/16" = 1'-0"
140
0.0625
141
12.0
290
     0
  0
SCALE
  5
1548
102
{ACAD_REACTORS
330
1532
102
}
330
1532
100
AcDbScale
 70
     0
300
3/32" = 1'-0"
140
0.09375
141
12.0
290
     0
  0
SCALE
  5
1549
102
{ACAD_REACTORS
330
1532
102
}
330
1532
100
AcDbScale
 70
     0
300
1/8" = 1'-0"
140
0.125
141
12.0
290
     0
  0
SCALE
  5
154A
102
{ACAD_REACTORS
330
1532
102
}
330
1532
100
AcDbScale
 70
     0
300
3/16" = 1'-0"
140
0.1875
141
12.0
290
     0
  0
SCALE
  5
154B
102
{ACAD_REACTORS
330
1532
102
}
330
1532
100
AcDbScale
 70
     0
300
1/4" = 1'-0"
140
0.25
141
12.0
290
     0
  0
SCALE
  5
154C
102
{ACAD_REACTORS
330
1532
102
}
330
1532
100
AcDbScale
 70
     0
300
3/8" = 1'-0"
140
0.375
141
12.0
290
     0
  0
SCALE
  5
154D
102
{ACAD_REACTORS
330
1532
102
}
330
1532
100
AcDbScale
 70
     0
300
1/2" = 1'-0"
140
0.5
141
12.0
290
     0
  0
SCALE
  5
154E
102
{ACAD_REACTORS
330
1532
102
}
330
1532
100
AcDbScale
 70
     0
300
3/4" = 1'-0"
140
0.75
141
12.0
290
     0
  0
SCALE
  5
154F
102
{ACAD_REACTORS
330
1532
102
}
330
1532
100
AcDbScale
 70
     0
300
1" = 1'-0"
140
1.0
141
12.0
290
     0
  0
SCALE
  5
1550
102
{ACAD_REACTORS
330
1532
102
}
330
1532
100
AcDbScale
 70
     0
300
1-1/2" = 1'-0"
140
1.5
141
12.0
290
     0
  0
SCALE
  5
1551
102
{ACAD_REACTORS
330
1532
102
}
330
1532
100
AcDbScale
 70
     0
300
3" = 1'-0"
140
3.0
141
12.0
290
     0
  0
SCALE
  5
1552
102
{ACAD_REACTORS
330
1532
102
}
330
1532
100
AcDbScale
 70
     0
300
6" = 1'-0"
140
6.0
141
12.0
290
     0
  0
SCALE
  5
1553
102
{ACAD_REACTORS
330
1532
102
}
330
1532
100
AcDbScale
 70
     0
300
1'-0" = 1'-0"
140
12.0
141
12.0
290
     0
  0
TABLESTYLE
  5
1555
102
{ACAD_REACTORS
330
1554
102
}
102
{ACAD_XDICTIONARY
360
15D1
102
}
330
1554
100
AcDbTableStyle
  3
Standard
 70
     0
 71
     0
 40
0.06
 41
0.06
280
     0
281
     0
  7
Standard
140
0.18
170
     2
 62
     0
 63
   257
283
     0
 90
        4
 91
        0
  1

274
    -2
284
     1
 64
     0
275
    -2
285
     1
 65
     0
276
    -2
286
     1
 66
     0
277
    -2
287
     1
 67
     0
278
    -2
288
     1
 68
     0
279
    -2
289
     1
 69
     0
  7
Standard
140
0.25
170
     5
 62
     0
 63
   257
283
     0
 90
        4
 91
        0
  1

274
    -2
284
     1
 64
     0
275
    -2
285
     1
 65
     0
276
    -2
286
     1
 66
     0
277
    -2
287
     1
 67
     0
278
    -2
288
     1
 68
     0
279
    -2
289
     1
 69
     0
  7
Standard
140
0.18
170
     5
 62
     0
 63
   257
283
     0
 90
        4
 91
        0
  1

274
    -2
284
     1
 64
     0
275
    -2
285
     1
 65
     0
276
    -2
286
     1
 66
     0
277
    -2
287
     1
 67
     0
278
    -2
288
     1
 68
     0
279
    -2
289
     1
 69
     0
  0
VISUALSTYLE
  5
151A
102
{ACAD_REACTORS
330
1515
102
}
330
1515
100
AcDbVisualStyle
  2
2dWireframe
 70
     4
177
     3
291
     0
 70
    58
 90
        0
176
     1
 90
        2
176
     1
 90
        0
176
     1
 90
        0
176
     1
 40
0.6
176
     1
 40
30.0
176
     1
 62
     7
420
 16777215
176
     1
 90
        1
176
     1
 90
        4
176
     1
 62
     7
176
     1
 62
   257
176
     1
 90
        1
176
     1
 90
        1
176
     1
 40
1.0
176
     1
 90
        0
176
     1
 62
   257
176
     1
 40
1.0
176
     1
 90
        1
176
     1
 90
        6
176
     1
 90
        2
176
     1
 62
     7
176
     1
 90
        5
176
     1
 90
        0
176
     1
 90
        0
176
     1
290
     0
176
     1
 90
        1
176
     1
 40
0.0
176
     1
 90
        0
176
     1
290
     1
176
     1
290
     1
176
     1
290
     0
176
     1
290
     0
176
     1
290
     0
176
     1
290
     0
176
     1
290
     0
176
     1
290
     0
176
     1
290
     0
176
     1
 90
       50
176
     1
 40
0.0
176
     1
 40
1.0
176
     1
 90
        0
176
     1
 62
    18
420
        0
176
     1
 90
       50
176
     1
 90
        3
176
     1
 62
     5
420
      255
176
     1
290
     0
176
     1
 90
       50
176
     1
 90
       50
176
     1
 90
       50
176
     1
290
     0
176
     1
 90
       50
176
     1
 62
   256
176
     0
 40
1.0
176
     0
 90
        2
176
     1
  1
strokes_ogs.tif
176
     1
290
     0
176
     1
 40
1.0
176
     1
 40
1.0
176
     1
  0
VISUALSTYLE
  5
151D
102
{ACAD_REACTORS
330
1515
102
}
330
1515
100
AcDbVisualStyle
  2
Basic
 70
     7
177
     3
291
     1
 70
    58
 90
        1
176
     1
 90
        0
176
     1
 90
        1
176
     1
 90
        0
176
     1
 40
0.6
176
     1
 40
30.0
176
     1
 62
     7
420
 16777215
176
     1
 90
        0
176
     1
 90
        4
176
     1
 62
     7
176
     1
 62
   257
176
     1
 90
        1
176
     1
 90
        1
176
     1
 40
1.0
176
     1
 90
        8
176
     1
 62
     7
176
     1
 40
1.0
176
     1
 90
        1
176
     1
 90
        6
176
     1
 90
        2
176
     1
 62
     7
176
     1
 90
        5
176
     1
 90
        0
176
     1
 90
        0
176
     1
290
     0
176
     1
 90
        1
176
     1
 40
0.0
176
     1
 90
        0
176
     1
290
     0
176
     1
290
     1
176
     1
290
     1
176
     1
290
     0
176
     1
290
     0
176
     1
290
     0
176
     1
290
     0
176
     1
290
     0
176
     1
290
     0
176
     1
 90
       50
176
     1
 40
0.0
176
     1
 40
1.0
176
     1
 90
        0
176
     1
 62
    18
420
        0
176
     1
 90
       50
176
     1
 90
        3
176
     1
 62
     5
420
      255
176
     1
290
     0
176
     1
 90
       50
176
     1
 90
       50
176
     1
 90
       50
176
     1
290
     0
176
     1
 90
       50
176
     1
 62
   256
176
     0
 40
1.0
176
     0
 90
        2
176
     1
  1
strokes_ogs.tif
176
     1
290
     0
176
     1
 40
1.0
176
     1
 40
1.0
176
     1
  0
VISUALSTYLE
  5
1521
102
{ACAD_REACTORS
330
1515
102
}
330
1515
100
AcDbVisualStyle
  2
Brighten
 70
    12
177
     3
291
     1
 70
    58
 90
        2
176
     1
 90
        2
176
     1
 90
        0
176
     1
 90
        0
176
     1
 40
0.6
176
     1
 40
30.0
176
     1
 62
     7
420
 16777215
176
     1
 90
        1
176
     1
 90
        4
176
     1
 62
     7
176
     1
 62
   257
176
     1
 90
        1
176
     1
 90
        1
176
     1
 40
1.0
176
     1
 90
        8
176
     1
 62
     7
176
     1
 40
1.0
176
     1
 90
        1
176
     1
 90
        6
176
     1
 90
        2
176
     1
 62
     7
176
     1
 90
        5
176
     1
 90
        0
176
     1
 90
        0
176
     1
290
     0
176
     1
 90
        1
176
     1
 40
50.0
176
     1
 90
        0
176
     1
290
     0
176
     1
290
     1
176
     1
290
     1
176
     1
290
     0
176
     1
290
     0
176
     1
290
     0
176
     1
290
     0
176
     1
290
     0
176
     1
290
     0
176
     1
 90
       50
176
     1
 40
0.0
176
     1
 40
1.0
176
     1
 90
        0
176
     1
 62
    18
420
        0
176
     1
 90
       50
176
     1
 90
        3
176
     1
 62
     5
420
      255
176
     1
290
     0
176
     1
 90
       50
176
     1
 90
       50
176
     1
 90
       50
176
     1
290
     0
176
     1
 90
       50
176
     1
 62
   256
176
     0
 40
1.0
176
     0
 90
        2
176
     1
  1
strokes_ogs.tif
176
     1
290
     0
176
     1
 40
1.0
176
     1
 40
1.0
176
     1
  0
VISUALSTYLE
  5
1525
102
{ACAD_REACTORS
330
1515
102
}
330
1515
100
AcDbVisualStyle
  2
ColorChange
 70
    16
177
     3
291
     1
 70
    58
 90
        2
176
     1
 90
        2
176
     1
 90
        3
176
     1
 90
        0
176
     1
 40
0.6
176
     1
 40
30.0
176
     1
 62
     8
420
  8421504
176
     1
 90
        1
176
     1
 90
        4
176
     1
 62
     7
176
     1
 62
   257
176
     1
 90
        1
176
     1
 90
        1
176
     1
 40
1.0
176
     1
 90
        8
176
     1
 62
     8
420
  8421504
176
     1
 40
1.0
176
     1
 90
        1
176
     1
 90
        6
176
     1
 90
        2
176
     1
 62
     7
176
     1
 90
        5
176
     1
 90
        0
176
     1
 90
        0
176
     1
290
     0
176
     1
 90
        1
176
     1
 40
0.0
176
     1
 90
        0
176
     1
290
     0
176
     1
290
     1
176
     1
290
     1
176
     1
290
     0
176
     1
290
     0
176
     1
290
     0
176
     1
290
     0
176
     1
290
     0
176
     1
290
     0
176
     1
 90
       50
176
     1
 40
0.0
176
     1
 40
1.0
176
     1
 90
        0
176
     1
 62
    18
420
        0
176
     1
 90
       50
176
     1
 90
        3
176
     1
 62
     5
420
      255
176
     1
290
     0
176
     1
 90
       50
176
     1
 90
       50
176
     1
 90
       50
176
     1
290
     0
176
     1
 90
       50
176
     1
 62
   256
176
     0
 40
1.0
176
     0
 90
        2
176
     1
  1
strokes_ogs.tif
176
     1
290
     0
176
     1
 40
1.0
176
     1
 40
1.0
176
     1
  0
VISUALSTYLE
  5
151F
102
{ACAD_REACTORS
330
1515
102
}
330
1515
100
AcDbVisualStyle
  2
Conceptual
 70
     9
177
     3
291
     0
 70
    58
 90
        3
176
     1
 90
        2
176
     1
 90
        0
176
     1
 90
        0
176
     1
 40
0.6
176
     1
 40
30.0
176
     1
 62
     7
420
 16777215
176
     1
 90
        2
176
     1
 90
        2
176
     1
 62
     7
176
     1
 62
   257
176
     1
 90
        1
176
     1
 90
        1
176
     1
 40
179.0
176
     1
 90
        8
176
     1
 62
     7
176
     1
 40
1.0
176
     1
 90
        1
176
     1
 90
        6
176
     1
 90
        2
176
     1
 62
     7
176
     1
 90
        3
176
     1
 90
        0
176
     1
 90
        0
176
     1
290
     0
176
     1
 90
        1
176
     1
 40
0.0
176
     1
 90
        0
176
     1
290
     0
176
     1
290
     1
176
     1
290
     1
176
     1
290
     0
176
     1
290
     0
176
     1
290
     0
176
     1
290
     0
176
     1
290
     0
176
     1
290
     0
176
     1
 90
       50
176
     1
 40
0.0
176
     1
 40
1.0
176
     1
 90
        0
176
     1
 62
    18
420
        0
176
     1
 90
       50
176
     1
 90
        3
176
     1
 62
     5
420
      255
176
     1
290
     0
176
     1
 90
       50
176
     1
 90
       50
176
     1
 90
       50
176
     1
290
     0
176
     1
 90
       50
176
     1
 62
   256
176
     0
 40
1.0
176
     0
 90
        2
176
     1
  1
strokes_ogs.tif
176
     1
290
     0
176
     1
 40
1.0
176
     1
 40
1.0
176
     1
  0
VISUALSTYLE
  5
1520
102
{ACAD_REACTORS
330
1515
102
}
330
1515
100
AcDbVisualStyle
  2
Dim
 70
    11
177
     3
291
     1
 70
    58
 90
        2
176
     1
 90
        2
176
     1
 90
        0
176
     1
 90
        0
176
     1
 40
0.6
176
     1
 40
30.0
176
     1
 62
     7
420
 16777215
176
     1
 90
        1
176
     1
 90
        4
176
     1
 62
     7
176
     1
 62
   257
176
     1
 90
        1
176
     1
 90
        1
176
     1
 40
1.0
176
     1
 90
        8
176
     1
 62
     7
176
     1
 40
1.0
176
     1
 90
        1
176
     1
 90
        6
176
     1
 90
        2
176
     1
 62
     7
176
     1
 90
        5
176
     1
 90
        0
176
     1
 90
        0
176
     1
290
     0
176
     1
 90
        1
176
     1
 40
-50.0
176
     1
 90
        0
176
     1
290
     0
176
     1
290
     1
176
     1
290
     1
176
     1
290
     0
176
     1
290
     0
176
     1
290
     0
176
     1
290
     0
176
     1
290
     0
176
     1
290
     0
176
     1
 90
       50
176
     1
 40
0.0
176
     1
 40
1.0
176
     1
 90
        0
176
     1
 62
    18
420
        0
176
     1
 90
       50
176
     1
 90
        3
176
     1
 62
     5
420
      255
176
     1
290
     0
176
     1
 90
       50
176
     1
 90
       50
176
     1
 90
       50
176
     1
290
     0
176
     1
 90
       50
176
     1
 62
   256
176
     0
 40
1.0
176
     0
 90
        2
176
     1
  1
strokes_ogs.tif
176
     1
290
     0
176
     1
 40
1.0
176
     1
 40
1.0
176
     1
  0
VISUALSTYLE
  5
1528
102
{ACAD_REACTORS
330
1515
102
}
330
1515
100
AcDbVisualStyle
  2
EdgeColorOff
 70
    22
177
     3
291
     1
 70
    58
 90
        2
176
     0
 90
        2
176
     0
 90
        0
176
     0
 90
        0
176
     0
 40
0.6
176
     0
 40
30.0
176
     0
 62
     7
420
 16777215
176
     0
 90
        1
176
     0
 90
        4
176
     0
 62
     7
176
     0
 62
   257
176
     0
 90
        1
176
     0
 90
        1
176
     0
 40
1.0
176
     0
 90
        8
176
     2
 62
     7
176
     0
 40
1.0
176
     0
 90
        1
176
     0
 90
        6
176
     0
 90
        2
176
     0
 62
     7
176
     0
 90
        5
176
     0
 90
        0
176
     0
 90
        0
176
     0
290
     0
176
     0
 90
        1
176
     0
 40
0.0
176
     0
 90
        0
176
     0
290
     0
176
     0
290
     1
176
     0
290
     1
176
     0
290
     0
176
     0
290
     0
176
     0
290
     0
176
     0
290
     0
176
     0
290
     0
176
     0
290
     0
176
     0
 90
       50
176
     0
 40
0.0
176
     0
 40
1.0
176
     0
 90
        0
176
     0
 62
    18
420
        0
176
     0
 90
       50
176
     0
 90
        3
176
     0
 62
     5
420
      255
176
     0
290
     0
176
     0
 90
       50
176
     0
 90
       50
176
     0
 90
       50
176
     0
290
     0
176
     0
 90
       50
176
     0
 62
   256
176
     0
 40
1.0
176
     0
 90
        2
176
     0
  1
strokes_ogs.tif
176
     0
290
     0
176
     0
 40
1.0
176
     0
 40
1.0
176
     0
  0
VISUALSTYLE
  5
1524
102
{ACAD_REACTORS
330
1515
102
}
330
1515
100
AcDbVisualStyle
  2
Facepattern
 70
    15
177
     3
291
     1
 70
    58
 90
        2
176
     1
 90
        2
176
     1
 90
        0
176
     1
 90
        0
176
     1
 40
0.6
176
     1
 40
30.0
176
     1
 62
     7
420
 16777215
176
     1
 90
        1
176
     1
 90
        4
176
     1
 62
     7
176
     1
 62
   257
176
     1
 90
        1
176
     1
 90
        1
176
     1
 40
1.0
176
     1
 90
        8
176
     1
 62
     7
176
     1
 40
1.0
176
     1
 90
        1
176
     1
 90
        6
176
     1
 90
        2
176
     1
 62
     7
176
     1
 90
        5
176
     1
 90
        0
176
     1
 90
        0
176
     1
290
     0
176
     1
 90
        1
176
     1
 40
0.0
176
     1
 90
        0
176
     1
290
     0
176
     1
290
     1
176
     1
290
     1
176
     1
290
     0
176
     1
290
     0
176
     1
290
     0
176
     1
290
     0
176
     1
290
     0
176
     1
290
     0
176
     1
 90
       50
176
     1
 40
0.0
176
     1
 40
1.0
176
     1
 90
        0
176
     1
 62
    18
420
        0
176
     1
 90
       50
176
     1
 90
        3
176
     1
 62
     5
420
      255
176
     1
290
     0
176
     1
 90
       50
176
     1
 90
       50
176
     1
 90
       50
176
     1
290
     0
176
     1
 90
       50
176
     1
 62
   256
176
     0
 40
1.0
176
     0
 90
        2
176
     1
  1
strokes_ogs.tif
176
     1
290
     0
176
     1
 40
1.0
176
     1
 40
1.0
176
     1
  0
VISUALSTYLE
  5
1516
102
{ACAD_REACTORS
330
1515
102
}
330
1515
100
AcDbVisualStyle
  2
Flat
 70
     0
177
     3
291
     1
 70
    58
 90
        2
176
     1
 90
        1
176
     1
 90
        1
176
     1
 90
        2
176
     1
 40
0.6
176
     1
 40
30.0
176
     1
 62
     7
420
 16777215
176
     1
 90
        0
176
     1
 90
        0
176
     1
 62
     7
176
     1
 62
   257
176
     1
 90
        1
176
     1
 90
        1
176
     1
 40
1.0
176
     1
 90
        8
176
     1
 62
     7
176
     1
 40
1.0
176
     1
 90
        1
176
     1
 90
        6
176
     1
 90
        2
176
     1
 62
     7
176
     1
 90
        5
176
     1
 90
        0
176
     1
 90
        0
176
     1
290
     0
176
     1
 90
       13
176
     1
 40
0.0
176
     1
 90
        0
176
     1
290
     0
176
     1
290
     1
176
     1
290
     1
176
     1
290
     0
176
     1
290
     0
176
     1
290
     0
176
     1
290
     0
176
     1
290
     0
176
     1
290
     0
176
     1
 90
       50
176
     1
 40
0.0
176
     1
 40
1.0
176
     1
 90
        0
176
     1
 62
    18
420
        0
176
     1
 90
       50
176
     1
 90
        3
176
     1
 62
     5
420
      255
176
     1
290
     0
176
     1
 90
       50
176
     1
 90
       50
176
     1
 90
       50
176
     1
290
     0
176
     1
 90
       50
176
     1
 62
   256
176
     0
 40
1.0
176
     0
 90
        2
176
     1
  1
strokes_ogs.tif
176
     1
290
     0
176
     1
 40
1.0
176
     1
 40
1.0
176
     1
  0
VISUALSTYLE
  5
1517
102
{ACAD_REACTORS
330
1515
102
}
330
1515
100
AcDbVisualStyle
  2
FlatWithEdges
 70
     1
177
     3
291
     1
 70
    58
 90
        2
176
     1
 90
        1
176
     1
 90
        1
176
     1
 90
        2
176
     1
 40
0.6
176
     1
 40
30.0
176
     1
 62
     7
420
 16777215
176
     1
 90
        1
176
     1
 90
        0
176
     1
 62
     7
176
     1
 62
   257
176
     1
 90
        1
176
     1
 90
        1
176
     1
 40
1.0
176
     1
 90
        0
176
     1
 62
   257
176
     1
 40
1.0
176
     1
 90
        1
176
     1
 90
        6
176
     1
 90
        2
176
     1
 62
     7
176
     1
 90
        5
176
     1
 90
        0
176
     1
 90
        0
176
     1
290
     0
176
     1
 90
       13
176
     1
 40
0.0
176
     1
 90
        0
176
     1
290
     0
176
     1
290
     1
176
     1
290
     1
176
     1
290
     0
176
     1
290
     0
176
     1
290
     0
176
     1
290
     0
176
     1
290
     0
176
     1
290
     0
176
     1
 90
       50
176
     1
 40
0.0
176
     1
 40
1.0
176
     1
 90
        0
176
     1
 62
    18
420
        0
176
     1
 90
       50
176
     1
 90
        3
176
     1
 62
     5
420
      255
176
     1
290
     0
176
     1
 90
       50
176
     1
 90
       50
176
     1
 90
       50
176
     1
290
     0
176
     1
 90
       50
176
     1
 62
   256
176
     0
 40
1.0
176
     0
 90
        2
176
     1
  1
strokes_ogs.tif
176
     1
290
     0
176
     1
 40
1.0
176
     1
 40
1.0
176
     1
  0
VISUALSTYLE
  5
1518
102
{ACAD_REACTORS
330
1515
102
}
330
1515
100
AcDbVisualStyle
  2
Gouraud
 70
     2
177
     3
291
     1
 70
    58
 90
        2
176
     1
 90
        2
176
     1
 90
        1
176
     1
 90
        2
176
     1
 40
0.6
176
     1
 40
30.0
176
     1
 62
     7
420
 16777215
176
     1
 90
        0
176
     1
 90
        0
176
     1
 62
     7
176
     1
 62
   257
176
     1
 90
        1
176
     1
 90
        1
176
     1
 40
1.0
176
     1
 90
        0
176
     1
 62
     7
176
     1
 40
1.0
176
     1
 90
        1
176
     1
 90
        6
176
     1
 90
        2
176
     1
 62
     7
176
     1
 90
        5
176
     1
 90
        0
176
     1
 90
        0
176
     1
290
     0
176
     1
 90
       13
176
     1
 40
0.0
176
     1
 90
        0
176
     1
290
     0
176
     1
290
     1
176
     1
290
     1
176
     1
290
     0
176
     1
290
     0
176
     1
290
     0
176
     1
290
     0
176
     1
290
     0
176
     1
290
     0
176
     1
 90
       50
176
     1
 40
0.0
176
     1
 40
1.0
176
     1
 90
        0
176
     1
 62
    18
420
        0
176
     1
 90
       50
176
     1
 90
        3
176
     1
 62
     5
420
      255
176
     1
290
     0
176
     1
 90
       50
176
     1
 90
       50
176
     1
 90
       50
176
     1
290
     0
176
     1
 90
       50
176
     1
 62
   256
176
     0
 40
1.0
176
     0
 90
        2
176
     1
  1
strokes_ogs.tif
176
     1
290
     0
176
     1
 40
1.0
176
     1
 40
1.0
176
     1
  0
VISUALSTYLE
  5
1519
102
{ACAD_REACTORS
330
1515
102
}
330
1515
100
AcDbVisualStyle
  2
GouraudWithEdges
 70
     3
177
     3
291
     1
 70
    58
 90
        2
176
     1
 90
        2
176
     1
 90
        1
176
     1
 90
        2
176
     1
 40
0.6
176
     1
 40
30.0
176
     1
 62
     7
420
 16777215
176
     1
 90
        1
176
     1
 90
        0
176
     1
 62
     7
176
     1
 62
   257
176
     1
 90
        1
176
     1
 90
        1
176
     1
 40
1.0
176
     1
 90
        0
176
     1
 62
   257
176
     1
 40
1.0
176
     1
 90
        1
176
     1
 90
        6
176
     1
 90
        2
176
     1
 62
     7
176
     1
 90
        5
176
     1
 90
        0
176
     1
 90
        0
176
     1
290
     0
176
     1
 90
       13
176
     1
 40
0.0
176
     1
 90
        0
176
     1
290
     0
176
     1
290
     1
176
     1
290
     1
176
     1
290
     0
176
     1
290
     0
176
     1
290
     0
176
     1
290
     0
176
     1
290
     0
176
     1
290
     0
176
     1
 90
       50
176
     1
 40
0.0
176
     1
 40
1.0
176
     1
 90
        0
176
     1
 62
    18
420
        0
176
     1
 90
       50
176
     1
 90
        3
176
     1
 62
     5
420
      255
176
     1
290
     0
176
     1
 90
       50
176
     1
 90
       50
176
     1
 90
       50
176
     1
290
     0
176
     1
 90
       50
176
     1
 62
   256
176
     0
 40
1.0
176
     0
 90
        2
176
     1
  1
strokes_ogs.tif
176
     1
290
     0
176
     1
 40
1.0
176
     1
 40
1.0
176
     1
  0
VISUALSTYLE
  5
151C
102
{ACAD_REACTORS
330
1515
102
}
330
1515
100
AcDbVisualStyle
  2
Hidden
 70
     6
177
     3
291
     0
 70
    58
 90
        1
176
     1
 90
        2
176
     1
 90
        2
176
     1
 90
        0
176
     1
 40
0.6
176
     1
 40
30.0
176
     1
 62
     7
420
 16777215
176
     1
 90
        2
176
     1
 90
        2
176
     1
 62
     7
176
     1
 62
   257
176
     1
 90
        2
176
     1
 90
        1
176
     1
 40
40.0
176
     1
 90
        0
176
     1
 62
   257
176
     1
 40
1.0
176
     1
 90
        1
176
     1
 90
        6
176
     1
 90
        2
176
     1
 62
     7
176
     1
 90
        3
176
     1
 90
        0
176
     1
 90
        0
176
     1
290
     0
176
     1
 90
        1
176
     1
 40
0.0
176
     1
 90
        0
176
     1
290
     0
176
     1
290
     1
176
     1
290
     1
176
     1
290
     0
176
     1
290
     0
176
     1
290
     0
176
     1
290
     0
176
     1
290
     0
176
     1
290
     0
176
     1
 90
       50
176
     1
 40
0.0
176
     1
 40
1.0
176
     1
 90
        0
176
     1
 62
    18
420
        0
176
     1
 90
       50
176
     1
 90
        3
176
     1
 62
     5
420
      255
176
     1
290
     0
176
     1
 90
       50
176
     1
 90
       50
176
     1
 90
       50
176
     1
290
     0
176
     1
 90
       50
176
     1
 62
   256
176
     0
 40
1.0
176
     0
 90
        2
176
     1
  1
strokes_ogs.tif
176
     1
290
     0
176
     1
 40
1.0
176
     1
 40
1.0
176
     1
  0
VISUALSTYLE
  5
1526
102
{ACAD_REACTORS
330
1515
102
}
330
1515
100
AcDbVisualStyle
  2
JitterOff
 70
    20
177
     3
291
     1
 70
    58
 90
        2
176
     0
 90
        2
176
     0
 90
        0
176
     0
 90
        0
176
     0
 40
0.6
176
     0
 40
30.0
176
     0
 62
     7
420
 16777215
176
     0
 90
        1
176
     0
 90
        4
176
     0
 62
     7
176
     0
 62
   257
176
     0
 90
        1
176
     0
 90
        1
176
     0
 40
1.0
176
     0
 90
       10
176
     2
 62
     7
176
     0
 40
1.0
176
     0
 90
        1
176
     0
 90
        6
176
     0
 90
        2
176
     0
 62
     7
176
     0
 90
        5
176
     0
 90
        0
176
     0
 90
        0
176
     0
290
     0
176
     0
 90
        1
176
     0
 40
0.0
176
     0
 90
        0
176
     0
290
     0
176
     0
290
     1
176
     0
290
     1
176
     0
290
     0
176
     0
290
     0
176
     0
290
     0
176
     0
290
     0
176
     0
290
     0
176
     0
290
     0
176
     0
 90
       50
176
     0
 40
0.0
176
     0
 40
1.0
176
     0
 90
        0
176
     0
 62
    18
420
        0
176
     0
 90
       50
176
     0
 90
        3
176
     0
 62
     5
420
      255
176
     0
290
     0
176
     0
 90
       50
176
     0
 90
       50
176
     0
 90
       50
176
     0
290
     0
176
     0
 90
       50
176
     0
 62
   256
176
     0
 40
1.0
176
     0
 90
        2
176
     0
  1
strokes_ogs.tif
176
     0
290
     0
176
     0
 40
1.0
176
     0
 40
1.0
176
     0
  0
VISUALSTYLE
  5
1523
102
{ACAD_REACTORS
330
1515
102
}
330
1515
100
AcDbVisualStyle
  2
Linepattern
 70
    14
177
     3
291
     1
 70
    58
 90
        2
176
     1
 90
        2
176
     1
 90
        0
176
     1
 90
        0
176
     1
 40
0.6
176
     1
 40
30.0
176
     1
 62
     7
420
 16777215
176
     1
 90
        1
176
     1
 90
        4
176
     1
 62
     7
176
     1
 62
   257
176
     1
 90
        7
176
     1
 90
        7
176
     1
 40
1.0
176
     1
 90
        8
176
     1
 62
     7
176
     1
 40
1.0
176
     1
 90
        1
176
     1
 90
        6
176
     1
 90
        2
176
     1
 62
     7
176
     1
 90
        5
176
     1
 90
        0
176
     1
 90
        0
176
     1
290
     0
176
     1
 90
        1
176
     1
 40
0.0
176
     1
 90
        0
176
     1
290
     0
176
     1
290
     1
176
     1
290
     1
176
     1
290
     0
176
     1
290
     0
176
     1
290
     0
176
     1
290
     0
176
     1
290
     0
176
     1
290
     0
176
     1
 90
       50
176
     1
 40
0.0
176
     1
 40
1.0
176
     1
 90
        0
176
     1
 62
    18
420
        0
176
     1
 90
       50
176
     1
 90
        3
176
     1
 62
     5
420
      255
176
     1
290
     0
176
     1
 90
       50
176
     1
 90
       50
176
     1
 90
       50
176
     1
290
     0
176
     1
 90
       50
176
     1
 62
   256
176
     0
 40
1.0
176
     0
 90
        2
176
     1
  1
strokes_ogs.tif
176
     1
290
     0
176
     1
 40
1.0
176
     1
 40
1.0
176
     1
  0
VISUALSTYLE
  5
1527
102
{ACAD_REACTORS
330
1515
102
}
330
1515
100
AcDbVisualStyle
  2
OverhangOff
 70
    21
177
     3
291
     1
 70
    58
 90
        2
176
     0
 90
        2
176
     0
 90
        0
176
     0
 90
        0
176
     0
 40
0.6
176
     0
 40
30.0
176
     0
 62
     7
420
 16777215
176
     0
 90
        1
176
     0
 90
        4
176
     0
 62
     7
176
     0
 62
   257
176
     0
 90
        1
176
     0
 90
        1
176
     0
 40
1.0
176
     0
 90
        9
176
     2
 62
     7
176
     0
 40
1.0
176
     0
 90
        1
176
     0
 90
        6
176
     0
 90
        2
176
     0
 62
     7
176
     0
 90
        5
176
     0
 90
        0
176
     0
 90
        0
176
     0
290
     0
176
     0
 90
        1
176
     0
 40
0.0
176
     0
 90
        0
176
     0
290
     0
176
     0
290
     1
176
     0
290
     1
176
     0
290
     0
176
     0
290
     0
176
     0
290
     0
176
     0
290
     0
176
     0
290
     0
176
     0
290
     0
176
     0
 90
       50
176
     0
 40
0.0
176
     0
 40
1.0
176
     0
 90
        0
176
     0
 62
    18
420
        0
176
     0
 90
       50
176
     0
 90
        3
176
     0
 62
     5
420
      255
176
     0
290
     0
176
     0
 90
       50
176
     0
 90
       50
176
     0
 90
       50
176
     0
290
     0
176
     0
 90
       50
176
     0
 62
   256
176
     0
 40
1.0
176
     0
 90
        2
176
     0
  1
strokes_ogs.tif
176
     0
290
     0
176
     0
 40
1.0
176
     0
 40
1.0
176
     0
  0
VISUALSTYLE
  5
151E
102
{ACAD_REACTORS
330
1515
102
}
330
1515
100
AcDbVisualStyle
  2
Realistic
 70
     8
177
     3
291
     0
 70
    58
 90
        2
176
     1
 90
        3
176
     1
 90
        0
176
     1
 90
        2
176
     1
 40
0.6
176
     1
 40
30.0
176
     1
 62
     7
420
 16777215
176
     1
 90
        0
176
     1
 90
        0
176
     1
 62
     7
176
     1
 62
   257
176
     1
 90
        1
176
     1
 90
        1
176
     1
 40
1.0
176
     1
 90
        8
176
     1
 62
   257
176
     1
 40
1.0
176
     1
 90
        1
176
     1
 90
        6
176
     1
 90
        2
176
     1
 62
     7
176
     1
 90
        3
176
     1
 90
        0
176
     1
 90
        0
176
     1
290
     0
176
     1
 90
       13
176
     1
 40
0.0
176
     1
 90
        0
176
     1
290
     0
176
     1
290
     1
176
     1
290
     1
176
     1
290
     0
176
     1
290
     0
176
     1
290
     0
176
     1
290
     0
176
     1
290
     0
176
     1
290
     0
176
     1
 90
       50
176
     1
 40
0.0
176
     1
 40
1.0
176
     1
 90
        0
176
     1
 62
    18
420
        0
176
     1
 90
       50
176
     1
 90
        3
176
     1
 62
     5
420
      255
176
     1
290
     0
176
     1
 90
       50
176
     1
 90
       50
176
     1
 90
       50
176
     1
290
     0
176
     1
 90
       50
176
     1
 62
   256
176
     0
 40
1.0
176
     0
 90
        2
176
     1
  1
strokes_ogs.tif
176
     1
290
     0
176
     1
 40
1.0
176
     1
 40
1.0
176
     1
  0
VISUALSTYLE
  5
152D
102
{ACAD_REACTORS
330
1515
102
}
330
1515
100
AcDbVisualStyle
  2
Shaded
 70
    27
177
     3
291
     0
 70
    58
 90
        2
176
     1
 90
        2
176
     1
 90
        1
176
     1
 90
        2
176
     1
 40
0.6
176
     1
 40
30.0
176
     1
 62
     7
420
 16777215
176
     1
 90
        0
176
     1
 90
        4
176
     1
 62
     7
176
     1
 62
   257
176
     1
 90
        1
176
     1
 90
        1
176
     1
 40
1.0
176
     1
 90
        8
176
     1
 62
   257
176
     1
 40
1.0
176
     1
 90
        1
176
     1
 90
        6
176
     1
 90
        2
176
     1
 62
     8
420
  7895160
176
     1
 90
        3
176
     1
 90
        0
176
     1
 90
        0
176
     1
290
     0
176
     1
 90
        5
176
     1
 40
0.0
176
     1
 90
        0
176
     1
290
     0
176
     1
290
     1
176
     1
290
     1
176
     1
290
     0
176
     1
290
     0
176
     1
290
     0
176
     1
290
     0
176
     1
290
     0
176
     1
290
     0
176
     1
 90
       50
176
     1
 40
0.0
176
     1
 40
1.0
176
     1
 90
        0
176
     1
 62
    18
420
        0
176
     1
 90
       50
176
     1
 90
        3
176
     1
 62
     5
420
      255
176
     1
290
     0
176
     1
 90
       50
176
     1
 90
       50
176
     1
 90
       50
176
     1
290
     0
176
     1
 90
       50
176
     1
 62
   256
176
     0
 40
1.0
176
     0
 90
        2
176
     1
  1
strokes_ogs.tif
176
     1
290
     0
176
     1
 40
1.0
176
     1
 40
1.0
176
     1
  0
VISUALSTYLE
  5
152C
102
{ACAD_REACTORS
330
1515
102
}
330
1515
100
AcDbVisualStyle
  2
Shaded with edges
 70
    26
177
     3
291
     0
 70
    58
 90
        2
176
     1
 90
        2
176
     1
 90
        1
176
     1
 90
        2
176
     1
 40
0.6
176
     1
 40
30.0
176
     1
 62
     7
420
 16777215
176
     1
 90
        1
176
     1
 90
       10
176
     1
 62
     7
176
     1
 62
   257
176
     1
 90
        2
176
     1
 90
        1
176
     1
 40
1.0
176
     1
 90
        8
176
     1
 62
   257
176
     1
 40
1.0
176
     1
 90
        1
176
     1
 90
        6
176
     1
 90
        2
176
     1
 62
     7
176
     1
 90
        3
176
     1
 90
        0
176
     1
 90
        0
176
     1
290
     0
176
     1
 90
        5
176
     1
 40
0.0
176
     1
 90
        0
176
     1
290
     0
176
     1
290
     1
176
     1
290
     1
176
     1
290
     0
176
     1
290
     0
176
     1
290
     0
176
     1
290
     0
176
     1
290
     0
176
     1
290
     0
176
     1
 90
       50
176
     1
 40
0.0
176
     1
 40
1.0
176
     1
 90
        0
176
     1
 62
    18
420
        0
176
     1
 90
       50
176
     1
 90
        3
176
     1
 62
     5
420
      255
176
     1
290
     0
176
     1
 90
       50
176
     1
 90
       50
176
     1
 90
       50
176
     1
290
     0
176
     1
 90
       50
176
     1
 62
   256
176
     0
 40
1.0
176
     0
 90
        2
176
     1
  1
strokes_ogs.tif
176
     1
290
     0
176
     1
 40
1.0
176
     1
 40
1.0
176
     1
  0
VISUALSTYLE
  5
1529
102
{ACAD_REACTORS
330
1515
102
}
330
1515
100
AcDbVisualStyle
  2
Shades of Gray
 70
    23
177
     3
291
     0
 70
    58
 90
        2
176
     1
 90
        2
176
     1
 90
        3
176
     1
 90
        0
176
     1
 40
0.6
176
     1
 40
30.0
176
     1
 62
     7
420
 16777215
176
     1
 90
        2
176
     1
 90
        2
176
     1
 62
     7
176
     1
 62
     7
176
     1
 90
        1
176
     1
 90
        1
176
     1
 40
40.0
176
     1
 90
        8
176
     1
 62
     7
176
     1
 40
1.0
176
     1
 90
        1
176
     1
 90
        6
176
     1
 90
        2
176
     1
 62
     7
176
     1
 90
        3
176
     1
 90
        0
176
     1
 90
        0
176
     1
290
     0
176
     1
 90
        1
176
     1
 40
0.0
176
     1
 90
        0
176
     1
290
     0
176
     1
290
     1
176
     1
290
     1
176
     1
290
     0
176
     1
290
     0
176
     1
290
     0
176
     1
290
     0
176
     1
290
     0
176
     1
290
     0
176
     1
 90
       50
176
     1
 40
0.0
176
     1
 40
1.0
176
     1
 90
        0
176
     1
 62
    18
420
        0
176
     1
 90
       50
176
     1
 90
        3
176
     1
 62
     5
420
      255
176
     1
290
     0
176
     1
 90
       50
176
     1
 90
       50
176
     1
 90
       50
176
     1
290
     0
176
     1
 90
       50
176
     1
 62
   256
176
     0
 40
1.0
176
     0
 90
        2
176
     1
  1
strokes_ogs.tif
176
     1
290
     0
176
     1
 40
1.0
176
     1
 40
1.0
176
     1
  0
VISUALSTYLE
  5
152A
102
{ACAD_REACTORS
330
1515
102
}
330
1515
100
AcDbVisualStyle
  2
Sketchy
 70
    24
177
     3
291
     0
 70
    58
 90
        1
176
     1
 90
        2
176
     1
 90
        2
176
     1
 90
        0
176
     1
 40
0.6
176
     1
 40
30.0
176
     1
 62
     7
420
 16777215
176
     1
 90
        2
176
     1
 90
        2
176
     1
 62
     7
176
     1
 62
     7
176
     1
 90
        1
176
     1
 90
        1
176
     1
 40
40.0
176
     1
 90
       11
176
     1
 62
     7
176
     1
 40
1.0
176
     1
 90
        1
176
     1
 90
        6
176
     1
 90
        2
176
     1
 62
     7
176
     1
 90
        6
176
     1
 90
        0
176
     1
 90
        0
176
     1
290
     0
176
     1
 90
        1
176
     1
 40
0.0
176
     1
 90
        0
176
     1
290
     0
176
     1
290
     1
176
     1
290
     1
176
     1
290
     0
176
     1
290
     0
176
     1
290
     0
176
     1
290
     0
176
     1
290
     0
176
     1
290
     0
176
     1
 90
       50
176
     1
 40
0.0
176
     1
 40
1.0
176
     1
 90
        0
176
     1
 62
    18
420
        0
176
     1
 90
       50
176
     1
 90
        3
176
     1
 62
     5
420
      255
176
     1
290
     0
176
     1
 90
       50
176
     1
 90
       50
176
     1
 90
       50
176
     1
290
     0
176
     1
 90
       50
176
     1
 62
   256
176
     0
 40
1.0
176
     0
 90
        2
176
     1
  1
strokes_ogs.tif
176
     1
290
     0
176
     1
 40
1.0
176
     1
 40
1.0
176
     1
  0
VISUALSTYLE
  5
1522
102
{ACAD_REACTORS
330
1515
102
}
330
1515
100
AcDbVisualStyle
  2
Thicken
 70
    13
177
     3
291
     1
 70
    58
 90
        2
176
     1
 90
        2
176
     1
 90
        0
176
     1
 90
        0
176
     1
 40
0.6
176
     1
 40
30.0
176
     1
 62
     7
420
 16777215
176
     1
 90
        1
176
     1
 90
        4
176
     1
 62
     7
176
     1
 62
   257
176
     1
 90
        1
176
     1
 90
        1
176
     1
 40
1.0
176
     1
 90
       12
176
     1
 62
     7
176
     1
 40
1.0
176
     1
 90
        1
176
     1
 90
        6
176
     1
 90
        2
176
     1
 62
     7
176
     1
 90
        5
176
     1
 90
        0
176
     1
 90
        0
176
     1
290
     0
176
     1
 90
        1
176
     1
 40
0.0
176
     1
 90
        0
176
     1
290
     0
176
     1
290
     1
176
     1
290
     1
176
     1
290
     0
176
     1
290
     0
176
     1
290
     0
176
     1
290
     0
176
     1
290
     0
176
     1
290
     0
176
     1
 90
       50
176
     1
 40
0.0
176
     1
 40
1.0
176
     1
 90
        0
176
     1
 62
    18
420
        0
176
     1
 90
       50
176
     1
 90
        3
176
     1
 62
     5
420
      255
176
     1
290
     0
176
     1
 90
       50
176
     1
 90
       50
176
     1
 90
       50
176
     1
290
     0
176
     1
 90
       50
176
     1
 62
   256
176
     0
 40
1.0
176
     0
 90
        2
176
     1
  1
strokes_ogs.tif
176
     1
290
     0
176
     1
 40
1.0
176
     1
 40
1.0
176
     1
  0
VISUALSTYLE
  5
151B
102
{ACAD_REACTORS
330
1515
102
}
330
1515
100
AcDbVisualStyle
  2
Wireframe
 70
     5
177
     3
291
     0
 70
    58
 90
        0
176
     1
 90
        2
176
     1
 90
        0
176
     1
 90
        0
176
     1
 40
0.6
176
     1
 40
30.0
176
     1
 62
     7
420
 16777215
176
     1
 90
        1
176
     1
 90
        4
176
     1
 62
     7
176
     1
 62
   257
176
     1
 90
        1
176
     1
 90
        1
176
     1
 40
1.0
176
     1
 90
        0
176
     1
 62
   257
176
     1
 40
1.0
176
     1
 90
        1
176
     1
 90
        6
176
     1
 90
        2
176
     1
 62
     7
176
     1
 90
        3
176
     1
 90
        0
176
     1
 90
        0
176
     1
290
     0
176
     1
 90
        1
176
     1
 40
0.0
176
     1
 90
        0
176
     1
290
     0
176
     1
290
     1
176
     1
290
     1
176
     1
290
     0
176
     1
290
     0
176
     1
290
     0
176
     1
290
     0
176
     1
290
     0
176
     1
290
     0
176
     1
 90
       50
176
     1
 40
0.0
176
     1
 40
1.0
176
     1
 90
        0
176
     1
 62
    18
420
        0
176
     1
 90
       50
176
     1
 90
        3
176
     1
 62
     5
420
      255
176
     1
290
     0
176
     1
 90
       50
176
     1
 90
       50
176
     1
 90
       50
176
     1
290
     0
176
     1
 90
       50
176
     1
 62
   256
176
     0
 40
1.0
176
     0
 90
        2
176
     1
  1
strokes_ogs.tif
176
     1
290
     0
176
     1
 40
1.0
176
     1
 40
1.0
176
     1
  0
VISUALSTYLE
  5
152B
102
{ACAD_REACTORS
330
1515
102
}
330
1515
100
AcDbVisualStyle
  2
X-Ray
 70
    25
177
     3
291
     0
 70
    58
 90
        2
176
     1
 90
        2
176
     1
 90
        1
176
     1
 90
        1
176
     1
 40
0.5
176
     1
 40
30.0
176
     1
 62
     7
420
 16777215
176
     1
 90
        1
176
     1
 90
        0
176
     1
 62
     7
176
     1
 62
   257
176
     1
 90
        1
176
     1
 90
        1
176
     1
 40
1.0
176
     1
 90
        8
176
     1
 62
     7
176
     1
 40
1.0
176
     1
 90
        1
176
     1
 90
        6
176
     1
 90
        2
176
     1
 62
     7
176
     1
 90
        3
176
     1
 90
        0
176
     1
 90
        0
176
     1
290
     0
176
     1
 90
       13
176
     1
 40
0.0
176
     1
 90
        0
176
     1
290
     0
176
     1
290
     1
176
     1
290
     1
176
     1
290
     0
176
     1
290
     0
176
     1
290
     0
176
     1
290
     0
176
     1
290
     0
176
     1
290
     0
176
     1
 90
       50
176
     1
 40
0.0
176
     1
 40
1.0
176
     1
 90
        0
176
     1
 62
    18
420
        0
176
     1
 90
       50
176
     1
 90
        3
176
     1
 62
     5
420
      255
176
     1
290
     0
176
     1
 90
       50
176
     1
 90
       50
176
     1
 90
       50
176
     1
290
     0
176
     1
 90
       50
176
     1
 62
   256
176
     0
 40
1.0
176
     0
 90
        2
176
     1
  1
strokes_ogs.tif
176
     1
290
     0
176
     1
 40
1.0
176
     1
 40
1.0
176
     1
  0
DICTIONARYVAR
  5
15D0
102
{ACAD_REACTORS
330
15CF
102
}
330
15CF
100
DictionaryVariables
280
     0
  1
1:1
  0
DICTIONARYVAR
  5
15D5
102
{ACAD_REACTORS
330
15CF
102
}
330
15CF
100
DictionaryVariables
280
     0
  1
Standard
  0
DICTIONARYVAR
  5
15D4
102
{ACAD_REACTORS
330
15CF
102
}
330
15CF
100
DictionaryVariables
280
     0
  1
Standard
  0
XRECORD
  5
155C
102
{ACAD_REACTORS
330
155A
102
}
330
155A
100
AcDbXrecord
280
     1
1000
#ffffff
  0
XRECORD
  5
155D
102
{ACAD_REACTORS
330
155A
102
}
330
155A
100
AcDbXrecord
280
     1
1000
FullColor
  0
XRECORD
  5
155E
102
{ACAD_REACTORS
330
155A
102
}
330
155A
100
AcDbXrecord
280
     1
290
     1
  0
XRECORD
  5
155F
102
{ACAD_REACTORS
330
155A
102
}
330
155A
100
AcDbXrecord
280
     1
290
     1
  0
XRECORD
  5
1560
102
{ACAD_REACTORS
330
155A
102
}
330
155A
100
AcDbXrecord
280
     1
290
     1
  0
XRECORD
  5
1561
102
{ACAD_REACTORS
330
155A
102
}
330
155A
100
AcDbXrecord
280
     1
290
     1
  0
XRECORD
  5
1562
102
{ACAD_REACTORS
330
155A
102
}
330
155A
100
AcDbXrecord
280
     1
1000
auto
  0
XRECORD
  5
1563
102
{ACAD_REACTORS
330
155A
102
}
330
155A
100
AcDbXrecord
280
     1
1000
auto
  0
XRECORD
  5
1564
102
{ACAD_REACTORS
330
155A
102
}
330
155A
100
AcDbXrecord
280
     1
1000
auto
  0
XRECORD
  5
1565
102
{ACAD_REACTORS
330
155A
102
}
330
155A
100
AcDbXrecord
280
     1
1000
auto
  0
XRECORD
  5
1566
102
{ACAD_REACTORS
330
155A
102
}
330
155A
100
AcDbXrecord
280
     1
1000
auto
  0
XRECORD
  5
1567
102
{ACAD_REACTORS
330
155A
102
}
330
155A
100
AcDbXrecord
280
     1
1000
auto
  0
XRECORD
  5
1568
102
{ACAD_REACTORS
330
155A
102
}
330
155A
100
AcDbXrecord
280
     1
1000
auto
  0
XRECORD
  5
1569
102
{ACAD_REACTORS
330
155A
102
}
330
155A
100
AcDbXrecord
280
     1
1000
auto
  0
XRECORD
  5
156A
102
{ACAD_REACTORS
330
155A
102
}
330
155A
100
AcDbXrecord
280
     1
290
     0
  0
XRECORD
  5
156B
102
{ACAD_REACTORS
330
155A
102
}
330
155A
100
AcDbXrecord
280
     1
290
     0
  0
XRECORD
  5
156C
102
{ACAD_REACTORS
330
155A
102
}
330
155A
100
AcDbXrecord
280
     1
290
     0
  0
XRECORD
  5
156D
102
{ACAD_REACTORS
330
155A
102
}
330
155A
100
AcDbXrecord
280
     1
290
     0
  0
XRECORD
  5
156E
102
{ACAD_REACTORS
330
155A
102
}
330
155A
100
AcDbXrecord
280
     1
 90
    65537
  0
XRECORD
  5
156F
102
{ACAD_REACTORS
330
155A
102
}
330
155A
100
AcDbXrecord
280
     1
 90
    65537
  0
XRECORD
  5
1570
102
{ACAD_REACTORS
330
155A
102
}
330
155A
100
AcDbXrecord
280
     1
 90
    65537
  0
XRECORD
  5
1571
102
{ACAD_REACTORS
330
155A
102
}
330
155A
100
AcDbXrecord
280
     1
 90
    65537
  0
XRECORD
  5
1572
102
{ACAD_REACTORS
330
155A
102
}
330
155A
100
AcDbXrecord
280
     1
1000
auto
  0
XRECORD
  5
1573
102
{ACAD_REACTORS
330
155A
102
}
330
155A
100
AcDbXrecord
280
     1
1000
auto
  0
XRECORD
  5
1574
102
{ACAD_REACTORS
330
155A
102
}
330
155A
100
AcDbXrecord
280
     1
1000
auto
  0
XRECORD
  5
1575
102
{ACAD_REACTORS
330
155A
102
}
330
155A
100
AcDbXrecord
280
     1
1000
auto
  0
XRECORD
  5
1576
102
{ACAD_REACTORS
330
155A
102
}
330
155A
100
AcDbXrecord
280
     1
1000
auto
  0
XRECORD
  5
1577
102
{ACAD_REACTORS
330
155A
102
}
330
155A
100
AcDbXrecord
280
     1
1000
auto
  0
XRECORD
  5
1578
102
{ACAD_REACTORS
330
155A
102
}
330
155A
100
AcDbXrecord
280
     1
1000
auto
  0
XRECORD
  5
1579
102
{ACAD_REACTORS
330
155A
102
}
330
155A
100
AcDbXrecord
280
     1
1000
auto
  0
XRECORD
  5
157A
102
{ACAD_REACTORS
330
155A
102
}
330
155A
100
AcDbXrecord
280
     1
 90
        1
  0
XRECORD
  5
157B
102
{ACAD_REACTORS
330
155A
102
}
330
155A
100
AcDbXrecord
280
     1
 40
10.0
  0
XRECORD
  5
157C
102
{ACAD_REACTORS
330
155A
102
}
330
155A
100
AcDbXrecord
280
     1
 40
10.0
  0
XRECORD
  5
157D
102
{ACAD_REACTORS
330
155A
102
}
330
155A
100
AcDbXrecord
280
     1
 40
10.0
  0
XRECORD
  5
157E
102
{ACAD_REACTORS
330
155A
102
}
330
155A
100
AcDbXrecord
280
     1
 40
10.0
  0
XRECORD
  5
157F
102
{ACAD_REACTORS
330
155A
102
}
330
155A
100
AcDbXrecord
280
     1
290
     0
  0
XRECORD
  5
1580
102
{ACAD_REACTORS
330
155A
102
}
330
155A
100
AcDbXrecord
280
     1
 90
        1
  0
XRECORD
  5
1581
102
{ACAD_REACTORS
330
155A
102
}
330
155A
100
AcDbXrecord
280
     1
 40
0.0
  0
XRECORD
  5
1582
102
{ACAD_REACTORS
330
155A
102
}
330
155A
100
AcDbXrecord
280
     1
 40
0.0
  0
XRECORD
  5
1583
102
{ACAD_REACTORS
330
155A
102
}
330
155A
100
AcDbXrecord
280
     1
1000
Portrait
  0
XRECORD
  5
1584
102
{ACAD_REACTORS
330
155A
102
}
330
155A
100
AcDbXrecord
280
     1
 40
297.0
  0
XRECORD
  5
1585
102
{ACAD_REACTORS
330
155A
102
}
330
155A
100
AcDbXrecord
280
     1
 40
210.0
  0
XRECORD
  5
1586
102
{ACAD_REACTORS
330
155A
102
}
330
155A
100
AcDbXrecord
280
     1
1000
1:1
  0
XRECORD
  5
1587
102
{ACAD_REACTORS
330
155A
102
}
330
155A
100
AcDbXrecord
280
     1
290
     1
  0
XRECORD
  5
1588
102
{ACAD_REACTORS
330
155A
102
}
330
155A
100
AcDbXrecord
280
     1
1000
3.21.3
  0
XRECORD
  5
1589
102
{ACAD_REACTORS
330
155A
102
}
330
155A
100
AcDbXrecord
280
     1
 90
        4
  0
XRECORD
  5
158A
102
{ACAD_REACTORS
330
155A
102
}
330
155A
100
AcDbXrecord
280
     1
  0
XRECORD
  5
158B
102
{ACAD_REACTORS
330
155A
102
}
330
155A
100
AcDbXrecord
280
     1
 40
73.58009950937503
  0
XRECORD
  5
158C
102
{ACAD_REACTORS
330
155A
102
}
330
155A
100
AcDbXrecord
280
     1
 40
86.90240164895545
  0
DICTIONARY
  5
15D1
330
1555
100
AcDbDictionary
280
     1
281
     1
  3
ACAD_ROUNDTRIP_2008_TABLESTYLE_CELLSTYLEMAP
360
15D2
  0
CELLSTYLEMAP
  5
15D2
102
{ACAD_REACTORS
330
15D1
102
}
330
15D1
100
AcDbCellStyleMap
 90
        3
300
CELLSTYLE
  1
TABLEFORMAT_BEGIN
 90
        5
170
     1
 91
        0
 92
    32768
 62
   257
 93
        1
300
CONTENTFORMAT
  1
CONTENTFORMAT_BEGIN
 90
        0
 91
        0
 92
        4
 93
        0
300

 40
0.0
140
1.0
 94
        5
 62
     0
340
14FD
144
0.25
309
CONTENTFORMAT_END
171
     1
301
MARGIN
  1
CELLMARGIN_BEGIN
 40
0.06
 40
0.06
 40
0.06
 40
0.06
 40
0.06
 40
0.06
309
CELLMARGIN_END
 94
        6
 95
        1
302
GRIDFORMAT
  1
GRIDFORMAT_BEGIN
 90
        0
 91
        1
 62
     0
 92
       -2
340
14FF
 93
        0
 40
0.045
309
GRIDFORMAT_END
 95
        2
302
GRIDFORMAT
  1
GRIDFORMAT_BEGIN
 90
        0
 91
        1
 62
     0
 92
       -2
340
14FF
 93
        0
 40
0.045
309
GRIDFORMAT_END
 95
        4
302
GRIDFORMAT
  1
GRIDFORMAT_BEGIN
 90
        0
 91
        1
 62
     0
 92
       -2
340
14FF
 93
        0
 40
0.045
309
GRIDFORMAT_END
 95
        8
302
GRIDFORMAT
  1
GRIDFORMAT_BEGIN
 90
        0
 91
        1
 62
     0
 92
       -2
340
14FF
 93
        0
 40
0.045
309
GRIDFORMAT_END
 95
       16
302
GRIDFORMAT
  1
GRIDFORMAT_BEGIN
 90
        0
 91
        1
 62
     0
 92
       -2
340
14FF
 93
        0
 40
0.045
309
GRIDFORMAT_END
 95
       32
302
GRIDFORMAT
  1
GRIDFORMAT_BEGIN
 90
        0
 91
        1
 62
     0
 92
       -2
340
14FF
 93
        0
 40
0.045
309
GRIDFORMAT_END
309
TABLEFORMAT_END
  1
CELLSTYLE_BEGIN
 90
        1
 91
        1
300
_TITLE
309
CELLSTYLE_END
300
CELLSTYLE
  1
TABLEFORMAT_BEGIN
 90
        5
170
     1
 91
        0
 92
        0
 62
   257
 93
        1
300
CONTENTFORMAT
  1
CONTENTFORMAT_BEGIN
 90
        0
 91
        0
 92
        4
 93
        0
300

 40
0.0
140
1.0
 94
        5
 62
     0
340
14FD
144
0.18
309
CONTENTFORMAT_END
171
     1
301
MARGIN
  1
CELLMARGIN_BEGIN
 40
0.06
 40
0.06
 40
0.06
 40
0.06
 40
0.06
 40
0.06
309
CELLMARGIN_END
 94
        6
 95
        1
302
GRIDFORMAT
  1
GRIDFORMAT_BEGIN
 90
        0
 91
        1
 62
     0
 92
       -2
340
14FF
 93
        0
 40
0.045
309
GRIDFORMAT_END
 95
        2
302
GRIDFORMAT
  1
GRIDFORMAT_BEGIN
 90
        0
 91
        1
 62
     0
 92
       -2
340
14FF
 93
        0
 40
0.045
309
GRIDFORMAT_END
 95
        4
302
GRIDFORMAT
  1
GRIDFORMAT_BEGIN
 90
        0
 91
        1
 62
     0
 92
       -2
340
14FF
 93
        0
 40
0.045
309
GRIDFORMAT_END
 95
        8
302
GRIDFORMAT
  1
GRIDFORMAT_BEGIN
 90
        0
 91
        1
 62
     0
 92
       -2
340
14FF
 93
        0
 40
0.045
309
GRIDFORMAT_END
 95
       16
302
GRIDFORMAT
  1
GRIDFORMAT_BEGIN
 90
        0
 91
        1
 62
     0
 92
       -2
340
14FF
 93
        0
 40
0.045
309
GRIDFORMAT_END
 95
       32
302
GRIDFORMAT
  1
GRIDFORMAT_BEGIN
 90
        0
 91
        1
 62
     0
 92
       -2
340
14FF
 93
        0
 40
0.045
309
GRIDFORMAT_END
309
TABLEFORMAT_END
  1
CELLSTYLE_BEGIN
 90
        2
 91
        1
300
_HEADER
309
CELLSTYLE_END
300
CELLSTYLE
  1
TABLEFORMAT_BEGIN
 90
        5
170
     1
 91
        0
 92
        0
 62
   257
 93
        1
300
CONTENTFORMAT
  1
CONTENTFORMAT_BEGIN
 90
        0
 91
        0
 92
        4
 93
        0
300

 40
0.0
140
1.0
 94
        2
 62
     0
340
14FD
144
0.18
309
CONTENTFORMAT_END
171
     1
301
MARGIN
  1
CELLMARGIN_BEGIN
 40
0.06
 40
0.06
 40
0.06
 40
0.06
 40
0.06
 40
0.06
309
CELLMARGIN_END
 94
        6
 95
        1
302
GRIDFORMAT
  1
GRIDFORMAT_BEGIN
 90
        0
 91
        1
 62
     0
 92
       -2
340
14FF
 93
        0
 40
0.045
309
GRIDFORMAT_END
 95
        2
302
GRIDFORMAT
  1
GRIDFORMAT_BEGIN
 90
        0
 91
        1
 62
     0
 92
       -2
340
14FF
 93
        0
 40
0.045
309
GRIDFORMAT_END
 95
        4
302
GRIDFORMAT
  1
GRIDFORMAT_BEGIN
 90
        0
 91
        1
 62
     0
 92
       -2
340
14FF
 93
        0
 40
0.045
309
GRIDFORMAT_END
 95
        8
302
GRIDFORMAT
  1
GRIDFORMAT_BEGIN
 90
        0
 91
        1
 62
     0
 92
       -2
340
14FF
 93
        0
 40
0.045
309
GRIDFORMAT_END
 95
       16
302
GRIDFORMAT
  1
GRIDFORMAT_BEGIN
 90
        0
 91
        1
 62
     0
 92
       -2
340
14FF
 93
        0
 40
0.045
309
GRIDFORMAT_END
 95
       32
302
GRIDFORMAT
  1
GRIDFORMAT_BEGIN
 90
        0
 91
        1
 62
     0
 92
       -2
340
14FF
 93
        0
 40
0.045
309
GRIDFORMAT_END
309
TABLEFORMAT_END
  1
CELLSTYLE_BEGIN
 90
        3
 91
        2
300
_DATA
309
CELLSTYLE_END
  0
ENDSEC
  0
EOF
