  0
SECTION
  2
HEADER
  9
$ACADVER
  1
AC1015
  9
$ACADMAINTVER
 70
     6
  9
$DWGCODEPAGE
  3
ANSI_1252
  9
$INSBASE
 10
0.0
 20
0.0
 30
0.0
  9
$EXTMIN
 10
-239.8
 20
-70.85
 30
0.0
  9
$EXTMAX
 10
239.8
 20
70.85
 30
0.0
  9
$LIMMIN
 10
0.0
 20
0.0
  9
$LIMMAX
 10
420.0
 20
297.0
  9
$ORTHOMODE
 70
     0
  9
$REGENMODE
 70
     1
  9
$FILLMODE
 70
     1
  9
$QTEXTMODE
 70
     0
  9
$MIRRTEXT
 70
     1
  9
$LTSCALE
 40
1.0
  9
$ATTMODE
 70
     1
  9
$TEXTSIZE
 40
3.5
  9
$TRACEWID
 40
1.0
  9
$TEXTSTYLE
  7
Standard
  9
$CLAYER
  8
0
  9
$CELTYPE
  6
ByLayer
  9
$CECOLOR
 62
   256
  9
$CELTSCALE
 40
1.0
  9
$DISPSILH
 70
     0
  9
$DIMSCALE
 40
1.0
  9
$DIMASZ
 40
3.302
  9
$DIMEXO
 40
0.0
  9
$DIMDLI
 40
3.75
  9
$DIMRND
 40
0.0
  9
$DIMDLE
 40
0.0
  9
$DIMEXE
 40
1.0
  9
$DIMTP
 40
0.0
  9
$DIMTM
 40
0.0
  9
$DIMTXT
 40
3.5
  9
$DIMCEN
 40
2.5
  9
$DIMTSZ
 40
0.0
  9
$DIMTOL
 70
     0
  9
$DIMLIM
 70
     0
  9
$DIMTIH
 70
     1
  9
$DIMTOH
 70
     1
  9
$DIMSE1
 70
     0
  9
$DIMSE2
 70
     0
  9
$DIMTAD
 70
     1
  9
$DIMZIN
 70
     1
  9
$DIMBLK
  1

  9
$DIMASO
 70
     1
  9
$DIMSHO
 70
     1
  9
$DIMPOST
  1

  9
$DIMAPOST
  1

  9
$DIMALT
 70
     0
  9
$DIMALTD
 70
     3
  9
$DIMALTF
 40
0.0393700787
  9
$DIMLFAC
 40
1.0
  9
$DIMTOFL
 70
     1
  9
$DIMTVP
 40
0.0
  9
$DIMTIX
 70
     0
  9
$DIMSOXD
 70
     0
  9
$DIMSAH
 70
     0
  9
$DIMBLK1
  1

  9
$DIMBLK2
  1

  9
$DIMSTYLE
  2
ISO-25
  9
$DIMCLRD
 70
     0
  9
$DIMCLRE
 70
     0
  9
$DIMCLRT
 70
     0
  9
$DIMTFAC
 40
1.0
  9
$DIMGAP
 40
1.524
  9
$DIMJUST
 70
     0
  9
$DIMSD1
 70
     0
  9
$DIMSD2
 70
     0
  9
$DIMTOLJ
 70
     0
  9
$DIMTZIN
 70
     1
  9
$DIMALTZ
 70
     0
  9
$DIMALTTZ
 70
     0
  9
$DIMUPT
 70
     0
  9
$DIMDEC
 70
     2
  9
$DIMTDEC
 70
     2
  9
$DIMALTU
 70
     2
  9
$DIMALTTD
 70
     3
  9
$DIMTXSTY
  7
Standard
  9
$DIMAUNIT
 70
     0
  9
$DIMADEC
 70
     2
  9
$DIMALTRND
 40
0.0
  9
$DIMAZIN
 70
     0
  9
$DIMDSEP
 70
    44
  9
$DIMATFIT
 70
     3
  9
$DIMFRAC
 70
     0
  9
$DIMLDRBLK
  1

  9
$DIMLUNIT
 70
     2
  9
$DIMLWD
 70
    -2
  9
$DIMLWE
 70
    -2
  9
$DIMTMOVE
 70
     0
  9
$LUNITS
 70
     2
  9
$LUPREC
 70
     2
  9
$SKETCHINC
 40
1.0
  9
$FILLETRAD
 40
10.0
  9
$AUNITS
 70
     0
  9
$AUPREC
 70
     2
  9
$MENU
  1
.
  9
$ELEVATION
 40
0.0
  9
$PELEVATION
 40
0.0
  9
$THICKNESS
 40
0.0
  9
$LIMCHECK
 70
     0
  9
$CHAMFERA
 40
0.0
  9
$CHAMFERB
 40
0.0
  9
$CHAMFERC
 40
0.0
  9
$CHAMFERD
 40
0.0
  9
$SKPOLY
 70
     0
  9
$TDCREATE
 40
2459520.499035139
  9
$TDUCREATE
 40
2459520.457368472
  9
$TDUPDATE
 40
2459520.499114329
  9
$TDUUPDATE
 40
2459520.457447662
  9
$TDINDWG
 40
0.0000000116
  9
$TDUSRTIMER
 40
0.0000000116
  9
$USRTIMER
 70
     1
  9
$ANGBASE
 50
0.0
  9
$ANGDIR
 70
     0
  9
$PDMODE
 70
     0
  9
$PDSIZE
 40
-1.0
  9
$PLINEWID
 40
0.0
  9
$SPLFRAME
 70
     0
  9
$SPLINETYPE
 70
     6
  9
$SPLINESEGS
 70
     8
  9
$HANDSEED
  5
331
  9
$SURFTAB1
 70
     6
  9
$SURFTAB2
 70
     6
  9
$SURFTYPE
 70
     6
  9
$SURFU
 70
     6
  9
$SURFV
 70
     6
  9
$UCSBASE
  2

  9
$UCSNAME
  2

  9
$UCSORG
 10
0.0
 20
0.0
 30
0.0
  9
$UCSXDIR
 10
1.0
 20
0.0
 30
0.0
  9
$UCSYDIR
 10
0.0
 20
1.0
 30
0.0
  9
$UCSORTHOREF
  2

  9
$UCSORTHOVIEW
 70
     0
  9
$UCSORGTOP
 10
0.0
 20
0.0
 30
0.0
  9
$UCSORGBOTTOM
 10
0.0
 20
0.0
 30
0.0
  9
$UCSORGLEFT
 10
0.0
 20
0.0
 30
0.0
  9
$UCSORGRIGHT
 10
0.0
 20
0.0
 30
0.0
  9
$UCSORGFRONT
 10
0.0
 20
0.0
 30
0.0
  9
$UCSORGBACK
 10
0.0
 20
0.0
 30
0.0
  9
$PUCSBASE
  2

  9
$PUCSNAME
  2

  9
$PUCSORG
 10
0.0
 20
0.0
 30
0.0
  9
$PUCSXDIR
 10
1.0
 20
0.0
 30
0.0
  9
$PUCSYDIR
 10
0.0
 20
1.0
 30
0.0
  9
$PUCSORTHOREF
  2

  9
$PUCSORTHOVIEW
 70
     0
  9
$PUCSORGTOP
 10
0.0
 20
0.0
 30
0.0
  9
$PUCSORGBOTTOM
 10
0.0
 20
0.0
 30
0.0
  9
$PUCSORGLEFT
 10
0.0
 20
0.0
 30
0.0
  9
$PUCSORGRIGHT
 10
0.0
 20
0.0
 30
0.0
  9
$PUCSORGFRONT
 10
0.0
 20
0.0
 30
0.0
  9
$PUCSORGBACK
 10
0.0
 20
0.0
 30
0.0
  9
$USERI1
 70
     0
  9
$USERI2
 70
     0
  9
$USERI3
 70
     0
  9
$USERI4
 70
     0
  9
$USERI5
 70
     0
  9
$USERR1
 40
0.0
  9
$USERR2
 40
0.0
  9
$USERR3
 40
0.0
  9
$USERR4
 40
0.0
  9
$USERR5
 40
0.0
  9
$WORLDVIEW
 70
     1
  9
$SHADEDGE
 70
     3
  9
$SHADEDIF
 70
    70
  9
$TILEMODE
 70
     1
  9
$MAXACTVP
 70
    64
  9
$PINSBASE
 10
0.0
 20
0.0
 30
0.0
  9
$PLIMCHECK
 70
     0
  9
$PEXTMIN
 10
1.0000000000E+20
 20
1.0000000000E+20
 30
1.0000000000E+20
  9
$PEXTMAX
 10
-1.0000000000E+20
 20
-1.0000000000E+20
 30
-1.0000000000E+20
  9
$PLIMMIN
 10
0.0
 20
0.0
  9
$PLIMMAX
 10
420.0
 20
297.0
  9
$UNITMODE
 70
     0
  9
$VISRETAIN
 70
     1
  9
$PLINEGEN
 70
     0
  9
$PSLTSCALE
 70
     1
  9
$TREEDEPTH
 70
  3020
  9
$CMLSTYLE
  2
Standard
  9
$CMLJUST
 70
     0
  9
$CMLSCALE
 40
20.0
  9
$PROXYGRAPHICS
 70
     1
  9
$MEASUREMENT
 70
     1
  9
$CELWEIGHT
370
    -1
  9
$ENDCAPS
280
     0
  9
$JOINSTYLE
280
     0
  9
$LWDISPLAY
290
     1
  9
$INSUNITS
 70
     4
  9
$HYPERLINKBASE
  1

  9
$STYLESHEET
  1

  9
$XEDIT
290
     1
  9
$CEPSNTYPE
380
     0
  9
$PSTYLEMODE
290
     1
  9
$FINGERPRINTGUID
  2
{96e268a5-f4d7-4ff0-933a-d8db904dab43}
  9
$VERSIONGUID
  2
{FAEB1C32-E019-11D5-929B-00C0DF256EC4}
  9
$EXTNAMES
290
     1
  9
$PSVPSCALE
 40
0.0
  9
$OLESTARTUP
290
     0
  0
ENDSEC
  0
SECTION
  2
CLASSES
  0
CLASS
  1
ACDBDICTIONARYWDFLT
  2
AcDbDictionaryWithDefault
  3
ObjectDBX Classes
 90
        0
280
     0
281
     0
  0
CLASS
  1
VISUALSTYLE
  2
AcDbVisualStyle
  3
ObjectDBX Classes
 90
     4095
280
     0
281
     0
  0
CLASS
  1
MATERIAL
  2
AcDbMaterial
  3
ObjectDBX Classes
 90
     1153
280
     0
281
     0
  0
CLASS
  1
SCALE
  2
AcDbScale
  3
ObjectDBX Classes
 90
     1153
280
     0
281
     0
  0
CLASS
  1
TABLESTYLE
  2
AcDbTableStyle
  3
ObjectDBX Classes
 90
     4095
280
     0
281
     0
  0
CLASS
  1
MLEADERSTYLE
  2
AcDbMLeaderStyle
  3
ACDB_MLEADERSTYLE_CLASS
 90
     4095
280
     0
281
     0
  0
CLASS
  1
SUN
  2
AcDbSun
  3
SCENEOE
 90
     1153
280
     0
281
     0
  0
CLASS
  1
ACDBPLACEHOLDER
  2
AcDbPlaceHolder
  3
ObjectDBX Classes
 90
        0
280
     0
281
     0
  0
CLASS
  1
LAYOUT
  2
AcDbLayout
  3
ObjectDBX Classes
 90
        0
280
     0
281
     0
  0
ENDSEC
  0
SECTION
  2
TABLES
  0
TABLE
  2
VPORT
  5
8
330
0
100
AcDbSymbolTable
 70
     1
  0
VPORT
  5
29
330
8
100
AcDbSymbolTableRecord
100
AcDbViewportTableRecord
  2
*Active
 70
     0
 10
0.0
 20
0.0
 11
1.0
 21
1.0
 12
0.0
 22
0.0
 13
0.0
 23
0.0
 14
10.0
 24
10.0
 15
10.0
 25
10.0
 16
0.0
 26
0.0
 36
1.0
 17
0.0
 27
0.0
 37
0.0
 40
144.534
 41
3.3846153846
 42
50.0
 43
0.0
 44
0.0
 50
0.0
 51
0.0
 71
     0
 72
   100
 73
     1
 74
     3
 75
     0
 76
     0
 77
     0
 78
     0
281
     0
 65
     1
110
0.0
120
0.0
130
0.0
111
1.0
121
0.0
131
0.0
112
0.0
122
1.0
132
0.0
 79
     0
146
0.0
  0
ENDTAB
  0
TABLE
  2
LTYPE
  5
5
330
0
100
AcDbSymbolTable
 70
     6
  0
LTYPE
  5
14
330
5
100
AcDbSymbolTableRecord
100
AcDbLinetypeTableRecord
  2
ByBlock
 70
     0
  3

 72
    65
 73
     0
 40
0.0
  0
LTYPE
  5
15
330
5
100
AcDbSymbolTableRecord
100
AcDbLinetypeTableRecord
  2
ByLayer
 70
     0
  3

 72
    65
 73
     0
 40
0.0
  0
LTYPE
  5
16
330
5
100
AcDbSymbolTableRecord
100
AcDbLinetypeTableRecord
  2
Continuous
 70
     0
  3
Solid line
 72
    65
 73
     0
 40
0.0
  0
LTYPE
  5
6E
330
5
100
AcDbSymbolTableRecord
100
AcDbLinetypeTableRecord
  2
HIDDEN
 70
     0
  3
Hidden __ __ __ __ __ __ __ __ __ __ __ __ __ __
 72
    65
 73
     2
 40
1.905
 49
1.27
 74
     0
 49
-0.635
 74
     0
  0
LTYPE
  5
6F
330
5
100
AcDbSymbolTableRecord
100
AcDbLinetypeTableRecord
  2
PHANTOM
 70
     0
  3
Phantom ______  __  __  ______  __  __  ______
 72
    65
 73
     6
 40
12.7
 49
6.35
 74
     0
 49
-1.27
 74
     0
 49
1.27
 74
     0
 49
-1.27
 74
     0
 49
1.27
 74
     0
 49
-1.27
 74
     0
  0
LTYPE
  5
70
330
5
100
AcDbSymbolTableRecord
100
AcDbLinetypeTableRecord
  2
CENTER
 70
     0
  3
Center ____ _ ____ _ ____ _ ____ _ ____ _ ____
 72
    65
 73
     4
 40
10.16
 49
6.35
 74
     0
 49
-1.27
 74
     0
 49
1.27
 74
     0
 49
-1.27
 74
     0
  0
LTYPE
  5
71
330
5
100
AcDbSymbolTableRecord
100
AcDbLinetypeTableRecord
  2
CENTERX2
 70
     0
  3
Center (2x) ________  __  ________  __  _____
 72
    65
 73
     4
 40
20.32
 49
12.7
 74
     0
 49
-2.54
 74
     0
 49
2.54
 74
     0
 49
-2.54
 74
     0
  0
LTYPE
  5
72
330
5
100
AcDbSymbolTableRecord
100
AcDbLinetypeTableRecord
  2
DOT2
 70
     0
  3
Dot (.5x) ........................................
 72
    65
 73
     2
 40
0.635
 49
0.0
 74
     0
 49
-0.635
 74
     0
  0
ENDTAB
  0
TABLE
  2
LAYER
  5
2
330
0
100
AcDbSymbolTable
 70
     1
  0
LAYER
  5
10
330
2
100
AcDbSymbolTableRecord
100
AcDbLayerTableRecord
  2
0
 70
     0
 62
     7
  6
Continuous
370
    -3
390
F
  0
ENDTAB
  0
TABLE
  2
STYLE
  5
3
330
0
100
AcDbSymbolTable
 70
     1
  0
STYLE
  5
11
330
3
100
AcDbSymbolTableRecord
100
AcDbTextStyleTableRecord
  2
Standard
 70
     0
 40
0.0
 41
1.0
 50
0.0
 71
     0
 42
3.5
  3
txt
  4

  0
ENDTAB
  0
TABLE
  2
VIEW
  5
6
330
0
100
AcDbSymbolTable
 70
     0
  0
ENDTAB
  0
TABLE
  2
UCS
  5
7
330
0
100
AcDbSymbolTable
 70
     0
  0
ENDTAB
  0
TABLE
  2
APPID
  5
9
330
0
100
AcDbSymbolTable
 70
     1
  0
APPID
  5
12
330
9
100
AcDbSymbolTableRecord
100
AcDbRegAppTableRecord
  2
ACAD
 70
     0
  0
ENDTAB
  0
TABLE
  2
DIMSTYLE
  5
A
330
0
100
AcDbSymbolTable
 70
     1
100
AcDbDimStyleTable
  0
DIMSTYLE
105
27
330
A
100
AcDbSymbolTableRecord
100
AcDbDimStyleTableRecord
  2
ISO-25
 70
     0
 41
2.5
 42
0.625
 43
3.75
 44
1.25
 73
     0
 74
     0
 77
     1
 78
     8
140
2.5
141
2.5
143
0.0393700787
147
0.625
171
     3
172
     1
178
     0
271
     2
272
     2
274
     3
278
    44
283
     0
284
     8
340
11
  0
ENDTAB
  0
TABLE
  2
BLOCK_RECORD
  5
1
330
0
100
AcDbSymbolTable
 70
     1
  0
BLOCK_RECORD
  5
1F
330
1
100
AcDbSymbolTableRecord
100
AcDbBlockTableRecord
  2
*Model_Space
340
22
  0
BLOCK_RECORD
  5
1B
330
1
100
AcDbSymbolTableRecord
100
AcDbBlockTableRecord
  2
*Paper_Space
340
1E
  0
BLOCK_RECORD
  5
23
330
1
100
AcDbSymbolTableRecord
100
AcDbBlockTableRecord
  2
*Paper_Space0
340
26
  0
ENDTAB
  0
ENDSEC
  0
SECTION
  2
BLOCKS
  0
BLOCK
  5
20
330
1F
100
AcDbEntity
  8
0
100
AcDbBlockBegin
  2
*Model_Space
 70
     0
 10
0.0
 20
0.0
 30
0.0
  3
*Model_Space
  1

  0
ENDBLK
  5
21
330
1F
100
AcDbEntity
  8
0
100
AcDbBlockEnd
  0
BLOCK
  5
1C
330
1B
100
AcDbEntity
 67
     1
  8
0
100
AcDbBlockBegin
  2
*Paper_Space
 70
     0
 10
0.0
 20
0.0
 30
0.0
  3
*Paper_Space
  1

  0
ENDBLK
  5
1D
330
1B
100
AcDbEntity
 67
     1
  8
0
100
AcDbBlockEnd
  0
BLOCK
  5
24
330
23
100
AcDbEntity
  8
0
100
AcDbBlockBegin
  2
*Paper_Space0
 70
     0
 10
0.0
 20
0.0
 30
0.0
  3
*Paper_Space0
  1

  0
ENDBLK
  5
25
330
23
100
AcDbEntity
  8
0
100
AcDbBlockEnd
  0
ENDSEC
  0
SECTION
  2
ENTITIES
  0
SPLINE
  5
73
330
1F
100
AcDbEntity
  8
0
  6
Continuous
 62
     7
370
    25
100
AcDbSpline
210
0.0
220
0.0
230
1.0
 70
     8
 71
     3
 72
     8
 73
     4
 74
     0
 42
0.00000001
 43
0.00000001
 40
0.0
 40
0.0
 40
0.0
 40
0.0
 40
1.0
 40
1.0
 40
1.0
 40
1.0
 10
-7.532634730350017
 20
-25.62028567973769
 30
0.0
 10
-7.742135730350017
 20
-25.5864536797377
 30
0.0
 10
-7.978263730350016
 20
-25.5191216797377
 30
0.0
 10
-8.182201730350016
 20
-25.4350396797377
 30
0.0
  0
SPLINE
  5
74
330
1F
100
AcDbEntity
  8
0
  6
Continuous
 62
     7
370
    25
100
AcDbSpline
210
0.0
220
0.0
230
1.0
 70
     8
 71
     3
 72
     8
 73
     4
 74
     0
 42
0.00000001
 43
0.00000001
 40
0.0
 40
0.0
 40
0.0
 40
0.0
 40
1.0
 40
1.0
 40
1.0
 40
1.0
 10
-6.516476730350017
 20
-25.5949916797377
 30
0.0
 10
-6.744475730350016
 20
-25.6454046797377
 30
0.0
 10
-7.292474730350014
 20
-25.6590386797377
 30
0.0
 10
-7.532634730350017
 20
-25.62028567973769
 30
0.0
  0
SPLINE
  5
75
330
1F
100
AcDbEntity
  8
0
  6
Continuous
 62
     7
370
    25
100
AcDbSpline
210
0.0
220
0.0
230
1.0
 70
     8
 71
     3
 72
     8
 73
     4
 74
     0
 42
0.00000001
 43
0.00000001
 40
0.0
 40
0.0
 40
0.0
 40
0.0
 40
1.0
 40
1.0
 40
1.0
 40
1.0
 10
-4.409437730350016
 20
-23.7410426797377
 30
0.0
 10
-4.733546730350015
 20
-24.6764376797377
 30
0.0
 10
-5.529465730350013
 20
-25.3767546797377
 30
0.0
 10
-6.516476730350017
 20
-25.5949916797377
 30
0.0
  0
SPLINE
  5
76
330
1F
100
AcDbEntity
  8
0
  6
Continuous
 62
     7
370
    25
100
AcDbSpline
210
0.0
220
0.0
230
1.0
 70
     8
 71
     3
 72
     8
 73
     4
 74
     0
 42
0.00000001
 43
0.00000001
 40
0.0
 40
0.0
 40
0.0
 40
0.0
 40
1.0
 40
1.0
 40
1.0
 40
1.0
 10
-4.269261730350016
 20
-23.1009366797377
 30
0.0
 10
-4.269261730350016
 20
-23.2134896797377
 30
0.0
 10
-4.342456730350015
 20
-23.5477326797377
 30
0.0
 10
-4.409437730350016
 20
-23.7410426797377
 30
0.0
  0
SPLINE
  5
79
330
1F
100
AcDbEntity
  8
0
  6
Continuous
 62
     7
370
    25
100
AcDbSpline
210
0.0
220
0.0
230
1.0
 70
     8
 71
     3
 72
     8
 73
     4
 74
     0
 42
0.00000001
 43
0.00000001
 40
0.0
 40
0.0
 40
0.0
 40
0.0
 40
1.0
 40
1.0
 40
1.0
 40
1.0
 10
-2.045341730350016
 20
-22.9047506797377
 30
0.0
 10
-2.316383730350015
 20
-23.0341846797377
 30
0.0
 10
-2.349623730350018
 20
-23.0375236797377
 30
0.0
 10
-3.367419730350016
 20
-23.0375236797377
 30
0.0
  0
SPLINE
  5
7A
330
1F
100
AcDbEntity
  8
0
  6
Continuous
 62
     7
370
    25
100
AcDbSpline
210
0.0
220
0.0
230
1.0
 70
     8
 71
     3
 72
     8
 73
     4
 74
     0
 42
0.00000001
 43
0.00000001
 40
0.0
 40
0.0
 40
0.0
 40
0.0
 40
1.0
 40
1.0
 40
1.0
 40
1.0
 10
-1.730611730350017
 20
-22.6713086797377
 30
0.0
 10
-1.860146730350017
 20
-22.8008436797377
 30
0.0
 10
-1.918701730350015
 20
-22.8442746797377
 30
0.0
 10
-2.045341730350016
 20
-22.9047506797377
 30
0.0
  0
SPLINE
  5
7B
330
1F
100
AcDbEntity
  8
0
  6
Continuous
 62
     7
370
    25
100
AcDbSpline
210
0.0
220
0.0
230
1.0
 70
     8
 71
     3
 72
     8
 73
     4
 74
     0
 42
0.00000001
 43
0.00000001
 40
0.0
 40
0.0
 40
0.0
 40
0.0
 40
1.0
 40
1.0
 40
1.0
 40
1.0
 10
-1.497172730350015
 20
-22.3565816797377
 30
0.0
 10
-1.557648730350015
 20
-22.4832186797377
 30
0.0
 10
-1.601077730350016
 20
-22.5417736797377
 30
0.0
 10
-1.730611730350017
 20
-22.6713086797377
 30
0.0
  0
SPLINE
  5
7C
330
1F
100
AcDbEntity
  8
0
  6
Continuous
 62
     7
370
    25
100
AcDbSpline
210
0.0
220
0.0
230
1.0
 70
     8
 71
     3
 72
     8
 73
     4
 74
     0
 42
0.00000001
 43
0.00000001
 40
0.0
 40
0.0
 40
0.0
 40
0.0
 40
1.0
 40
1.0
 40
1.0
 40
1.0
 10
-1.364719730350017
 20
-20.1566076797377
 30
0.0
 10
-1.364454730350014
 20
-22.1505106797377
 30
0.0
 10
-1.359401730350013
 20
-22.0680746797377
 30
0.0
 10
-1.497172730350015
 20
-22.3565816797377
 30
0.0
  0
SPLINE
  5
7D
330
1F
100
AcDbEntity
  8
0
  6
Continuous
 62
     7
370
    25
100
AcDbSpline
210
0.0
220
0.0
230
1.0
 70
     8
 71
     3
 72
     8
 73
     4
 74
     0
 42
0.00000001
 43
0.00000001
 40
0.0
 40
0.0
 40
0.0
 40
0.0
 40
1.0
 40
1.0
 40
1.0
 40
1.0
 10
-1.481146730350016
 20
-17.9913136797377
 30
0.0
 10
-1.362528730350018
 20
-18.2393046797377
 30
0.0
 10
-1.365071730350015
 20
-18.1920266797377
 30
0.0
 10
-1.364719730350017
 20
-20.1566076797377
 30
0.0
  0
SPLINE
  5
7E
330
1F
100
AcDbEntity
  8
0
  6
Continuous
 62
     7
370
    25
100
AcDbSpline
210
0.0
220
0.0
230
1.0
 70
     8
 71
     3
 72
     8
 73
     4
 74
     0
 42
0.00000001
 43
0.00000001
 40
0.0
 40
0.0
 40
0.0
 40
0.0
 40
1.0
 40
1.0
 40
1.0
 40
1.0
 10
-1.796638730350016
 20
-17.5725896797377
 30
0.0
 10
-1.687849730350015
 20
-17.6573456797377
 30
0.0
 10
-1.559243730350015
 20
-17.8280336797377
 30
0.0
 10
-1.481146730350016
 20
-17.9913136797377
 30
0.0
  0
SPLINE
  5
81
330
1F
100
AcDbEntity
  8
0
  6
Continuous
 62
     7
370
    25
100
AcDbSpline
210
0.0
220
0.0
230
1.0
 70
     8
 71
     3
 72
     8
 73
     4
 74
     0
 42
0.00000001
 43
0.00000001
 40
0.0
 40
0.0
 40
0.0
 40
0.0
 40
1.0
 40
1.0
 40
1.0
 40
1.0
 10
-1.409177730350014
 20
-16.8417096797377
 30
0.0
 10
-1.482168730350019
 20
-17.0660656797377
 30
0.0
 10
-1.637504730350015
 20
-17.3049236797377
 30
0.0
 10
-1.795858730350014
 20
-17.4362916797377
 30
0.0
  0
SPLINE
  5
82
330
1F
100
AcDbEntity
  8
0
  6
Continuous
 62
     7
370
    25
100
AcDbSpline
210
0.0
220
0.0
230
1.0
 70
     8
 71
     3
 72
     8
 73
     4
 74
     0
 42
0.00000001
 43
0.00000001
 40
0.0
 40
0.0
 40
0.0
 40
0.0
 40
1.0
 40
1.0
 40
1.0
 40
1.0
 10
-1.363391730350015
 20
-15.5639386797377
 30
0.0
 10
-1.374980730350018
 20
-16.6224756797377
 30
0.0
 10
-1.379583730350017
 20
-16.7507406797377
 30
0.0
 10
-1.409177730350014
 20
-16.8417096797377
 30
0.0
  0
SPLINE
  5
83
330
1F
100
AcDbEntity
  8
0
  6
Continuous
 62
     7
370
    25
100
AcDbSpline
210
0.0
220
0.0
230
1.0
 70
     8
 71
     3
 72
     8
 73
     4
 74
     0
 42
0.00000001
 43
0.00000001
 40
0.0
 40
0.0
 40
0.0
 40
0.0
 40
1.0
 40
1.0
 40
1.0
 40
1.0
 10
-1.329672730350014
 20
-14.1850466797377
 30
0.0
 10
-1.341129730350013
 20
-14.2962776797377
 30
0.0
 10
-1.356297730350016
 20
-14.9167786797377
 30
0.0
 10
-1.363391730350015
 20
-15.5639386797377
 30
0.0
  0
SPLINE
  5
84
330
1F
100
AcDbEntity
  8
0
  6
Continuous
 62
     7
370
    25
100
AcDbSpline
210
0.0
220
0.0
230
1.0
 70
     8
 71
     3
 72
     8
 73
     4
 74
     0
 42
0.00000001
 43
0.00000001
 40
0.0
 40
0.0
 40
0.0
 40
0.0
 40
1.0
 40
1.0
 40
1.0
 40
1.0
 10
-0.3991757303500147
 20
-11.4546366797377
 30
0.0
 10
-0.9396167303500174
 20
-12.2662146797377
 30
0.0
 10
-1.215415730350017
 20
-13.0755116797377
 30
0.0
 10
-1.329672730350014
 20
-14.1850466797377
 30
0.0
  0
SPLINE
  5
85
330
1F
100
AcDbEntity
  8
0
  6
Continuous
 62
     7
370
    25
100
AcDbSpline
210
0.0
220
0.0
230
1.0
 70
     8
 71
     3
 72
     8
 73
     4
 74
     0
 42
0.00000001
 43
0.00000001
 40
0.0
 40
0.0
 40
0.0
 40
0.0
 40
1.0
 40
1.0
 40
1.0
 40
1.0
 10
1.273877269649982
 20
-9.7084576797377
 30
0.0
 10
0.5703102696499839
 20
-10.2515626797377
 30
0.0
 10
0.0183212696499846
 20
-10.8276796797377
 30
0.0
 10
-0.3991757303500147
 20
-11.4546366797377
 30
0.0
  0
SPLINE
  5
86
330
1F
100
AcDbEntity
  8
0
  6
Continuous
 62
     7
370
    25
100
AcDbSpline
210
0.0
220
0.0
230
1.0
 70
     8
 71
     3
 72
     8
 73
     4
 74
     0
 42
0.00000001
 43
0.00000001
 40
0.0
 40
0.0
 40
0.0
 40
0.0
 40
1.0
 40
1.0
 40
1.0
 40
1.0
 10
2.089831269649983
 20
-8.889972679737696
 30
0.0
 10
1.789108269649987
 20
-9.226633679737695
 30
0.0
 10
1.425303269649986
 20
-9.591567679737699
 30
0.0
 10
1.273877269649982
 20
-9.7084576797377
 30
0.0
  0
SPLINE
  5
87
330
1F
100
AcDbEntity
  8
0
  6
Continuous
 62
     7
370
    25
100
AcDbSpline
210
0.0
220
0.0
230
1.0
 70
     8
 71
     3
 72
     8
 73
     4
 74
     0
 42
0.00000001
 43
0.00000001
 40
0.0
 40
0.0
 40
0.0
 40
0.0
 40
1.0
 40
1.0
 40
1.0
 40
1.0
 10
4.830221269649986
 20
-3.736754679737698
 30
0.0
 10
4.351479269649988
 20
-5.647871679737699
 30
0.0
 10
3.418230269649984
 20
-7.402812679737698
 30
0.0
 10
2.089831269649983
 20
-8.889972679737696
 30
0.0
  0
SPLINE
  5
88
330
1F
100
AcDbEntity
  8
0
  6
Continuous
 62
     7
370
    25
100
AcDbSpline
210
0.0
220
0.0
230
1.0
 70
     8
 71
     3
 72
     8
 73
     4
 74
     0
 42
0.00000001
 43
0.00000001
 40
0.0
 40
0.0
 40
0.0
 40
0.0
 40
1.0
 40
1.0
 40
1.0
 40
1.0
 10
5.199032269649982
 20
-0.8236026797376963
 30
0.0
 10
5.198775269649985
 20
-1.746914679737695
 30
0.0
 10
5.066036269649985
 20
-2.795398679737698
 30
0.0
 10
4.830221269649986
 20
-3.736754679737698
 30
0.0
  0
SPLINE
  5
8B
330
1F
100
AcDbEntity
  8
0
  6
Continuous
 62
     7
370
    25
100
AcDbSpline
210
0.0
220
0.0
230
1.0
 70
     8
 71
     3
 72
     8
 73
     4
 74
     0
 42
0.00000001
 43
0.00000001
 40
0.0
 40
0.0
 40
0.0
 40
0.0
 40
1.0
 40
1.0
 40
1.0
 40
1.0
 10
3.360511269649987
 20
-0.5084826797376978
 30
0.0
 10
3.360511269649987
 20
-0.512425679737697
 30
0.0
 10
3.774179269649985
 20
-0.5156506797376961
 30
0.0
 10
4.279771269649984
 20
-0.5156506797376961
 30
0.0
  0
SPLINE
  5
8C
330
1F
100
AcDbEntity
  8
0
  6
Continuous
 62
     7
370
    25
100
AcDbSpline
210
0.0
220
0.0
230
1.0
 70
     8
 71
     3
 72
     8
 73
     4
 74
     0
 42
0.00000001
 43
0.00000001
 40
0.0
 40
0.0
 40
0.0
 40
0.0
 40
1.0
 40
1.0
 40
1.0
 40
1.0
 10
3.47739026964998
 20
-0.2464936797376971
 30
0.0
 10
3.413107269649988
 20
-0.3866466797376976
 30
0.0
 10
3.360511269649987
 20
-0.5045416797376974
 30
0.0
 10
3.360511269649987
 20
-0.5084826797376978
 30
0.0
  0
SPLINE
  5
8D
330
1F
100
AcDbEntity
  8
0
  6
Continuous
 62
     7
370
    25
100
AcDbSpline
210
0.0
220
0.0
230
1.0
 70
     8
 71
     3
 72
     8
 73
     4
 74
     0
 42
0.00000001
 43
0.00000001
 40
0.0
 40
0.0
 40
0.0
 40
0.0
 40
1.0
 40
1.0
 40
1.0
 40
1.0
 10
4.492581269649985
 20
3.514259320262305
 30
0.0
 10
4.351479269649988
 20
2.151237320262303
 30
0.0
 10
4.028679269649984
 20
0.9554313202623024
 30
0.0
 10
3.47739026964998
 20
-0.2464936797376971
 30
0.0
  0
SPLINE
  5
8E
330
1F
100
AcDbEntity
  8
0
  6
Continuous
 62
     7
370
    25
100
AcDbSpline
210
0.0
220
0.0
230
1.0
 70
     8
 71
     3
 72
     8
 73
     4
 74
     0
 42
0.00000001
 43
0.00000001
 40
0.0
 40
0.0
 40
0.0
 40
0.0
 40
1.0
 40
1.0
 40
1.0
 40
1.0
 10
4.531742269649981
 20
4.432344320262301
 30
0.0
 10
4.525842269649985
 20
4.058474320262302
 30
0.0
 10
4.509702269649988
 20
3.679517320262303
 30
0.0
 10
4.492581269649985
 20
3.514259320262305
 30
0.0
  0
SPLINE
  5
91
330
1F
100
AcDbEntity
  8
0
  6
Continuous
 62
     7
370
    25
100
AcDbSpline
210
0.0
220
0.0
230
1.0
 70
     8
 71
     3
 72
     8
 73
     4
 74
     0
 42
0.00000001
 43
0.00000001
 40
0.0
 40
0.0
 40
0.0
 40
0.0
 40
1.0
 40
1.0
 40
1.0
 40
1.0
 10
5.359874269649984
 20
5.539839320262301
 30
0.0
 10
5.149544269649989
 20
5.340088320262303
 30
0.0
 10
4.853745269649982
 20
5.161413320262306
 30
0.0
 10
4.617602269649988
 20
5.091470320262303
 30
0.0
  0
SPLINE
  5
92
330
1F
100
AcDbEntity
  8
0
  6
Continuous
 62
     7
370
    25
100
AcDbSpline
210
0.0
220
0.0
230
1.0
 70
     8
 71
     3
 72
     8
 73
     4
 74
     0
 42
0.00000001
 43
0.00000001
 40
0.0
 40
0.0
 40
0.0
 40
0.0
 40
1.0
 40
1.0
 40
1.0
 40
1.0
 10
5.638301269649988
 20
8.110790320262302
 30
0.0
 10
6.184726269649985
 20
7.300004320262302
 30
0.0
 10
6.066812269649987
 20
6.211214320262302
 30
0.0
 10
5.359874269649984
 20
5.539839320262301
 30
0.0
  0
SPLINE
  5
93
330
1F
100
AcDbEntity
  8
0
  6
Continuous
 62
     7
370
    25
100
AcDbSpline
210
0.0
220
0.0
230
1.0
 70
     8
 71
     3
 72
     8
 73
     4
 74
     0
 42
0.00000001
 43
0.00000001
 40
0.0
 40
0.0
 40
0.0
 40
0.0
 40
1.0
 40
1.0
 40
1.0
 40
1.0
 10
4.894589269649988
 20
8.768481320262305
 30
0.0
 10
5.170472269649985
 20
8.626997320262307
 30
0.0
 10
5.467335269649986
 20
8.3644713202623
 30
0.0
 10
5.638301269649988
 20
8.110790320262302
 30
0.0
  0
SPLINE
  5
94
330
1F
100
AcDbEntity
  8
0
  6
Continuous
 62
     7
370
    25
100
AcDbSpline
210
0.0
220
0.0
230
1.0
 70
     8
 71
     3
 72
     8
 73
     4
 74
     0
 42
0.00000001
 43
0.00000001
 40
0.0
 40
0.0
 40
0.0
 40
0.0
 40
1.0
 40
1.0
 40
1.0
 40
1.0
 10
2.221768269649989
 20
7.9394563202623
 30
0.0
 10
2.733993269649987
 20
8.8933163202623
 30
0.0
 10
3.928643269649986
 20
9.263859320262302
 30
0.0
 10
4.894589269649988
 20
8.768481320262305
 30
0.0
  0
SPLINE
  5
95
330
1F
100
AcDbEntity
  8
0
  6
Continuous
 62
     7
370
    25
100
AcDbSpline
210
0.0
220
0.0
230
1.0
 70
     8
 71
     3
 72
     8
 73
     4
 74
     0
 42
0.00000001
 43
0.00000001
 40
0.0
 40
0.0
 40
0.0
 40
0.0
 40
1.0
 40
1.0
 40
1.0
 40
1.0
 10
1.993880269649986
 20
6.976317320262305
 30
0.0
 10
1.993350269649988
 20
7.373231320262303
 30
0.0
 10
2.052720269649984
 20
7.624658320262302
 30
0.0
 10
2.221768269649989
 20
7.9394563202623
 30
0.0
  0
SPLINE
  5
96
330
1F
100
AcDbEntity
  8
0
  6
Continuous
 62
     7
370
    25
100
AcDbSpline
210
0.0
220
0.0
230
1.0
 70
     8
 71
     3
 72
     8
 73
     4
 74
     0
 42
0.00000001
 43
0.00000001
 40
0.0
 40
0.0
 40
0.0
 40
0.0
 40
1.0
 40
1.0
 40
1.0
 40
1.0
 10
2.042214269649984
 20
6.502396320262303
 30
0.0
 10
2.000304269649984
 20
6.659827320262303
 30
0.0
 10
1.994300269649987
 20
6.718691320262302
 30
0.0
 10
1.993880269649986
 20
6.976317320262305
 30
0.0
  0
SPLINE
  5
97
330
1F
100
AcDbEntity
  8
0
  6
Continuous
 62
     7
370
    25
100
AcDbSpline
210
0.0
220
0.0
230
1.0
 70
     8
 71
     3
 72
     8
 73
     4
 74
     0
 42
0.00000001
 43
0.00000001
 40
0.0
 40
0.0
 40
0.0
 40
0.0
 40
1.0
 40
1.0
 40
1.0
 40
1.0
 10
2.616354269649984
 20
5.536592320262303
 30
0.0
 10
2.337528269649988
 20
5.800197320262303
 30
0.0
 10
2.141255269649985
 20
6.130363320262303
 30
0.0
 10
2.042214269649984
 20
6.502396320262303
 30
0.0
  0
SPLINE
  5
98
330
1F
100
AcDbEntity
  8
0
  6
Continuous
 62
     7
370
    25
100
AcDbSpline
210
0.0
220
0.0
230
1.0
 70
     8
 71
     3
 72
     8
 73
     4
 74
     0
 42
0.00000001
 43
0.00000001
 40
0.0
 40
0.0
 40
0.0
 40
0.0
 40
1.0
 40
1.0
 40
1.0
 40
1.0
 10
3.893681269649986
 20
4.996434320262304
 30
0.0
 10
3.420169269649984
 20
5.011939320262303
 30
0.0
 10
2.969898269649982
 20
5.202349320262297
 30
0.0
 10
2.616354269649984
 20
5.536592320262303
 30
0.0
  0
SPLINE
  5
99
330
1F
100
AcDbEntity
  8
0
  6
Continuous
 62
     7
370
    25
100
AcDbSpline
210
0.0
220
0.0
230
1.0
 70
     8
 71
     3
 72
     8
 73
     4
 74
     0
 42
0.00000001
 43
0.00000001
 40
0.0
 40
0.0
 40
0.0
 40
0.0
 40
1.0
 40
1.0
 40
1.0
 40
1.0
 10
4.080836269649987
 20
4.963138320262302
 30
0.0
 10
4.071285269649984
 20
4.984204320262302
 30
0.0
 10
4.027105269649986
 20
4.992066320262299
 30
0.0
 10
3.893681269649986
 20
4.996434320262304
 30
0.0
  0
SPLINE
  5
9A
330
1F
100
AcDbEntity
  8
0
  6
Continuous
 62
     7
370
    25
100
AcDbSpline
210
0.0
220
0.0
230
1.0
 70
     8
 71
     3
 72
     8
 73
     4
 74
     0
 42
0.00000001
 43
0.00000001
 40
0.0
 40
0.0
 40
0.0
 40
0.0
 40
1.0
 40
1.0
 40
1.0
 40
1.0
 10
4.077000269649987
 20
4.097132320262306
 30
0.0
 10
4.098087269649983
 20
4.515131320262308
 30
0.0
 10
4.099886269649986
 20
4.921096320262302
 30
0.0
 10
4.080836269649987
 20
4.963138320262302
 30
0.0
  0
SPLINE
  5
9B
330
1F
100
AcDbEntity
  8
0
  6
Continuous
 62
     7
370
    25
100
AcDbSpline
210
0.0
220
0.0
230
1.0
 70
     8
 71
     3
 72
     8
 73
     4
 74
     0
 42
0.00000001
 43
0.00000001
 40
0.0
 40
0.0
 40
0.0
 40
0.0
 40
1.0
 40
1.0
 40
1.0
 40
1.0
 10
3.004755269649988
 20
-0.1847186797376971
 30
0.0
 10
3.654958269649983
 20
1.198452320262302
 30
0.0
 10
4.000332269649985
 20
2.577651320262303
 30
0.0
 10
4.077000269649987
 20
4.097132320262306
 30
0.0
  0
SPLINE
  5
A0
330
1F
100
AcDbEntity
  8
0
  6
Continuous
 62
     7
370
    25
100
AcDbSpline
210
0.0
220
0.0
230
1.0
 70
     8
 71
     3
 72
     8
 73
     4
 74
     0
 42
0.00000001
 43
0.00000001
 40
0.0
 40
0.0
 40
0.0
 40
0.0
 40
1.0
 40
1.0
 40
1.0
 40
1.0
 10
0.8171562696499858
 20
0.5477593202623046
 30
0.0
 10
1.088970269649985
 20
0.3027113202623034
 30
0.0
 10
1.281283269649984
 20
0.0506623202623027
 30
0.0
 10
1.442837269649985
 20
-0.2722806797376999
 30
0.0
  0
SPLINE
  5
A1
330
1F
100
AcDbEntity
  8
0
  6
Continuous
 62
     7
370
    25
100
AcDbSpline
210
0.0
220
0.0
230
1.0
 70
     8
 71
     3
 72
     8
 73
     4
 74
     0
 42
0.00000001
 43
0.00000001
 40
0.0
 40
0.0
 40
0.0
 40
0.0
 40
1.0
 40
1.0
 40
1.0
 40
1.0
 10
0.7346272696499845
 20
0.6312523202623016
 30
0.0
 10
0.731320269649987
 20
0.6292153202623018
 30
0.0
 10
0.7684702696499867
 20
0.5916513202623048
 30
0.0
 10
0.8171562696499858
 20
0.5477593202623046
 30
0.0
  0
SPLINE
  5
A2
330
1F
100
AcDbEntity
  8
0
  6
Continuous
 62
     7
370
    25
100
AcDbSpline
210
0.0
220
0.0
230
1.0
 70
     8
 71
     3
 72
     8
 73
     4
 74
     0
 42
0.00000001
 43
0.00000001
 40
0.0
 40
0.0
 40
0.0
 40
0.0
 40
1.0
 40
1.0
 40
1.0
 40
1.0
 10
0.8693182696499837
 20
0.667814320262302
 30
0.0
 10
0.7985342696499864
 20
0.6497353202623013
 30
0.0
 10
0.7379242696499838
 20
0.6332823202623017
 30
0.0
 10
0.7346272696499845
 20
0.6312523202623016
 30
0.0
  0
SPLINE
  5
A3
330
1F
100
AcDbEntity
  8
0
  6
Continuous
 62
     7
370
    25
100
AcDbSpline
210
0.0
220
0.0
230
1.0
 70
     8
 71
     3
 72
     8
 73
     4
 74
     0
 42
0.00000001
 43
0.00000001
 40
0.0
 40
0.0
 40
0.0
 40
0.0
 40
1.0
 40
1.0
 40
1.0
 40
1.0
 10
1.783838269649986
 20
1.102244320262305
 30
0.0
 10
1.518662269649987
 20
0.9102803202623022
 30
0.0
 10
1.169819269649985
 20
0.7445663202623048
 30
0.0
 10
0.8693182696499837
 20
0.667814320262302
 30
0.0
  0
SPLINE
  5
A4
330
1F
100
AcDbEntity
  8
0
  6
Continuous
 62
     7
370
    25
100
AcDbSpline
210
0.0
220
0.0
230
1.0
 70
     8
 71
     3
 72
     8
 73
     4
 74
     0
 42
0.00000001
 43
0.00000001
 40
0.0
 40
0.0
 40
0.0
 40
0.0
 40
1.0
 40
1.0
 40
1.0
 40
1.0
 10
2.336552269649989
 20
1.685086320262302
 30
0.0
 10
2.206576269649985
 20
1.488486320262304
 30
0.0
 10
1.963937269649982
 20
1.232620320262303
 30
0.0
 10
1.783838269649986
 20
1.102244320262305
 30
0.0
  0
SPLINE
  5
A5
330
1F
100
AcDbEntity
  8
0
  6
Continuous
 62
     7
370
    25
100
AcDbSpline
210
0.0
220
0.0
230
1.0
 70
     8
 71
     3
 72
     8
 73
     4
 74
     0
 42
0.00000001
 43
0.00000001
 40
0.0
 40
0.0
 40
0.0
 40
0.0
 40
1.0
 40
1.0
 40
1.0
 40
1.0
 10
2.692194269649985
 20
2.536290320262303
 30
0.0
 10
2.608266269649981
 20
2.184606320262305
 30
0.0
 10
2.507767269649984
 20
1.944065320262305
 30
0.0
 10
2.336552269649989
 20
1.685086320262302
 30
0.0
  0
SPLINE
  5
A6
330
1F
100
AcDbEntity
  8
0
  6
Continuous
 62
     7
370
    25
100
AcDbSpline
210
0.0
220
0.0
230
1.0
 70
     8
 71
     3
 72
     8
 73
     4
 74
     0
 42
0.00000001
 43
0.00000001
 40
0.0
 40
0.0
 40
0.0
 40
0.0
 40
1.0
 40
1.0
 40
1.0
 40
1.0
 10
2.727273269649985
 20
3.568146320262304
 30
0.0
 10
2.772755269649985
 20
3.291462320262305
 30
0.0
 10
2.756202269649982
 20
2.804494320262304
 30
0.0
 10
2.692194269649985
 20
2.536290320262303
 30
0.0
  0
SPLINE
  5
A7
330
1F
100
AcDbEntity
  8
0
  6
Continuous
 62
     7
370
    25
100
AcDbSpline
210
0.0
220
0.0
230
1.0
 70
     8
 71
     3
 72
     8
 73
     4
 74
     0
 42
0.00000001
 43
0.00000001
 40
0.0
 40
0.0
 40
0.0
 40
0.0
 40
1.0
 40
1.0
 40
1.0
 40
1.0
 10
2.48494126964998
 20
4.297202320262302
 30
0.0
 10
2.590280269649983
 20
4.103939320262303
 30
0.0
 10
2.687064269649979
 20
3.812773320262301
 30
0.0
 10
2.727273269649985
 20
3.568146320262304
 30
0.0
  0
SPLINE
  5
A8
330
1F
100
AcDbEntity
  8
0
  6
Continuous
 62
     7
370
    25
100
AcDbSpline
210
0.0
220
0.0
230
1.0
 70
     8
 71
     3
 72
     8
 73
     4
 74
     0
 42
0.00000001
 43
0.00000001
 40
0.0
 40
0.0
 40
0.0
 40
0.0
 40
1.0
 40
1.0
 40
1.0
 40
1.0
 10
0.8740862696499825
 20
5.591124320262299
 30
0.0
 10
1.514449269649984
 20
5.397311320262305
 30
0.0
 10
2.174140269649981
 20
4.867413320262304
 30
0.0
 10
2.48494126964998
 20
4.297202320262302
 30
0.0
  0
SPLINE
  5
A9
330
1F
100
AcDbEntity
  8
0
  6
Continuous
 62
     7
370
    25
100
AcDbSpline
210
0.0
220
0.0
230
1.0
 70
     8
 71
     3
 72
     8
 73
     4
 74
     0
 42
0.00000001
 43
0.00000001
 40
0.0
 40
0.0
 40
0.0
 40
0.0
 40
1.0
 40
1.0
 40
1.0
 40
1.0
 10
0.7316002696499853
 20
5.645697320262301
 30
0.0
 10
0.731785269649985
 20
5.639370320262301
 30
0.0
 10
0.7958122696499828
 20
5.614814320262306
 30
0.0
 10
0.8740862696499825
 20
5.591124320262299
 30
0.0
  0
SPLINE
  5
AA
330
1F
100
AcDbEntity
  8
0
  6
Continuous
 62
     7
370
    25
100
AcDbSpline
210
0.0
220
0.0
230
1.0
 70
     8
 71
     3
 72
     8
 73
     4
 74
     0
 42
0.00000001
 43
0.00000001
 40
0.0
 40
0.0
 40
0.0
 40
0.0
 40
1.0
 40
1.0
 40
1.0
 40
1.0
 10
0.849062269649984
 20
5.788384320262304
 30
0.0
 10
0.7843632696499826
 20
5.716231320262305
 30
0.0
 10
0.7315052696499833
 20
5.652022320262303
 30
0.0
 10
0.7316002696499853
 20
5.645697320262301
 30
0.0
  0
SPLINE
  5
AB
330
1F
100
AcDbEntity
  8
0
  6
Continuous
 62
     7
370
    25
100
AcDbSpline
210
0.0
220
0.0
230
1.0
 70
     8
 71
     3
 72
     8
 73
     4
 74
     0
 42
0.00000001
 43
0.00000001
 40
0.0
 40
0.0
 40
0.0
 40
0.0
 40
1.0
 40
1.0
 40
1.0
 40
1.0
 10
1.478797269649987
 20
7.037314320262306
 30
0.0
 10
1.390429269649982
 20
6.583242320262299
 30
0.0
 10
1.170266269649983
 20
6.146599320262306
 30
0.0
 10
0.849062269649984
 20
5.788384320262304
 30
0.0
  0
SPLINE
  5
AC
330
1F
100
AcDbEntity
  8
0
  6
Continuous
 62
     7
370
    25
100
AcDbSpline
210
0.0
220
0.0
230
1.0
 70
     8
 71
     3
 72
     8
 73
     4
 74
     0
 42
0.00000001
 43
0.00000001
 40
0.0
 40
0.0
 40
0.0
 40
0.0
 40
1.0
 40
1.0
 40
1.0
 40
1.0
 10
1.478268269649988
 20
7.877191320262302
 30
0.0
 10
1.519188269649987
 20
7.673730320262299
 30
0.0
 10
1.519490269649981
 20
7.2460893202623
 30
0.0
 10
1.478797269649987
 20
7.037314320262306
 30
0.0
  0
SPLINE
  5
AD
330
1F
100
AcDbEntity
  8
0
  6
Continuous
 62
     7
370
    25
100
AcDbSpline
210
0.0
220
0.0
230
1.0
 70
     8
 71
     3
 72
     8
 73
     4
 74
     0
 42
0.00000001
 43
0.00000001
 40
0.0
 40
0.0
 40
0.0
 40
0.0
 40
1.0
 40
1.0
 40
1.0
 40
1.0
 10
-0.1050357303500164
 20
9.760044320262304
 30
0.0
 10
0.7046342696499854
 20
9.446290320262305
 30
0.0
 10
1.306683269649986
 20
8.7303393202623
 30
0.0
 10
1.478268269649988
 20
7.877191320262302
 30
0.0
  0
SPLINE
  5
AE
330
1F
100
AcDbEntity
  8
0
  6
Continuous
 62
     7
370
    25
100
AcDbSpline
210
0.0
220
0.0
230
1.0
 70
     8
 71
     3
 72
     8
 73
     4
 74
     0
 42
0.00000001
 43
0.00000001
 40
0.0
 40
0.0
 40
0.0
 40
0.0
 40
1.0
 40
1.0
 40
1.0
 40
1.0
 10
-1.033487730350016
 20
9.917145320262298
 30
0.0
 10
-0.5855937303500154
 20
9.917395320262298
 30
0.0
 10
-0.4533467303500169
 20
9.8950183202623
 30
0.0
 10
-0.1050357303500164
 20
9.760044320262304
 30
0.0
  0
SPLINE
  5
AF
330
1F
100
AcDbEntity
  8
0
  6
Continuous
 62
     7
370
    25
100
AcDbSpline
210
0.0
220
0.0
230
1.0
 70
     8
 71
     3
 72
     8
 73
     4
 74
     0
 42
0.00000001
 43
0.00000001
 40
0.0
 40
0.0
 40
0.0
 40
0.0
 40
1.0
 40
1.0
 40
1.0
 40
1.0
 10
-1.566660730350014
 20
9.884319320262298
 30
0.0
 10
-1.457201730350018
 20
9.910203320262303
 30
0.0
 10
-1.347267730350016
 20
9.9169703202623
 30
0.0
 10
-1.033487730350016
 20
9.917145320262298
 30
0.0
  0
SPLINE
  5
B0
330
1F
100
AcDbEntity
  8
0
  6
Continuous
 62
     7
370
    25
100
AcDbSpline
210
0.0
220
0.0
230
1.0
 70
     8
 71
     3
 72
     8
 73
     4
 74
     0
 42
0.00000001
 43
0.00000001
 40
0.0
 40
0.0
 40
0.0
 40
0.0
 40
1.0
 40
1.0
 40
1.0
 40
1.0
 10
-1.761560730350015
 20
9.841503320262305
 30
0.0
 10
-1.730204730350016
 20
9.847117320262305
 30
0.0
 10
-1.642497730350016
 20
9.866387320262307
 30
0.0
 10
-1.566660730350014
 20
9.884319320262298
 30
0.0
  0
SPLINE
  5
B3
330
1F
100
AcDbEntity
  8
0
  6
Continuous
 62
     7
370
    25
100
AcDbSpline
210
0.0
220
0.0
230
1.0
 70
     8
 71
     3
 72
     8
 73
     4
 74
     0
 42
0.00000001
 43
0.00000001
 40
0.0
 40
0.0
 40
0.0
 40
0.0
 40
1.0
 40
1.0
 40
1.0
 40
1.0
 10
-2.143819730350018
 20
10.9064023202623
 30
0.0
 10
-1.990170730350016
 20
10.6370483202623
 30
0.0
 10
-1.860477730350016
 20
10.2430663202623
 30
0.0
 10
-1.831404730350015
 20
9.957354320262304
 30
0.0
  0
SPLINE
  5
B4
330
1F
100
AcDbEntity
  8
0
  6
Continuous
 62
     7
370
    25
100
AcDbSpline
210
0.0
220
0.0
230
1.0
 70
     8
 71
     3
 72
     8
 73
     4
 74
     0
 42
0.00000001
 43
0.00000001
 40
0.0
 40
0.0
 40
0.0
 40
0.0
 40
1.0
 40
1.0
 40
1.0
 40
1.0
 10
-3.847225730350019
 20
12.17154432026231
 30
0.0
 10
-3.123743730350018
 20
12.0194163202623
 30
0.0
 10
-2.525089730350018
 20
11.5747893202623
 30
0.0
 10
-2.143819730350018
 20
10.9064023202623
 30
0.0
  0
SPLINE
  5
B5
330
1F
100
AcDbEntity
  8
0
  6
Continuous
 62
     7
370
    25
100
AcDbSpline
210
0.0
220
0.0
230
1.0
 70
     8
 71
     3
 72
     8
 73
     4
 74
     0
 42
0.00000001
 43
0.00000001
 40
0.0
 40
0.0
 40
0.0
 40
0.0
 40
1.0
 40
1.0
 40
1.0
 40
1.0
 10
-4.774214730350016
 20
12.18161232026231
 30
0.0
 10
-4.531239730350016
 20
12.2295573202623
 30
0.0
 10
-4.100893730350014
 20
12.2248843202623
 30
0.0
 10
-3.847225730350019
 20
12.17154432026231
 30
0.0
  0
SPLINE
  5
B6
330
1F
100
AcDbEntity
  8
0
  6
Continuous
 62
     7
370
    25
100
AcDbSpline
210
0.0
220
0.0
230
1.0
 70
     8
 71
     3
 72
     8
 73
     4
 74
     0
 42
0.00000001
 43
0.00000001
 40
0.0
 40
0.0
 40
0.0
 40
0.0
 40
1.0
 40
1.0
 40
1.0
 40
1.0
 10
-6.103424730350016
 20
11.50135532026231
 30
0.0
 10
-5.736744730350019
 20
11.8508163202623
 30
0.0
 10
-5.288776730350015
 20
12.0800753202623
 30
0.0
 10
-4.774214730350016
 20
12.18161232026231
 30
0.0
  0
SPLINE
  5
B7
330
1F
100
AcDbEntity
  8
0
  6
Continuous
 62
     7
370
    25
100
AcDbSpline
210
0.0
220
0.0
230
1.0
 70
     8
 71
     3
 72
     8
 73
     4
 74
     0
 42
0.00000001
 43
0.00000001
 40
0.0
 40
0.0
 40
0.0
 40
0.0
 40
1.0
 40
1.0
 40
1.0
 40
1.0
 10
-6.839196730350019
 20
10.2261063202623
 30
0.0
 10
-6.711174730350017
 20
10.7398533202623
 30
0.0
 10
-6.477517730350015
 20
11.1448303202623
 30
0.0
 10
-6.103424730350016
 20
11.50135532026231
 30
0.0
  0
SPLINE
  5
BE
330
1F
100
AcDbEntity
  8
0
  6
Continuous
 62
     7
370
    25
100
AcDbSpline
210
0.0
220
0.0
230
1.0
 70
     8
 71
     3
 72
     8
 73
     4
 74
     0
 42
0.00000001
 43
0.00000001
 40
0.0
 40
0.0
 40
0.0
 40
0.0
 40
1.0
 40
1.0
 40
1.0
 40
1.0
 10
-8.525459730350018
 20
11.94792932026231
 30
0.0
 10
-7.827285730350017
 20
11.6010393202623
 30
0.0
 10
-7.347030730350017
 20
10.9917793202623
 30
0.0
 10
-7.149937730350018
 20
10.2029193202623
 30
0.0
  0
SPLINE
  5
BF
330
1F
100
AcDbEntity
  8
0
  6
Continuous
 62
     7
370
    25
100
AcDbSpline
210
0.0
220
0.0
230
1.0
 70
     8
 71
     3
 72
     8
 73
     4
 74
     0
 42
0.00000001
 43
0.00000001
 40
0.0
 40
0.0
 40
0.0
 40
0.0
 40
1.0
 40
1.0
 40
1.0
 40
1.0
 10
-11.44966473035002
 20
11.4612533202623
 30
0.0
 10
-10.67429673035001
 20
12.2493183202623
 30
0.0
 10
-9.519032730350016
 20
12.4415893202623
 30
0.0
 10
-8.525459730350018
 20
11.94792932026231
 30
0.0
  0
SPLINE
  5
C0
330
1F
100
AcDbEntity
  8
0
  6
Continuous
 62
     7
370
    25
100
AcDbSpline
210
0.0
220
0.0
230
1.0
 70
     8
 71
     3
 72
     8
 73
     4
 74
     0
 42
0.00000001
 43
0.00000001
 40
0.0
 40
0.0
 40
0.0
 40
0.0
 40
1.0
 40
1.0
 40
1.0
 40
1.0
 10
-12.17484873035002
 20
9.768728320262307
 30
0.0
 10
-12.17453073035002
 20
10.33459632026231
 30
0.0
 10
-11.87858173035002
 20
11.02531032026231
 30
0.0
 10
-11.44966473035002
 20
11.4612533202623
 30
0.0
  0
SPLINE
  5
C3
330
1F
100
AcDbEntity
  8
0
  6
Continuous
 62
     7
370
    25
100
AcDbSpline
210
0.0
220
0.0
230
1.0
 70
     8
 71
     3
 72
     8
 73
     4
 74
     0
 42
0.00000001
 43
0.00000001
 40
0.0
 40
0.0
 40
0.0
 40
0.0
 40
1.0
 40
1.0
 40
1.0
 40
1.0
 10
-14.12339873035002
 20
9.495230320262303
 30
0.0
 10
-13.58767773035002
 20
9.765015320262298
 30
0.0
 10
-12.92712473035001
 20
9.833284320262301
 30
0.0
 10
-12.33658173035002
 20
9.679901320262301
 30
0.0
  0
SPLINE
  5
C4
330
1F
100
AcDbEntity
  8
0
  6
Continuous
 62
     7
370
    25
100
AcDbSpline
210
0.0
220
0.0
230
1.0
 70
     8
 71
     3
 72
     8
 73
     4
 74
     0
 42
0.00000001
 43
0.00000001
 40
0.0
 40
0.0
 40
0.0
 40
0.0
 40
1.0
 40
1.0
 40
1.0
 40
1.0
 10
-15.49644873035002
 20
7.602082320262306
 30
0.0
 10
-15.36684073035002
 20
8.4189063202623
 30
0.0
 10
-14.85251673035002
 20
9.128052320262308
 30
0.0
 10
-14.12339873035002
 20
9.495230320262303
 30
0.0
  0
SPLINE
  5
C5
330
1F
100
AcDbEntity
  8
0
  6
Continuous
 62
     7
370
    25
100
AcDbSpline
210
0.0
220
0.0
230
1.0
 70
     8
 71
     3
 72
     8
 73
     4
 74
     0
 42
0.00000001
 43
0.00000001
 40
0.0
 40
0.0
 40
0.0
 40
0.0
 40
1.0
 40
1.0
 40
1.0
 40
1.0
 10
-15.46883173035001
 20
6.672960320262302
 30
0.0
 10
-15.52117573035002
 20
6.8975323202623
 30
0.0
 10
-15.53491273035002
 20
7.359678320262304
 30
0.0
 10
-15.49644873035002
 20
7.602082320262306
 30
0.0
  0
SPLINE
  5
C6
330
1F
100
AcDbEntity
  8
0
  6
Continuous
 62
     7
370
    25
100
AcDbSpline
210
0.0
220
0.0
230
1.0
 70
     8
 71
     3
 72
     8
 73
     4
 74
     0
 42
0.00000001
 43
0.00000001
 40
0.0
 40
0.0
 40
0.0
 40
0.0
 40
1.0
 40
1.0
 40
1.0
 40
1.0
 10
-15.03230473035002
 20
5.710475320262303
 30
0.0
 10
-15.23154673035001
 20
5.979604320262302
 30
0.0
 10
-15.38723373035002
 20
6.322872320262303
 30
0.0
 10
-15.46883173035001
 20
6.672960320262302
 30
0.0
  0
SPLINE
  5
C7
330
1F
100
AcDbEntity
  8
0
  6
Continuous
 62
     7
370
    25
100
AcDbSpline
210
0.0
220
0.0
230
1.0
 70
     8
 71
     3
 72
     8
 73
     4
 74
     0
 42
0.00000001
 43
0.00000001
 40
0.0
 40
0.0
 40
0.0
 40
0.0
 40
1.0
 40
1.0
 40
1.0
 40
1.0
 10
-14.91763473035002
 20
5.542890320262305
 30
0.0
 10
-14.91444373035002
 20
5.545560320262301
 30
0.0
 10
-14.96604473035002
 20
5.620974320262303
 30
0.0
 10
-15.03230473035002
 20
5.710475320262303
 30
0.0
  0
SPLINE
  5
C8
330
1F
100
AcDbEntity
  8
0
  6
Continuous
 62
     7
370
    25
100
AcDbSpline
210
0.0
220
0.0
230
1.0
 70
     8
 71
     3
 72
     8
 73
     4
 74
     0
 42
0.00000001
 43
0.00000001
 40
0.0
 40
0.0
 40
0.0
 40
0.0
 40
1.0
 40
1.0
 40
1.0
 40
1.0
 10
-15.02455473035002
 20
5.505994320262303
 30
0.0
 10
-14.96893973035002
 20
5.523618320262297
 30
0.0
 10
-14.92082573035002
 20
5.540220320262302
 30
0.0
 10
-14.91763473035002
 20
5.542890320262305
 30
0.0
  0
SPLINE
  5
C9
330
1F
100
AcDbEntity
  8
0
  6
Continuous
 62
     7
370
    25
100
AcDbSpline
210
0.0
220
0.0
230
1.0
 70
     8
 71
     3
 72
     8
 73
     4
 74
     0
 42
0.00000001
 43
0.00000001
 40
0.0
 40
0.0
 40
0.0
 40
0.0
 40
1.0
 40
1.0
 40
1.0
 40
1.0
 10
-15.31372273035002
 20
5.382796320262298
 30
0.0
 10
-15.21029573035002
 20
5.432932320262304
 30
0.0
 10
-15.08016973035002
 20
5.488371320262302
 30
0.0
 10
-15.02455473035002
 20
5.505994320262303
 30
0.0
  0
SPLINE
  5
CA
330
1F
100
AcDbEntity
  8
0
  6
Continuous
 62
     7
370
    25
100
AcDbSpline
210
0.0
220
0.0
230
1.0
 70
     8
 71
     3
 72
     8
 73
     4
 74
     0
 42
0.00000001
 43
0.00000001
 40
0.0
 40
0.0
 40
0.0
 40
0.0
 40
1.0
 40
1.0
 40
1.0
 40
1.0
 10
-16.72883573035001
 20
2.977535320262299
 30
0.0
 10
-16.77965273035002
 20
3.991699320262304
 30
0.0
 10
-16.21955273035001
 20
4.943700320262298
 30
0.0
 10
-15.31372273035002
 20
5.382796320262298
 30
0.0
  0
SPLINE
  5
CB
330
1F
100
AcDbEntity
  8
0
  6
Continuous
 62
     7
370
    25
100
AcDbSpline
210
0.0
220
0.0
230
1.0
 70
     8
 71
     3
 72
     8
 73
     4
 74
     0
 42
0.00000001
 43
0.00000001
 40
0.0
 40
0.0
 40
0.0
 40
0.0
 40
1.0
 40
1.0
 40
1.0
 40
1.0
 10
-16.46705873035001
 20
1.964890320262303
 30
0.0
 10
-16.61490073035002
 20
2.258465320262304
 30
0.0
 10
-16.71153573035001
 20
2.632283320262302
 30
0.0
 10
-16.72883573035001
 20
2.977535320262299
 30
0.0
  0
SPLINE
  5
CC
330
1F
100
AcDbEntity
  8
0
  6
Continuous
 62
     7
370
    25
100
AcDbSpline
210
0.0
220
0.0
230
1.0
 70
     8
 71
     3
 72
     8
 73
     4
 74
     0
 42
0.00000001
 43
0.00000001
 40
0.0
 40
0.0
 40
0.0
 40
0.0
 40
1.0
 40
1.0
 40
1.0
 40
1.0
 10
-14.89991773035002
 20
0.6570653202623046
 30
0.0
 10
-15.55328473035001
 20
0.839087320262305
 30
0.0
 10
-16.15153473035001
 20
1.338344320262304
 30
0.0
 10
-16.46705873035001
 20
1.964890320262303
 30
0.0
  0
SPLINE
  5
CD
330
1F
100
AcDbEntity
  8
0
  6
Continuous
 62
     7
370
    25
100
AcDbSpline
210
0.0
220
0.0
230
1.0
 70
     8
 71
     3
 72
     8
 73
     4
 74
     0
 42
0.00000001
 43
0.00000001
 40
0.0
 40
0.0
 40
0.0
 40
0.0
 40
1.0
 40
1.0
 40
1.0
 40
1.0
 10
-14.74891573035002
 20
0.6040053202623006
 30
0.0
 10
-14.74898973035002
 20
0.610071320262303
 30
0.0
 10
-14.81694273035002
 20
0.633949320262301
 30
0.0
 10
-14.89991773035002
 20
0.6570653202623046
 30
0.0
  0
SPLINE
  5
CE
330
1F
100
AcDbEntity
  8
0
  6
Continuous
 62
     7
370
    25
100
AcDbSpline
210
0.0
220
0.0
230
1.0
 70
     8
 71
     3
 72
     8
 73
     4
 74
     0
 42
0.00000001
 43
0.00000001
 40
0.0
 40
0.0
 40
0.0
 40
0.0
 40
1.0
 40
1.0
 40
1.0
 40
1.0
 10
-14.86115773035002
 20
0.4952263202623042
 30
0.0
 10
-14.79934873035002
 20
0.5489873202623001
 30
0.0
 10
-14.74883973035002
 20
0.5979373202623026
 30
0.0
 10
-14.74891573035002
 20
0.6040053202623006
 30
0.0
  0
SPLINE
  5
CF
330
1F
100
AcDbEntity
  8
0
  6
Continuous
 62
     7
370
    25
100
AcDbSpline
210
0.0
220
0.0
230
1.0
 70
     8
 71
     3
 72
     8
 73
     4
 74
     0
 42
0.00000001
 43
0.00000001
 40
0.0
 40
0.0
 40
0.0
 40
0.0
 40
1.0
 40
1.0
 40
1.0
 40
1.0
 10
-15.47029273035002
 20
-0.3266846797376974
 30
0.0
 10
-15.31669373035002
 20
-0.0051386797376984
 30
0.0
 10
-15.09949973035001
 20
0.2879233202623052
 30
0.0
 10
-14.86115773035002
 20
0.4952263202623042
 30
0.0
  0
SPLINE
  5
D3
330
1F
100
AcDbEntity
  8
0
  6
Continuous
 62
     7
370
    25
100
AcDbSpline
210
0.0
220
0.0
230
1.0
 70
     8
 71
     3
 72
     8
 73
     4
 74
     0
 42
0.00000001
 43
0.00000001
 40
0.0
 40
0.0
 40
0.0
 40
0.0
 40
1.0
 40
1.0
 40
1.0
 40
1.0
 10
-18.16716973035001
 20
3.066403320262302
 30
0.0
 10
-17.98921973035002
 20
1.838840320262301
 30
0.0
 10
-17.63873573035002
 20
0.700968320262299
 30
0.0
 10
-17.12045873035002
 20
-0.3318176797376983
 30
0.0
  0
SPLINE
  5
D4
330
1F
100
AcDbEntity
  8
0
  6
Continuous
 62
     7
370
    25
100
AcDbSpline
210
0.0
220
0.0
230
1.0
 70
     8
 71
     3
 72
     8
 73
     4
 74
     0
 42
0.00000001
 43
0.00000001
 40
0.0
 40
0.0
 40
0.0
 40
0.0
 40
1.0
 40
1.0
 40
1.0
 40
1.0
 10
-18.36281773035002
 20
3.543777320262304
 30
0.0
 10
-18.24142073035002
 20
3.503164320262302
 30
0.0
 10
-18.22449773035002
 20
3.461874320262303
 30
0.0
 10
-18.16716973035001
 20
3.066403320262302
 30
0.0
  0
SPLINE
  5
D5
330
1F
100
AcDbEntity
  8
0
  6
Continuous
 62
     7
370
    25
100
AcDbSpline
210
0.0
220
0.0
230
1.0
 70
     8
 71
     3
 72
     8
 73
     4
 74
     0
 42
0.00000001
 43
0.00000001
 40
0.0
 40
0.0
 40
0.0
 40
0.0
 40
1.0
 40
1.0
 40
1.0
 40
1.0
 10
-18.51479273035002
 20
3.5368773202623
 30
0.0
 10
-18.44540873035002
 20
3.563375320262304
 30
0.0
 10
-18.42426473035001
 20
3.564335320262301
 30
0.0
 10
-18.36281773035002
 20
3.543777320262304
 30
0.0
  0
SPLINE
  5
D6
330
1F
100
AcDbEntity
  8
0
  6
Continuous
 62
     7
370
    25
100
AcDbSpline
210
0.0
220
0.0
230
1.0
 70
     8
 71
     3
 72
     8
 73
     4
 74
     0
 42
0.00000001
 43
0.00000001
 40
0.0
 40
0.0
 40
0.0
 40
0.0
 40
1.0
 40
1.0
 40
1.0
 40
1.0
 10
-18.62926473035002
 20
3.429519320262305
 30
0.0
 10
-18.60205473035002
 20
3.491031320262302
 30
0.0
 10
-18.57953373035001
 20
3.5121523202623
 30
0.0
 10
-18.51479273035002
 20
3.5368773202623
 30
0.0
  0
SPLINE
  5
D7
330
1F
100
AcDbEntity
  8
0
  6
Continuous
 62
     7
370
    25
100
AcDbSpline
210
0.0
220
0.0
230
1.0
 70
     8
 71
     3
 72
     8
 73
     4
 74
     0
 42
0.00000001
 43
0.00000001
 40
0.0
 40
0.0
 40
0.0
 40
0.0
 40
1.0
 40
1.0
 40
1.0
 40
1.0
 10
-18.63619873035002
 20
3.142256320262302
 30
0.0
 10
-18.66155973035002
 20
3.340590320262304
 30
0.0
 10
-18.66115473035002
 20
3.357430320262301
 30
0.0
 10
-18.62926473035002
 20
3.429519320262305
 30
0.0
  0
SPLINE
  5
D8
330
1F
100
AcDbEntity
  8
0
  6
Continuous
 62
     7
370
    25
100
AcDbSpline
210
0.0
220
0.0
230
1.0
 70
     8
 71
     3
 72
     8
 73
     4
 74
     0
 42
0.00000001
 43
0.00000001
 40
0.0
 40
0.0
 40
0.0
 40
0.0
 40
1.0
 40
1.0
 40
1.0
 40
1.0
 10
-17.68635873035002
 20
-0.1939116797376947
 30
0.0
 10
-18.15805173035002
 20
0.8275393202623015
 30
0.0
 10
-18.48873473035002
 20
1.989014320262304
 30
0.0
 10
-18.63619873035002
 20
3.142256320262302
 30
0.0
  0
SPLINE
  5
D9
330
1F
100
AcDbEntity
  8
0
  6
Continuous
 62
     7
370
    25
100
AcDbSpline
210
0.0
220
0.0
230
1.0
 70
     8
 71
     3
 72
     8
 73
     4
 74
     0
 42
0.00000001
 43
0.00000001
 40
0.0
 40
0.0
 40
0.0
 40
0.0
 40
1.0
 40
1.0
 40
1.0
 40
1.0
 10
-17.54920073035002
 20
-0.4926716797376968
 30
0.0
 10
-17.55459573035002
 20
-0.4800326797376985
 30
0.0
 10
-17.61631573035002
 20
-0.345589679737697
 30
0.0
 10
-17.68635873035002
 20
-0.1939116797376947
 30
0.0
  0
SPLINE
  5
DA
330
1F
100
AcDbEntity
  8
0
  6
Continuous
 62
     7
370
    25
100
AcDbSpline
210
0.0
220
0.0
230
1.0
 70
     8
 71
     3
 72
     8
 73
     4
 74
     0
 42
0.00000001
 43
0.00000001
 40
0.0
 40
0.0
 40
0.0
 40
0.0
 40
1.0
 40
1.0
 40
1.0
 40
1.0
 10
-18.46062173035002
 20
-0.5156526797376986
 30
0.0
 10
-17.73066573035002
 20
-0.5156526797376986
 30
0.0
 10
-17.54142973035002
 20
-0.5108826797376974
 30
0.0
 10
-17.54920073035002
 20
-0.4926716797376968
 30
0.0
  0
SPLINE
  5
DD
330
1F
100
AcDbEntity
  8
0
  6
Continuous
 62
     7
370
    25
100
AcDbSpline
210
0.0
220
0.0
230
1.0
 70
     8
 71
     3
 72
     8
 73
     4
 74
     0
 42
0.00000001
 43
0.00000001
 40
0.0
 40
0.0
 40
0.0
 40
0.0
 40
1.0
 40
1.0
 40
1.0
 40
1.0
 10
-18.72991973035002
 20
-4.667932679737696
 30
0.0
 10
-19.14939573035002
 20
-3.437138679737696
 30
0.0
 10
-19.38184873035002
 20
-2.0806306797377
 30
0.0
 10
-19.38184873035002
 20
-0.8635086797376956
 30
0.0
  0
SPLINE
  5
DE
330
1F
100
AcDbEntity
  8
0
  6
Continuous
 62
     7
370
    25
100
AcDbSpline
210
0.0
220
0.0
230
1.0
 70
     8
 71
     3
 72
     8
 73
     4
 74
     0
 42
0.00000001
 43
0.00000001
 40
0.0
 40
0.0
 40
0.0
 40
0.0
 40
1.0
 40
1.0
 40
1.0
 40
1.0
 10
-16.00948173035001
 20
-9.180005679737699
 30
0.0
 10
-17.25586373035001
 20
-7.848910679737697
 30
0.0
 10
-18.15279973035002
 20
-6.361272679737694
 30
0.0
 10
-18.72991973035002
 20
-4.667932679737696
 30
0.0
  0
SPLINE
  5
DF
330
1F
100
AcDbEntity
  8
0
  6
Continuous
 62
     7
370
    25
100
AcDbSpline
210
0.0
220
0.0
230
1.0
 70
     8
 71
     3
 72
     8
 73
     4
 74
     0
 42
0.00000001
 43
0.00000001
 40
0.0
 40
0.0
 40
0.0
 40
0.0
 40
1.0
 40
1.0
 40
1.0
 40
1.0
 10
-15.10729073035002
 20
-9.999526679737695
 30
0.0
 10
-15.54832573035002
 20
-9.6478576797377
 30
0.0
 10
-15.70273873035002
 20
-9.507594679737698
 30
0.0
 10
-16.00948173035001
 20
-9.180005679737699
 30
0.0
  0
SPLINE
  5
E0
330
1F
100
AcDbEntity
  8
0
  6
Continuous
 62
     7
370
    25
100
AcDbSpline
210
0.0
220
0.0
230
1.0
 70
     8
 71
     3
 72
     8
 73
     4
 74
     0
 42
0.00000001
 43
0.00000001
 40
0.0
 40
0.0
 40
0.0
 40
0.0
 40
1.0
 40
1.0
 40
1.0
 40
1.0
 10
-12.78321773035002
 20
-13.6906256797377
 30
0.0
 10
-12.98340073035002
 20
-12.2980466797377
 30
0.0
 10
-13.74841373035001
 20
-11.0830506797377
 30
0.0
 10
-15.10729073035002
 20
-9.999526679737695
 30
0.0
  0
SPLINE
  5
E1
330
1F
100
AcDbEntity
  8
0
  6
Continuous
 62
     7
370
    25
100
AcDbSpline
210
0.0
220
0.0
230
1.0
 70
     8
 71
     3
 72
     8
 73
     4
 74
     0
 42
0.00000001
 43
0.00000001
 40
0.0
 40
0.0
 40
0.0
 40
0.0
 40
1.0
 40
1.0
 40
1.0
 40
1.0
 10
-12.70802173035002
 20
-15.5462986797377
 30
0.0
 10
-12.70802173035002
 20
-14.4130756797377
 30
0.0
 10
-12.71927173035001
 20
-14.1354666797377
 30
0.0
 10
-12.78321773035002
 20
-13.6906256797377
 30
0.0
  0
SPLINE
  5
E2
330
1F
100
AcDbEntity
  8
0
  6
Continuous
 62
     7
370
    25
100
AcDbSpline
210
0.0
220
0.0
230
1.0
 70
     8
 71
     3
 72
     8
 73
     4
 74
     0
 42
0.00000001
 43
0.00000001
 40
0.0
 40
0.0
 40
0.0
 40
0.0
 40
1.0
 40
1.0
 40
1.0
 40
1.0
 10
-12.67183073035002
 20
-16.79349467973769
 30
0.0
 10
-12.70585873035002
 20
-16.6604456797377
 30
0.0
 10
-12.70802173035002
 20
-16.5859076797377
 30
0.0
 10
-12.70802173035002
 20
-15.5462986797377
 30
0.0
  0
SPLINE
  5
E3
330
1F
100
AcDbEntity
  8
0
  6
Continuous
 62
     7
370
    25
100
AcDbSpline
210
0.0
220
0.0
230
1.0
 70
     8
 71
     3
 72
     8
 73
     4
 74
     0
 42
0.00000001
 43
0.00000001
 40
0.0
 40
0.0
 40
0.0
 40
0.0
 40
1.0
 40
1.0
 40
1.0
 40
1.0
 10
-12.34526473035002
 20
-17.3693546797377
 30
0.0
 10
-12.50237773035001
 20
-17.2122396797377
 30
0.0
 10
-12.61595773035002
 20
-17.0119556797377
 30
0.0
 10
-12.67183073035002
 20
-16.79349467973769
 30
0.0
  0
SPLINE
  5
E6
330
1F
100
AcDbEntity
  8
0
  6
Continuous
 62
     7
370
    25
100
AcDbSpline
210
0.0
220
0.0
230
1.0
 70
     8
 71
     3
 72
     8
 73
     4
 74
     0
 42
0.00000001
 43
0.00000001
 40
0.0
 40
0.0
 40
0.0
 40
0.0
 40
1.0
 40
1.0
 40
1.0
 40
1.0
 10
-12.67183073035002
 20
-18.2136856797377
 30
0.0
 10
-12.61595773035002
 20
-17.9952236797377
 30
0.0
 10
-12.50237773035001
 20
-17.7949396797377
 30
0.0
 10
-12.34526473035002
 20
-17.6378246797377
 30
0.0
  0
SPLINE
  5
E7
330
1F
100
AcDbEntity
  8
0
  6
Continuous
 62
     7
370
    25
100
AcDbSpline
210
0.0
220
0.0
230
1.0
 70
     8
 71
     3
 72
     8
 73
     4
 74
     0
 42
0.00000001
 43
0.00000001
 40
0.0
 40
0.0
 40
0.0
 40
0.0
 40
1.0
 40
1.0
 40
1.0
 40
1.0
 10
-12.70770273035002
 20
-20.1494036797377
 30
0.0
 10
-12.70801973035002
 20
-18.4243756797377
 30
0.0
 10
-12.70661773035002
 20
-18.3497336797377
 30
0.0
 10
-12.67183073035002
 20
-18.2136856797377
 30
0.0
  0
SPLINE
  5
E8
330
1F
100
AcDbEntity
  8
0
  6
Continuous
 62
     7
370
    25
100
AcDbSpline
210
0.0
220
0.0
230
1.0
 70
     8
 71
     3
 72
     8
 73
     4
 74
     0
 42
0.00000001
 43
0.00000001
 40
0.0
 40
0.0
 40
0.0
 40
0.0
 40
1.0
 40
1.0
 40
1.0
 40
1.0
 10
-12.57689373035002
 20
-22.3572826797377
 30
0.0
 10
-12.71176873035001
 20
-22.0822456797377
 30
0.0
 10
-12.70734573035002
 20
-22.1569106797377
 30
0.0
 10
-12.70770273035002
 20
-20.1494036797377
 30
0.0
  0
SPLINE
  5
E9
330
1F
100
AcDbEntity
  8
0
  6
Continuous
 62
     7
370
    25
100
AcDbSpline
210
0.0
220
0.0
230
1.0
 70
     8
 71
     3
 72
     8
 73
     4
 74
     0
 42
0.00000001
 43
0.00000001
 40
0.0
 40
0.0
 40
0.0
 40
0.0
 40
1.0
 40
1.0
 40
1.0
 40
1.0
 10
-12.34215073035002
 20
-22.6705516797377
 30
0.0
 10
-12.46918973035002
 20
-22.5444086797377
 30
0.0
 10
-12.51531873035002
 20
-22.4828486797377
 30
0.0
 10
-12.57689373035002
 20
-22.3572826797377
 30
0.0
  0
SPLINE
  5
EA
330
1F
100
AcDbEntity
  8
0
  6
Continuous
 62
     7
370
    25
100
AcDbSpline
210
0.0
220
0.0
230
1.0
 70
     8
 71
     3
 72
     8
 73
     4
 74
     0
 42
0.00000001
 43
0.00000001
 40
0.0
 40
0.0
 40
0.0
 40
0.0
 40
1.0
 40
1.0
 40
1.0
 40
1.0
 10
-11.84391773035002
 20
-22.9847076797377
 30
0.0
 10
-12.06087573035001
 20
-22.9076206797377
 30
0.0
 10
-12.17738073035001
 20
-22.8341596797377
 30
0.0
 10
-12.34215073035002
 20
-22.6705516797377
 30
0.0
  0
SPLINE
  5
EB
330
1F
100
AcDbEntity
  8
0
  6
Continuous
 62
     7
370
    25
100
AcDbSpline
210
0.0
220
0.0
230
1.0
 70
     8
 71
     3
 72
     8
 73
     4
 74
     0
 42
0.00000001
 43
0.00000001
 40
0.0
 40
0.0
 40
0.0
 40
0.0
 40
1.0
 40
1.0
 40
1.0
 40
1.0
 10
-10.82824373035002
 20
-23.0333196797377
 30
0.0
 10
-11.70986873035002
 20
-23.0272606797377
 30
0.0
 10
-11.72635273035002
 20
-23.0264926797377
 30
0.0
 10
-11.84391773035002
 20
-22.9847076797377
 30
0.0
  0
SPLINE
  5
EE
330
1F
100
AcDbEntity
  8
0
  6
Continuous
 62
     7
370
    25
100
AcDbSpline
210
0.0
220
0.0
230
1.0
 70
     8
 71
     3
 72
     8
 73
     4
 74
     0
 42
0.00000001
 43
0.00000001
 40
0.0
 40
0.0
 40
0.0
 40
0.0
 40
1.0
 40
1.0
 40
1.0
 40
1.0
 10
-9.885478730350016
 20
-23.3133036797377
 30
0.0
 10
-9.902654730350013
 20
-23.2071296797377
 30
0.0
 10
-9.920165730350018
 20
-23.1020766797377
 30
0.0
 10
-9.924390730350014
 20
-23.0798566797377
 30
0.0
  0
SPLINE
  5
EF
330
1F
100
AcDbEntity
  8
0
  6
Continuous
 62
     7
370
    25
100
AcDbSpline
210
0.0
220
0.0
230
1.0
 70
     8
 71
     3
 72
     8
 73
     4
 74
     0
 42
0.00000001
 43
0.00000001
 40
0.0
 40
0.0
 40
0.0
 40
0.0
 40
1.0
 40
1.0
 40
1.0
 40
1.0
 10
-8.182201730350016
 20
-25.4350396797377
 30
0.0
 10
-9.061412730350018
 20
-25.0725506797377
 30
0.0
 10
-9.737010730350017
 20
-24.2309716797377
 30
0.0
 10
-9.885478730350016
 20
-23.3133036797377
 30
0.0
  0
SPLINE
  5
F0
330
1F
100
AcDbEntity
  8
0
  6
Continuous
 62
     7
370
    25
100
AcDbSpline
210
0.0
220
0.0
230
1.0
 70
     8
 71
     3
 72
     8
 73
     4
 74
     0
 42
0.00000001
 43
0.00000001
 40
0.0
 40
0.0
 40
0.0
 40
0.0
 40
1.0
 40
1.0
 40
1.0
 40
1.0
 10
-17.07399473035002
 20
5.179036320262307
 30
0.0
 10
-17.32347373035002
 20
4.993019320262304
 30
0.0
 10
-17.61527873035001
 20
4.864059320262307
 30
0.0
 10
-17.91563373035002
 20
4.8070833202623
 30
0.0
  0
SPLINE
  5
F1
330
1F
100
AcDbEntity
  8
0
  6
Continuous
 62
     7
370
    25
100
AcDbSpline
210
0.0
220
0.0
230
1.0
 70
     8
 71
     3
 72
     8
 73
     4
 74
     0
 42
0.00000001
 43
0.00000001
 40
0.0
 40
0.0
 40
0.0
 40
0.0
 40
1.0
 40
1.0
 40
1.0
 40
1.0
 10
-16.30089973035002
 20
6.4431453202623
 30
0.0
 10
-16.39671873035001
 20
5.923972320262302
 30
0.0
 10
-16.66647073035002
 20
5.482892320262299
 30
0.0
 10
-17.07399473035002
 20
5.179036320262307
 30
0.0
  0
SPLINE
  5
F2
330
1F
100
AcDbEntity
  8
0
  6
Continuous
 62
     7
370
    25
100
AcDbSpline
210
0.0
220
0.0
230
1.0
 70
     8
 71
     3
 72
     8
 73
     4
 74
     0
 42
0.00000001
 43
0.00000001
 40
0.0
 40
0.0
 40
0.0
 40
0.0
 40
1.0
 40
1.0
 40
1.0
 40
1.0
 10
-16.33651173035001
 20
7.284771320262299
 30
0.0
 10
-16.27303773035002
 20
7.040359320262306
 30
0.0
 10
-16.25767673035002
 20
6.677338320262301
 30
0.0
 10
-16.30089973035002
 20
6.4431453202623
 30
0.0
  0
SPLINE
  5
F3
330
1F
100
AcDbEntity
  8
0
  6
Continuous
 62
     7
370
    25
100
AcDbSpline
210
0.0
220
0.0
230
1.0
 70
     8
 71
     3
 72
     8
 73
     4
 74
     0
 42
0.00000001
 43
0.00000001
 40
0.0
 40
0.0
 40
0.0
 40
0.0
 40
1.0
 40
1.0
 40
1.0
 40
1.0
 10
-16.60667373035002
 20
7.897019320262301
 30
0.0
 10
-16.50927773035001
 20
7.755458320262303
 30
0.0
 10
-16.38647773035001
 20
7.477167320262303
 30
0.0
 10
-16.33651173035001
 20
7.284771320262299
 30
0.0
  0
SPLINE
  5
F4
330
1F
100
AcDbEntity
  8
0
  6
Continuous
 62
     7
370
    25
100
AcDbSpline
210
0.0
220
0.0
230
1.0
 70
     8
 71
     3
 72
     8
 73
     4
 74
     0
 42
0.00000001
 43
0.00000001
 40
0.0
 40
0.0
 40
0.0
 40
0.0
 40
1.0
 40
1.0
 40
1.0
 40
1.0
 10
-17.35011773035001
 20
8.5604493202623
 30
0.0
 10
-17.07210673035001
 20
8.417973320262305
 30
0.0
 10
-16.79490873035001
 20
8.170608320262305
 30
0.0
 10
-16.60667373035002
 20
7.897019320262301
 30
0.0
  0
SPLINE
  5
F5
330
1F
100
AcDbEntity
  8
0
  6
Continuous
 62
     7
370
    25
100
AcDbSpline
210
0.0
220
0.0
230
1.0
 70
     8
 71
     3
 72
     8
 73
     4
 74
     0
 42
0.00000001
 43
0.00000001
 40
0.0
 40
0.0
 40
0.0
 40
0.0
 40
1.0
 40
1.0
 40
1.0
 40
1.0
 10
-17.52281973035002
 20
8.651357320262308
 30
0.0
 10
-17.51893073035001
 20
8.648042320262304
 30
0.0
 10
-17.44121473035002
 20
8.607134320262306
 30
0.0
 10
-17.35011773035001
 20
8.5604493202623
 30
0.0
  0
SPLINE
  5
F6
330
1F
100
AcDbEntity
  8
0
  6
Continuous
 62
     7
370
    25
100
AcDbSpline
210
0.0
220
0.0
230
1.0
 70
     8
 71
     3
 72
     8
 73
     4
 74
     0
 42
0.00000001
 43
0.00000001
 40
0.0
 40
0.0
 40
0.0
 40
0.0
 40
1.0
 40
1.0
 40
1.0
 40
1.0
 10
-17.50592373035002
 20
8.717724320262306
 30
0.0
 10
-17.51910473035002
 20
8.684537320262303
 30
0.0
 10
-17.52670973035002
 20
8.654671320262299
 30
0.0
 10
-17.52281973035002
 20
8.651357320262308
 30
0.0
  0
SPLINE
  5
F7
330
1F
100
AcDbEntity
  8
0
  6
Continuous
 62
     7
370
    25
100
AcDbSpline
210
0.0
220
0.0
230
1.0
 70
     8
 71
     3
 72
     8
 73
     4
 74
     0
 42
0.00000001
 43
0.00000001
 40
0.0
 40
0.0
 40
0.0
 40
0.0
 40
1.0
 40
1.0
 40
1.0
 40
1.0
 10
-12.85104273035002
 20
14.2072973202623
 30
0.0
 10
-14.95742873035002
 20
12.9442293202623
 30
0.0
 10
-16.59347673035002
 20
11.0148123202623
 30
0.0
 10
-17.50592373035002
 20
8.717724320262306
 30
0.0
  0
SPLINE
  5
F8
330
1F
100
AcDbEntity
  8
0
  6
Continuous
 62
     7
370
    25
100
AcDbSpline
210
0.0
220
0.0
230
1.0
 70
     8
 71
     3
 72
     8
 73
     4
 74
     0
 42
0.00000001
 43
0.00000001
 40
0.0
 40
0.0
 40
0.0
 40
0.0
 40
1.0
 40
1.0
 40
1.0
 40
1.0
 10
-8.093334730350014
 20
15.76760532026231
 30
0.0
 10
-9.838127730350015
 20
15.5933683202623
 30
0.0
 10
-11.38620173035001
 20
15.0856713202623
 30
0.0
 10
-12.85104273035002
 20
14.2072973202623
 30
0.0
  0
SPLINE
  5
F9
330
1F
100
AcDbEntity
  8
0
  6
Continuous
 62
     7
370
    25
100
AcDbSpline
210
0.0
220
0.0
230
1.0
 70
     8
 71
     3
 72
     8
 73
     4
 74
     0
 42
0.00000001
 43
0.00000001
 40
0.0
 40
0.0
 40
0.0
 40
0.0
 40
1.0
 40
1.0
 40
1.0
 40
1.0
 10
-6.181273730350018
 20
15.7771413202623
 30
0.0
 10
-6.583986730350016
 20
15.8134463202623
 30
0.0
 10
-7.689502730350018
 20
15.8079333202623
 30
0.0
 10
-8.093334730350014
 20
15.76760532026231
 30
0.0
  0
SPLINE
  5
FA
330
1F
100
AcDbEntity
  8
0
  6
Continuous
 62
     7
370
    25
100
AcDbSpline
210
0.0
220
0.0
230
1.0
 70
     8
 71
     3
 72
     8
 73
     4
 74
     0
 42
0.00000001
 43
0.00000001
 40
0.0
 40
0.0
 40
0.0
 40
0.0
 40
1.0
 40
1.0
 40
1.0
 40
1.0
 10
0.4542142696499843
 20
12.87744132026231
 30
0.0
 10
-1.406790730350018
 20
14.57137932026231
 30
0.0
 10
-3.642167730350018
 20
15.5482363202623
 30
0.0
 10
-6.181273730350018
 20
15.7771413202623
 30
0.0
  0
SPLINE
  5
FB
330
1F
100
AcDbEntity
  8
0
  6
Continuous
 62
     7
370
    25
100
AcDbSpline
210
0.0
220
0.0
230
1.0
 70
     8
 71
     3
 72
     8
 73
     4
 74
     0
 42
0.00000001
 43
0.00000001
 40
0.0
 40
0.0
 40
0.0
 40
0.0
 40
1.0
 40
1.0
 40
1.0
 40
1.0
 10
0.866165269649985
 20
12.6212903202623
 30
0.0
 10
0.7742302696499836
 20
12.6038543202623
 30
0.0
 10
0.7128572696499836
 20
12.6420153202623
 30
0.0
 10
0.4542142696499843
 20
12.87744132026231
 30
0.0
  0
SPLINE
  5
FC
330
1F
100
AcDbEntity
  8
0
  6
Continuous
 62
     7
370
    25
100
AcDbSpline
210
0.0
220
0.0
230
1.0
 70
     8
 71
     3
 72
     8
 73
     4
 74
     0
 42
0.00000001
 43
0.00000001
 40
0.0
 40
0.0
 40
0.0
 40
0.0
 40
1.0
 40
1.0
 40
1.0
 40
1.0
 10
1.018255269649986
 20
12.9570163202623
 30
0.0
 10
1.090804269649984
 20
12.8177013202623
 30
0.0
 10
1.014577269649986
 20
12.6494373202623
 30
0.0
 10
0.866165269649985
 20
12.6212903202623
 30
0.0
  0
SPLINE
  5
FD
330
1F
100
AcDbEntity
  8
0
  6
Continuous
 62
     7
370
    25
100
AcDbSpline
210
0.0
220
0.0
230
1.0
 70
     8
 71
     3
 72
     8
 73
     4
 74
     0
 42
0.00000001
 43
0.00000001
 40
0.0
 40
0.0
 40
0.0
 40
0.0
 40
1.0
 40
1.0
 40
1.0
 40
1.0
 10
-0.1233507303500143
 20
13.94855432026231
 30
0.0
 10
0.3336192696499832
 20
13.6045493202623
 30
0.0
 10
0.967966269649987
 20
13.05359132026231
 30
0.0
 10
1.018255269649986
 20
12.9570163202623
 30
0.0
  0
SPLINE
  5
FE
330
1F
100
AcDbEntity
  8
0
  6
Continuous
 62
     7
370
    25
100
AcDbSpline
210
0.0
220
0.0
230
1.0
 70
     8
 71
     3
 72
     8
 73
     4
 74
     0
 42
0.00000001
 43
0.00000001
 40
0.0
 40
0.0
 40
0.0
 40
0.0
 40
1.0
 40
1.0
 40
1.0
 40
1.0
 10
-5.905496730350016
 20
16.2044563202623
 30
0.0
 10
-3.793955730350015
 20
15.9862643202623
 30
0.0
 10
-1.793370730350015
 20
15.2057373202623
 30
0.0
 10
-0.1233507303500143
 20
13.94855432026231
 30
0.0
  0
SPLINE
  5
FF
330
1F
100
AcDbEntity
  8
0
  6
Continuous
 62
     7
370
    25
100
AcDbSpline
210
0.0
220
0.0
230
1.0
 70
     8
 71
     3
 72
     8
 73
     4
 74
     0
 42
0.00000001
 43
0.00000001
 40
0.0
 40
0.0
 40
0.0
 40
0.0
 40
1.0
 40
1.0
 40
1.0
 40
1.0
 10
-14.56559673035001
 20
13.54383132026231
 30
0.0
 10
-12.14936373035002
 20
15.5626583202623
 30
0.0
 10
-9.014639730350014
 20
16.5257333202623
 30
0.0
 10
-5.905496730350016
 20
16.2044563202623
 30
0.0
  0
SPLINE
  5
100
330
1F
100
AcDbEntity
  8
0
  6
Continuous
 62
     7
370
    25
100
AcDbSpline
210
0.0
220
0.0
230
1.0
 70
     8
 71
     3
 72
     8
 73
     4
 74
     0
 42
0.00000001
 43
0.00000001
 40
0.0
 40
0.0
 40
0.0
 40
0.0
 40
1.0
 40
1.0
 40
1.0
 40
1.0
 10
-17.87369973035002
 20
9.017076320262301
 30
0.0
 10
-17.18051473035002
 20
10.7391003202623
 30
0.0
 10
-16.01717273035002
 20
12.33100032026231
 30
0.0
 10
-14.56559673035001
 20
13.54383132026231
 30
0.0
  0
SPLINE
  5
103
330
1F
100
AcDbEntity
  8
0
  6
Continuous
 62
     7
370
    25
100
AcDbSpline
210
0.0
220
0.0
230
1.0
 70
     8
 71
     3
 72
     8
 73
     4
 74
     0
 42
0.00000001
 43
0.00000001
 40
0.0
 40
0.0
 40
0.0
 40
0.0
 40
1.0
 40
1.0
 40
1.0
 40
1.0
 10
-18.78432873035002
 20
8.727317320262301
 30
0.0
 10
-18.61775273035002
 20
8.772773320262301
 30
0.0
 10
-18.57085173035001
 20
8.777515320262303
 30
0.0
 10
-18.28519373035002
 20
8.777777320262302
 30
0.0
  0
SPLINE
  5
104
330
1F
100
AcDbEntity
  8
0
  6
Continuous
 62
     7
370
    25
100
AcDbSpline
210
0.0
220
0.0
230
1.0
 70
     8
 71
     3
 72
     8
 73
     4
 74
     0
 42
0.00000001
 43
0.00000001
 40
0.0
 40
0.0
 40
0.0
 40
0.0
 40
1.0
 40
1.0
 40
1.0
 40
1.0
 10
-19.49387473035002
 20
8.384178320262302
 30
0.0
 10
-19.32583773035002
 20
8.511617320262301
 30
0.0
 10
-19.00346873035001
 20
8.667516320262303
 30
0.0
 10
-18.78432873035002
 20
8.727317320262301
 30
0.0
  0
SPLINE
  5
105
330
1F
100
AcDbEntity
  8
0
  6
Continuous
 62
     7
370
    25
100
AcDbSpline
210
0.0
220
0.0
230
1.0
 70
     8
 71
     3
 72
     8
 73
     4
 74
     0
 42
0.00000001
 43
0.00000001
 40
0.0
 40
0.0
 40
0.0
 40
0.0
 40
1.0
 40
1.0
 40
1.0
 40
1.0
 10
-20.26480173035002
 20
7.092081320262303
 30
0.0
 10
-20.18345473035001
 20
7.599842320262305
 30
0.0
 10
-19.89863773035002
 20
8.0772053202623
 30
0.0
 10
-19.49387473035002
 20
8.384178320262302
 30
0.0
  0
SPLINE
  5
106
330
1F
100
AcDbEntity
  8
0
  6
Continuous
 62
     7
370
    25
100
AcDbSpline
210
0.0
220
0.0
230
1.0
 70
     8
 71
     3
 72
     8
 73
     4
 74
     0
 42
0.00000001
 43
0.00000001
 40
0.0
 40
0.0
 40
0.0
 40
0.0
 40
1.0
 40
1.0
 40
1.0
 40
1.0
 10
-20.23078773035002
 20
6.2956153202623
 30
0.0
 10
-20.27997073035002
 20
6.483322320262302
 30
0.0
 10
-20.29730473035002
 20
6.8892013202623
 30
0.0
 10
-20.26480173035002
 20
7.092081320262303
 30
0.0
  0
SPLINE
  5
107
330
1F
100
AcDbEntity
  8
0
  6
Continuous
 62
     7
370
    25
100
AcDbSpline
210
0.0
220
0.0
230
1.0
 70
     8
 71
     3
 72
     8
 73
     4
 74
     0
 42
0.00000001
 43
0.00000001
 40
0.0
 40
0.0
 40
0.0
 40
0.0
 40
1.0
 40
1.0
 40
1.0
 40
1.0
 10
-19.65545573035002
 20
5.321484320262297
 30
0.0
 10
-19.94401273035002
 20
5.5954593202623
 30
0.0
 10
-20.12972173035002
 20
5.909895320262301
 30
0.0
 10
-20.23078773035002
 20
6.2956153202623
 30
0.0
  0
SPLINE
  5
108
330
1F
100
AcDbEntity
  8
0
  6
Continuous
 62
     7
370
    25
100
AcDbSpline
210
0.0
220
0.0
230
1.0
 70
     8
 71
     3
 72
     8
 73
     4
 74
     0
 42
0.00000001
 43
0.00000001
 40
0.0
 40
0.0
 40
0.0
 40
0.0
 40
1.0
 40
1.0
 40
1.0
 40
1.0
 10
-18.68320873035002
 20
4.8154123202623
 30
0.0
 10
-19.07036573035002
 20
4.898504320262301
 30
0.0
 10
-19.37936273035002
 20
5.059343320262297
 30
0.0
 10
-19.65545573035002
 20
5.321484320262297
 30
0.0
  0
SPLINE
  5
109
330
1F
100
AcDbEntity
  8
0
  6
Continuous
 62
     7
370
    25
100
AcDbSpline
210
0.0
220
0.0
230
1.0
 70
     8
 71
     3
 72
     8
 73
     4
 74
     0
 42
0.00000001
 43
0.00000001
 40
0.0
 40
0.0
 40
0.0
 40
0.0
 40
1.0
 40
1.0
 40
1.0
 40
1.0
 10
-17.91563373035002
 20
4.8070833202623
 30
0.0
 10
-18.11767373035002
 20
4.768757320262301
 30
0.0
 10
-18.48436673035001
 20
4.772736320262302
 30
0.0
 10
-18.68320873035002
 20
4.8154123202623
 30
0.0
  0
CIRCLE
  5
10A
330
1F
100
AcDbEntity
  8
0
  6
Continuous
 62
     7
370
    25
100
AcDbCircle
 10
-226.5436411294
 20
33.1970309368
 30
0.0
 40
2.499999999999972
  0
CIRCLE
  5
10B
330
1F
100
AcDbEntity
  8
0
  6
Continuous
 62
     7
370
    25
100
AcDbCircle
 10
-226.5436411294
 20
-34.7620920897
 30
0.0
 40
2.499999999999972
  0
CIRCLE
  5
10C
330
1F
100
AcDbEntity
  8
0
  6
Continuous
 62
     7
370
    25
100
AcDbCircle
 10
226.5436411294
 20
-34.7620920897
 30
0.0
 40
2.5
  0
CIRCLE
  5
10D
330
1F
100
AcDbEntity
  8
0
  6
Continuous
 62
     7
370
    25
100
AcDbCircle
 10
226.5436411294
 20
33.1970309368
 30
0.0
 40
2.5
  0
SPLINE
  5
112
330
1F
100
AcDbEntity
  8
0
  6
Continuous
 62
     7
370
    25
100
AcDbSpline
210
0.0
220
0.0
230
1.0
 70
     8
 71
     3
 72
     8
 73
     4
 74
     0
 42
0.00000001
 43
0.00000001
 40
0.0
 40
0.0
 40
0.0
 40
0.0
 40
1.0
 40
1.0
 40
1.0
 40
1.0
 10
-17.42757173035002
 20
6.342027320262303
 30
0.0
 10
-17.49684173035002
 20
6.197874320262302
 30
0.0
 10
-17.70454573035002
 20
5.995251320262303
 30
0.0
 10
-17.85763773035002
 20
5.922481320262303
 30
0.0
  0
SPLINE
  5
113
330
1F
100
AcDbEntity
  8
0
  6
Continuous
 62
     7
370
    25
100
AcDbSpline
210
0.0
220
0.0
230
1.0
 70
     8
 71
     3
 72
     8
 73
     4
 74
     0
 42
0.00000001
 43
0.00000001
 40
0.0
 40
0.0
 40
0.0
 40
0.0
 40
1.0
 40
1.0
 40
1.0
 40
1.0
 10
-17.35080573035001
 20
7.012125320262304
 30
0.0
 10
-17.29590473035002
 20
6.801347320262302
 30
0.0
 10
-17.32378073035001
 20
6.5580203202623
 30
0.0
 10
-17.42757173035002
 20
6.342027320262303
 30
0.0
  0
SPLINE
  5
114
330
1F
100
AcDbEntity
  8
0
  6
Continuous
 62
     7
370
    25
100
AcDbSpline
210
0.0
220
0.0
230
1.0
 70
     8
 71
     3
 72
     8
 73
     4
 74
     0
 42
0.00000001
 43
0.00000001
 40
0.0
 40
0.0
 40
0.0
 40
0.0
 40
1.0
 40
1.0
 40
1.0
 40
1.0
 10
-18.95011073035002
 20
7.456028320262306
 30
0.0
 10
-18.42709573035001
 20
7.984646320262301
 30
0.0
 10
-17.53998073035002
 20
7.738418320262307
 30
0.0
 10
-17.35080573035001
 20
7.012125320262304
 30
0.0
  0
SPLINE
  5
115
330
1F
100
AcDbEntity
  8
0
  6
Continuous
 62
     7
370
    25
100
AcDbSpline
210
0.0
220
0.0
230
1.0
 70
     8
 71
     3
 72
     8
 73
     4
 74
     0
 42
0.00000001
 43
0.00000001
 40
0.0
 40
0.0
 40
0.0
 40
0.0
 40
1.0
 40
1.0
 40
1.0
 40
1.0
 10
-19.23476673035002
 20
6.783272320262303
 30
0.0
 10
-19.23476673035002
 20
7.057808320262302
 30
0.0
 10
-19.15306673035002
 20
7.250897320262302
 30
0.0
 10
-18.95011073035002
 20
7.456028320262306
 30
0.0
  0
SPLINE
  5
116
330
1F
100
AcDbEntity
  8
0
  6
Continuous
 62
     7
370
    25
100
AcDbSpline
210
0.0
220
0.0
230
1.0
 70
     8
 71
     3
 72
     8
 73
     4
 74
     0
 42
0.00000001
 43
0.00000001
 40
0.0
 40
0.0
 40
0.0
 40
0.0
 40
1.0
 40
1.0
 40
1.0
 40
1.0
 10
-18.37985473035002
 20
5.822195320262305
 30
0.0
 10
-18.87090673035001
 20
5.882745320262305
 30
0.0
 10
-19.23476673035002
 20
6.291790320262301
 30
0.0
 10
-19.23476673035002
 20
6.783272320262303
 30
0.0
  0
SPLINE
  5
117
330
1F
100
AcDbEntity
  8
0
  6
Continuous
 62
     7
370
    25
100
AcDbSpline
210
0.0
220
0.0
230
1.0
 70
     8
 71
     3
 72
     8
 73
     4
 74
     0
 42
0.00000001
 43
0.00000001
 40
0.0
 40
0.0
 40
0.0
 40
0.0
 40
1.0
 40
1.0
 40
1.0
 40
1.0
 10
-17.85763773035002
 20
5.922481320262303
 30
0.0
 10
-18.01632873035001
 20
5.847049320262303
 30
0.0
 10
-18.23729173035002
 20
5.804616320262301
 30
0.0
 10
-18.37985473035002
 20
5.822195320262305
 30
0.0
  0
SPLINE
  5
118
330
1F
100
AcDbEntity
  8
0
  6
Continuous
 62
     7
370
    25
100
AcDbSpline
210
0.0
220
0.0
230
1.0
 70
     8
 71
     3
 72
     8
 73
     4
 74
     0
 42
0.00000001
 43
0.00000001
 40
0.0
 40
0.0
 40
0.0
 40
0.0
 40
1.0
 40
1.0
 40
1.0
 40
1.0
 10
-19.79761173035002
 20
6.433953320262302
 30
0.0
 10
-19.61558273035002
 20
5.699595320262304
 30
0.0
 10
-18.94940773035002
 20
5.194236320262307
 30
0.0
 10
-18.21184673035001
 20
5.230995320262298
 30
0.0
  0
SPLINE
  5
119
330
1F
100
AcDbEntity
  8
0
  6
Continuous
 62
     7
370
    25
100
AcDbSpline
210
0.0
220
0.0
230
1.0
 70
     8
 71
     3
 72
     8
 73
     4
 74
     0
 42
0.00000001
 43
0.00000001
 40
0.0
 40
0.0
 40
0.0
 40
0.0
 40
1.0
 40
1.0
 40
1.0
 40
1.0
 10
-19.78812373035002
 20
7.160168320262297
 30
0.0
 10
-19.84133473035002
 20
6.960292320262303
 30
0.0
 10
-19.84567773035002
 20
6.627866320262306
 30
0.0
 10
-19.79761173035002
 20
6.433953320262302
 30
0.0
  0
SPLINE
  5
11A
330
1F
100
AcDbEntity
  8
0
  6
Continuous
 62
     7
370
    25
100
AcDbSpline
210
0.0
220
0.0
230
1.0
 70
     8
 71
     3
 72
     8
 73
     4
 74
     0
 42
0.00000001
 43
0.00000001
 40
0.0
 40
0.0
 40
0.0
 40
0.0
 40
1.0
 40
1.0
 40
1.0
 40
1.0
 10
-18.72838173035002
 20
8.270605320262304
 30
0.0
 10
-19.24501873035002
 20
8.1160173202623
 30
0.0
 10
-19.64532573035001
 20
7.696561320262307
 30
0.0
 10
-19.78812373035002
 20
7.160168320262297
 30
0.0
  0
SPLINE
  5
11B
330
1F
100
AcDbEntity
  8
0
  6
Continuous
 62
     7
370
    25
100
AcDbSpline
210
0.0
220
0.0
230
1.0
 70
     8
 71
     3
 72
     8
 73
     4
 74
     0
 42
0.00000001
 43
0.00000001
 40
0.0
 40
0.0
 40
0.0
 40
0.0
 40
1.0
 40
1.0
 40
1.0
 40
1.0
 10
-17.00214773035002
 20
7.640089320262305
 30
0.0
 10
-17.37442873035002
 20
8.202105320262303
 30
0.0
 10
-18.08721473035001
 20
8.462454320262305
 30
0.0
 10
-18.72838173035002
 20
8.270605320262304
 30
0.0
  0
SPLINE
  5
11C
330
1F
100
AcDbEntity
  8
0
  6
Continuous
 62
     7
370
    25
100
AcDbSpline
210
0.0
220
0.0
230
1.0
 70
     8
 71
     3
 72
     8
 73
     4
 74
     0
 42
0.00000001
 43
0.00000001
 40
0.0
 40
0.0
 40
0.0
 40
0.0
 40
1.0
 40
1.0
 40
1.0
 40
1.0
 10
-16.92006273035001
 20
6.038671320262305
 30
0.0
 10
-16.64939973035002
 20
6.587044320262303
 30
0.0
 10
-16.67831773035001
 20
7.151218320262304
 30
0.0
 10
-17.00214773035002
 20
7.640089320262305
 30
0.0
  0
SPLINE
  5
11D
330
1F
100
AcDbEntity
  8
0
  6
Continuous
 62
     7
370
    25
100
AcDbSpline
210
0.0
220
0.0
230
1.0
 70
     8
 71
     3
 72
     8
 73
     4
 74
     0
 42
0.00000001
 43
0.00000001
 40
0.0
 40
0.0
 40
0.0
 40
0.0
 40
1.0
 40
1.0
 40
1.0
 40
1.0
 10
-17.89929773035002
 20
5.275730320262302
 30
0.0
 10
-17.49454573035002
 20
5.377553320262303
 30
0.0
 10
-17.09130673035002
 20
5.691725320262297
 30
0.0
 10
-16.92006273035001
 20
6.038671320262305
 30
0.0
  0
SPLINE
  5
11E
330
1F
100
AcDbEntity
  8
0
  6
Continuous
 62
     7
370
    25
100
AcDbSpline
210
0.0
220
0.0
230
1.0
 70
     8
 71
     3
 72
     8
 73
     4
 74
     0
 42
0.00000001
 43
0.00000001
 40
0.0
 40
0.0
 40
0.0
 40
0.0
 40
1.0
 40
1.0
 40
1.0
 40
1.0
 10
-18.21184673035001
 20
5.230995320262298
 30
0.0
 10
-18.11944173035002
 20
5.235601320262302
 30
0.0
 10
-17.97879473035002
 20
5.255731320262303
 30
0.0
 10
-17.89929773035002
 20
5.275730320262302
 30
0.0
  0
SPLINE
  5
11F
330
1F
100
AcDbEntity
  8
0
  6
Continuous
 62
     7
370
    25
100
AcDbSpline
210
0.0
220
0.0
230
1.0
 70
     8
 71
     3
 72
     8
 73
     4
 74
     0
 42
0.00000001
 43
0.00000001
 40
0.0
 40
0.0
 40
0.0
 40
0.0
 40
1.0
 40
1.0
 40
1.0
 40
1.0
 10
-18.74408673035002
 20
6.5793913202623
 30
0.0
 10
-18.70141373035002
 20
6.484162320262297
 30
0.0
 10
-18.60111773035002
 20
6.375948320262302
 30
0.0
 10
-18.51356773035002
 20
6.330674320262304
 30
0.0
  0
SPLINE
  5
120
330
1F
100
AcDbEntity
  8
0
  6
Continuous
 62
     7
370
    25
100
AcDbSpline
210
0.0
220
0.0
230
1.0
 70
     8
 71
     3
 72
     8
 73
     4
 74
     0
 42
0.00000001
 43
0.00000001
 40
0.0
 40
0.0
 40
0.0
 40
0.0
 40
1.0
 40
1.0
 40
1.0
 40
1.0
 10
-18.74070773035002
 20
6.9898653202623
 30
0.0
 10
-18.79616073035002
 20
6.875313320262297
 30
0.0
 10
-18.79761273035001
 20
6.698845320262298
 30
0.0
 10
-18.74408673035002
 20
6.5793913202623
 30
0.0
  0
SPLINE
  5
121
330
1F
100
AcDbEntity
  8
0
  6
Continuous
 62
     7
370
    25
100
AcDbSpline
210
0.0
220
0.0
230
1.0
 70
     8
 71
     3
 72
     8
 73
     4
 74
     0
 42
0.00000001
 43
0.00000001
 40
0.0
 40
0.0
 40
0.0
 40
0.0
 40
1.0
 40
1.0
 40
1.0
 40
1.0
 10
-18.44853873035002
 20
7.257816320262296
 30
0.0
 10
-18.54544573035002
 20
7.228782320262306
 30
0.0
 10
-18.68860973035002
 20
7.097485320262304
 30
0.0
 10
-18.74070773035002
 20
6.9898653202623
 30
0.0
  0
SPLINE
  5
122
330
1F
100
AcDbEntity
  8
0
  6
Continuous
 62
     7
370
    25
100
AcDbSpline
210
0.0
220
0.0
230
1.0
 70
     8
 71
     3
 72
     8
 73
     4
 74
     0
 42
0.00000001
 43
0.00000001
 40
0.0
 40
0.0
 40
0.0
 40
0.0
 40
1.0
 40
1.0
 40
1.0
 40
1.0
 10
-17.78291873035002
 20
6.783272320262303
 30
0.0
 10
-17.78358073035002
 20
7.130804320262307
 30
0.0
 10
-18.10577073035002
 20
7.360512320262302
 30
0.0
 10
-18.44853873035002
 20
7.257816320262296
 30
0.0
  0
SPLINE
  5
123
330
1F
100
AcDbEntity
  8
0
  6
Continuous
 62
     7
370
    25
100
AcDbSpline
210
0.0
220
0.0
230
1.0
 70
     8
 71
     3
 72
     8
 73
     4
 74
     0
 42
0.00000001
 43
0.00000001
 40
0.0
 40
0.0
 40
0.0
 40
0.0
 40
1.0
 40
1.0
 40
1.0
 40
1.0
 10
-18.08068673035002
 20
6.317882320262306
 30
0.0
 10
-17.90626773035002
 20
6.390305320262302
 30
0.0
 10
-17.78254473035001
 20
6.583676320262306
 30
0.0
 10
-17.78291873035002
 20
6.783272320262303
 30
0.0
  0
SPLINE
  5
124
330
1F
100
AcDbEntity
  8
0
  6
Continuous
 62
     7
370
    25
100
AcDbSpline
210
0.0
220
0.0
230
1.0
 70
     8
 71
     3
 72
     8
 73
     4
 74
     0
 42
0.00000001
 43
0.00000001
 40
0.0
 40
0.0
 40
0.0
 40
0.0
 40
1.0
 40
1.0
 40
1.0
 40
1.0
 10
-18.51356773035002
 20
6.330674320262304
 30
0.0
 10
-18.39790873035001
 20
6.270865320262303
 30
0.0
 10
-18.20747173035002
 20
6.265237320262303
 30
0.0
 10
-18.08068673035002
 20
6.317882320262306
 30
0.0
  0
SPLINE
  5
125
330
1F
100
AcDbEntity
  8
0
  6
Continuous
 62
     7
370
    25
100
AcDbSpline
210
0.0
220
0.0
230
1.0
 70
     8
 71
     3
 72
     8
 73
     4
 74
     0
 42
0.00000001
 43
0.00000001
 40
0.0
 40
0.0
 40
0.0
 40
0.0
 40
1.0
 40
1.0
 40
1.0
 40
1.0
 10
-1.547559730350017
 20
5.422767320262305
 30
0.0
 10
-1.650945730350017
 20
5.422767320262305
 30
0.0
 10
-1.748513730350017
 20
5.334522320262304
 30
0.0
 10
-1.762785730350016
 20
5.228107320262305
 30
0.0
  0
SPLINE
  5
126
330
1F
100
AcDbEntity
  8
0
  6
Continuous
 62
     7
370
    25
100
AcDbSpline
210
0.0
220
0.0
230
1.0
 70
     8
 71
     3
 72
     8
 73
     4
 74
     0
 42
0.00000001
 43
0.00000001
 40
0.0
 40
0.0
 40
0.0
 40
0.0
 40
1.0
 40
1.0
 40
1.0
 40
1.0
 10
-1.309196730350015
 20
5.184402320262301
 30
0.0
 10
-1.309196730350015
 20
5.332844320262306
 30
0.0
 10
-1.399120730350017
 20
5.422767320262305
 30
0.0
 10
-1.547559730350017
 20
5.422767320262305
 30
0.0
  0
SPLINE
  5
127
330
1F
100
AcDbEntity
  8
0
  6
Continuous
 62
     7
370
    25
100
AcDbSpline
210
0.0
220
0.0
230
1.0
 70
     8
 71
     3
 72
     8
 73
     4
 74
     0
 42
0.00000001
 43
0.00000001
 40
0.0
 40
0.0
 40
0.0
 40
0.0
 40
1.0
 40
1.0
 40
1.0
 40
1.0
 10
-1.369577730350017
 20
5.043789320262302
 30
0.0
 10
-1.322036730350015
 20
5.095666320262302
 30
0.0
 10
-1.309196730350015
 20
5.125569320262299
 30
0.0
 10
-1.309196730350015
 20
5.184402320262301
 30
0.0
  0
SPLINE
  5
128
330
1F
100
AcDbEntity
  8
0
  6
Continuous
 62
     7
370
    25
100
AcDbSpline
210
0.0
220
0.0
230
1.0
 70
     8
 71
     3
 72
     8
 73
     4
 74
     0
 42
0.00000001
 43
0.00000001
 40
0.0
 40
0.0
 40
0.0
 40
0.0
 40
1.0
 40
1.0
 40
1.0
 40
1.0
 10
-1.762785730350016
 20
5.228107320262305
 30
0.0
 10
-1.793077730350017
 20
5.002269320262299
 30
0.0
 10
-1.523456730350016
 20
4.875882320262308
 30
0.0
 10
-1.369577730350017
 20
5.043789320262302
 30
0.0
  0
SPLINE
  5
129
330
1F
100
AcDbEntity
  8
0
  6
Continuous
 62
     7
370
    25
100
AcDbSpline
210
0.0
220
0.0
230
1.0
 70
     8
 71
     3
 72
     8
 73
     4
 74
     0
 42
0.00000001
 43
0.00000001
 40
0.0
 40
0.0
 40
0.0
 40
0.0
 40
1.0
 40
1.0
 40
1.0
 40
1.0
 10
-1.974745730350013
 20
2.0398213202623
 30
0.0
 10
-2.211431730350016
 20
2.039556320262301
 30
0.0
 10
-2.287901730350018
 20
1.714663320262305
 30
0.0
 10
-2.075885730350016
 20
1.610120320262302
 30
0.0
  0
SPLINE
  5
12A
330
1F
100
AcDbEntity
  8
0
  6
Continuous
 62
     7
370
    25
100
AcDbSpline
210
0.0
220
0.0
230
1.0
 70
     8
 71
     3
 72
     8
 73
     4
 74
     0
 42
0.00000001
 43
0.00000001
 40
0.0
 40
0.0
 40
0.0
 40
0.0
 40
1.0
 40
1.0
 40
1.0
 40
1.0
 10
-1.750439730350016
 20
1.8234563202623
 30
0.0
 10
-1.750439730350016
 20
1.951707320262303
 30
0.0
 10
-1.841943730350015
 20
2.039971320262301
 30
0.0
 10
-1.974745730350013
 20
2.0398213202623
 30
0.0
  0
SPLINE
  5
12B
330
1F
100
AcDbEntity
  8
0
  6
Continuous
 62
     7
370
    25
100
AcDbSpline
210
0.0
220
0.0
230
1.0
 70
     8
 71
     3
 72
     8
 73
     4
 74
     0
 42
0.00000001
 43
0.00000001
 40
0.0
 40
0.0
 40
0.0
 40
0.0
 40
1.0
 40
1.0
 40
1.0
 40
1.0
 10
-1.867316730350014
 20
1.610317320262303
 30
0.0
 10
-1.789576730350018
 20
1.647206320262301
 30
0.0
 10
-1.750439730350016
 20
1.718577320262302
 30
0.0
 10
-1.750439730350016
 20
1.8234563202623
 30
0.0
  0
SPLINE
  5
12C
330
1F
100
AcDbEntity
  8
0
  6
Continuous
 62
     7
370
    25
100
AcDbSpline
210
0.0
220
0.0
230
1.0
 70
     8
 71
     3
 72
     8
 73
     4
 74
     0
 42
0.00000001
 43
0.00000001
 40
0.0
 40
0.0
 40
0.0
 40
0.0
 40
1.0
 40
1.0
 40
1.0
 40
1.0
 10
-2.075885730350016
 20
1.610120320262302
 30
0.0
 10
-2.000322730350015
 20
1.572861320262301
 30
0.0
 10
-1.946138730350017
 20
1.572912320262302
 30
0.0
 10
-1.867316730350014
 20
1.610317320262303
 30
0.0
  0
SPLINE
  5
12D
330
1F
100
AcDbEntity
  8
0
  6
Continuous
 62
     7
370
    25
100
AcDbSpline
210
0.0
220
0.0
230
1.0
 70
     8
 71
     3
 72
     8
 73
     4
 74
     0
 42
0.00000001
 43
0.00000001
 40
0.0
 40
0.0
 40
0.0
 40
0.0
 40
1.0
 40
1.0
 40
1.0
 40
1.0
 10
-2.007834730350017
 20
-0.4954516797376976
 30
0.0
 10
-2.007834730350017
 20
-0.508958679737697
 30
0.0
 10
-1.937772730350014
 20
-0.5156526797376986
 30
0.0
 10
-1.796403730350018
 20
-0.5156526797376986
 30
0.0
  0
SPLINE
  5
12E
330
1F
100
AcDbEntity
  8
0
  6
Continuous
 62
     7
370
    25
100
AcDbSpline
210
0.0
220
0.0
230
1.0
 70
     8
 71
     3
 72
     8
 73
     4
 74
     0
 42
0.00000001
 43
0.00000001
 40
0.0
 40
0.0
 40
0.0
 40
0.0
 40
1.0
 40
1.0
 40
1.0
 40
1.0
 10
-1.834450730350018
 20
-0.3608316797376956
 30
0.0
 10
-1.898455730350013
 20
-0.3728376797376975
 30
0.0
 10
-2.007834730350017
 20
-0.457765679737699
 30
0.0
 10
-2.007834730350017
 20
-0.4954516797376976
 30
0.0
  0
SPLINE
  5
12F
330
1F
100
AcDbEntity
  8
0
  6
Continuous
 62
     7
370
    25
100
AcDbSpline
210
0.0
220
0.0
230
1.0
 70
     8
 71
     3
 72
     8
 73
     4
 74
     0
 42
0.00000001
 43
0.00000001
 40
0.0
 40
0.0
 40
0.0
 40
0.0
 40
1.0
 40
1.0
 40
1.0
 40
1.0
 10
-1.614954730350018
 20
-0.444261679737698
 30
0.0
 10
-1.657028730350018
 20
-0.3841916797376992
 30
0.0
 10
-1.756808730350015
 20
-0.346264679737699
 30
0.0
 10
-1.834450730350018
 20
-0.3608316797376956
 30
0.0
  0
SPLINE
  5
130
330
1F
100
AcDbEntity
  8
0
  6
Continuous
 62
     7
370
    25
100
AcDbSpline
210
0.0
220
0.0
230
1.0
 70
     8
 71
     3
 72
     8
 73
     4
 74
     0
 42
0.00000001
 43
0.00000001
 40
0.0
 40
0.0
 40
0.0
 40
0.0
 40
1.0
 40
1.0
 40
1.0
 40
1.0
 10
-1.584974730350016
 20
-0.501356679737698
 30
0.0
 10
-1.584974730350016
 20
-0.4934976797376991
 30
0.0
 10
-1.598468730350015
 20
-0.467801679737697
 30
0.0
 10
-1.614954730350018
 20
-0.444261679737698
 30
0.0
  0
SPLINE
  5
131
330
1F
100
AcDbEntity
  8
0
  6
Continuous
 62
     7
370
    25
100
AcDbSpline
210
0.0
220
0.0
230
1.0
 70
     8
 71
     3
 72
     8
 73
     4
 74
     0
 42
0.00000001
 43
0.00000001
 40
0.0
 40
0.0
 40
0.0
 40
0.0
 40
1.0
 40
1.0
 40
1.0
 40
1.0
 10
-1.796403730350018
 20
-0.5156526797376986
 30
0.0
 10
-1.680116730350019
 20
-0.5156526797376986
 30
0.0
 10
-1.584974730350016
 20
-0.5092206797376979
 30
0.0
 10
-1.584974730350016
 20
-0.501356679737698
 30
0.0
  0
SPLINE
  5
132
330
1F
100
AcDbEntity
  8
0
  6
Continuous
 62
     7
370
    25
100
AcDbSpline
210
0.0
220
0.0
230
1.0
 70
     8
 71
     3
 72
     8
 73
     4
 74
     0
 42
0.00000001
 43
0.00000001
 40
0.0
 40
0.0
 40
0.0
 40
0.0
 40
1.0
 40
1.0
 40
1.0
 40
1.0
 10
-11.89906273035002
 20
0.2647683202623013
 30
0.0
 10
-12.73436073035001
 20
0.9003053202623034
 30
0.0
 10
-13.89204273035002
 20
0.8194993202623007
 30
0.0
 10
-14.63962673035002
 20
0.0734763202623057
 30
0.0
  0
SPLINE
  5
133
330
1F
100
AcDbEntity
  8
0
  6
Continuous
 62
     7
370
    25
100
AcDbSpline
210
0.0
220
0.0
230
1.0
 70
     8
 71
     3
 72
     8
 73
     4
 74
     0
 42
0.00000001
 43
0.00000001
 40
0.0
 40
0.0
 40
0.0
 40
0.0
 40
1.0
 40
1.0
 40
1.0
 40
1.0
 10
-11.63961073035002
 20
0.0291153202623025
 30
0.0
 10
-11.72669473035002
 20
0.1164093202623007
 30
0.0
 10
-11.84344773035002
 20
0.2224533202623037
 30
0.0
 10
-11.89906273035002
 20
0.2647683202623013
 30
0.0
  0
SPLINE
  5
134
330
1F
100
AcDbEntity
  8
0
  6
Continuous
 62
     7
370
    25
100
AcDbSpline
210
0.0
220
0.0
230
1.0
 70
     8
 71
     3
 72
     8
 73
     4
 74
     0
 42
0.00000001
 43
0.00000001
 40
0.0
 40
0.0
 40
0.0
 40
0.0
 40
1.0
 40
1.0
 40
1.0
 40
1.0
 10
-11.39090573035002
 20
-0.1296006797376972
 30
0.0
 10
-11.47993773035002
 20
-0.1296006797376972
 30
0.0
 10
-11.48362373035002
 20
-0.1272456797376982
 30
0.0
 10
-11.63961073035002
 20
0.0291153202623025
 30
0.0
  0
SPLINE
  5
135
330
1F
100
AcDbEntity
  8
0
  6
Continuous
 62
     7
370
    25
100
AcDbSpline
210
0.0
220
0.0
230
1.0
 70
     8
 71
     3
 72
     8
 73
     4
 74
     0
 42
0.00000001
 43
0.00000001
 40
0.0
 40
0.0
 40
0.0
 40
0.0
 40
1.0
 40
1.0
 40
1.0
 40
1.0
 10
-11.16372273035002
 20
0.0947053202623033
 30
0.0
 10
-11.16353873035001
 20
-0.0427326797376969
 30
0.0
 10
-11.25154873035002
 20
-0.1296006797376972
 30
0.0
 10
-11.39090573035002
 20
-0.1296006797376972
 30
0.0
  0
SPLINE
  5
136
330
1F
100
AcDbEntity
  8
0
  6
Continuous
 62
     7
370
    25
100
AcDbSpline
210
0.0
220
0.0
230
1.0
 70
     8
 71
     3
 72
     8
 73
     4
 74
     0
 42
0.00000001
 43
0.00000001
 40
0.0
 40
0.0
 40
0.0
 40
0.0
 40
1.0
 40
1.0
 40
1.0
 40
1.0
 10
-11.38283073035001
 20
0.4183213202623021
 30
0.0
 10
-11.21246173035002
 20
0.2506773202623006
 30
0.0
 10
-11.16381873035002
 20
0.1788333202623026
 30
0.0
 10
-11.16372273035002
 20
0.0947053202623033
 30
0.0
  0
SPLINE
  5
137
330
1F
100
AcDbEntity
  8
0
  6
Continuous
 62
     7
370
    25
100
AcDbSpline
210
0.0
220
0.0
230
1.0
 70
     8
 71
     3
 72
     8
 73
     4
 74
     0
 42
0.00000001
 43
0.00000001
 40
0.0
 40
0.0
 40
0.0
 40
0.0
 40
1.0
 40
1.0
 40
1.0
 40
1.0
 10
-12.65285673035002
 20
1.096315320262303
 30
0.0
 10
-12.16664273035001
 20
0.992179320262302
 30
0.0
 10
-11.72809773035001
 20
0.7580653202623016
 30
0.0
 10
-11.38283073035001
 20
0.4183213202623021
 30
0.0
  0
SPLINE
  5
138
330
1F
100
AcDbEntity
  8
0
  6
Continuous
 62
     7
370
    25
100
AcDbSpline
210
0.0
220
0.0
230
1.0
 70
     8
 71
     3
 72
     8
 73
     4
 74
     0
 42
0.00000001
 43
0.00000001
 40
0.0
 40
0.0
 40
0.0
 40
0.0
 40
1.0
 40
1.0
 40
1.0
 40
1.0
 10
-13.18602673035001
 20
1.128429320262303
 30
0.0
 10
-12.88708273035001
 20
1.129513320262305
 30
0.0
 10
-12.77680873035001
 20
1.122862320262302
 30
0.0
 10
-12.65285673035002
 20
1.096315320262303
 30
0.0
  0
SPLINE
  5
139
330
1F
100
AcDbEntity
  8
0
  6
Continuous
 62
     7
370
    25
100
AcDbSpline
210
0.0
220
0.0
230
1.0
 70
     8
 71
     3
 72
     8
 73
     4
 74
     0
 42
0.00000001
 43
0.00000001
 40
0.0
 40
0.0
 40
0.0
 40
0.0
 40
1.0
 40
1.0
 40
1.0
 40
1.0
 10
-13.78354573035002
 20
1.068726320262302
 30
0.0
 10
-13.57131673035002
 20
1.124852320262302
 30
0.0
 10
-13.54858673035002
 20
1.127123320262303
 30
0.0
 10
-13.18602673035001
 20
1.128429320262303
 30
0.0
  0
SPLINE
  5
13A
330
1F
100
AcDbEntity
  8
0
  6
Continuous
 62
     7
370
    25
100
AcDbSpline
210
0.0
220
0.0
230
1.0
 70
     8
 71
     3
 72
     8
 73
     4
 74
     0
 42
0.00000001
 43
0.00000001
 40
0.0
 40
0.0
 40
0.0
 40
0.0
 40
1.0
 40
1.0
 40
1.0
 40
1.0
 10
-14.19020873035002
 20
1.010331320262303
 30
0.0
 10
-14.03994973035002
 20
1.0103683202623
 30
0.0
 10
-13.96173673035002
 20
1.021602320262303
 30
0.0
 10
-13.78354573035002
 20
1.068726320262302
 30
0.0
  0
SPLINE
  5
13B
330
1F
100
AcDbEntity
  8
0
  6
Continuous
 62
     7
370
    25
100
AcDbSpline
210
0.0
220
0.0
230
1.0
 70
     8
 71
     3
 72
     8
 73
     4
 74
     0
 42
0.00000001
 43
0.00000001
 40
0.0
 40
0.0
 40
0.0
 40
0.0
 40
1.0
 40
1.0
 40
1.0
 40
1.0
 10
-15.67722173035001
 20
1.643282320262306
 30
0.0
 10
-15.26845973035002
 20
1.225599320262304
 30
0.0
 10
-14.76236573035002
 20
1.010179320262303
 30
0.0
 10
-14.19020873035002
 20
1.010331320262303
 30
0.0
  0
SPLINE
  5
13C
330
1F
100
AcDbEntity
  8
0
  6
Continuous
 62
     7
370
    25
100
AcDbSpline
210
0.0
220
0.0
230
1.0
 70
     8
 71
     3
 72
     8
 73
     4
 74
     0
 42
0.00000001
 43
0.00000001
 40
0.0
 40
0.0
 40
0.0
 40
0.0
 40
1.0
 40
1.0
 40
1.0
 40
1.0
 10
-16.22326273035002
 20
2.6034753202623
 30
0.0
 10
-16.11461973035001
 20
2.210075320262302
 30
0.0
 10
-15.95192373035002
 20
1.923979320262305
 30
0.0
 10
-15.67722173035001
 20
1.643282320262306
 30
0.0
  0
SPLINE
  5
13D
330
1F
100
AcDbEntity
  8
0
  6
Continuous
 62
     7
370
    25
100
AcDbSpline
210
0.0
220
0.0
230
1.0
 70
     8
 71
     3
 72
     8
 73
     4
 74
     0
 42
0.00000001
 43
0.00000001
 40
0.0
 40
0.0
 40
0.0
 40
0.0
 40
1.0
 40
1.0
 40
1.0
 40
1.0
 10
-16.26315673035002
 20
3.097002320262301
 30
0.0
 10
-16.26310173035002
 20
2.795529320262304
 30
0.0
 10
-16.25763173035002
 20
2.727931320262302
 30
0.0
 10
-16.22326273035002
 20
2.6034753202623
 30
0.0
  0
SPLINE
  5
13E
330
1F
100
AcDbEntity
  8
0
  6
Continuous
 62
     7
370
    25
100
AcDbSpline
210
0.0
220
0.0
230
1.0
 70
     8
 71
     3
 72
     8
 73
     4
 74
     0
 42
0.00000001
 43
0.00000001
 40
0.0
 40
0.0
 40
0.0
 40
0.0
 40
1.0
 40
1.0
 40
1.0
 40
1.0
 10
-16.21475873035002
 20
3.6260793202623
 30
0.0
 10
-16.25913273035001
 20
3.461498320262303
 30
0.0
 10
-16.26321973035002
 20
3.416827320262303
 30
0.0
 10
-16.26315673035002
 20
3.097002320262301
 30
0.0
  0
SPLINE
  5
13F
330
1F
100
AcDbEntity
  8
0
  6
Continuous
 62
     7
370
    25
100
AcDbSpline
210
0.0
220
0.0
230
1.0
 70
     8
 71
     3
 72
     8
 73
     4
 74
     0
 42
0.00000001
 43
0.00000001
 40
0.0
 40
0.0
 40
0.0
 40
0.0
 40
1.0
 40
1.0
 40
1.0
 40
1.0
 10
-15.43821373035002
 20
4.777778320262299
 30
0.0
 10
-15.81133573035002
 20
4.496966320262301
 30
0.0
 10
-16.09230273035002
 20
4.080262320262304
 30
0.0
 10
-16.21475873035002
 20
3.6260793202623
 30
0.0
  0
SPLINE
  5
140
330
1F
100
AcDbEntity
  8
0
  6
Continuous
 62
     7
370
    25
100
AcDbSpline
210
0.0
220
0.0
230
1.0
 70
     8
 71
     3
 72
     8
 73
     4
 74
     0
 42
0.00000001
 43
0.00000001
 40
0.0
 40
0.0
 40
0.0
 40
0.0
 40
1.0
 40
1.0
 40
1.0
 40
1.0
 10
-14.70742473035001
 20
5.123801320262301
 30
0.0
 10
-14.94362973035002
 20
5.063358320262299
 30
0.0
 10
-15.25406673035002
 20
4.916368320262301
 30
0.0
 10
-15.43821373035002
 20
4.777778320262299
 30
0.0
  0
SPLINE
  5
141
330
1F
100
AcDbEntity
  8
0
  6
Continuous
 62
     7
370
    25
100
AcDbSpline
210
0.0
220
0.0
230
1.0
 70
     8
 71
     3
 72
     8
 73
     4
 74
     0
 42
0.00000001
 43
0.00000001
 40
0.0
 40
0.0
 40
0.0
 40
0.0
 40
1.0
 40
1.0
 40
1.0
 40
1.0
 10
-14.47761073035002
 20
5.151969320262302
 30
0.0
 10
-14.50372473035002
 20
5.170138320262301
 30
0.0
 10
-14.54713273035002
 20
5.164820320262304
 30
0.0
 10
-14.70742473035001
 20
5.123801320262301
 30
0.0
  0
SPLINE
  5
142
330
1F
100
AcDbEntity
  8
0
  6
Continuous
 62
     7
370
    25
100
AcDbSpline
210
0.0
220
0.0
230
1.0
 70
     8
 71
     3
 72
     8
 73
     4
 74
     0
 42
0.00000001
 43
0.00000001
 40
0.0
 40
0.0
 40
0.0
 40
0.0
 40
1.0
 40
1.0
 40
1.0
 40
1.0
 10
-12.88172373035002
 20
4.673557320262304
 30
0.0
 10
-13.42250173035002
 20
4.645957320262302
 30
0.0
 10
-13.99851773035001
 20
4.818634320262305
 30
0.0
 10
-14.47761073035002
 20
5.151969320262302
 30
0.0
  0
SPLINE
  5
143
330
1F
100
AcDbEntity
  8
0
  6
Continuous
 62
     7
370
    25
100
AcDbSpline
210
0.0
220
0.0
230
1.0
 70
     8
 71
     3
 72
     8
 73
     4
 74
     0
 42
0.00000001
 43
0.00000001
 40
0.0
 40
0.0
 40
0.0
 40
0.0
 40
1.0
 40
1.0
 40
1.0
 40
1.0
 10
-12.54940373035002
 20
4.789422320262304
 30
0.0
 10
-12.60034073035001
 20
4.711683320262304
 30
0.0
 10
-12.68019173035002
 20
4.683842320262296
 30
0.0
 10
-12.88172373035002
 20
4.673557320262304
 30
0.0
  0
SPLINE
  5
144
330
1F
100
AcDbEntity
  8
0
  6
Continuous
 62
     7
370
    25
100
AcDbSpline
210
0.0
220
0.0
230
1.0
 70
     8
 71
     3
 72
     8
 73
     4
 74
     0
 42
0.00000001
 43
0.00000001
 40
0.0
 40
0.0
 40
0.0
 40
0.0
 40
1.0
 40
1.0
 40
1.0
 40
1.0
 10
-12.54842473035002
 20
5.030227320262308
 30
0.0
 10
-12.51059273035001
 20
4.957068320262298
 30
0.0
 10
-12.51103773035002
 20
4.847982320262304
 30
0.0
 10
-12.54940373035002
 20
4.789422320262304
 30
0.0
  0
SPLINE
  5
145
330
1F
100
AcDbEntity
  8
0
  6
Continuous
 62
     7
370
    25
100
AcDbSpline
210
0.0
220
0.0
230
1.0
 70
     8
 71
     3
 72
     8
 73
     4
 74
     0
 42
0.00000001
 43
0.00000001
 40
0.0
 40
0.0
 40
0.0
 40
0.0
 40
1.0
 40
1.0
 40
1.0
 40
1.0
 10
-12.85892373035002
 20
5.135567320262304
 30
0.0
 10
-12.67831473035002
 20
5.149449320262304
 30
0.0
 10
-12.59555873035002
 20
5.121374320262301
 30
0.0
 10
-12.54842473035002
 20
5.030227320262308
 30
0.0
  0
SPLINE
  5
146
330
1F
100
AcDbEntity
  8
0
  6
Continuous
 62
     7
370
    25
100
AcDbSpline
210
0.0
220
0.0
230
1.0
 70
     8
 71
     3
 72
     8
 73
     4
 74
     0
 42
0.00000001
 43
0.00000001
 40
0.0
 40
0.0
 40
0.0
 40
0.0
 40
1.0
 40
1.0
 40
1.0
 40
1.0
 10
-13.53172373035002
 20
5.204315320262304
 30
0.0
 10
-13.32792973035002
 20
5.151527320262305
 30
0.0
 10
-13.03744373035002
 20
5.121845320262302
 30
0.0
 10
-12.85892373035002
 20
5.135567320262304
 30
0.0
  0
SPLINE
  5
147
330
1F
100
AcDbEntity
  8
0
  6
Continuous
 62
     7
370
    25
100
AcDbSpline
210
0.0
220
0.0
230
1.0
 70
     8
 71
     3
 72
     8
 73
     4
 74
     0
 42
0.00000001
 43
0.00000001
 40
0.0
 40
0.0
 40
0.0
 40
0.0
 40
1.0
 40
1.0
 40
1.0
 40
1.0
 10
-13.87547573035002
 20
5.338220320262301
 30
0.0
 10
-13.76424573035001
 20
5.284734320262302
 30
0.0
 10
-13.60955673035002
 20
5.224476320262301
 30
0.0
 10
-13.53172373035002
 20
5.204315320262304
 30
0.0
  0
SPLINE
  5
148
330
1F
100
AcDbEntity
  8
0
  6
Continuous
 62
     7
370
    25
100
AcDbSpline
210
0.0
220
0.0
230
1.0
 70
     8
 71
     3
 72
     8
 73
     4
 74
     0
 42
0.00000001
 43
0.00000001
 40
0.0
 40
0.0
 40
0.0
 40
0.0
 40
1.0
 40
1.0
 40
1.0
 40
1.0
 10
-15.04419073035002
 20
6.857588320262301
 30
0.0
 10
-14.91595973035002
 20
6.185044320262296
 30
0.0
 10
-14.49297673035002
 20
5.6351523202623
 30
0.0
 10
-13.87547573035002
 20
5.338220320262301
 30
0.0
  0
SPLINE
  5
149
330
1F
100
AcDbEntity
  8
0
  6
Continuous
 62
     7
370
    25
100
AcDbSpline
210
0.0
220
0.0
230
1.0
 70
     8
 71
     3
 72
     8
 73
     4
 74
     0
 42
0.00000001
 43
0.00000001
 40
0.0
 40
0.0
 40
0.0
 40
0.0
 40
1.0
 40
1.0
 40
1.0
 40
1.0
 10
-15.04477273035002
 20
7.573799320262302
 30
0.0
 10
-15.07509673035002
 20
7.404594320262303
 30
0.0
 10
-15.07478573035002
 20
7.018024320262308
 30
0.0
 10
-15.04419073035002
 20
6.857588320262301
 30
0.0
  0
SPLINE
  5
14A
330
1F
100
AcDbEntity
  8
0
  6
Continuous
 62
     7
370
    25
100
AcDbSpline
210
0.0
220
0.0
230
1.0
 70
     8
 71
     3
 72
     8
 73
     4
 74
     0
 42
0.00000001
 43
0.00000001
 40
0.0
 40
0.0
 40
0.0
 40
0.0
 40
1.0
 40
1.0
 40
1.0
 40
1.0
 10
-13.91387473035002
 20
9.087692320262304
 30
0.0
 10
-14.50127073035002
 20
8.798458320262306
 30
0.0
 10
-14.92756773035001
 20
8.227789320262302
 30
0.0
 10
-15.04477273035002
 20
7.573799320262302
 30
0.0
  0
SPLINE
  5
14B
330
1F
100
AcDbEntity
  8
0
  6
Continuous
 62
     7
370
    25
100
AcDbSpline
210
0.0
220
0.0
230
1.0
 70
     8
 71
     3
 72
     8
 73
     4
 74
     0
 42
0.00000001
 43
0.00000001
 40
0.0
 40
0.0
 40
0.0
 40
0.0
 40
1.0
 40
1.0
 40
1.0
 40
1.0
 10
-12.89777173035002
 20
9.297826320262304
 30
0.0
 10
-13.30746773035002
 20
9.311066320262302
 30
0.0
 10
-13.57084873035002
 20
9.256598320262308
 30
0.0
 10
-13.91387473035002
 20
9.087692320262304
 30
0.0
  0
SPLINE
  5
14C
330
1F
100
AcDbEntity
  8
0
  6
Continuous
 62
     7
370
    25
100
AcDbSpline
210
0.0
220
0.0
230
1.0
 70
     8
 71
     3
 72
     8
 73
     4
 74
     0
 42
0.00000001
 43
0.00000001
 40
0.0
 40
0.0
 40
0.0
 40
0.0
 40
1.0
 40
1.0
 40
1.0
 40
1.0
 10
-12.22355573035002
 20
9.1661123202623
 30
0.0
 10
-12.41460573035002
 20
9.250603320262298
 30
0.0
 10
-12.60847373035002
 20
9.288476320262307
 30
0.0
 10
-12.89777173035002
 20
9.297826320262304
 30
0.0
  0
SPLINE
  5
14F
330
1F
100
AcDbEntity
  8
0
  6
Continuous
 62
     7
370
    25
100
AcDbSpline
210
0.0
220
0.0
230
1.0
 70
     8
 71
     3
 72
     8
 73
     4
 74
     0
 42
0.00000001
 43
0.00000001
 40
0.0
 40
0.0
 40
0.0
 40
0.0
 40
1.0
 40
1.0
 40
1.0
 40
1.0
 10
-10.34552273035002
 20
7.2338413202623
 30
0.0
 10
-11.18595973035002
 20
7.477736320262301
 30
0.0
 10
-11.86075573035002
 20
8.152259320262305
 30
0.0
 10
-12.08579373035001
 20
8.973409320262304
 30
0.0
  0
SPLINE
  5
150
330
1F
100
AcDbEntity
  8
0
  6
Continuous
 62
     7
370
    25
100
AcDbSpline
210
0.0
220
0.0
230
1.0
 70
     8
 71
     3
 72
     8
 73
     4
 74
     0
 42
0.00000001
 43
0.00000001
 40
0.0
 40
0.0
 40
0.0
 40
0.0
 40
1.0
 40
1.0
 40
1.0
 40
1.0
 10
-9.525919730350013
 20
7.163920320262307
 30
0.0
 10
-9.627050730350017
 20
7.104180320262297
 30
0.0
 10
-10.01184373035002
 20
7.137007320262303
 30
0.0
 10
-10.34552273035002
 20
7.2338413202623
 30
0.0
  0
SPLINE
  5
151
330
1F
100
AcDbEntity
  8
0
  6
Continuous
 62
     7
370
    25
100
AcDbSpline
210
0.0
220
0.0
230
1.0
 70
     8
 71
     3
 72
     8
 73
     4
 74
     0
 42
0.00000001
 43
0.00000001
 40
0.0
 40
0.0
 40
0.0
 40
0.0
 40
1.0
 40
1.0
 40
1.0
 40
1.0
 10
-9.459072730350016
 20
7.4837503202623
 30
0.0
 10
-9.387289730350016
 20
7.376987320262304
 30
0.0
 10
-9.418566730350014
 20
7.227334320262297
 30
0.0
 10
-9.525919730350013
 20
7.163920320262307
 30
0.0
  0
SPLINE
  5
152
330
1F
100
AcDbEntity
  8
0
  6
Continuous
 62
     7
370
    25
100
AcDbSpline
210
0.0
220
0.0
230
1.0
 70
     8
 71
     3
 72
     8
 73
     4
 74
     0
 42
0.00000001
 43
0.00000001
 40
0.0
 40
0.0
 40
0.0
 40
0.0
 40
1.0
 40
1.0
 40
1.0
 40
1.0
 10
-9.740998730350018
 20
7.591146320262303
 30
0.0
 10
-9.589771730350014
 20
7.589744320262305
 30
0.0
 10
-9.509883730350014
 20
7.559319320262305
 30
0.0
 10
-9.459072730350016
 20
7.4837503202623
 30
0.0
  0
SPLINE
  5
153
330
1F
100
AcDbEntity
  8
0
  6
Continuous
 62
     7
370
    25
100
AcDbSpline
210
0.0
220
0.0
230
1.0
 70
     8
 71
     3
 72
     8
 73
     4
 74
     0
 42
0.00000001
 43
0.00000001
 40
0.0
 40
0.0
 40
0.0
 40
0.0
 40
1.0
 40
1.0
 40
1.0
 40
1.0
 10
-11.43604473035002
 20
8.604500320262304
 30
0.0
 10
-11.07485073035002
 20
8.008684320262304
 30
0.0
 10
-10.38638973035002
 20
7.597099320262299
 30
0.0
 10
-9.740998730350018
 20
7.591146320262303
 30
0.0
  0
SPLINE
  5
154
330
1F
100
AcDbEntity
  8
0
  6
Continuous
 62
     7
370
    25
100
AcDbSpline
210
0.0
220
0.0
230
1.0
 70
     8
 71
     3
 72
     8
 73
     4
 74
     0
 42
0.00000001
 43
0.00000001
 40
0.0
 40
0.0
 40
0.0
 40
0.0
 40
1.0
 40
1.0
 40
1.0
 40
1.0
 10
-10.53155373035002
 20
11.5640333202623
 30
0.0
 10
-11.63131173035002
 20
11.0268773202623
 30
0.0
 10
-12.05805673035002
 20
9.630553320262303
 30
0.0
 10
-11.43604473035002
 20
8.604500320262304
 30
0.0
  0
SPLINE
  5
155
330
1F
100
AcDbEntity
  8
0
  6
Continuous
 62
     7
370
    25
100
AcDbSpline
210
0.0
220
0.0
230
1.0
 70
     8
 71
     3
 72
     8
 73
     4
 74
     0
 42
0.00000001
 43
0.00000001
 40
0.0
 40
0.0
 40
0.0
 40
0.0
 40
1.0
 40
1.0
 40
1.0
 40
1.0
 10
-8.407453730350015
 20
11.3419493202623
 30
0.0
 10
-9.032339730350017
 20
11.8091983202623
 30
0.0
 10
-9.853773730350015
 20
11.8950823202623
 30
0.0
 10
-10.53155373035002
 20
11.5640333202623
 30
0.0
  0
SPLINE
  5
156
330
1F
100
AcDbEntity
  8
0
  6
Continuous
 62
     7
370
    25
100
AcDbSpline
210
0.0
220
0.0
230
1.0
 70
     8
 71
     3
 72
     8
 73
     4
 74
     0
 42
0.00000001
 43
0.00000001
 40
0.0
 40
0.0
 40
0.0
 40
0.0
 40
1.0
 40
1.0
 40
1.0
 40
1.0
 10
-7.609986730350016
 20
10.1621033202623
 30
0.0
 10
-7.737855730350015
 20
10.6413023202623
 30
0.0
 10
-8.011122730350015
 20
11.04559932026231
 30
0.0
 10
-8.407453730350015
 20
11.3419493202623
 30
0.0
  0
SPLINE
  5
15A
330
1F
100
AcDbEntity
  8
0
  6
Continuous
 62
     7
370
    25
100
AcDbSpline
210
0.0
220
0.0
230
1.0
 70
     8
 71
     3
 72
     8
 73
     4
 74
     0
 42
0.00000001
 43
0.00000001
 40
0.0
 40
0.0
 40
0.0
 40
0.0
 40
1.0
 40
1.0
 40
1.0
 40
1.0
 10
-8.672323730350016
 20
5.348653320262297
 30
0.0
 10
-8.402541730350016
 20
5.532028320262304
 30
0.0
 10
-8.017992730350015
 20
5.689575320262298
 30
0.0
 10
-7.715431730350015
 20
5.740685320262298
 30
0.0
  0
SPLINE
  5
15B
330
1F
100
AcDbEntity
  8
0
  6
Continuous
 62
     7
370
    25
100
AcDbSpline
210
0.0
220
0.0
230
1.0
 70
     8
 71
     3
 72
     8
 73
     4
 74
     0
 42
0.00000001
 43
0.00000001
 40
0.0
 40
0.0
 40
0.0
 40
0.0
 40
1.0
 40
1.0
 40
1.0
 40
1.0
 10
-9.757699730350014
 20
3.630721320262299
 30
0.0
 10
-9.644334730350018
 20
4.329655320262304
 30
0.0
 10
-9.247578730350016
 20
4.957641320262302
 30
0.0
 10
-8.672323730350016
 20
5.348653320262297
 30
0.0
  0
SPLINE
  5
15C
330
1F
100
AcDbEntity
  8
0
  6
Continuous
 62
     7
370
    25
100
AcDbSpline
210
0.0
220
0.0
230
1.0
 70
     8
 71
     3
 72
     8
 73
     4
 74
     0
 42
0.00000001
 43
0.00000001
 40
0.0
 40
0.0
 40
0.0
 40
0.0
 40
1.0
 40
1.0
 40
1.0
 40
1.0
 10
-9.765579730350016
 20
2.8701133202623
 30
0.0
 10
-9.793017730350014
 20
3.0392093202623
 30
0.0
 10
-9.788880730350016
 20
3.438468320262303
 30
0.0
 10
-9.757699730350014
 20
3.630721320262299
 30
0.0
  0
SPLINE
  5
15D
330
1F
100
AcDbEntity
  8
0
  6
Continuous
 62
     7
370
    25
100
AcDbSpline
210
0.0
220
0.0
230
1.0
 70
     8
 71
     3
 72
     8
 73
     4
 74
     0
 42
0.00000001
 43
0.00000001
 40
0.0
 40
0.0
 40
0.0
 40
0.0
 40
1.0
 40
1.0
 40
1.0
 40
1.0
 10
-9.612810730350017
 20
2.637425320262301
 30
0.0
 10
-9.709684730350016
 20
2.674421320262303
 30
0.0
 10
-9.741750730350017
 20
2.723261320262301
 30
0.0
 10
-9.765579730350016
 20
2.8701133202623
 30
0.0
  0
SPLINE
  5
15E
330
1F
100
AcDbEntity
  8
0
  6
Continuous
 62
     7
370
    25
100
AcDbSpline
210
0.0
220
0.0
230
1.0
 70
     8
 71
     3
 72
     8
 73
     4
 74
     0
 42
0.00000001
 43
0.00000001
 40
0.0
 40
0.0
 40
0.0
 40
0.0
 40
1.0
 40
1.0
 40
1.0
 40
1.0
 10
-9.347751730350014
 20
2.719780320262301
 30
0.0
 10
-9.408981730350018
 20
2.6287923202623
 30
0.0
 10
-9.508908730350017
 20
2.597744320262302
 30
0.0
 10
-9.612810730350017
 20
2.637425320262301
 30
0.0
  0
SPLINE
  5
15F
330
1F
100
AcDbEntity
  8
0
  6
Continuous
 62
     7
370
    25
100
AcDbSpline
210
0.0
220
0.0
230
1.0
 70
     8
 71
     3
 72
     8
 73
     4
 74
     0
 42
0.00000001
 43
0.00000001
 40
0.0
 40
0.0
 40
0.0
 40
0.0
 40
1.0
 40
1.0
 40
1.0
 40
1.0
 10
-9.319500730350018
 20
2.949595320262302
 30
0.0
 10
-9.305517730350015
 20
2.793338320262302
 30
0.0
 10
-9.307144730350016
 20
2.780121320262303
 30
0.0
 10
-9.347751730350014
 20
2.719780320262301
 30
0.0
  0
SPLINE
  5
160
330
1F
100
AcDbEntity
  8
0
  6
Continuous
 62
     7
370
    25
100
AcDbSpline
210
0.0
220
0.0
230
1.0
 70
     8
 71
     3
 72
     8
 73
     4
 74
     0
 42
0.00000001
 43
0.00000001
 40
0.0
 40
0.0
 40
0.0
 40
0.0
 40
1.0
 40
1.0
 40
1.0
 40
1.0
 10
-8.893361730350016
 20
4.506450320262305
 30
0.0
 10
-9.234358730350015
 20
4.053162320262301
 30
0.0
 10
-9.372942730350015
 20
3.546857320262303
 30
0.0
 10
-9.319500730350018
 20
2.949595320262302
 30
0.0
  0
SPLINE
  5
161
330
1F
100
AcDbEntity
  8
0
  6
Continuous
 62
     7
370
    25
100
AcDbSpline
210
0.0
220
0.0
230
1.0
 70
     8
 71
     3
 72
     8
 73
     4
 74
     0
 42
0.00000001
 43
0.00000001
 40
0.0
 40
0.0
 40
0.0
 40
0.0
 40
1.0
 40
1.0
 40
1.0
 40
1.0
 10
-7.619915730350015
 20
5.300181320262304
 30
0.0
 10
-8.127772730350015
 20
5.203975320262303
 30
0.0
 10
-8.581272730350014
 20
4.9213123202623
 30
0.0
 10
-8.893361730350016
 20
4.506450320262305
 30
0.0
  0
SPLINE
  5
167
330
1F
100
AcDbEntity
  8
0
  6
Continuous
 62
     7
370
    25
100
AcDbSpline
210
0.0
220
0.0
230
1.0
 70
     8
 71
     3
 72
     8
 73
     4
 74
     0
 42
0.00000001
 43
0.00000001
 40
0.0
 40
0.0
 40
0.0
 40
0.0
 40
1.0
 40
1.0
 40
1.0
 40
1.0
 10
-14.63962673035002
 20
0.0734763202623057
 30
0.0
 10
-14.79215173035002
 20
-0.0787286797376968
 30
0.0
 10
-14.94039673035002
 20
-0.2767076797376977
 30
0.0
 10
-15.02228473035002
 20
-0.4375526797376975
 30
0.0
  0
SPLINE
  5
168
330
1F
100
AcDbEntity
  8
0
  6
Continuous
 62
     7
370
    25
100
AcDbSpline
210
0.0
220
0.0
230
1.0
 70
     8
 71
     3
 72
     8
 73
     4
 74
     0
 42
0.00000001
 43
0.00000001
 40
0.0
 40
0.0
 40
0.0
 40
0.0
 40
1.0
 40
1.0
 40
1.0
 40
1.0
 10
-12.18049173035002
 20
-16.8277576797377
 30
0.0
 10
-12.07880773035002
 20
-17.0424146797377
 30
0.0
 10
-11.87256073035002
 20
-17.2079216797377
 30
0.0
 10
-11.64895773035001
 20
-17.2543036797377
 30
0.0
  0
SPLINE
  5
16B
330
1F
100
AcDbEntity
  8
0
  6
Continuous
 62
     7
370
    25
100
AcDbSpline
210
0.0
220
0.0
230
1.0
 70
     8
 71
     3
 72
     8
 73
     4
 74
     0
 42
0.00000001
 43
0.00000001
 40
0.0
 40
0.0
 40
0.0
 40
0.0
 40
1.0
 40
1.0
 40
1.0
 40
1.0
 10
-12.40704073035001
 20
-13.2290226797377
 30
0.0
 10
-12.27640273035002
 20
-13.8526106797377
 30
0.0
 10
-12.26401773035002
 20
-14.0289586797377
 30
0.0
 10
-12.25079773035001
 20
-15.4536316797377
 30
0.0
  0
SPLINE
  5
16C
330
1F
100
AcDbEntity
  8
0
  6
Continuous
 62
     7
370
    25
100
AcDbSpline
210
0.0
220
0.0
230
1.0
 70
     8
 71
     3
 72
     8
 73
     4
 74
     0
 42
0.00000001
 43
0.00000001
 40
0.0
 40
0.0
 40
0.0
 40
0.0
 40
1.0
 40
1.0
 40
1.0
 40
1.0
 10
-13.10307573035002
 20
-11.5191976797377
 30
0.0
 10
-12.81405473035002
 20
-11.9766756797377
 30
0.0
 10
-12.51602773035002
 20
-12.7087826797377
 30
0.0
 10
-12.40704073035001
 20
-13.2290226797377
 30
0.0
  0
SPLINE
  5
16D
330
1F
100
AcDbEntity
  8
0
  6
Continuous
 62
     7
370
    25
100
AcDbSpline
210
0.0
220
0.0
230
1.0
 70
     8
 71
     3
 72
     8
 73
     4
 74
     0
 42
0.00000001
 43
0.00000001
 40
0.0
 40
0.0
 40
0.0
 40
0.0
 40
1.0
 40
1.0
 40
1.0
 40
1.0
 10
-14.94340973035002
 20
-9.543368679737696
 30
0.0
 10
-14.17689573035002
 20
-10.1381496797377
 30
0.0
 10
-13.55114873035002
 20
-10.8099686797377
 30
0.0
 10
-13.10307573035002
 20
-11.5191976797377
 30
0.0
  0
SPLINE
  5
16E
330
1F
100
AcDbEntity
  8
0
  6
Continuous
 62
     7
370
    25
100
AcDbSpline
210
0.0
220
0.0
230
1.0
 70
     8
 71
     3
 72
     8
 73
     4
 74
     0
 42
0.00000001
 43
0.00000001
 40
0.0
 40
0.0
 40
0.0
 40
0.0
 40
1.0
 40
1.0
 40
1.0
 40
1.0
 10
-15.27091173035002
 20
-9.276782679737698
 30
0.0
 10
-15.20114373035002
 20
-9.337771679737696
 30
0.0
 10
-15.05376773035002
 20
-9.457736679737698
 30
0.0
 10
-14.94340973035002
 20
-9.543368679737696
 30
0.0
  0
SPLINE
  5
16F
330
1F
100
AcDbEntity
  8
0
  6
Continuous
 62
     7
370
    25
100
AcDbSpline
210
0.0
220
0.0
230
1.0
 70
     8
 71
     3
 72
     8
 73
     4
 74
     0
 42
0.00000001
 43
0.00000001
 40
0.0
 40
0.0
 40
0.0
 40
0.0
 40
1.0
 40
1.0
 40
1.0
 40
1.0
 10
-16.16384273035002
 20
-8.320173679737696
 30
0.0
 10
-15.89429373035001
 20
-8.641959679737697
 30
0.0
 10
-15.43836673035002
 20
-9.130398679737695
 30
0.0
 10
-15.27091173035002
 20
-9.276782679737698
 30
0.0
  0
SPLINE
  5
170
330
1F
100
AcDbEntity
  8
0
  6
Continuous
 62
     7
370
    25
100
AcDbSpline
210
0.0
220
0.0
230
1.0
 70
     8
 71
     3
 72
     8
 73
     4
 74
     0
 42
0.00000001
 43
0.00000001
 40
0.0
 40
0.0
 40
0.0
 40
0.0
 40
1.0
 40
1.0
 40
1.0
 40
1.0
 10
-18.89325873035002
 20
-1.673923679737698
 30
0.0
 10
-18.69057273035002
 20
-4.117323679737699
 30
0.0
 10
-17.73471073035002
 20
-6.444891679737698
 30
0.0
 10
-16.16384273035002
 20
-8.320173679737696
 30
0.0
  0
SPLINE
  5
171
330
1F
100
AcDbEntity
  8
0
  6
Continuous
 62
     7
370
    25
100
AcDbSpline
210
0.0
220
0.0
230
1.0
 70
     8
 71
     3
 72
     8
 73
     4
 74
     0
 42
0.00000001
 43
0.00000001
 40
0.0
 40
0.0
 40
0.0
 40
0.0
 40
1.0
 40
1.0
 40
1.0
 40
1.0
 10
-18.92438373035002
 20
-1.149944679737697
 30
0.0
 10
-18.92276973035002
 20
-1.251063679737697
 30
0.0
 10
-18.90877673035002
 20
-1.486853679737697
 30
0.0
 10
-18.89325873035002
 20
-1.673923679737698
 30
0.0
  0
SPLINE
  5
175
330
1F
100
AcDbEntity
  8
0
  6
Continuous
 62
     7
370
    25
100
AcDbSpline
210
0.0
220
0.0
230
1.0
 70
     8
 71
     3
 72
     8
 73
     4
 74
     0
 42
0.00000001
 43
0.00000001
 40
0.0
 40
0.0
 40
0.0
 40
0.0
 40
1.0
 40
1.0
 40
1.0
 40
1.0
 10
3.103288269649979
 20
-6.748236679737698
 30
0.0
 10
4.081178269649981
 20
-5.109653679737699
 30
0.0
 10
4.66127926964998
 20
-3.158593679737698
 30
0.0
 10
4.733553269649985
 20
-1.265153679737698
 30
0.0
  0
SPLINE
  5
176
330
1F
100
AcDbEntity
  8
0
  6
Continuous
 62
     7
370
    25
100
AcDbSpline
210
0.0
220
0.0
230
1.0
 70
     8
 71
     3
 72
     8
 73
     4
 74
     0
 42
0.00000001
 43
0.00000001
 40
0.0
 40
0.0
 40
0.0
 40
0.0
 40
1.0
 40
1.0
 40
1.0
 40
1.0
 10
0.8326762696499839
 20
-9.478685679737698
 30
0.0
 10
1.568414269649987
 20
-8.886572679737698
 30
0.0
 10
2.484777269649983
 20
-7.784630679737697
 30
0.0
 10
3.103288269649979
 20
-6.748236679737698
 30
0.0
  0
SPLINE
  5
177
330
1F
100
AcDbEntity
  8
0
  6
Continuous
 62
     7
370
    25
100
AcDbSpline
210
0.0
220
0.0
230
1.0
 70
     8
 71
     3
 72
     8
 73
     4
 74
     0
 42
0.00000001
 43
0.00000001
 40
0.0
 40
0.0
 40
0.0
 40
0.0
 40
1.0
 40
1.0
 40
1.0
 40
1.0
 10
-1.739927730350019
 20
-13.8081526797377
 30
0.0
 10
-1.507978730350017
 20
-12.0844136797377
 30
0.0
 10
-0.6857697303500159
 20
-10.7007086797377
 30
0.0
 10
0.8326762696499839
 20
-9.478685679737698
 30
0.0
  0
SPLINE
  5
178
330
1F
100
AcDbEntity
  8
0
  6
Continuous
 62
     7
370
    25
100
AcDbSpline
210
0.0
220
0.0
230
1.0
 70
     8
 71
     3
 72
     8
 73
     4
 74
     0
 42
0.00000001
 43
0.00000001
 40
0.0
 40
0.0
 40
0.0
 40
0.0
 40
1.0
 40
1.0
 40
1.0
 40
1.0
 10
-1.821345730350015
 20
-15.6103436797377
 30
0.0
 10
-1.809677730350016
 20
-14.5306536797377
 30
0.0
 10
-1.795786730350017
 20
-14.2232636797377
 30
0.0
 10
-1.739927730350019
 20
-13.8081526797377
 30
0.0
  0
SPLINE
  5
17B
330
1F
100
AcDbEntity
  8
0
  6
Continuous
 62
     7
370
    25
100
AcDbSpline
210
0.0
220
0.0
230
1.0
 70
     8
 71
     3
 72
     8
 73
     4
 74
     0
 42
0.00000001
 43
0.00000001
 40
0.0
 40
0.0
 40
0.0
 40
0.0
 40
1.0
 40
1.0
 40
1.0
 40
1.0
 10
-2.384730730350018
 20
-17.2448846797377
 30
0.0
 10
-2.172918730350016
 20
-17.18374967973769
 30
0.0
 10
-1.994613730350016
 20
-17.0324976797377
 30
0.0
 10
-1.894341730350017
 20
-16.8289066797377
 30
0.0
  0
SPLINE
  5
17C
330
1F
100
AcDbEntity
  8
0
  6
Continuous
 62
     7
370
    25
100
AcDbSpline
210
0.0
220
0.0
230
1.0
 70
     8
 71
     3
 72
     8
 73
     4
 74
     0
 42
0.00000001
 43
0.00000001
 40
0.0
 40
0.0
 40
0.0
 40
0.0
 40
1.0
 40
1.0
 40
1.0
 40
1.0
 10
-11.64895773035001
 20
-17.2543036797377
 30
0.0
 10
-11.51024173035002
 20
-17.2830746797377
 30
0.0
 10
-2.485253730350016
 20
-17.2739086797377
 30
0.0
 10
-2.384730730350018
 20
-17.2448846797377
 30
0.0
  0
SPLINE
  5
17D
330
1F
100
AcDbEntity
  8
0
  6
Continuous
 62
     7
370
    25
100
AcDbSpline
210
0.0
220
0.0
230
1.0
 70
     8
 71
     3
 72
     8
 73
     4
 74
     0
 42
0.00000001
 43
0.00000001
 40
0.0
 40
0.0
 40
0.0
 40
0.0
 40
1.0
 40
1.0
 40
1.0
 40
1.0
 10
-12.24553673035002
 20
-18.5377466797377
 30
0.0
 10
-12.24913273035002
 20
-18.6666726797377
 30
0.0
 10
-12.24503473035002
 20
-18.7726276797377
 30
0.0
 10
-12.23644073035002
 20
-18.7732026797377
 30
0.0
  0
SPLINE
  5
17E
330
1F
100
AcDbEntity
  8
0
  6
Continuous
 62
     7
370
    25
100
AcDbSpline
210
0.0
220
0.0
230
1.0
 70
     8
 71
     3
 72
     8
 73
     4
 74
     0
 42
0.00000001
 43
0.00000001
 40
0.0
 40
0.0
 40
0.0
 40
0.0
 40
1.0
 40
1.0
 40
1.0
 40
1.0
 10
-12.18038873035002
 20
-18.1794056797377
 30
0.0
 10
-12.23500373035001
 20
-18.2948886797377
 30
0.0
 10
-12.23944473035002
 20
-18.3193096797377
 30
0.0
 10
-12.24553673035002
 20
-18.5377466797377
 30
0.0
  0
SPLINE
  5
17F
330
1F
100
AcDbEntity
  8
0
  6
Continuous
 62
     7
370
    25
100
AcDbSpline
210
0.0
220
0.0
230
1.0
 70
     8
 71
     3
 72
     8
 73
     4
 74
     0
 42
0.00000001
 43
0.00000001
 40
0.0
 40
0.0
 40
0.0
 40
0.0
 40
1.0
 40
1.0
 40
1.0
 40
1.0
 10
-11.81156573035002
 20
-17.8104866797377
 30
0.0
 10
-11.97206673035002
 20
-17.8865176797377
 30
0.0
 10
-12.10453673035002
 20
-18.0190206797377
 30
0.0
 10
-12.18038873035002
 20
-18.1794056797377
 30
0.0
  0
SPLINE
  5
183
330
1F
100
AcDbEntity
  8
0
  6
Continuous
 62
     7
370
    25
100
AcDbSpline
210
0.0
220
0.0
230
1.0
 70
     8
 71
     3
 72
     8
 73
     4
 74
     0
 42
0.00000001
 43
0.00000001
 40
0.0
 40
0.0
 40
0.0
 40
0.0
 40
1.0
 40
1.0
 40
1.0
 40
1.0
 10
-1.894338730350015
 20
-18.1782306797377
 30
0.0
 10
-1.972194730350013
 20
-18.02017667973769
 30
0.0
 10
-2.101637730350017
 20
-17.8907636797377
 30
0.0
 10
-2.259691730350018
 20
-17.8129496797377
 30
0.0
  0
SPLINE
  5
188
330
1F
100
AcDbEntity
  8
0
  6
Continuous
 62
     7
370
    25
100
AcDbSpline
210
0.0
220
0.0
230
1.0
 70
     8
 71
     3
 72
     8
 73
     4
 74
     0
 42
0.00000001
 43
0.00000001
 40
0.0
 40
0.0
 40
0.0
 40
0.0
 40
1.0
 40
1.0
 40
1.0
 40
1.0
 10
-12.23644073035002
 20
-18.7732026797377
 30
0.0
 10
-11.86515573035002
 20
-18.7980196797377
 30
0.0
 10
-2.047482730350016
 20
-19.3567456797377
 30
0.0
 10
-1.956232730350015
 20
-19.3582596797377
 30
0.0
  0
SPLINE
  5
189
330
1F
100
AcDbEntity
  8
0
  6
Continuous
 62
     7
370
    25
100
AcDbSpline
210
0.0
220
0.0
230
1.0
 70
     8
 71
     3
 72
     8
 73
     4
 74
     0
 42
0.00000001
 43
0.00000001
 40
0.0
 40
0.0
 40
0.0
 40
0.0
 40
1.0
 40
1.0
 40
1.0
 40
1.0
 10
-12.15185973035001
 20
-20.4462636797377
 30
0.0
 10
-12.09877273035002
 20
-20.4467926797377
 30
0.0
 10
-9.780168730350015
 20
-20.5782316797377
 30
0.0
 10
-6.999407730350019
 20
-20.7382336797377
 30
0.0
  0
LWPOLYLINE
  5
18D
330
1F
100
AcDbEntity
  8
0
  6
Continuous
 62
     7
370
    25
100
AcDbPolyline
 90
        5
 70
   128
 43
0.0
 10
-6.8982887304
 20
-19.5417716797
 10
-9.0943134921
 20
-19.4170660897
 10
-10.8421693202
 20
-19.3178015004
 10
-11.7446960735
 20
-19.2665372939
 10
-12.1058967304
 20
-19.2460096797
  0
SPLINE
  5
192
330
1F
100
AcDbEntity
  8
0
  6
Continuous
 62
     7
370
    25
100
AcDbSpline
210
0.0
220
0.0
230
1.0
 70
     8
 71
     3
 72
     8
 73
     4
 74
     0
 42
0.00000001
 43
0.00000001
 40
0.0
 40
0.0
 40
0.0
 40
0.0
 40
1.0
 40
1.0
 40
1.0
 40
1.0
 10
-6.999407730350019
 20
-20.7382336797377
 30
0.0
 10
-4.218645730350013
 20
-20.8982346797377
 30
0.0
 10
-1.916476730350017
 20
-21.0301296797377
 30
0.0
 10
-1.883472730350017
 20
-21.0313366797377
 30
0.0
  0
SPLINE
  5
193
330
1F
100
AcDbEntity
  8
0
  6
Continuous
 62
     7
370
    25
100
AcDbSpline
210
0.0
220
0.0
230
1.0
 70
     8
 71
     3
 72
     8
 73
     4
 74
     0
 42
0.00000001
 43
0.00000001
 40
0.0
 40
0.0
 40
0.0
 40
0.0
 40
1.0
 40
1.0
 40
1.0
 40
1.0
 10
-11.72949073035002
 20
-22.5416596797377
 30
0.0
 10
-11.63520373035002
 20
-22.5755896797377
 30
0.0
 10
-11.50367673035001
 20
-22.5765876797377
 30
0.0
 10
-7.043656730350015
 20
-22.5772306797377
 30
0.0
  0
SPLINE
  5
194
330
1F
100
AcDbEntity
  8
0
  6
Continuous
 62
     7
370
    25
100
AcDbSpline
210
0.0
220
0.0
230
1.0
 70
     8
 71
     3
 72
     8
 73
     4
 74
     0
 42
0.00000001
 43
0.00000001
 40
0.0
 40
0.0
 40
0.0
 40
0.0
 40
1.0
 40
1.0
 40
1.0
 40
1.0
 10
-11.88735573035001
 20
-22.4691406797377
 30
0.0
 10
-11.85388473035002
 20
-22.4898306797377
 30
0.0
 10
-11.78284473035002
 20
-22.5224596797377
 30
0.0
 10
-11.72949073035002
 20
-22.5416596797377
 30
0.0
  0
SPLINE
  5
195
330
1F
100
AcDbEntity
  8
0
  6
Continuous
 62
     7
370
    25
100
AcDbSpline
210
0.0
220
0.0
230
1.0
 70
     8
 71
     3
 72
     8
 73
     4
 74
     0
 42
0.00000001
 43
0.00000001
 40
0.0
 40
0.0
 40
0.0
 40
0.0
 40
1.0
 40
1.0
 40
1.0
 40
1.0
 10
-12.18962873035001
 20
-22.1229096797377
 30
0.0
 10
-12.13655173035002
 20
-22.2361666797377
 30
0.0
 10
-11.98683073035002
 20
-22.4076616797377
 30
0.0
 10
-11.88735573035001
 20
-22.4691406797377
 30
0.0
  0
SPLINE
  5
198
330
1F
100
AcDbEntity
  8
0
  6
Continuous
 62
     7
370
    25
100
AcDbSpline
210
0.0
220
0.0
230
1.0
 70
     8
 71
     3
 72
     8
 73
     4
 74
     0
 42
0.00000001
 43
0.00000001
 40
0.0
 40
0.0
 40
0.0
 40
0.0
 40
1.0
 40
1.0
 40
1.0
 40
1.0
 10
-12.21720573035002
 20
-20.9048526797377
 30
0.0
 10
-12.24856573035002
 20
-20.9048416797377
 30
0.0
 10
-12.25006773035002
 20
-20.9351656797377
 30
0.0
 10
-12.24478373035002
 20
-21.4609936797377
 30
0.0
  0
SPLINE
  5
199
330
1F
100
AcDbEntity
  8
0
  6
Continuous
 62
     7
370
    25
100
AcDbSpline
210
0.0
220
0.0
230
1.0
 70
     8
 71
     3
 72
     8
 73
     4
 74
     0
 42
0.00000001
 43
0.00000001
 40
0.0
 40
0.0
 40
0.0
 40
0.0
 40
1.0
 40
1.0
 40
1.0
 40
1.0
 10
-7.017795730350016
 20
-21.1990056797377
 30
0.0
 10
-9.859228730350019
 20
-21.03722567973769
 30
0.0
 10
-12.19896173035002
 20
-20.9048576797377
 30
0.0
 10
-12.21720573035002
 20
-20.9048526797377
 30
0.0
  0
SPLINE
  5
19A
330
1F
100
AcDbEntity
  8
0
  6
Continuous
 62
     7
370
    25
100
AcDbSpline
210
0.0
220
0.0
230
1.0
 70
     8
 71
     3
 72
     8
 73
     4
 74
     0
 42
0.00000001
 43
0.00000001
 40
0.0
 40
0.0
 40
0.0
 40
0.0
 40
1.0
 40
1.0
 40
1.0
 40
1.0
 10
-1.837765730350018
 20
-21.4931586797377
 30
0.0
 10
-1.845358730350018
 20
-21.4931536797377
 30
0.0
 10
-4.176362730350016
 20
-21.3607846797377
 30
0.0
 10
-7.017795730350016
 20
-21.1990056797377
 30
0.0
  0
SPLINE
  5
19B
330
1F
100
AcDbEntity
  8
0
  6
Continuous
 62
     7
370
    25
100
AcDbSpline
210
0.0
220
0.0
230
1.0
 70
     8
 71
     3
 72
     8
 73
     4
 74
     0
 42
0.00000001
 43
0.00000001
 40
0.0
 40
0.0
 40
0.0
 40
0.0
 40
1.0
 40
1.0
 40
1.0
 40
1.0
 10
-1.823980730350016
 20
-21.7201046797377
 30
0.0
 10
-1.823980730350016
 20
-21.5952906797377
 30
0.0
 10
-1.830171730350015
 20
-21.4931636797377
 30
0.0
 10
-1.837765730350018
 20
-21.4931586797377
 30
0.0
  0
SPLINE
  5
19C
330
1F
100
AcDbEntity
  8
0
  6
Continuous
 62
     7
370
    25
100
AcDbSpline
210
0.0
220
0.0
230
1.0
 70
     8
 71
     3
 72
     8
 73
     4
 74
     0
 42
0.00000001
 43
0.00000001
 40
0.0
 40
0.0
 40
0.0
 40
0.0
 40
1.0
 40
1.0
 40
1.0
 40
1.0
 10
-2.034070730350015
 20
-22.3361946797377
 30
0.0
 10
-1.867708730350016
 20
-22.1583766797377
 30
0.0
 10
-1.823980730350016
 20
-22.0301436797377
 30
0.0
 10
-1.823980730350016
 20
-21.7201046797377
 30
0.0
  0
SPLINE
  5
19D
330
1F
100
AcDbEntity
  8
0
  6
Continuous
 62
     7
370
    25
100
AcDbSpline
210
0.0
220
0.0
230
1.0
 70
     8
 71
     3
 72
     8
 73
     4
 74
     0
 42
0.00000001
 43
0.00000001
 40
0.0
 40
0.0
 40
0.0
 40
0.0
 40
1.0
 40
1.0
 40
1.0
 40
1.0
 10
-2.353478730350016
 20
-22.5430256797377
 30
0.0
 10
-2.223358730350018
 20
-22.4982546797377
 30
0.0
 10
-2.127796730350014
 20
-22.4363746797377
 30
0.0
 10
-2.034070730350015
 20
-22.3361946797377
 30
0.0
  0
SPLINE
  5
19E
330
1F
100
AcDbEntity
  8
0
  6
Continuous
 62
     7
370
    25
100
AcDbSpline
210
0.0
220
0.0
230
1.0
 70
     8
 71
     3
 72
     8
 73
     4
 74
     0
 42
0.00000001
 43
0.00000001
 40
0.0
 40
0.0
 40
0.0
 40
0.0
 40
1.0
 40
1.0
 40
1.0
 40
1.0
 10
-7.043656730350015
 20
-22.5772306797377
 30
0.0
 10
-2.585131730350017
 20
-22.5777596797377
 30
0.0
 10
-2.451953730350017
 20
-22.5769656797377
 30
0.0
 10
-2.353478730350016
 20
-22.5430256797377
 30
0.0
  0
SPLINE
  5
19F
330
1F
100
AcDbEntity
  8
0
  6
Continuous
 62
     7
370
    25
100
AcDbSpline
210
0.0
220
0.0
230
1.0
 70
     8
 71
     3
 72
     8
 73
     4
 74
     0
 42
0.00000001
 43
0.00000001
 40
0.0
 40
0.0
 40
0.0
 40
0.0
 40
1.0
 40
1.0
 40
1.0
 40
1.0
 10
-9.443876730350016
 20
-23.2264996797377
 30
0.0
 10
-9.387912730350015
 20
-23.5464386797377
 30
0.0
 10
-9.255321730350014
 20
-23.8705586797377
 30
0.0
 10
-9.062457730350015
 20
-24.1588836797377
 30
0.0
  0
SPLINE
  5
1A0
330
1F
100
AcDbEntity
  8
0
  6
Continuous
 62
     7
370
    25
100
AcDbSpline
210
0.0
220
0.0
230
1.0
 70
     8
 71
     3
 72
     8
 73
     4
 74
     0
 42
0.00000001
 43
0.00000001
 40
0.0
 40
0.0
 40
0.0
 40
0.0
 40
1.0
 40
1.0
 40
1.0
 40
1.0
 10
-9.472165730350019
 20
-23.0513186797377
 30
0.0
 10
-9.472165730350019
 20
-23.0589126797377
 30
0.0
 10
-9.459402730350018
 20
-23.1377346797377
 30
0.0
 10
-9.443876730350016
 20
-23.2264996797377
 30
0.0
  0
SPLINE
  5
1A1
330
1F
100
AcDbEntity
  8
0
  6
Continuous
 62
     7
370
    25
100
AcDbSpline
210
0.0
220
0.0
230
1.0
 70
     8
 71
     3
 72
     8
 73
     4
 74
     0
 42
0.00000001
 43
0.00000001
 40
0.0
 40
0.0
 40
0.0
 40
0.0
 40
1.0
 40
1.0
 40
1.0
 40
1.0
 10
-4.725333730350015
 20
-23.0471646797377
 30
0.0
 10
-4.740642730350016
 20
-23.0318456797377
 30
0.0
 10
-9.472232730350013
 20
-23.0359996797377
 30
0.0
 10
-9.472165730350017
 20
-23.0513186797377
 30
0.0
  0
SPLINE
  5
1A2
330
1F
100
AcDbEntity
  8
0
  6
Continuous
 62
     7
370
    25
100
AcDbSpline
210
0.0
220
0.0
230
1.0
 70
     8
 71
     3
 72
     8
 73
     4
 74
     0
 42
0.00000001
 43
0.00000001
 40
0.0
 40
0.0
 40
0.0
 40
0.0
 40
1.0
 40
1.0
 40
1.0
 40
1.0
 10
-4.832278730350016
 20
-23.5727546797377
 30
0.0
 10
-4.769479730350016
 20
-23.3837096797377
 30
0.0
 10
-4.705113730350017
 20
-23.0673816797377
 30
0.0
 10
-4.725333730350015
 20
-23.0471646797377
 30
0.0
  0
SPLINE
  5
1A3
330
1F
100
AcDbEntity
  8
0
  6
Continuous
 62
     7
370
    25
100
AcDbSpline
210
0.0
220
0.0
230
1.0
 70
     8
 71
     3
 72
     8
 73
     4
 74
     0
 42
0.00000001
 43
0.00000001
 40
0.0
 40
0.0
 40
0.0
 40
0.0
 40
1.0
 40
1.0
 40
1.0
 40
1.0
 10
-6.666823730350015
 20
-25.1599266797377
 30
0.0
 10
-5.834606730350016
 20
-25.0164326797377
 30
0.0
 10
-5.101023730350017
 20
-24.3817686797377
 30
0.0
 10
-4.832278730350016
 20
-23.5727546797377
 30
0.0
  0
SPLINE
  5
1A4
330
1F
100
AcDbEntity
  8
0
  6
Continuous
 62
     7
370
    25
100
AcDbSpline
210
0.0
220
0.0
230
1.0
 70
     8
 71
     3
 72
     8
 73
     4
 74
     0
 42
0.00000001
 43
0.00000001
 40
0.0
 40
0.0
 40
0.0
 40
0.0
 40
1.0
 40
1.0
 40
1.0
 40
1.0
 10
-8.442508730350017
 20
-24.7788306797377
 30
0.0
 10
-7.901669730350013
 20
-25.1406086797377
 30
0.0
 10
-7.301653730350015
 20
-25.2693816797377
 30
0.0
 10
-6.666823730350015
 20
-25.1599266797377
 30
0.0
  0
SPLINE
  5
1A5
330
1F
100
AcDbEntity
  8
0
  6
Continuous
 62
     7
370
    25
100
AcDbSpline
210
0.0
220
0.0
230
1.0
 70
     8
 71
     3
 72
     8
 73
     4
 74
     0
 42
0.00000001
 43
0.00000001
 40
0.0
 40
0.0
 40
0.0
 40
0.0
 40
1.0
 40
1.0
 40
1.0
 40
1.0
 10
-9.062457730350015
 20
-24.1588836797377
 30
0.0
 10
-8.943828730350017
 20
-24.3362256797377
 30
0.0
 10
-8.619851730350018
 20
-24.6602026797377
 30
0.0
 10
-8.442508730350017
 20
-24.7788306797377
 30
0.0
  0
SPLINE
  5
1A6
330
1F
100
AcDbEntity
  8
0
  6
Continuous
 62
     7
370
    25
100
AcDbSpline
210
0.0
220
0.0
230
1.0
 70
     8
 71
     3
 72
     8
 73
     4
 74
     0
 42
0.00000001
 43
0.00000001
 40
0.0
 40
0.0
 40
0.0
 40
0.0
 40
1.0
 40
1.0
 40
1.0
 40
1.0
 10
4.913462269649983
 20
6.766597320262309
 30
0.0
 10
4.832655269649981
 20
6.423785320262304
 30
0.0
 10
4.547466269649983
 20
6.138594320262307
 30
0.0
 10
4.204653269649985
 20
6.057788320262304
 30
0.0
  0
SPLINE
  5
1A7
330
1F
100
AcDbEntity
  8
0
  6
Continuous
 62
     7
370
    25
100
AcDbSpline
210
0.0
220
0.0
230
1.0
 70
     8
 71
     3
 72
     8
 73
     4
 74
     0
 42
0.00000001
 43
0.00000001
 40
0.0
 40
0.0
 40
0.0
 40
0.0
 40
1.0
 40
1.0
 40
1.0
 40
1.0
 10
4.673109269649984
 20
7.646874320262308
 30
0.0
 10
4.905691269649987
 20
7.400324320262309
 30
0.0
 10
4.990032269649982
 20
7.091433320262304
 30
0.0
 10
4.913462269649983
 20
6.766597320262309
 30
0.0
  0
SPLINE
  5
1A8
330
1F
100
AcDbEntity
  8
0
  6
Continuous
 62
     7
370
    25
100
AcDbSpline
210
0.0
220
0.0
230
1.0
 70
     8
 71
     3
 72
     8
 73
     4
 74
     0
 42
0.00000001
 43
0.00000001
 40
0.0
 40
0.0
 40
0.0
 40
0.0
 40
1.0
 40
1.0
 40
1.0
 40
1.0
 10
3.985742269649983
 20
7.9415393202623
 30
0.0
 10
4.26601626964998
 20
7.9415393202623
 30
0.0
 10
4.482807269649982
 20
7.848603320262305
 30
0.0
 10
4.673109269649984
 20
7.646874320262308
 30
0.0
  0
SPLINE
  5
1A9
330
1F
100
AcDbEntity
  8
0
  6
Continuous
 62
     7
370
    25
100
AcDbSpline
210
0.0
220
0.0
230
1.0
 70
     8
 71
     3
 72
     8
 73
     4
 74
     0
 42
0.00000001
 43
0.00000001
 40
0.0
 40
0.0
 40
0.0
 40
0.0
 40
1.0
 40
1.0
 40
1.0
 40
1.0
 10
3.727088269649986
 20
7.9122083202623
 30
0.0
 10
3.784559269649983
 20
7.929089320262303
 30
0.0
 10
3.894358269649984
 20
7.9415393202623
 30
0.0
 10
3.985742269649983
 20
7.9415393202623
 30
0.0
  0
SPLINE
  5
1AA
330
1F
100
AcDbEntity
  8
0
  6
Continuous
 62
     7
370
    25
100
AcDbSpline
210
0.0
220
0.0
230
1.0
 70
     8
 71
     3
 72
     8
 73
     4
 74
     0
 42
0.00000001
 43
0.00000001
 40
0.0
 40
0.0
 40
0.0
 40
0.0
 40
1.0
 40
1.0
 40
1.0
 40
1.0
 10
3.029710269649981
 20
6.995227320262303
 30
0.0
 10
3.029710269649981
 20
7.4239923202623
 30
0.0
 10
3.307213269649986
 20
7.788879320262302
 30
0.0
 10
3.727088269649986
 20
7.9122083202623
 30
0.0
  0
SPLINE
  5
1AB
330
1F
100
AcDbEntity
  8
0
  6
Continuous
 62
     7
370
    25
100
AcDbSpline
210
0.0
220
0.0
230
1.0
 70
     8
 71
     3
 72
     8
 73
     4
 74
     0
 42
0.00000001
 43
0.00000001
 40
0.0
 40
0.0
 40
0.0
 40
0.0
 40
1.0
 40
1.0
 40
1.0
 40
1.0
 10
3.277911269649984
 20
6.344723320262307
 30
0.0
 10
3.105021269649982
 20
6.534370320262307
 30
0.0
 10
3.029710269649981
 20
6.731748320262305
 30
0.0
 10
3.029710269649981
 20
6.995227320262303
 30
0.0
  0
SPLINE
  5
1AC
330
1F
100
AcDbEntity
  8
0
  6
Continuous
 62
     7
370
    25
100
AcDbSpline
210
0.0
220
0.0
230
1.0
 70
     8
 71
     3
 72
     8
 73
     4
 74
     0
 42
0.00000001
 43
0.00000001
 40
0.0
 40
0.0
 40
0.0
 40
0.0
 40
1.0
 40
1.0
 40
1.0
 40
1.0
 10
3.820275269649981
 20
6.041794320262306
 30
0.0
 10
3.634108269649987
 20
6.071391320262299
 30
0.0
 10
3.416071269649982
 20
6.193173320262306
 30
0.0
 10
3.277911269649984
 20
6.344723320262307
 30
0.0
  0
SPLINE
  5
1AD
330
1F
100
AcDbEntity
  8
0
  6
Continuous
 62
     7
370
    25
100
AcDbSpline
210
0.0
220
0.0
230
1.0
 70
     8
 71
     3
 72
     8
 73
     4
 74
     0
 42
0.00000001
 43
0.00000001
 40
0.0
 40
0.0
 40
0.0
 40
0.0
 40
1.0
 40
1.0
 40
1.0
 40
1.0
 10
4.204653269649985
 20
6.057788320262304
 30
0.0
 10
4.094687269649983
 20
6.031867320262299
 30
0.0
 10
3.926682269649984
 20
6.024876320262301
 30
0.0
 10
3.820275269649981
 20
6.041794320262306
 30
0.0
  0
SPLINE
  5
1AE
330
1F
100
AcDbEntity
  8
0
  6
Continuous
 62
     7
370
    25
100
AcDbSpline
210
0.0
220
0.0
230
1.0
 70
     8
 71
     3
 72
     8
 73
     4
 74
     0
 42
0.00000001
 43
0.00000001
 40
0.0
 40
0.0
 40
0.0
 40
0.0
 40
1.0
 40
1.0
 40
1.0
 40
1.0
 10
2.445399269649984
 20
7.067034320262302
 30
0.0
 10
2.426587269649984
 20
6.588424320262305
 30
0.0
 10
2.585398269649986
 20
6.192403320262302
 30
0.0
 10
2.925792269649986
 20
5.869061320262305
 30
0.0
  0
SPLINE
  5
1AF
330
1F
100
AcDbEntity
  8
0
  6
Continuous
 62
     7
370
    25
100
AcDbSpline
210
0.0
220
0.0
230
1.0
 70
     8
 71
     3
 72
     8
 73
     4
 74
     0
 42
0.00000001
 43
0.00000001
 40
0.0
 40
0.0
 40
0.0
 40
0.0
 40
1.0
 40
1.0
 40
1.0
 40
1.0
 10
2.518543269649981
 20
7.476482320262303
 30
0.0
 10
2.462750269649983
 20
7.3140083202623
 30
0.0
 10
2.452948269649979
 20
7.259136320262302
 30
0.0
 10
2.445399269649984
 20
7.067034320262302
 30
0.0
  0
SPLINE
  5
1B0
330
1F
100
AcDbEntity
  8
0
  6
Continuous
 62
     7
370
    25
100
AcDbSpline
210
0.0
220
0.0
230
1.0
 70
     8
 71
     3
 72
     8
 73
     4
 74
     0
 42
0.00000001
 43
0.00000001
 40
0.0
 40
0.0
 40
0.0
 40
0.0
 40
1.0
 40
1.0
 40
1.0
 40
1.0
 10
3.502007269649984
 20
8.457662320262301
 30
0.0
 10
3.020201269649983
 20
8.292373320262302
 30
0.0
 10
2.683297269649984
 20
7.9562513202623
 30
0.0
 10
2.518543269649981
 20
7.476482320262303
 30
0.0
  0
SPLINE
  5
1B1
330
1F
100
AcDbEntity
  8
0
  6
Continuous
 62
     7
370
    25
100
AcDbSpline
210
0.0
220
0.0
230
1.0
 70
     8
 71
     3
 72
     8
 73
     4
 74
     0
 42
0.00000001
 43
0.00000001
 40
0.0
 40
0.0
 40
0.0
 40
0.0
 40
1.0
 40
1.0
 40
1.0
 40
1.0
 10
3.976548269649979
 20
8.5201083202623
 30
0.0
 10
3.691293269649981
 20
8.519552320262303
 30
0.0
 10
3.676923269649981
 20
8.517674320262298
 30
0.0
 10
3.502007269649984
 20
8.457662320262301
 30
0.0
  0
SPLINE
  5
1B2
330
1F
100
AcDbEntity
  8
0
  6
Continuous
 62
     7
370
    25
100
AcDbSpline
210
0.0
220
0.0
230
1.0
 70
     8
 71
     3
 72
     8
 73
     4
 74
     0
 42
0.00000001
 43
0.00000001
 40
0.0
 40
0.0
 40
0.0
 40
0.0
 40
1.0
 40
1.0
 40
1.0
 40
1.0
 10
4.407954269649989
 20
8.477578320262303
 30
0.0
 10
4.287471269649984
 20
8.515411320262304
 30
0.0
 10
4.234792269649991
 20
8.520604320262297
 30
0.0
 10
3.976548269649979
 20
8.5201083202623
 30
0.0
  0
SPLINE
  5
1B3
330
1F
100
AcDbEntity
  8
0
  6
Continuous
 62
     7
370
    25
100
AcDbSpline
210
0.0
220
0.0
230
1.0
 70
     8
 71
     3
 72
     8
 73
     4
 74
     0
 42
0.00000001
 43
0.00000001
 40
0.0
 40
0.0
 40
0.0
 40
0.0
 40
1.0
 40
1.0
 40
1.0
 40
1.0
 10
5.108330269649984
 20
8.037725320262306
 30
0.0
 10
4.907037269649986
 20
8.252873320262303
 30
0.0
 10
4.690524269649984
 20
8.388848320262307
 30
0.0
 10
4.407954269649989
 20
8.477578320262303
 30
0.0
  0
SPLINE
  5
1B4
330
1F
100
AcDbEntity
  8
0
  6
Continuous
 62
     7
370
    25
100
AcDbSpline
210
0.0
220
0.0
230
1.0
 70
     8
 71
     3
 72
     8
 73
     4
 74
     0
 42
0.00000001
 43
0.00000001
 40
0.0
 40
0.0
 40
0.0
 40
0.0
 40
1.0
 40
1.0
 40
1.0
 40
1.0
 10
5.523855269649984
 20
7.077435320262302
 30
0.0
 10
5.500016269649986
 20
7.460144320262298
 30
0.0
 10
5.372088269649987
 20
7.755815320262302
 30
0.0
 10
5.108330269649984
 20
8.037725320262306
 30
0.0
  0
SPLINE
  5
1B5
330
1F
100
AcDbEntity
  8
0
  6
Continuous
 62
     7
370
    25
100
AcDbSpline
210
0.0
220
0.0
230
1.0
 70
     8
 71
     3
 72
     8
 73
     4
 74
     0
 42
0.00000001
 43
0.00000001
 40
0.0
 40
0.0
 40
0.0
 40
0.0
 40
1.0
 40
1.0
 40
1.0
 40
1.0
 10
4.252326269649983
 20
5.470119320262305
 30
0.0
 10
5.019599269649983
 20
5.6038963202623
 30
0.0
 10
5.572113269649987
 20
6.302317320262304
 30
0.0
 10
5.523855269649984
 20
7.077435320262302
 30
0.0
  0
SPLINE
  5
1B6
330
1F
100
AcDbEntity
  8
0
  6
Continuous
 62
     7
370
    25
100
AcDbSpline
210
0.0
220
0.0
230
1.0
 70
     8
 71
     3
 72
     8
 73
     4
 74
     0
 42
0.00000001
 43
0.00000001
 40
0.0
 40
0.0
 40
0.0
 40
0.0
 40
1.0
 40
1.0
 40
1.0
 40
1.0
 10
2.925792269649986
 20
5.869061320262305
 30
0.0
 10
3.287618269649982
 20
5.525362320262301
 30
0.0
 10
3.757933269649981
 20
5.383920320262304
 30
0.0
 10
4.252326269649983
 20
5.470119320262305
 30
0.0
  0
SPLINE
  5
1B7
330
1F
100
AcDbEntity
  8
0
  6
Continuous
 62
     7
370
    25
100
AcDbSpline
210
0.0
220
0.0
230
1.0
 70
     8
 71
     3
 72
     8
 73
     4
 74
     0
 42
0.00000001
 43
0.00000001
 40
0.0
 40
0.0
 40
0.0
 40
0.0
 40
1.0
 40
1.0
 40
1.0
 40
1.0
 10
3.514043269649984
 20
6.854793320262301
 30
0.0
 10
3.579004269649987
 20
6.631331320262307
 30
0.0
 10
3.808540269649982
 20
6.474622320262302
 30
0.0
 10
4.031706269649979
 20
6.501375320262307
 30
0.0
  0
SPLINE
  5
1B8
330
1F
100
AcDbEntity
  8
0
  6
Continuous
 62
     7
370
    25
100
AcDbSpline
210
0.0
220
0.0
230
1.0
 70
     8
 71
     3
 72
     8
 73
     4
 74
     0
 42
0.00000001
 43
0.00000001
 40
0.0
 40
0.0
 40
0.0
 40
0.0
 40
1.0
 40
1.0
 40
1.0
 40
1.0
 10
4.296437269649983
 20
7.359725320262307
 30
0.0
 10
3.930897269649986
 20
7.672615320262303
 30
0.0
 10
3.379706269649986
 20
7.316895320262306
 30
0.0
 10
3.514043269649984
 20
6.854793320262301
 30
0.0
  0
SPLINE
  5
1B9
330
1F
100
AcDbEntity
  8
0
  6
Continuous
 62
     7
370
    25
100
AcDbSpline
210
0.0
220
0.0
230
1.0
 70
     8
 71
     3
 72
     8
 73
     4
 74
     0
 42
0.00000001
 43
0.00000001
 40
0.0
 40
0.0
 40
0.0
 40
0.0
 40
1.0
 40
1.0
 40
1.0
 40
1.0
 10
4.200923269649985
 20
6.555745320262305
 30
0.0
 10
4.513287269649988
 20
6.704465320262303
 30
0.0
 10
4.563934269649981
 20
7.130759320262303
 30
0.0
 10
4.296437269649983
 20
7.359725320262307
 30
0.0
  0
SPLINE
  5
1BA
330
1F
100
AcDbEntity
  8
0
  6
Continuous
 62
     7
370
    25
100
AcDbSpline
210
0.0
220
0.0
230
1.0
 70
     8
 71
     3
 72
     8
 73
     4
 74
     0
 42
0.00000001
 43
0.00000001
 40
0.0
 40
0.0
 40
0.0
 40
0.0
 40
1.0
 40
1.0
 40
1.0
 40
1.0
 10
4.031706269649979
 20
6.501375320262307
 30
0.0
 10
4.072153269649985
 20
6.5062253202623
 30
0.0
 10
4.14830026964999
 20
6.530690320262302
 30
0.0
 10
4.200923269649985
 20
6.555745320262305
 30
0.0
  0
SPLINE
  5
1BB
330
1F
100
AcDbEntity
  8
0
  6
Continuous
 62
     7
370
    25
100
AcDbSpline
210
0.0
220
0.0
230
1.0
 70
     8
 71
     3
 72
     8
 73
     4
 74
     0
 42
0.00000001
 43
0.00000001
 40
0.0
 40
0.0
 40
0.0
 40
0.0
 40
1.0
 40
1.0
 40
1.0
 40
1.0
 10
0.0887422696499857
 20
1.397707320262301
 30
0.0
 10
0.0435592696499849
 20
1.309141320262303
 30
0.0
 10
-0.0965827303500179
 20
1.181493320262301
 30
0.0
 10
-0.1977747303500144
 20
1.136730320262302
 30
0.0
  0
SPLINE
  5
1BC
330
1F
100
AcDbEntity
  8
0
  6
Continuous
 62
     7
370
    25
100
AcDbSpline
210
0.0
220
0.0
230
1.0
 70
     8
 71
     3
 72
     8
 73
     4
 74
     0
 42
0.00000001
 43
0.00000001
 40
0.0
 40
0.0
 40
0.0
 40
0.0
 40
1.0
 40
1.0
 40
1.0
 40
1.0
 10
0.1440962696499827
 20
1.548493320262301
 30
0.0
 10
0.1325332696499835
 20
1.502576320262301
 30
0.0
 10
0.107625269649983
 20
1.434722320262302
 30
0.0
 10
0.0887422696499857
 20
1.397707320262301
 30
0.0
  0
SPLINE
  5
1BD
330
1F
100
AcDbEntity
  8
0
  6
Continuous
 62
     7
370
    25
100
AcDbSpline
210
0.0
220
0.0
230
1.0
 70
     8
 71
     3
 72
     8
 73
     4
 74
     0
 42
0.00000001
 43
0.00000001
 40
0.0
 40
0.0
 40
0.0
 40
0.0
 40
1.0
 40
1.0
 40
1.0
 40
1.0
 10
0.2273922696499828
 20
1.643662320262303
 30
0.0
 10
0.1718612696499852
 20
1.633245320262305
 30
0.0
 10
0.1628442696499852
 20
1.622940320262303
 30
0.0
 10
0.1440962696499827
 20
1.548493320262301
 30
0.0
  0
SPLINE
  5
1BE
330
1F
100
AcDbEntity
  8
0
  6
Continuous
 62
     7
370
    25
100
AcDbSpline
210
0.0
220
0.0
230
1.0
 70
     8
 71
     3
 72
     8
 73
     4
 74
     0
 42
0.00000001
 43
0.00000001
 40
0.0
 40
0.0
 40
0.0
 40
0.0
 40
1.0
 40
1.0
 40
1.0
 40
1.0
 10
0.7131752696499862
 20
1.9010773202623
 30
0.0
 10
0.6009622696499829
 20
1.808581320262303
 30
0.0
 10
0.3238982696499859
 20
1.661767320262301
 30
0.0
 10
0.2273922696499828
 20
1.643662320262303
 30
0.0
  0
SPLINE
  5
1BF
330
1F
100
AcDbEntity
  8
0
  6
Continuous
 62
     7
370
    25
100
AcDbSpline
210
0.0
220
0.0
230
1.0
 70
     8
 71
     3
 72
     8
 73
     4
 74
     0
 42
0.00000001
 43
0.00000001
 40
0.0
 40
0.0
 40
0.0
 40
0.0
 40
1.0
 40
1.0
 40
1.0
 40
1.0
 10
1.221738269649983
 20
2.872711320262303
 30
0.0
 10
1.186856269649983
 20
2.499073320262304
 30
0.0
 10
0.9957872696499843
 20
2.134027320262299
 30
0.0
 10
0.7131752696499862
 20
1.9010773202623
 30
0.0
  0
SPLINE
  5
1C0
330
1F
100
AcDbEntity
  8
0
  6
Continuous
 62
     7
370
    25
100
AcDbSpline
210
0.0
220
0.0
230
1.0
 70
     8
 71
     3
 72
     8
 73
     4
 74
     0
 42
0.00000001
 43
0.00000001
 40
0.0
 40
0.0
 40
0.0
 40
0.0
 40
1.0
 40
1.0
 40
1.0
 40
1.0
 10
1.298211269649983
 20
3.024779320262304
 30
0.0
 10
1.235126269649983
 20
2.9984213202623
 30
0.0
 10
1.233099269649984
 20
2.994386320262304
 30
0.0
 10
1.221738269649983
 20
2.872711320262303
 30
0.0
  0
SPLINE
  5
1C1
330
1F
100
AcDbEntity
  8
0
  6
Continuous
 62
     7
370
    25
100
AcDbSpline
210
0.0
220
0.0
230
1.0
 70
     8
 71
     3
 72
     8
 73
     4
 74
     0
 42
0.00000001
 43
0.00000001
 40
0.0
 40
0.0
 40
0.0
 40
0.0
 40
1.0
 40
1.0
 40
1.0
 40
1.0
 10
1.580960269649982
 20
3.304021320262303
 30
0.0
 10
1.516825269649989
 20
3.173683320262303
 30
0.0
 10
1.415797269649986
 20
3.073910320262302
 30
0.0
 10
1.298211269649983
 20
3.024779320262304
 30
0.0
  0
SPLINE
  5
1C2
330
1F
100
AcDbEntity
  8
0
  6
Continuous
 62
     7
370
    25
100
AcDbSpline
210
0.0
220
0.0
230
1.0
 70
     8
 71
     3
 72
     8
 73
     4
 74
     0
 42
0.00000001
 43
0.00000001
 40
0.0
 40
0.0
 40
0.0
 40
0.0
 40
1.0
 40
1.0
 40
1.0
 40
1.0
 10
1.640447269649986
 20
3.574722320262302
 30
0.0
 10
1.641505269649984
 20
3.443811320262301
 30
0.0
 10
1.634837269649983
 20
3.413508320262302
 30
0.0
 10
1.580960269649982
 20
3.304021320262303
 30
0.0
  0
SPLINE
  5
1C3
330
1F
100
AcDbEntity
  8
0
  6
Continuous
 62
     7
370
    25
100
AcDbSpline
210
0.0
220
0.0
230
1.0
 70
     8
 71
     3
 72
     8
 73
     4
 74
     0
 42
0.00000001
 43
0.00000001
 40
0.0
 40
0.0
 40
0.0
 40
0.0
 40
1.0
 40
1.0
 40
1.0
 40
1.0
 10
1.46647026964998
 20
3.990683320262304
 30
0.0
 10
1.593033269649984
 20
3.863686320262301
 30
0.0
 10
1.639013269649985
 20
3.753758320262305
 30
0.0
 10
1.640447269649986
 20
3.574722320262302
 30
0.0
  0
SPLINE
  5
1C4
330
1F
100
AcDbEntity
  8
0
  6
Continuous
 62
     7
370
    25
100
AcDbSpline
210
0.0
220
0.0
230
1.0
 70
     8
 71
     3
 72
     8
 73
     4
 74
     0
 42
0.00000001
 43
0.00000001
 40
0.0
 40
0.0
 40
0.0
 40
0.0
 40
1.0
 40
1.0
 40
1.0
 40
1.0
 10
0.5216272696499831
 20
3.833928320262303
 30
0.0
 10
0.6858432696499849
 20
4.181050320262301
 30
0.0
 10
1.192912269649984
 20
4.265176320262299
 30
0.0
 10
1.46647026964998
 20
3.990683320262304
 30
0.0
  0
SPLINE
  5
1C5
330
1F
100
AcDbEntity
  8
0
  6
Continuous
 62
     7
370
    25
100
AcDbSpline
210
0.0
220
0.0
230
1.0
 70
     8
 71
     3
 72
     8
 73
     4
 74
     0
 42
0.00000001
 43
0.00000001
 40
0.0
 40
0.0
 40
0.0
 40
0.0
 40
1.0
 40
1.0
 40
1.0
 40
1.0
 10
0.755037269649983
 20
3.053093320262303
 30
0.0
 10
0.4852702696499858
 20
3.212899320262301
 30
0.0
 10
0.385591269649984
 20
3.546367320262301
 30
0.0
 10
0.5216272696499831
 20
3.833928320262303
 30
0.0
  0
SPLINE
  5
1C6
330
1F
100
AcDbEntity
  8
0
  6
Continuous
 62
     7
370
    25
100
AcDbSpline
210
0.0
220
0.0
230
1.0
 70
     8
 71
     3
 72
     8
 73
     4
 74
     0
 42
0.00000001
 43
0.00000001
 40
0.0
 40
0.0
 40
0.0
 40
0.0
 40
1.0
 40
1.0
 40
1.0
 40
1.0
 10
0.8602562696499831
 20
2.914471320262304
 30
0.0
 10
0.8602562696499831
 20
2.987788320262304
 30
0.0
 10
0.8561552696499837
 20
2.993192320262302
 30
0.0
 10
0.755037269649983
 20
3.053093320262303
 30
0.0
  0
SPLINE
  5
1C7
330
1F
100
AcDbEntity
  8
0
  6
Continuous
 62
     7
370
    25
100
AcDbSpline
210
0.0
220
0.0
230
1.0
 70
     8
 71
     3
 72
     8
 73
     4
 74
     0
 42
0.00000001
 43
0.00000001
 40
0.0
 40
0.0
 40
0.0
 40
0.0
 40
1.0
 40
1.0
 40
1.0
 40
1.0
 10
0.5534752696499841
 20
2.249934320262301
 30
0.0
 10
0.7314782696499835
 20
2.427939320262303
 30
0.0
 10
0.8602562696499831
 20
2.706892320262302
 30
0.0
 10
0.8602562696499831
 20
2.914471320262304
 30
0.0
  0
SPLINE
  5
1C8
330
1F
100
AcDbEntity
  8
0
  6
Continuous
 62
     7
370
    25
100
AcDbSpline
210
0.0
220
0.0
230
1.0
 70
     8
 71
     3
 72
     8
 73
     4
 74
     0
 42
0.00000001
 43
0.00000001
 40
0.0
 40
0.0
 40
0.0
 40
0.0
 40
1.0
 40
1.0
 40
1.0
 40
1.0
 10
0.1089322696499855
 20
1.984860320262301
 30
0.0
 10
0.1841592696499826
 20
1.984542320262302
 30
0.0
 10
0.4415852696499842
 20
2.138045320262304
 30
0.0
 10
0.5534752696499841
 20
2.249934320262301
 30
0.0
  0
SPLINE
  5
1C9
330
1F
100
AcDbEntity
  8
0
  6
Continuous
 62
     7
370
    25
100
AcDbSpline
210
0.0
220
0.0
230
1.0
 70
     8
 71
     3
 72
     8
 73
     4
 74
     0
 42
0.00000001
 43
0.00000001
 40
0.0
 40
0.0
 40
0.0
 40
0.0
 40
1.0
 40
1.0
 40
1.0
 40
1.0
 10
0.0353542696499842
 20
2.048910320262304
 30
0.0
 10
0.0592992696499851
 20
2.013751320262304
 30
0.0
 10
0.0924072696499821
 20
1.984929320262303
 30
0.0
 10
0.1089322696499855
 20
1.984860320262301
 30
0.0
  0
SPLINE
  5
1CA
330
1F
100
AcDbEntity
  8
0
  6
Continuous
 62
     7
370
    25
100
AcDbSpline
210
0.0
220
0.0
230
1.0
 70
     8
 71
     3
 72
     8
 73
     4
 74
     0
 42
0.00000001
 43
0.00000001
 40
0.0
 40
0.0
 40
0.0
 40
0.0
 40
1.0
 40
1.0
 40
1.0
 40
1.0
 10
-0.0929817303500155
 20
2.1690063202623
 30
0.0
 10
-0.046337730350017
 20
2.1381123202623
 30
0.0
 10
0.0114102696499828
 20
2.084068320262304
 30
0.0
 10
0.0353542696499842
 20
2.048910320262304
 30
0.0
  0
SPLINE
  5
1CB
330
1F
100
AcDbEntity
  8
0
  6
Continuous
 62
     7
370
    25
100
AcDbSpline
210
0.0
220
0.0
230
1.0
 70
     8
 71
     3
 72
     8
 73
     4
 74
     0
 42
0.00000001
 43
0.00000001
 40
0.0
 40
0.0
 40
0.0
 40
0.0
 40
1.0
 40
1.0
 40
1.0
 40
1.0
 10
-0.8749757303500166
 20
2.075187320262302
 30
0.0
 10
-0.6718317303500178
 20
2.301131320262304
 30
0.0
 10
-0.3506327303500166
 20
2.339667320262303
 30
0.0
 10
-0.0929817303500155
 20
2.1690063202623
 30
0.0
  0
SPLINE
  5
1CC
330
1F
100
AcDbEntity
  8
0
  6
Continuous
 62
     7
370
    25
100
AcDbSpline
210
0.0
220
0.0
230
1.0
 70
     8
 71
     3
 72
     8
 73
     4
 74
     0
 42
0.00000001
 43
0.00000001
 40
0.0
 40
0.0
 40
0.0
 40
0.0
 40
1.0
 40
1.0
 40
1.0
 40
1.0
 10
-0.5930807303500159
 20
1.107760320262302
 30
0.0
 10
-1.011278730350017
 20
1.226244320262304
 30
0.0
 10
-1.164739730350018
 20
1.752901320262304
 30
0.0
 10
-0.8749757303500166
 20
2.075187320262302
 30
0.0
  0
SPLINE
  5
1CD
330
1F
100
AcDbEntity
  8
0
  6
Continuous
 62
     7
370
    25
100
AcDbSpline
210
0.0
220
0.0
230
1.0
 70
     8
 71
     3
 72
     8
 73
     4
 74
     0
 42
0.00000001
 43
0.00000001
 40
0.0
 40
0.0
 40
0.0
 40
0.0
 40
1.0
 40
1.0
 40
1.0
 40
1.0
 10
-0.1977747303500144
 20
1.136730320262302
 30
0.0
 10
-0.3018087303500172
 20
1.090710320262301
 30
0.0
 10
-0.4854117303500147
 20
1.077255320262302
 30
0.0
 10
-0.5930807303500159
 20
1.107760320262302
 30
0.0
  0
SPLINE
  5
1CE
330
1F
100
AcDbEntity
  8
0
  6
Continuous
 62
     7
370
    25
100
AcDbSpline
210
0.0
220
0.0
230
1.0
 70
     8
 71
     3
 72
     8
 73
     4
 74
     0
 42
0.00000001
 43
0.00000001
 40
0.0
 40
0.0
 40
0.0
 40
0.0
 40
1.0
 40
1.0
 40
1.0
 40
1.0
 10
-2.950425730350016
 20
5.463510320262301
 30
0.0
 10
-2.569872730350018
 20
5.318361320262303
 30
0.0
 10
-2.435702730350014
 20
4.878057320262301
 30
0.0
 10
-2.671832730350015
 20
4.549253320262299
 30
0.0
  0
SPLINE
  5
1D1
330
1F
100
AcDbEntity
  8
0
  6
Continuous
 62
     7
370
    25
100
AcDbSpline
210
0.0
220
0.0
230
1.0
 70
     8
 71
     3
 72
     8
 73
     4
 74
     0
 42
0.00000001
 43
0.00000001
 40
0.0
 40
0.0
 40
0.0
 40
0.0
 40
1.0
 40
1.0
 40
1.0
 40
1.0
 10
-2.589100730350014
 20
6.565551320262299
 30
0.0
 10
-2.903951730350015
 20
6.361425320262307
 30
0.0
 10
-3.082317730350014
 20
6.028136320262306
 30
0.0
 10
-3.070276730350017
 20
5.666447320262301
 30
0.0
  0
SPLINE
  5
1D4
330
1F
100
AcDbEntity
  8
0
  6
Continuous
 62
     7
370
    25
100
AcDbSpline
210
0.0
220
0.0
230
1.0
 70
     8
 71
     3
 72
     8
 73
     4
 74
     0
 42
0.00000001
 43
0.00000001
 40
0.0
 40
0.0
 40
0.0
 40
0.0
 40
1.0
 40
1.0
 40
1.0
 40
1.0
 10
-1.584990730350018
 20
6.599398320262302
 30
0.0
 10
-1.810912730350014
 20
6.373477320262305
 30
0.0
 10
-2.171719730350016
 20
6.364197320262305
 30
0.0
 10
-2.415279730350012
 20
6.578043320262301
 30
0.0
  0
SPLINE
  5
1D5
330
1F
100
AcDbEntity
  8
0
  6
Continuous
 62
     7
370
    25
100
AcDbSpline
210
0.0
220
0.0
230
1.0
 70
     8
 71
     3
 72
     8
 73
     4
 74
     0
 42
0.00000001
 43
0.00000001
 40
0.0
 40
0.0
 40
0.0
 40
0.0
 40
1.0
 40
1.0
 40
1.0
 40
1.0
 10
-1.423777730350018
 20
6.985509320262303
 30
0.0
 10
-1.433434730350014
 20
6.816618320262299
 30
0.0
 10
-1.480482730350015
 20
6.703907320262305
 30
0.0
 10
-1.584990730350018
 20
6.599398320262302
 30
0.0
  0
SPLINE
  5
1D6
330
1F
100
AcDbEntity
  8
0
  6
Continuous
 62
     7
370
    25
100
AcDbSpline
210
0.0
220
0.0
230
1.0
 70
     8
 71
     3
 72
     8
 73
     4
 74
     0
 42
0.00000001
 43
0.00000001
 40
0.0
 40
0.0
 40
0.0
 40
0.0
 40
1.0
 40
1.0
 40
1.0
 40
1.0
 10
-1.583006730350018
 20
7.426453320262302
 30
0.0
 10
-1.463533730350013
 20
7.307105320262304
 30
0.0
 10
-1.413347730350019
 20
7.168136320262308
 30
0.0
 10
-1.423777730350018
 20
6.985509320262303
 30
0.0
  0
SPLINE
  5
1D7
330
1F
100
AcDbEntity
  8
0
  6
Continuous
 62
     7
370
    25
100
AcDbSpline
210
0.0
220
0.0
230
1.0
 70
     8
 71
     3
 72
     8
 73
     4
 74
     0
 42
0.00000001
 43
0.00000001
 40
0.0
 40
0.0
 40
0.0
 40
0.0
 40
1.0
 40
1.0
 40
1.0
 40
1.0
 10
-2.007828730350016
 20
7.601413320262304
 30
0.0
 10
-1.819948730350015
 20
7.601413320262304
 30
0.0
 10
-1.714800730350015
 20
7.558109320262303
 30
0.0
 10
-1.583006730350018
 20
7.426453320262302
 30
0.0
  0
SPLINE
  5
1D8
330
1F
100
AcDbEntity
  8
0
  6
Continuous
 62
     7
370
    25
100
AcDbSpline
210
0.0
220
0.0
230
1.0
 70
     8
 71
     3
 72
     8
 73
     4
 74
     0
 42
0.00000001
 43
0.00000001
 40
0.0
 40
0.0
 40
0.0
 40
0.0
 40
1.0
 40
1.0
 40
1.0
 40
1.0
 10
-2.591886730350015
 20
7.083024320262303
 30
0.0
 10
-2.575825730350013
 20
7.283205320262303
 30
0.0
 10
-2.453998730350015
 20
7.459050320262304
 30
0.0
 10
-2.268171730350016
 20
7.550306320262303
 30
0.0
  0
SPLINE
  5
1D9
330
1F
100
AcDbEntity
  8
0
  6
Continuous
 62
     7
370
    25
100
AcDbSpline
210
0.0
220
0.0
230
1.0
 70
     8
 71
     3
 72
     8
 73
     4
 74
     0
 42
0.00000001
 43
0.00000001
 40
0.0
 40
0.0
 40
0.0
 40
0.0
 40
1.0
 40
1.0
 40
1.0
 40
1.0
 10
-2.634507730350014
 20
6.957428320262304
 30
0.0
 10
-2.608393730350017
 20
6.965721320262304
 30
0.0
 10
-2.599106730350013
 20
6.993054320262301
 30
0.0
 10
-2.591886730350015
 20
7.083024320262303
 30
0.0
  0
SPLINE
  5
1DA
330
1F
100
AcDbEntity
  8
0
  6
Continuous
 62
     7
370
    25
100
AcDbSpline
210
0.0
220
0.0
230
1.0
 70
     8
 71
     3
 72
     8
 73
     4
 74
     0
 42
0.00000001
 43
0.00000001
 40
0.0
 40
0.0
 40
0.0
 40
0.0
 40
1.0
 40
1.0
 40
1.0
 40
1.0
 10
-3.064976730350017
 20
6.632924320262301
 30
0.0
 10
-2.948721730350015
 20
6.757937320262301
 30
0.0
 10
-2.720142730350015
 20
6.930249320262302
 30
0.0
 10
-2.634507730350014
 20
6.957428320262304
 30
0.0
  0
SPLINE
  5
1DB
330
1F
100
AcDbEntity
  8
0
  6
Continuous
 62
     7
370
    25
100
AcDbSpline
210
0.0
220
0.0
230
1.0
 70
     8
 71
     3
 72
     8
 73
     4
 74
     0
 42
0.00000001
 43
0.00000001
 40
0.0
 40
0.0
 40
0.0
 40
0.0
 40
1.0
 40
1.0
 40
1.0
 40
1.0
 10
-3.389692730350016
 20
6.057056320262301
 30
0.0
 10
-3.328864730350014
 20
6.269481320262303
 30
0.0
 10
-3.214736730350016
 20
6.471882320262301
 30
0.0
 10
-3.064976730350017
 20
6.632924320262301
 30
0.0
  0
SPLINE
  5
1DC
330
1F
100
AcDbEntity
  8
0
  6
Continuous
 62
     7
370
    25
100
AcDbSpline
210
0.0
220
0.0
230
1.0
 70
     8
 71
     3
 72
     8
 73
     4
 74
     0
 42
0.00000001
 43
0.00000001
 40
0.0
 40
0.0
 40
0.0
 40
0.0
 40
1.0
 40
1.0
 40
1.0
 40
1.0
 10
-3.431588730350016
 20
5.666371320262299
 30
0.0
 10
-3.431774730350015
 20
5.865684320262305
 30
0.0
 10
-3.424154730350019
 20
5.936716320262304
 30
0.0
 10
-3.389692730350016
 20
6.057056320262301
 30
0.0
  0
SPLINE
  5
1DD
330
1F
100
AcDbEntity
  8
0
  6
Continuous
 62
     7
370
    25
100
AcDbSpline
210
0.0
220
0.0
230
1.0
 70
     8
 71
     3
 72
     8
 73
     4
 74
     0
 42
0.00000001
 43
0.00000001
 40
0.0
 40
0.0
 40
0.0
 40
0.0
 40
1.0
 40
1.0
 40
1.0
 40
1.0
 10
-3.443230730350015
 20
5.422767320262305
 30
0.0
 10
-3.436721730350013
 20
5.422767320262305
 30
0.0
 10
-3.431483730350016
 20
5.532388320262309
 30
0.0
 10
-3.431588730350016
 20
5.666371320262299
 30
0.0
  0
SPLINE
  5
1DE
330
1F
100
AcDbEntity
  8
0
  6
Continuous
 62
     7
370
    25
100
AcDbSpline
210
0.0
220
0.0
230
1.0
 70
     8
 71
     3
 72
     8
 73
     4
 74
     0
 42
0.00000001
 43
0.00000001
 40
0.0
 40
0.0
 40
0.0
 40
0.0
 40
1.0
 40
1.0
 40
1.0
 40
1.0
 10
-3.671241730350015
 20
5.181328320262302
 30
0.0
 10
-3.624736730350013
 20
5.266775320262304
 30
0.0
 10
-3.477419730350015
 20
5.422767320262305
 30
0.0
 10
-3.443230730350015
 20
5.422767320262305
 30
0.0
  0
SPLINE
  5
1DF
330
1F
100
AcDbEntity
  8
0
  6
Continuous
 62
     7
370
    25
100
AcDbSpline
210
0.0
220
0.0
230
1.0
 70
     8
 71
     3
 72
     8
 73
     4
 74
     0
 42
0.00000001
 43
0.00000001
 40
0.0
 40
0.0
 40
0.0
 40
0.0
 40
1.0
 40
1.0
 40
1.0
 40
1.0
 10
-3.699931730350017
 20
4.6832963202623
 30
0.0
 10
-3.757571730350014
 20
4.836104320262296
 30
0.0
 10
-3.745549730350017
 20
5.044804320262303
 30
0.0
 10
-3.671241730350015
 20
5.181328320262302
 30
0.0
  0
SPLINE
  5
1E0
330
1F
100
AcDbEntity
  8
0
  6
Continuous
 62
     7
370
    25
100
AcDbSpline
210
0.0
220
0.0
230
1.0
 70
     8
 71
     3
 72
     8
 73
     4
 74
     0
 42
0.00000001
 43
0.00000001
 40
0.0
 40
0.0
 40
0.0
 40
0.0
 40
1.0
 40
1.0
 40
1.0
 40
1.0
 10
-3.270095730350017
 20
4.319655320262301
 30
0.0
 10
-3.459153730350016
 20
4.3589433202623
 30
0.0
 10
-3.633092730350017
 20
4.506093320262298
 30
0.0
 10
-3.699931730350017
 20
4.6832963202623
 30
0.0
  0
SPLINE
  5
1E1
330
1F
100
AcDbEntity
  8
0
  6
Continuous
 62
     7
370
    25
100
AcDbSpline
210
0.0
220
0.0
230
1.0
 70
     8
 71
     3
 72
     8
 73
     4
 74
     0
 42
0.00000001
 43
0.00000001
 40
0.0
 40
0.0
 40
0.0
 40
0.0
 40
1.0
 40
1.0
 40
1.0
 40
1.0
 10
-2.671832730350015
 20
4.549253320262299
 30
0.0
 10
-2.802092730350016
 20
4.367871320262305
 30
0.0
 10
-3.047993730350016
 20
4.273500320262302
 30
0.0
 10
-3.270095730350017
 20
4.319655320262301
 30
0.0
  0
SPLINE
  5
1E2
330
1F
100
AcDbEntity
  8
0
  6
Continuous
 62
     7
370
    25
100
AcDbSpline
210
0.0
220
0.0
230
1.0
 70
     8
 71
     3
 72
     8
 73
     4
 74
     0
 42
0.00000001
 43
0.00000001
 40
0.0
 40
0.0
 40
0.0
 40
0.0
 40
1.0
 40
1.0
 40
1.0
 40
1.0
 10
-5.704230730350014
 20
7.399000320262306
 30
0.0
 10
-5.760607730350017
 20
7.342652320262301
 30
0.0
 10
-5.860837730350017
 20
7.324491320262306
 30
0.0
 10
-5.921839730350015
 20
7.359571320262305
 30
0.0
  0
SPLINE
  5
1E7
330
1F
100
AcDbEntity
  8
0
  6
Continuous
 62
     7
370
    25
100
AcDbSpline
210
0.0
220
0.0
230
1.0
 70
     8
 71
     3
 72
     8
 73
     4
 74
     0
 42
0.00000001
 43
0.00000001
 40
0.0
 40
0.0
 40
0.0
 40
0.0
 40
1.0
 40
1.0
 40
1.0
 40
1.0
 10
-5.339030730350018
 20
9.641823320262304
 30
0.0
 10
-4.990822730350019
 20
9.328753320262297
 30
0.0
 10
-5.109704730350016
 20
8.757309320262301
 30
0.0
 10
-5.549651730350016
 20
8.629413320262298
 30
0.0
  0
SPLINE
  5
1E8
330
1F
100
AcDbEntity
  8
0
  6
Continuous
 62
     7
370
    25
100
AcDbSpline
210
0.0
220
0.0
230
1.0
 70
     8
 71
     3
 72
     8
 73
     4
 74
     0
 42
0.00000001
 43
0.00000001
 40
0.0
 40
0.0
 40
0.0
 40
0.0
 40
1.0
 40
1.0
 40
1.0
 40
1.0
 10
-5.541942730350014
 20
9.757601320262301
 30
0.0
 10
-5.464632730350017
 20
9.735223320262303
 30
0.0
 10
-5.405189730350014
 20
9.701305320262296
 30
0.0
 10
-5.339030730350018
 20
9.641823320262304
 30
0.0
  0
SPLINE
  5
1EB
330
1F
100
AcDbEntity
  8
0
  6
Continuous
 62
     7
370
    25
100
AcDbSpline
210
0.0
220
0.0
230
1.0
 70
     8
 71
     3
 72
     8
 73
     4
 74
     0
 42
0.00000001
 43
0.00000001
 40
0.0
 40
0.0
 40
0.0
 40
0.0
 40
1.0
 40
1.0
 40
1.0
 40
1.0
 10
-4.669848730350014
 20
10.8913853202623
 30
0.0
 10
-5.168434730350016
 20
10.7909083202623
 30
0.0
 10
-5.575742730350015
 20
10.3662623202623
 30
0.0
 10
-5.639320730350017
 20
9.880640320262298
 30
0.0
  0
SPLINE
  5
1EC
330
1F
100
AcDbEntity
  8
0
  6
Continuous
 62
     7
370
    25
100
AcDbSpline
210
0.0
220
0.0
230
1.0
 70
     8
 71
     3
 72
     8
 73
     4
 74
     0
 42
0.00000001
 43
0.00000001
 40
0.0
 40
0.0
 40
0.0
 40
0.0
 40
1.0
 40
1.0
 40
1.0
 40
1.0
 10
-3.910683730350015
 20
10.7920903202623
 30
0.0
 10
-4.160997730350013
 20
10.9128273202623
 30
0.0
 10
-4.405048730350019
 20
10.94474832026231
 30
0.0
 10
-4.669848730350014
 20
10.8913853202623
 30
0.0
  0
SPLINE
  5
1ED
330
1F
100
AcDbEntity
  8
0
  6
Continuous
 62
     7
370
    25
100
AcDbSpline
210
0.0
220
0.0
230
1.0
 70
     8
 71
     3
 72
     8
 73
     4
 74
     0
 42
0.00000001
 43
0.00000001
 40
0.0
 40
0.0
 40
0.0
 40
0.0
 40
1.0
 40
1.0
 40
1.0
 40
1.0
 10
-3.339376730350018
 20
10.2369943202623
 30
0.0
 10
-3.461766730350018
 20
10.47852032026231
 30
0.0
 10
-3.660092730350013
 20
10.67121932026231
 30
0.0
 10
-3.910683730350015
 20
10.7920903202623
 30
0.0
  0
SPLINE
  5
1EE
330
1F
100
AcDbEntity
  8
0
  6
Continuous
 62
     7
370
    25
100
AcDbSpline
210
0.0
220
0.0
230
1.0
 70
     8
 71
     3
 72
     8
 73
     4
 74
     0
 42
0.00000001
 43
0.00000001
 40
0.0
 40
0.0
 40
0.0
 40
0.0
 40
1.0
 40
1.0
 40
1.0
 40
1.0
 10
-3.221239730350018
 20
9.848572320262303
 30
0.0
 10
-3.221239730350018
 20
9.907593320262302
 30
0.0
 10
-3.294476730350014
 20
10.1483873202623
 30
0.0
 10
-3.339376730350018
 20
10.2369943202623
 30
0.0
  0
SPLINE
  5
1EF
330
1F
100
AcDbEntity
  8
0
  6
Continuous
 62
     7
370
    25
100
AcDbSpline
210
0.0
220
0.0
230
1.0
 70
     8
 71
     3
 72
     8
 73
     4
 74
     0
 42
0.00000001
 43
0.00000001
 40
0.0
 40
0.0
 40
0.0
 40
0.0
 40
1.0
 40
1.0
 40
1.0
 40
1.0
 10
-3.318585730350016
 20
9.719505320262298
 30
0.0
 10
-3.265044730350015
 20
9.772151320262303
 30
0.0
 10
-3.221239730350018
 20
9.830231320262305
 30
0.0
 10
-3.221239730350018
 20
9.848572320262303
 30
0.0
  0
SPLINE
  5
1F0
330
1F
100
AcDbEntity
  8
0
  6
Continuous
 62
     7
370
    25
100
AcDbSpline
210
0.0
220
0.0
230
1.0
 70
     8
 71
     3
 72
     8
 73
     4
 74
     0
 42
0.00000001
 43
0.00000001
 40
0.0
 40
0.0
 40
0.0
 40
0.0
 40
1.0
 40
1.0
 40
1.0
 40
1.0
 10
-3.505756730350019
 20
9.283660320262308
 30
0.0
 10
-3.505174730350016
 20
9.47680332026231
 30
0.0
 10
-3.461183730350013
 20
9.5792913202623
 30
0.0
 10
-3.318585730350016
 20
9.719505320262298
 30
0.0
  0
SPLINE
  5
1F1
330
1F
100
AcDbEntity
  8
0
  6
Continuous
 62
     7
370
    25
100
AcDbSpline
210
0.0
220
0.0
230
1.0
 70
     8
 71
     3
 72
     8
 73
     4
 74
     0
 42
0.00000001
 43
0.00000001
 40
0.0
 40
0.0
 40
0.0
 40
0.0
 40
1.0
 40
1.0
 40
1.0
 40
1.0
 10
-3.454615730350018
 20
9.022324320262308
 30
0.0
 10
-3.499042730350014
 20
9.112791320262305
 30
0.0
 10
-3.506146730350018
 20
9.1490943202623
 30
0.0
 10
-3.505756730350019
 20
9.283660320262308
 30
0.0
  0
SPLINE
  5
1F2
330
1F
100
AcDbEntity
  8
0
  6
Continuous
 62
     7
370
    25
100
AcDbSpline
210
0.0
220
0.0
230
1.0
 70
     8
 71
     3
 72
     8
 73
     4
 74
     0
 42
0.00000001
 43
0.00000001
 40
0.0
 40
0.0
 40
0.0
 40
0.0
 40
1.0
 40
1.0
 40
1.0
 40
1.0
 10
-3.132017730350017
 20
8.730935320262304
 30
0.0
 10
-3.269394730350015
 20
8.782758320262305
 30
0.0
 10
-3.390845730350013
 20
8.8924603202623
 30
0.0
 10
-3.454615730350018
 20
9.022324320262308
 30
0.0
  0
SPLINE
  5
1F3
330
1F
100
AcDbEntity
  8
0
  6
Continuous
 62
     7
370
    25
100
AcDbSpline
210
0.0
220
0.0
230
1.0
 70
     8
 71
     3
 72
     8
 73
     4
 74
     0
 42
0.00000001
 43
0.00000001
 40
0.0
 40
0.0
 40
0.0
 40
0.0
 40
1.0
 40
1.0
 40
1.0
 40
1.0
 10
-2.636015730350015
 20
8.759767320262304
 30
0.0
 10
-2.771284730350019
 20
8.686145320262302
 30
0.0
 10
-2.980974730350018
 20
8.673956320262306
 30
0.0
 10
-3.132017730350017
 20
8.730935320262304
 30
0.0
  0
SPLINE
  5
1F4
330
1F
100
AcDbEntity
  8
0
  6
Continuous
 62
     7
370
    25
100
AcDbSpline
210
0.0
220
0.0
230
1.0
 70
     8
 71
     3
 72
     8
 73
     4
 74
     0
 42
0.00000001
 43
0.00000001
 40
0.0
 40
0.0
 40
0.0
 40
0.0
 40
1.0
 40
1.0
 40
1.0
 40
1.0
 10
-2.330927730350016
 20
9.283660320262308
 30
0.0
 10
-2.328810730350017
 20
9.057400320262303
 30
0.0
 10
-2.439856730350014
 20
8.866530320262306
 30
0.0
 10
-2.636015730350015
 20
8.759767320262304
 30
0.0
  0
SPLINE
  5
1F5
330
1F
100
AcDbEntity
  8
0
  6
Continuous
 62
     7
370
    25
100
AcDbSpline
210
0.0
220
0.0
230
1.0
 70
     8
 71
     3
 72
     8
 73
     4
 74
     0
 42
0.00000001
 43
0.00000001
 40
0.0
 40
0.0
 40
0.0
 40
0.0
 40
1.0
 40
1.0
 40
1.0
 40
1.0
 10
-2.753186730350014
 20
9.849285320262302
 30
0.0
 10
-2.484200730350019
 20
9.7619503202623
 30
0.0
 10
-2.333650730350016
 20
9.560285320262304
 30
0.0
 10
-2.330927730350016
 20
9.283660320262308
 30
0.0
  0
SPLINE
  5
1F8
330
1F
100
AcDbEntity
  8
0
  6
Continuous
 62
     7
370
    25
100
AcDbSpline
210
0.0
220
0.0
230
1.0
 70
     8
 71
     3
 72
     8
 73
     4
 74
     0
 42
0.00000001
 43
0.00000001
 40
0.0
 40
0.0
 40
0.0
 40
0.0
 40
1.0
 40
1.0
 40
1.0
 40
1.0
 10
-3.435451730350016
 20
10.9221403202623
 30
0.0
 10
-3.151588730350017
 20
10.69622632026231
 30
0.0
 10
-2.933852730350017
 20
10.3268853202623
 30
0.0
 10
-2.877030730350016
 20
9.974900320262298
 30
0.0
  0
SPLINE
  5
1F9
330
1F
100
AcDbEntity
  8
0
  6
Continuous
 62
     7
370
    25
100
AcDbSpline
210
0.0
220
0.0
230
1.0
 70
     8
 71
     3
 72
     8
 73
     4
 74
     0
 42
0.00000001
 43
0.00000001
 40
0.0
 40
0.0
 40
0.0
 40
0.0
 40
1.0
 40
1.0
 40
1.0
 40
1.0
 10
-4.040141730350014
 20
11.2239523202623
 30
0.0
 10
-3.835291730350018
 20
11.1719883202623
 30
0.0
 10
-3.604892730350015
 20
11.05699132026231
 30
0.0
 10
-3.435451730350016
 20
10.9221403202623
 30
0.0
  0
SPLINE
  5
1FA
330
1F
100
AcDbEntity
  8
0
  6
Continuous
 62
     7
370
    25
100
AcDbSpline
210
0.0
220
0.0
230
1.0
 70
     8
 71
     3
 72
     8
 73
     4
 74
     0
 42
0.00000001
 43
0.00000001
 40
0.0
 40
0.0
 40
0.0
 40
0.0
 40
1.0
 40
1.0
 40
1.0
 40
1.0
 10
-4.799020730350014
 20
11.2323423202623
 30
0.0
 10
-4.573448730350014
 20
11.2864193202623
 30
0.0
 10
-4.273313730350018
 20
11.28310132026231
 30
0.0
 10
-4.040141730350014
 20
11.2239523202623
 30
0.0
  0
SPLINE
  5
1FB
330
1F
100
AcDbEntity
  8
0
  6
Continuous
 62
     7
370
    25
100
AcDbSpline
210
0.0
220
0.0
230
1.0
 70
     8
 71
     3
 72
     8
 73
     4
 74
     0
 42
0.00000001
 43
0.00000001
 40
0.0
 40
0.0
 40
0.0
 40
0.0
 40
1.0
 40
1.0
 40
1.0
 40
1.0
 10
-6.008709730350014
 20
9.8468353202623
 30
0.0
 10
-5.945423730350019
 20
10.51371832026231
 30
0.0
 10
-5.455375730350015
 20
11.07499132026231
 30
0.0
 10
-4.799020730350014
 20
11.2323423202623
 30
0.0
  0
SPLINE
  5
1FC
330
1F
100
AcDbEntity
  8
0
  6
Continuous
 62
     7
370
    25
100
AcDbSpline
210
0.0
220
0.0
230
1.0
 70
     8
 71
     3
 72
     8
 73
     4
 74
     0
 42
0.00000001
 43
0.00000001
 40
0.0
 40
0.0
 40
0.0
 40
0.0
 40
1.0
 40
1.0
 40
1.0
 40
1.0
 10
-6.096609730350016
 20
9.659910320262304
 30
0.0
 10
-6.023628730350016
 20
9.713880320262303
 30
0.0
 10
-6.020744730350018
 20
9.720014320262301
 30
0.0
 10
-6.008709730350014
 20
9.8468353202623
 30
0.0
  0
SPLINE
  5
1FD
330
1F
100
AcDbEntity
  8
0
  6
Continuous
 62
     7
370
    25
100
AcDbSpline
210
0.0
220
0.0
230
1.0
 70
     8
 71
     3
 72
     8
 73
     4
 74
     0
 42
0.00000001
 43
0.00000001
 40
0.0
 40
0.0
 40
0.0
 40
0.0
 40
1.0
 40
1.0
 40
1.0
 40
1.0
 10
-6.319575730350017
 20
9.120596320262297
 30
0.0
 10
-6.346210730350014
 20
9.305223320262296
 30
0.0
 10
-6.244914730350017
 20
9.5502353202623
 30
0.0
 10
-6.096609730350016
 20
9.659910320262304
 30
0.0
  0
SPLINE
  5
1FE
330
1F
100
AcDbEntity
  8
0
  6
Continuous
 62
     7
370
    25
100
AcDbSpline
210
0.0
220
0.0
230
1.0
 70
     8
 71
     3
 72
     8
 73
     4
 74
     0
 42
0.00000001
 43
0.00000001
 40
0.0
 40
0.0
 40
0.0
 40
0.0
 40
1.0
 40
1.0
 40
1.0
 40
1.0
 10
-6.065299730350016
 20
8.7051573202623
 30
0.0
 10
-6.192987730350014
 20
8.788822320262305
 30
0.0
 10
-6.295990730350014
 20
8.957109320262301
 30
0.0
 10
-6.319575730350017
 20
9.120596320262297
 30
0.0
  0
SPLINE
  5
201
330
1F
100
AcDbEntity
  8
0
  6
Continuous
 62
     7
370
    25
100
AcDbSpline
210
0.0
220
0.0
230
1.0
 70
     8
 71
     3
 72
     8
 73
     4
 74
     0
 42
0.00000001
 43
0.00000001
 40
0.0
 40
0.0
 40
0.0
 40
0.0
 40
1.0
 40
1.0
 40
1.0
 40
1.0
 10
-5.921839730350015
 20
7.359571320262305
 30
0.0
 10
-6.011790730350016
 20
7.411287320262305
 30
0.0
 10
-6.014459730350016
 20
7.431694320262299
 30
0.0
 10
-6.015156730350017
 20
8.072718320262302
 30
0.0
  0
SPLINE
  5
203
330
1F
100
AcDbEntity
  8
0
  6
Continuous
 62
     7
370
    25
100
AcDbSpline
210
0.0
220
0.0
230
1.0
 70
     8
 71
     3
 72
     8
 73
     4
 74
     0
 42
0.00000001
 43
0.00000001
 40
0.0
 40
0.0
 40
0.0
 40
0.0
 40
1.0
 40
1.0
 40
1.0
 40
1.0
 10
-4.448547730350017
 20
6.911959320262305
 30
0.0
 10
-4.451087730350016
 20
6.911964320262309
 30
0.0
 10
-4.453143730350016
 20
6.179141320262302
 30
0.0
 10
-4.453143730350016
 20
5.283464320262304
 30
0.0
  0
SPLINE
  5
204
330
1F
100
AcDbEntity
  8
0
  6
Continuous
 62
     7
370
    25
100
AcDbSpline
210
0.0
220
0.0
230
1.0
 70
     8
 71
     3
 72
     8
 73
     4
 74
     0
 42
0.00000001
 43
0.00000001
 40
0.0
 40
0.0
 40
0.0
 40
0.0
 40
1.0
 40
1.0
 40
1.0
 40
1.0
 10
-4.342832730350018
 20
6.872799320262302
 30
0.0
 10
-4.398448730350016
 20
6.894333320262305
 30
0.0
 10
-4.446019730350016
 20
6.911954320262301
 30
0.0
 10
-4.448547730350017
 20
6.911959320262305
 30
0.0
  0
SPLINE
  5
205
330
1F
100
AcDbEntity
  8
0
  6
Continuous
 62
     7
370
    25
100
AcDbSpline
210
0.0
220
0.0
230
1.0
 70
     8
 71
     3
 72
     8
 73
     4
 74
     0
 42
0.00000001
 43
0.00000001
 40
0.0
 40
0.0
 40
0.0
 40
0.0
 40
1.0
 40
1.0
 40
1.0
 40
1.0
 10
-3.788848730350018
 20
6.8379733202623
 30
0.0
 10
-3.930215730350017
 20
6.805545320262306
 30
0.0
 10
-4.215441730350014
 20
6.823476320262298
 30
0.0
 10
-4.342832730350018
 20
6.872799320262302
 30
0.0
  0
SPLINE
  5
206
330
1F
100
AcDbEntity
  8
0
  6
Continuous
 62
     7
370
    25
100
AcDbSpline
210
0.0
220
0.0
230
1.0
 70
     8
 71
     3
 72
     8
 73
     4
 74
     0
 42
0.00000001
 43
0.00000001
 40
0.0
 40
0.0
 40
0.0
 40
0.0
 40
1.0
 40
1.0
 40
1.0
 40
1.0
 10
-3.147863730350017
 20
7.368416320262305
 30
0.0
 10
-3.148064730350019
 20
7.185109320262304
 30
0.0
 10
-3.482683730350017
 20
6.908201320262298
 30
0.0
 10
-3.788848730350018
 20
6.8379733202623
 30
0.0
  0
SPLINE
  5
207
330
1F
100
AcDbEntity
  8
0
  6
Continuous
 62
     7
370
    25
100
AcDbSpline
210
0.0
220
0.0
230
1.0
 70
     8
 71
     3
 72
     8
 73
     4
 74
     0
 42
0.00000001
 43
0.00000001
 40
0.0
 40
0.0
 40
0.0
 40
0.0
 40
1.0
 40
1.0
 40
1.0
 40
1.0
 10
-3.324998730350016
 20
7.537065320262299
 30
0.0
 10
-3.232040730350019
 20
7.537065320262299
 30
0.0
 10
-3.147762730350015
 20
7.456825320262303
 30
0.0
 10
-3.147863730350017
 20
7.368416320262305
 30
0.0
  0
SPLINE
  5
208
330
1F
100
AcDbEntity
  8
0
  6
Continuous
 62
     7
370
    25
100
AcDbSpline
210
0.0
220
0.0
230
1.0
 70
     8
 71
     3
 72
     8
 73
     4
 74
     0
 42
0.00000001
 43
0.00000001
 40
0.0
 40
0.0
 40
0.0
 40
0.0
 40
1.0
 40
1.0
 40
1.0
 40
1.0
 10
-3.496475730350015
 20
7.429012320262301
 30
0.0
 10
-3.407077730350018
 20
7.523942320262302
 30
0.0
 10
-3.386249730350014
 20
7.537065320262299
 30
0.0
 10
-3.324998730350016
 20
7.537065320262299
 30
0.0
  0
SPLINE
  5
209
330
1F
100
AcDbEntity
  8
0
  6
Continuous
 62
     7
370
    25
100
AcDbSpline
210
0.0
220
0.0
230
1.0
 70
     8
 71
     3
 72
     8
 73
     4
 74
     0
 42
0.00000001
 43
0.00000001
 40
0.0
 40
0.0
 40
0.0
 40
0.0
 40
1.0
 40
1.0
 40
1.0
 40
1.0
 10
-3.861903730350016
 20
7.196158320262304
 30
0.0
 10
-3.716857730350017
 20
7.233212320262306
 30
0.0
 10
-3.626859730350016
 20
7.290559320262305
 30
0.0
 10
-3.496475730350015
 20
7.429012320262301
 30
0.0
  0
SPLINE
  5
20A
330
1F
100
AcDbEntity
  8
0
  6
Continuous
 62
     7
370
    25
100
AcDbSpline
210
0.0
220
0.0
230
1.0
 70
     8
 71
     3
 72
     8
 73
     4
 74
     0
 42
0.00000001
 43
0.00000001
 40
0.0
 40
0.0
 40
0.0
 40
0.0
 40
1.0
 40
1.0
 40
1.0
 40
1.0
 10
-4.281882730350014
 20
7.244642320262298
 30
0.0
 10
-4.131086730350016
 20
7.172313320262303
 30
0.0
 10
-4.009974730350016
 20
7.158331320262307
 30
0.0
 10
-3.861903730350016
 20
7.196158320262304
 30
0.0
  0
SPLINE
  5
20B
330
1F
100
AcDbEntity
  8
0
  6
Continuous
 62
     7
370
    25
100
AcDbSpline
210
0.0
220
0.0
230
1.0
 70
     8
 71
     3
 72
     8
 73
     4
 74
     0
 42
0.00000001
 43
0.00000001
 40
0.0
 40
0.0
 40
0.0
 40
0.0
 40
1.0
 40
1.0
 40
1.0
 40
1.0
 10
-4.547930730350015
 20
8.1391483202623
 30
0.0
 10
-4.742197730350017
 20
7.828370320262304
 30
0.0
 10
-4.616288730350016
 20
7.405039320262305
 30
0.0
 10
-4.281882730350014
 20
7.244642320262298
 30
0.0
  0
SPLINE
  5
20C
330
1F
100
AcDbEntity
  8
0
  6
Continuous
 62
     7
370
    25
100
AcDbSpline
210
0.0
220
0.0
230
1.0
 70
     8
 71
     3
 72
     8
 73
     4
 74
     0
 42
0.00000001
 43
0.00000001
 40
0.0
 40
0.0
 40
0.0
 40
0.0
 40
1.0
 40
1.0
 40
1.0
 40
1.0
 10
-4.394081730350014
 20
8.217285320262308
 30
0.0
 10
-4.497702730350015
 20
8.2172483202623
 30
0.0
 10
-4.499759730350015
 20
8.216200320262303
 30
0.0
 10
-4.547930730350015
 20
8.1391483202623
 30
0.0
  0
SPLINE
  5
20D
330
1F
100
AcDbEntity
  8
0
  6
Continuous
 62
     7
370
    25
100
AcDbSpline
210
0.0
220
0.0
230
1.0
 70
     8
 71
     3
 72
     8
 73
     4
 74
     0
 42
0.00000001
 43
0.00000001
 40
0.0
 40
0.0
 40
0.0
 40
0.0
 40
1.0
 40
1.0
 40
1.0
 40
1.0
 10
-3.846906730350017
 20
9.017074320262303
 30
0.0
 10
-3.705033730350017
 20
8.634157320262306
 30
0.0
 10
-3.990149730350015
 20
8.217411320262297
 30
0.0
 10
-4.394081730350014
 20
8.217285320262308
 30
0.0
  0
SPLINE
  5
20E
330
1F
100
AcDbEntity
  8
0
  6
Continuous
 62
     7
370
    25
100
AcDbSpline
210
0.0
220
0.0
230
1.0
 70
     8
 71
     3
 72
     8
 73
     4
 74
     0
 42
0.00000001
 43
0.00000001
 40
0.0
 40
0.0
 40
0.0
 40
0.0
 40
1.0
 40
1.0
 40
1.0
 40
1.0
 10
-4.197012730350017
 20
9.367224320262304
 30
0.0
 10
-4.056020730350017
 20
9.319812320262299
 30
0.0
 10
-3.901999730350016
 20
9.165774320262297
 30
0.0
 10
-3.846906730350017
 20
9.017074320262303
 30
0.0
  0
SPLINE
  5
20F
330
1F
100
AcDbEntity
  8
0
  6
Continuous
 62
     7
370
    25
100
AcDbSpline
210
0.0
220
0.0
230
1.0
 70
     8
 71
     3
 72
     8
 73
     4
 74
     0
 42
0.00000001
 43
0.00000001
 40
0.0
 40
0.0
 40
0.0
 40
0.0
 40
1.0
 40
1.0
 40
1.0
 40
1.0
 10
-4.641410730350016
 20
9.352560320262306
 30
0.0
 10
-4.514385730350016
 20
9.410714320262304
 30
0.0
 10
-4.343149730350017
 20
9.416364320262307
 30
0.0
 10
-4.197012730350017
 20
9.367224320262304
 30
0.0
  0
SPLINE
  5
210
330
1F
100
AcDbEntity
  8
0
  6
Continuous
 62
     7
370
    25
100
AcDbSpline
210
0.0
220
0.0
230
1.0
 70
     8
 71
     3
 72
     8
 73
     4
 74
     0
 42
0.00000001
 43
0.00000001
 40
0.0
 40
0.0
 40
0.0
 40
0.0
 40
1.0
 40
1.0
 40
1.0
 40
1.0
 10
-4.923976730350017
 20
8.533831320262301
 30
0.0
 10
-5.082539730350017
 20
8.846739320262301
 30
0.0
 10
-4.957987730350013
 20
9.207627320262306
 30
0.0
 10
-4.641410730350016
 20
9.352560320262306
 30
0.0
  0
SPLINE
  5
211
330
1F
100
AcDbEntity
  8
0
  6
Continuous
 62
     7
370
    25
100
AcDbSpline
210
0.0
220
0.0
230
1.0
 70
     8
 71
     3
 72
     8
 73
     4
 74
     0
 42
0.00000001
 43
0.00000001
 40
0.0
 40
0.0
 40
0.0
 40
0.0
 40
1.0
 40
1.0
 40
1.0
 40
1.0
 10
-4.851069730350016
 20
8.421750320262301
 30
0.0
 10
-4.866360730350017
 20
8.434439320262305
 30
0.0
 10
-4.899169730350015
 20
8.484877320262305
 30
0.0
 10
-4.923976730350017
 20
8.533831320262301
 30
0.0
  0
SPLINE
  5
212
330
1F
100
AcDbEntity
  8
0
  6
Continuous
 62
     7
370
    25
100
AcDbSpline
210
0.0
220
0.0
230
1.0
 70
     8
 71
     3
 72
     8
 73
     4
 74
     0
 42
0.00000001
 43
0.00000001
 40
0.0
 40
0.0
 40
0.0
 40
0.0
 40
1.0
 40
1.0
 40
1.0
 40
1.0
 10
-4.886154730350016
 20
8.275921320262308
 30
0.0
 10
-4.830976730350018
 20
8.383630320262306
 30
0.0
 10
-4.826676730350015
 20
8.401504320262307
 30
0.0
 10
-4.851069730350016
 20
8.421750320262301
 30
0.0
  0
SPLINE
  5
213
330
1F
100
AcDbEntity
  8
0
  6
Continuous
 62
     7
370
    25
100
AcDbSpline
210
0.0
220
0.0
230
1.0
 70
     8
 71
     3
 72
     8
 73
     4
 74
     0
 42
0.00000001
 43
0.00000001
 40
0.0
 40
0.0
 40
0.0
 40
0.0
 40
1.0
 40
1.0
 40
1.0
 40
1.0
 10
-4.866725730350016
 20
7.305445320262304
 30
0.0
 10
-5.037382730350017
 20
7.5966493202623
 30
0.0
 10
-5.044782730350017
 20
7.966266320262302
 30
0.0
 10
-4.886154730350016
 20
8.275921320262308
 30
0.0
  0
SPLINE
  5
216
330
1F
100
AcDbEntity
  8
0
  6
Continuous
 62
     7
370
    25
100
AcDbSpline
210
0.0
220
0.0
230
1.0
 70
     8
 71
     3
 72
     8
 73
     4
 74
     0
 42
0.00000001
 43
0.00000001
 40
0.0
 40
0.0
 40
0.0
 40
0.0
 40
1.0
 40
1.0
 40
1.0
 40
1.0
 10
-4.801567730350016
 20
3.672118320262305
 30
0.0
 10
-4.814021730350015
 20
3.716964320262299
 30
0.0
 10
-4.820599730350018
 20
4.340894320262301
 30
0.0
 10
-4.820665730350015
 20
5.483841320262299
 30
0.0
  0
SPLINE
  5
217
330
1F
100
AcDbEntity
  8
0
  6
Continuous
 62
     7
370
    25
100
AcDbSpline
210
0.0
220
0.0
230
1.0
 70
     8
 71
     3
 72
     8
 73
     4
 74
     0
 42
0.00000001
 43
0.00000001
 40
0.0
 40
0.0
 40
0.0
 40
0.0
 40
1.0
 40
1.0
 40
1.0
 40
1.0
 10
-4.742500730350017
 20
3.575596320262303
 30
0.0
 10
-4.764501730350014
 20
3.591061320262302
 30
0.0
 10
-4.791119730350013
 20
3.634497320262303
 30
0.0
 10
-4.801567730350016
 20
3.672118320262305
 30
0.0
  0
SPLINE
  5
218
330
1F
100
AcDbEntity
  8
0
  6
Continuous
 62
     7
370
    25
100
AcDbSpline
210
0.0
220
0.0
230
1.0
 70
     8
 71
     3
 72
     8
 73
     4
 74
     0
 42
0.00000001
 43
0.00000001
 40
0.0
 40
0.0
 40
0.0
 40
0.0
 40
1.0
 40
1.0
 40
1.0
 40
1.0
 10
-4.506885730350016
 20
3.601218320262303
 30
0.0
 10
-4.568621730350015
 20
3.539482320262299
 30
0.0
 10
-4.674503730350017
 20
3.527968320262302
 30
0.0
 10
-4.742500730350017
 20
3.575596320262303
 30
0.0
  0
SPLINE
  5
219
330
1F
100
AcDbEntity
  8
0
  6
Continuous
 62
     7
370
    25
100
AcDbSpline
210
0.0
220
0.0
230
1.0
 70
     8
 71
     3
 72
     8
 73
     4
 74
     0
 42
0.00000001
 43
0.00000001
 40
0.0
 40
0.0
 40
0.0
 40
0.0
 40
1.0
 40
1.0
 40
1.0
 40
1.0
 10
0.6078572696499828
 20
7.173355320262302
 30
0.0
 10
0.6660952696499849
 20
7.044372320262303
 30
0.0
 10
0.6628592696499812
 20
6.8439843202623
 30
0.0
 10
0.6003702696499823
 20
6.708892320262297
 30
0.0
  0
SPLINE
  5
21A
330
1F
100
AcDbEntity
  8
0
  6
Continuous
 62
     7
370
    25
100
AcDbSpline
210
0.0
220
0.0
230
1.0
 70
     8
 71
     3
 72
     8
 73
     4
 74
     0
 42
0.00000001
 43
0.00000001
 40
0.0
 40
0.0
 40
0.0
 40
0.0
 40
1.0
 40
1.0
 40
1.0
 40
1.0
 10
0.2980882696499848
 20
7.484125320262297
 30
0.0
 10
0.4162512696499858
 20
7.435149320262305
 30
0.0
 10
0.5504322696499864
 20
7.300532320262308
 30
0.0
 10
0.6078572696499828
 20
7.173355320262302
 30
0.0
  0
SPLINE
  5
21B
330
1F
100
AcDbEntity
  8
0
  6
Continuous
 62
     7
370
    25
100
AcDbSpline
210
0.0
220
0.0
230
1.0
 70
     8
 71
     3
 72
     8
 73
     4
 74
     0
 42
0.00000001
 43
0.00000001
 40
0.0
 40
0.0
 40
0.0
 40
0.0
 40
1.0
 40
1.0
 40
1.0
 40
1.0
 10
0.1983932696499845
 20
7.564163320262302
 30
0.0
 10
0.1983932696499845
 20
7.534637320262306
 30
0.0
 10
0.2220472696499859
 20
7.515637320262301
 30
0.0
 10
0.2980882696499848
 20
7.484125320262297
 30
0.0
  0
SPLINE
  5
21C
330
1F
100
AcDbEntity
  8
0
  6
Continuous
 62
     7
370
    25
100
AcDbSpline
210
0.0
220
0.0
230
1.0
 70
     8
 71
     3
 72
     8
 73
     4
 74
     0
 42
0.00000001
 43
0.00000001
 40
0.0
 40
0.0
 40
0.0
 40
0.0
 40
1.0
 40
1.0
 40
1.0
 40
1.0
 10
0.0606622696499859
 20
7.989952320262304
 30
0.0
 10
0.1393752696499835
 20
7.829469320262302
 30
0.0
 10
0.1983932696499845
 20
7.6470193202623
 30
0.0
 10
0.1983932696499845
 20
7.564163320262302
 30
0.0
  0
SPLINE
  5
21D
330
1F
100
AcDbEntity
  8
0
  6
Continuous
 62
     7
370
    25
100
AcDbSpline
210
0.0
220
0.0
230
1.0
 70
     8
 71
     3
 72
     8
 73
     4
 74
     0
 42
0.00000001
 43
0.00000001
 40
0.0
 40
0.0
 40
0.0
 40
0.0
 40
1.0
 40
1.0
 40
1.0
 40
1.0
 10
-0.9261117303500134
 20
8.732428320262303
 30
0.0
 10
-0.5170287303500158
 20
8.6613663202623
 30
0.0
 10
-0.123376730350018
 20
8.36516832026231
 30
0.0
 10
0.0606622696499859
 20
7.989952320262304
 30
0.0
  0
SPLINE
  5
21E
330
1F
100
AcDbEntity
  8
0
  6
Continuous
 62
     7
370
    25
100
AcDbSpline
210
0.0
220
0.0
230
1.0
 70
     8
 71
     3
 72
     8
 73
     4
 74
     0
 42
0.00000001
 43
0.00000001
 40
0.0
 40
0.0
 40
0.0
 40
0.0
 40
1.0
 40
1.0
 40
1.0
 40
1.0
 10
-1.059197730350018
 20
8.795844320262306
 30
0.0
 10
-1.050254730350014
 20
8.760220320262302
 30
0.0
 10
-1.029690730350013
 20
8.750421320262305
 30
0.0
 10
-0.9261117303500134
 20
8.732428320262303
 30
0.0
  0
SPLINE
  5
21F
330
1F
100
AcDbEntity
  8
0
  6
Continuous
 62
     7
370
    25
100
AcDbSpline
210
0.0
220
0.0
230
1.0
 70
     8
 71
     3
 72
     8
 73
     4
 74
     0
 42
0.00000001
 43
0.00000001
 40
0.0
 40
0.0
 40
0.0
 40
0.0
 40
1.0
 40
1.0
 40
1.0
 40
1.0
 10
-1.342237730350016
 20
9.075815320262297
 30
0.0
 10
-1.231573730350016
 20
9.0215613202623
 30
0.0
 10
-1.077630730350016
 20
8.8692873202623
 30
0.0
 10
-1.059197730350018
 20
8.795844320262306
 30
0.0
  0
SPLINE
  5
220
330
1F
100
AcDbEntity
  8
0
  6
Continuous
 62
     7
370
    25
100
AcDbSpline
210
0.0
220
0.0
230
1.0
 70
     8
 71
     3
 72
     8
 73
     4
 74
     0
 42
0.00000001
 43
0.00000001
 40
0.0
 40
0.0
 40
0.0
 40
0.0
 40
1.0
 40
1.0
 40
1.0
 40
1.0
 10
-1.594163730350016
 20
9.127215320262303
 30
0.0
 10
-1.470386730350017
 20
9.127215320262303
 30
0.0
 10
-1.430471730350016
 20
9.119071320262302
 30
0.0
 10
-1.342237730350016
 20
9.075815320262297
 30
0.0
  0
SPLINE
  5
221
330
1F
100
AcDbEntity
  8
0
  6
Continuous
 62
     7
370
    25
100
AcDbSpline
210
0.0
220
0.0
230
1.0
 70
     8
 71
     3
 72
     8
 73
     4
 74
     0
 42
0.00000001
 43
0.00000001
 40
0.0
 40
0.0
 40
0.0
 40
0.0
 40
1.0
 40
1.0
 40
1.0
 40
1.0
 10
-1.844964730350018
 20
9.0763643202623
 30
0.0
 10
-1.757945730350017
 20
9.119028320262304
 30
0.0
 10
-1.717562730350015
 20
9.127215320262303
 30
0.0
 10
-1.594163730350016
 20
9.127215320262303
 30
0.0
  0
SPLINE
  5
222
330
1F
100
AcDbEntity
  8
0
  6
Continuous
 62
     7
370
    25
100
AcDbSpline
210
0.0
220
0.0
230
1.0
 70
     8
 71
     3
 72
     8
 73
     4
 74
     0
 42
0.00000001
 43
0.00000001
 40
0.0
 40
0.0
 40
0.0
 40
0.0
 40
1.0
 40
1.0
 40
1.0
 40
1.0
 10
-2.142488730350014
 20
8.772103320262307
 30
0.0
 10
-2.086695730350016
 20
8.893664320262305
 30
0.0
 10
-1.966130730350017
 20
9.0169623202623
 30
0.0
 10
-1.844964730350018
 20
9.0763643202623
 30
0.0
  0
SPLINE
  5
223
330
1F
100
AcDbEntity
  8
0
  6
Continuous
 62
     7
370
    25
100
AcDbSpline
210
0.0
220
0.0
230
1.0
 70
     8
 71
     3
 72
     8
 73
     4
 74
     0
 42
0.00000001
 43
0.00000001
 40
0.0
 40
0.0
 40
0.0
 40
0.0
 40
1.0
 40
1.0
 40
1.0
 40
1.0
 10
-2.134313730350015
 20
8.289268320262298
 30
0.0
 10
-2.198495730350018
 20
8.426174320262305
 30
0.0
 10
-2.202152730350019
 20
8.6421063202623
 30
0.0
 10
-2.142488730350014
 20
8.772103320262307
 30
0.0
  0
SPLINE
  5
224
330
1F
100
AcDbEntity
  8
0
  6
Continuous
 62
     7
370
    25
100
AcDbSpline
210
0.0
220
0.0
230
1.0
 70
     8
 71
     3
 72
     8
 73
     4
 74
     0
 42
0.00000001
 43
0.00000001
 40
0.0
 40
0.0
 40
0.0
 40
0.0
 40
1.0
 40
1.0
 40
1.0
 40
1.0
 10
-1.392394730350015
 20
7.979527320262303
 30
0.0
 10
-1.677012730350019
 20
7.872551320262302
 30
0.0
 10
-2.002693730350016
 20
8.008518320262302
 30
0.0
 10
-2.134313730350015
 20
8.289268320262298
 30
0.0
  0
SPLINE
  5
225
330
1F
100
AcDbEntity
  8
0
  6
Continuous
 62
     7
370
    25
100
AcDbSpline
210
0.0
220
0.0
230
1.0
 70
     8
 71
     3
 72
     8
 73
     4
 74
     0
 42
0.00000001
 43
0.00000001
 40
0.0
 40
0.0
 40
0.0
 40
0.0
 40
1.0
 40
1.0
 40
1.0
 40
1.0
 10
-1.053175730350016
 20
8.291745320262299
 30
0.0
 10
-1.106954730350013
 20
8.166729320262307
 30
0.0
 10
-1.253713730350017
 20
8.031651320262304
 30
0.0
 10
-1.392394730350015
 20
7.979527320262303
 30
0.0
  0
SPLINE
  5
226
330
1F
100
AcDbEntity
  8
0
  6
Continuous
 62
     7
370
    25
100
AcDbSpline
210
0.0
220
0.0
230
1.0
 70
     8
 71
     3
 72
     8
 73
     4
 74
     0
 42
0.00000001
 43
0.00000001
 40
0.0
 40
0.0
 40
0.0
 40
0.0
 40
1.0
 40
1.0
 40
1.0
 40
1.0
 10
-0.9955567303500181
 20
8.3827843202623
 30
0.0
 10
-1.005716730350017
 20
8.3827843202623
 30
0.0
 10
-1.031635730350016
 20
8.341816320262305
 30
0.0
 10
-1.053175730350016
 20
8.291745320262299
 30
0.0
  0
SPLINE
  5
227
330
1F
100
AcDbEntity
  8
0
  6
Continuous
 62
     7
370
    25
100
AcDbSpline
210
0.0
220
0.0
230
1.0
 70
     8
 71
     3
 72
     8
 73
     4
 74
     0
 42
0.00000001
 43
0.00000001
 40
0.0
 40
0.0
 40
0.0
 40
0.0
 40
1.0
 40
1.0
 40
1.0
 40
1.0
 10
-0.6447307303500162
 20
8.2431613202623
 30
0.0
 10
-0.7374167303500143
 20
8.299325320262305
 30
0.0
 10
-0.9471227303500147
 20
8.3827843202623
 30
0.0
 10
-0.9955567303500181
 20
8.3827843202623
 30
0.0
  0
SPLINE
  5
228
330
1F
100
AcDbEntity
  8
0
  6
Continuous
 62
     7
370
    25
100
AcDbSpline
210
0.0
220
0.0
230
1.0
 70
     8
 71
     3
 72
     8
 73
     4
 74
     0
 42
0.00000001
 43
0.00000001
 40
0.0
 40
0.0
 40
0.0
 40
0.0
 40
1.0
 40
1.0
 40
1.0
 40
1.0
 10
-0.2608757303500138
 20
7.830509320262302
 30
0.0
 10
-0.3306277303500166
 20
7.968685320262299
 30
0.0
 10
-0.5100097303500153
 20
8.161525320262305
 30
0.0
 10
-0.6447307303500162
 20
8.2431613202623
 30
0.0
  0
SPLINE
  5
229
330
1F
100
AcDbEntity
  8
0
  6
Continuous
 62
     7
370
    25
100
AcDbSpline
210
0.0
220
0.0
230
1.0
 70
     8
 71
     3
 72
     8
 73
     4
 74
     0
 42
0.00000001
 43
0.00000001
 40
0.0
 40
0.0
 40
0.0
 40
0.0
 40
1.0
 40
1.0
 40
1.0
 40
1.0
 10
-0.1674487303500172
 20
7.503980320262303
 30
0.0
 10
-0.1423927303500182
 20
7.512333320262298
 30
0.0
 10
-0.1975077303500161
 20
7.704974320262299
 30
0.0
 10
-0.2608757303500138
 20
7.830509320262302
 30
0.0
  0
SPLINE
  5
22A
330
1F
100
AcDbEntity
  8
0
  6
Continuous
 62
     7
370
    25
100
AcDbSpline
210
0.0
220
0.0
230
1.0
 70
     8
 71
     3
 72
     8
 73
     4
 74
     0
 42
0.00000001
 43
0.00000001
 40
0.0
 40
0.0
 40
0.0
 40
0.0
 40
1.0
 40
1.0
 40
1.0
 40
1.0
 10
-0.4184847303500168
 20
7.2995453202623
 30
0.0
 10
-0.3669367303500148
 20
7.370527320262305
 30
0.0
 10
-0.2277387303500147
 20
7.483884320262306
 30
0.0
 10
-0.1674487303500172
 20
7.503980320262303
 30
0.0
  0
SPLINE
  5
22B
330
1F
100
AcDbEntity
  8
0
  6
Continuous
 62
     7
370
    25
100
AcDbSpline
210
0.0
220
0.0
230
1.0
 70
     8
 71
     3
 72
     8
 73
     4
 74
     0
 42
0.00000001
 43
0.00000001
 40
0.0
 40
0.0
 40
0.0
 40
0.0
 40
1.0
 40
1.0
 40
1.0
 40
1.0
 10
-0.0524607303500173
 20
6.361144320262301
 30
0.0
 10
-0.481463730350018
 20
6.446014320262303
 30
0.0
 10
-0.6760487303500186
 20
6.944903320262305
 30
0.0
 10
-0.4184847303500168
 20
7.2995453202623
 30
0.0
  0
SPLINE
  5
22C
330
1F
100
AcDbEntity
  8
0
  6
Continuous
 62
     7
370
    25
100
AcDbSpline
210
0.0
220
0.0
230
1.0
 70
     8
 71
     3
 72
     8
 73
     4
 74
     0
 42
0.00000001
 43
0.00000001
 40
0.0
 40
0.0
 40
0.0
 40
0.0
 40
1.0
 40
1.0
 40
1.0
 40
1.0
 10
0.3209302696499869
 20
6.4174653202623
 30
0.0
 10
0.1959962696499833
 20
6.357923320262304
 30
0.0
 10
0.0642602696499829
 20
6.338052320262307
 30
0.0
 10
-0.0524607303500173
 20
6.361144320262301
 30
0.0
  0
SPLINE
  5
22D
330
1F
100
AcDbEntity
  8
0
  6
Continuous
 62
     7
370
    25
100
AcDbSpline
210
0.0
220
0.0
230
1.0
 70
     8
 71
     3
 72
     8
 73
     4
 74
     0
 42
0.00000001
 43
0.00000001
 40
0.0
 40
0.0
 40
0.0
 40
0.0
 40
1.0
 40
1.0
 40
1.0
 40
1.0
 10
-3.218604730350016
 20
0.6548163202623019
 30
0.0
 10
-3.328422730350014
 20
0.539198320262304
 30
0.0
 10
-3.443913730350013
 20
0.4901693202623014
 30
0.0
 10
-3.625725730350017
 20
0.4819833202623011
 30
0.0
  0
SPLINE
  5
22E
330
1F
100
AcDbEntity
  8
0
  6
Continuous
 62
     7
370
    25
100
AcDbSpline
210
0.0
220
0.0
230
1.0
 70
     8
 71
     3
 72
     8
 73
     4
 74
     0
 42
0.00000001
 43
0.00000001
 40
0.0
 40
0.0
 40
0.0
 40
0.0
 40
1.0
 40
1.0
 40
1.0
 40
1.0
 10
-3.065117730350016
 20
1.065475320262303
 30
0.0
 10
-3.065117730350016
 20
0.867582320262305
 30
0.0
 10
-3.096581730350017
 20
0.783281320262303
 30
0.0
 10
-3.218604730350016
 20
0.6548163202623019
 30
0.0
  0
SPLINE
  5
22F
330
1F
100
AcDbEntity
  8
0
  6
Continuous
 62
     7
370
    25
100
AcDbSpline
210
0.0
220
0.0
230
1.0
 70
     8
 71
     3
 72
     8
 73
     4
 74
     0
 42
0.00000001
 43
0.00000001
 40
0.0
 40
0.0
 40
0.0
 40
0.0
 40
1.0
 40
1.0
 40
1.0
 40
1.0
 10
-3.114607730350015
 20
1.334038320262302
 30
0.0
 10
-3.070998730350015
 20
1.251231320262301
 30
0.0
 10
-3.065148730350017
 20
1.219494320262301
 30
0.0
 10
-3.065117730350016
 20
1.065475320262303
 30
0.0
  0
SPLINE
  5
230
330
1F
100
AcDbEntity
  8
0
  6
Continuous
 62
     7
370
    25
100
AcDbSpline
210
0.0
220
0.0
230
1.0
 70
     8
 71
     3
 72
     8
 73
     4
 74
     0
 42
0.00000001
 43
0.00000001
 40
0.0
 40
0.0
 40
0.0
 40
0.0
 40
1.0
 40
1.0
 40
1.0
 40
1.0
 10
-3.444159730350015
 20
1.626983320262305
 30
0.0
 10
-3.32625073035002
 20
1.587820320262303
 30
0.0
 10
-3.179613730350014
 20
1.457470320262302
 30
0.0
 10
-3.114607730350015
 20
1.334038320262302
 30
0.0
  0
SPLINE
  5
231
330
1F
100
AcDbEntity
  8
0
  6
Continuous
 62
     7
370
    25
100
AcDbSpline
210
0.0
220
0.0
230
1.0
 70
     8
 71
     3
 72
     8
 73
     4
 74
     0
 42
0.00000001
 43
0.00000001
 40
0.0
 40
0.0
 40
0.0
 40
0.0
 40
1.0
 40
1.0
 40
1.0
 40
1.0
 10
-4.079854730350017
 20
1.474121320262301
 30
0.0
 10
-3.952123730350015
 20
1.6309793202623
 30
0.0
 10
-3.664454730350014
 20
1.700153320262302
 30
0.0
 10
-3.444159730350015
 20
1.626983320262305
 30
0.0
  0
SPLINE
  5
232
330
1F
100
AcDbEntity
  8
0
  6
Continuous
 62
     7
370
    25
100
AcDbSpline
210
0.0
220
0.0
230
1.0
 70
     8
 71
     3
 72
     8
 73
     4
 74
     0
 42
0.00000001
 43
0.00000001
 40
0.0
 40
0.0
 40
0.0
 40
0.0
 40
1.0
 40
1.0
 40
1.0
 40
1.0
 10
-4.183440730350017
 20
1.494777320262306
 30
0.0
 10
-4.112786730350017
 20
1.453370320262302
 30
0.0
 10
-4.098991730350017
 20
1.450620320262302
 30
0.0
 10
-4.079854730350017
 20
1.474121320262301
 30
0.0
  0
SPLINE
  5
233
330
1F
100
AcDbEntity
  8
0
  6
Continuous
 62
     7
370
    25
100
AcDbSpline
210
0.0
220
0.0
230
1.0
 70
     8
 71
     3
 72
     8
 73
     4
 74
     0
 42
0.00000001
 43
0.00000001
 40
0.0
 40
0.0
 40
0.0
 40
0.0
 40
1.0
 40
1.0
 40
1.0
 40
1.0
 10
-4.345399730350016
 20
1.632023320262303
 30
0.0
 10
-4.301152730350015
 20
1.582810320262303
 30
0.0
 10
-4.228271730350015
 20
1.521050320262302
 30
0.0
 10
-4.183440730350017
 20
1.494777320262306
 30
0.0
  0
SPLINE
  5
234
330
1F
100
AcDbEntity
  8
0
  6
Continuous
 62
     7
370
    25
100
AcDbSpline
210
0.0
220
0.0
230
1.0
 70
     8
 71
     3
 72
     8
 73
     4
 74
     0
 42
0.00000001
 43
0.00000001
 40
0.0
 40
0.0
 40
0.0
 40
0.0
 40
1.0
 40
1.0
 40
1.0
 40
1.0
 10
-4.476195730350016
 20
2.516911320262303
 30
0.0
 10
-4.616993730350016
 20
2.2178423202623
 30
0.0
 10
-4.566801730350019
 20
1.878276320262301
 30
0.0
 10
-4.345399730350016
 20
1.632023320262303
 30
0.0
  0
SPLINE
  5
235
330
1F
100
AcDbEntity
  8
0
  6
Continuous
 62
     7
370
    25
100
AcDbSpline
210
0.0
220
0.0
230
1.0
 70
     8
 71
     3
 72
     8
 73
     4
 74
     0
 42
0.00000001
 43
0.00000001
 40
0.0
 40
0.0
 40
0.0
 40
0.0
 40
1.0
 40
1.0
 40
1.0
 40
1.0
 10
-4.102746730350018
 20
2.890360320262301
 30
0.0
 10
-4.235134730350015
 20
2.828034320262303
 30
0.0
 10
-4.413869730350014
 20
2.649299320262303
 30
0.0
 10
-4.476195730350016
 20
2.516911320262303
 30
0.0
  0
SPLINE
  5
236
330
1F
100
AcDbEntity
  8
0
  6
Continuous
 62
     7
370
    25
100
AcDbSpline
210
0.0
220
0.0
230
1.0
 70
     8
 71
     3
 72
     8
 73
     4
 74
     0
 42
0.00000001
 43
0.00000001
 40
0.0
 40
0.0
 40
0.0
 40
0.0
 40
1.0
 40
1.0
 40
1.0
 40
1.0
 10
-3.691594730350016
 20
2.969841320262304
 30
0.0
 10
-3.779192730350014
 20
2.986274320262303
 30
0.0
 10
-3.982494730350016
 20
2.946976320262303
 30
0.0
 10
-4.102746730350018
 20
2.890360320262301
 30
0.0
  0
SPLINE
  5
237
330
1F
100
AcDbEntity
  8
0
  6
Continuous
 62
     7
370
    25
100
AcDbSpline
210
0.0
220
0.0
230
1.0
 70
     8
 71
     3
 72
     8
 73
     4
 74
     0
 42
0.00000001
 43
0.00000001
 40
0.0
 40
0.0
 40
0.0
 40
0.0
 40
1.0
 40
1.0
 40
1.0
 40
1.0
 10
-3.617042730350017
 20
2.891053320262304
 30
0.0
 10
-3.627945730350017
 20
2.949163320262304
 30
0.0
 10
-3.637994730350015
 20
2.959786320262302
 30
0.0
 10
-3.691594730350016
 20
2.969841320262304
 30
0.0
  0
SPLINE
  5
238
330
1F
100
AcDbEntity
  8
0
  6
Continuous
 62
     7
370
    25
100
AcDbSpline
210
0.0
220
0.0
230
1.0
 70
     8
 71
     3
 72
     8
 73
     4
 74
     0
 42
0.00000001
 43
0.00000001
 40
0.0
 40
0.0
 40
0.0
 40
0.0
 40
1.0
 40
1.0
 40
1.0
 40
1.0
 10
-3.279263730350018
 20
2.465547320262301
 30
0.0
 10
-3.452049730350015
 20
2.546528320262302
 30
0.0
 10
-3.583467730350017
 20
2.7120763202623
 30
0.0
 10
-3.617042730350017
 20
2.891053320262304
 30
0.0
  0
SPLINE
  5
239
330
1F
100
AcDbEntity
  8
0
  6
Continuous
 62
     7
370
    25
100
AcDbSpline
210
0.0
220
0.0
230
1.0
 70
     8
 71
     3
 72
     8
 73
     4
 74
     0
 42
0.00000001
 43
0.00000001
 40
0.0
 40
0.0
 40
0.0
 40
0.0
 40
1.0
 40
1.0
 40
1.0
 40
1.0
 10
-3.028207730350015
 20
2.416801320262302
 30
0.0
 10
-3.148892730350017
 20
2.416813320262303
 30
0.0
 10
-3.193948730350015
 20
2.425562320262305
 30
0.0
 10
-3.279263730350018
 20
2.465547320262301
 30
0.0
  0
SPLINE
  5
23A
330
1F
100
AcDbEntity
  8
0
  6
Continuous
 62
     7
370
    25
100
AcDbSpline
210
0.0
220
0.0
230
1.0
 70
     8
 71
     3
 72
     8
 73
     4
 74
     0
 42
0.00000001
 43
0.00000001
 40
0.0
 40
0.0
 40
0.0
 40
0.0
 40
1.0
 40
1.0
 40
1.0
 40
1.0
 10
-2.774348730350016
 20
2.470890320262303
 30
0.0
 10
-2.866081730350016
 20
2.424410320262305
 30
0.0
 10
-2.901848730350018
 20
2.416788320262302
 30
0.0
 10
-3.028207730350015
 20
2.416801320262302
 30
0.0
  0
SPLINE
  5
23B
330
1F
100
AcDbEntity
  8
0
  6
Continuous
 62
     7
370
    25
100
AcDbSpline
210
0.0
220
0.0
230
1.0
 70
     8
 71
     3
 72
     8
 73
     4
 74
     0
 42
0.00000001
 43
0.00000001
 40
0.0
 40
0.0
 40
0.0
 40
0.0
 40
1.0
 40
1.0
 40
1.0
 40
1.0
 10
-2.499993730350015
 20
2.748407320262301
 30
0.0
 10
-2.558358730350013
 20
2.628271320262304
 30
0.0
 10
-2.653322730350016
 20
2.532211320262302
 30
0.0
 10
-2.774348730350016
 20
2.470890320262303
 30
0.0
  0
SPLINE
  5
23E
330
1F
100
AcDbEntity
  8
0
  6
Continuous
 62
     7
370
    25
100
AcDbSpline
210
0.0
220
0.0
230
1.0
 70
     8
 71
     3
 72
     8
 73
     4
 74
     0
 42
0.00000001
 43
0.00000001
 40
0.0
 40
0.0
 40
0.0
 40
0.0
 40
1.0
 40
1.0
 40
1.0
 40
1.0
 10
-0.2796427303500166
 20
2.949887320262301
 30
0.0
 10
-0.3205627303500165
 20
2.825895320262305
 30
0.0
 10
-0.2768637303500153
 20
2.830454320262302
 30
0.0
 10
-1.424385730350017
 20
2.830454320262302
 30
0.0
  0
SPLINE
  5
23F
330
1F
100
AcDbEntity
  8
0
  6
Continuous
 62
     7
370
    25
100
AcDbSpline
210
0.0
220
0.0
230
1.0
 70
     8
 71
     3
 72
     8
 73
     4
 74
     0
 42
0.00000001
 43
0.00000001
 40
0.0
 40
0.0
 40
0.0
 40
0.0
 40
1.0
 40
1.0
 40
1.0
 40
1.0
 10
-0.350394730350017
 20
3.159907320262303
 30
0.0
 10
-0.2907677303500139
 20
3.1279963202623
 30
0.0
 10
-0.2554567303500143
 20
3.023175320262302
 30
0.0
 10
-0.2796427303500166
 20
2.949887320262301
 30
0.0
  0
SPLINE
  5
240
330
1F
100
AcDbEntity
  8
0
  6
Continuous
 62
     7
370
    25
100
AcDbSpline
210
0.0
220
0.0
230
1.0
 70
     8
 71
     3
 72
     8
 73
     4
 74
     0
 42
0.00000001
 43
0.00000001
 40
0.0
 40
0.0
 40
0.0
 40
0.0
 40
1.0
 40
1.0
 40
1.0
 40
1.0
 10
-1.426060730350016
 20
3.1797723202623
 30
0.0
 10
-0.7172767303500125
 20
3.1797723202623
 30
0.0
 10
-0.3757287303500154
 20
3.173465320262303
 30
0.0
 10
-0.350394730350017
 20
3.159907320262303
 30
0.0
  0
SPLINE
  5
243
330
1F
100
AcDbEntity
  8
0
  6
Continuous
 62
     7
370
    25
100
AcDbSpline
210
0.0
220
0.0
230
1.0
 70
     8
 71
     3
 72
     8
 73
     4
 74
     0
 42
0.00000001
 43
0.00000001
 40
0.0
 40
0.0
 40
0.0
 40
0.0
 40
1.0
 40
1.0
 40
1.0
 40
1.0
 10
-3.028213730350018
 20
3.592973320262302
 30
0.0
 10
-2.903761730350015
 20
3.593370320262301
 30
0.0
 10
-2.864999730350017
 20
3.585517320262303
 30
0.0
 10
-2.776287730350016
 20
3.541954320262303
 30
0.0
  0
SPLINE
  5
244
330
1F
100
AcDbEntity
  8
0
  6
Continuous
 62
     7
370
    25
100
AcDbSpline
210
0.0
220
0.0
230
1.0
 70
     8
 71
     3
 72
     8
 73
     4
 74
     0
 42
0.00000001
 43
0.00000001
 40
0.0
 40
0.0
 40
0.0
 40
0.0
 40
1.0
 40
1.0
 40
1.0
 40
1.0
 10
-3.456168730350019
 20
3.412301320262306
 30
0.0
 10
-3.331803730350018
 20
3.543654320262299
 30
0.0
 10
-3.216395730350014
 20
3.592377320262304
 30
0.0
 10
-3.028213730350018
 20
3.592973320262302
 30
0.0
  0
SPLINE
  5
247
330
1F
100
AcDbEntity
  8
0
  6
Continuous
 62
     7
370
    25
100
AcDbSpline
210
0.0
220
0.0
230
1.0
 70
     8
 71
     3
 72
     8
 73
     4
 74
     0
 42
0.00000001
 43
0.00000001
 40
0.0
 40
0.0
 40
0.0
 40
0.0
 40
1.0
 40
1.0
 40
1.0
 40
1.0
 10
-4.386431730350012
 20
3.142866320262304
 30
0.0
 10
-4.186391730350017
 20
3.274154320262304
 30
0.0
 10
-4.031716730350015
 20
3.317661320262302
 30
0.0
 10
-3.765009730350016
 20
3.317661320262302
 30
0.0
  0
SPLINE
  5
248
330
1F
100
AcDbEntity
  8
0
  6
Continuous
 62
     7
370
    25
100
AcDbSpline
210
0.0
220
0.0
230
1.0
 70
     8
 71
     3
 72
     8
 73
     4
 74
     0
 42
0.00000001
 43
0.00000001
 40
0.0
 40
0.0
 40
0.0
 40
0.0
 40
1.0
 40
1.0
 40
1.0
 40
1.0
 10
-4.908595730350015
 20
2.237800320262301
 30
0.0
 10
-4.889566730350015
 20
2.616694320262302
 30
0.0
 10
-4.707613730350016
 20
2.932071320262301
 30
0.0
 10
-4.386431730350012
 20
3.142866320262304
 30
0.0
  0
SPLINE
  5
249
330
1F
100
AcDbEntity
  8
0
  6
Continuous
 62
     7
370
    25
100
AcDbSpline
210
0.0
220
0.0
230
1.0
 70
     8
 71
     3
 72
     8
 73
     4
 74
     0
 42
0.00000001
 43
0.00000001
 40
0.0
 40
0.0
 40
0.0
 40
0.0
 40
1.0
 40
1.0
 40
1.0
 40
1.0
 10
-4.715887730350015
 20
1.521587320262301
 30
0.0
 10
-4.872091730350019
 20
1.760721320262303
 30
0.0
 10
-4.923045730350014
 20
1.950096320262305
 30
0.0
 10
-4.908595730350015
 20
2.237800320262301
 30
0.0
  0
SPLINE
  5
24A
330
1F
100
AcDbEntity
  8
0
  6
Continuous
 62
     7
370
    25
100
AcDbSpline
210
0.0
220
0.0
230
1.0
 70
     8
 71
     3
 72
     8
 73
     4
 74
     0
 42
0.00000001
 43
0.00000001
 40
0.0
 40
0.0
 40
0.0
 40
0.0
 40
1.0
 40
1.0
 40
1.0
 40
1.0
 10
-4.341187730350017
 20
1.165641320262301
 30
0.0
 10
-4.497502730350017
 20
1.260598320262305
 30
0.0
 10
-4.623734730350014
 20
1.380513320262303
 30
0.0
 10
-4.715887730350015
 20
1.521587320262301
 30
0.0
  0
SPLINE
  5
24B
330
1F
100
AcDbEntity
  8
0
  6
Continuous
 62
     7
370
    25
100
AcDbSpline
210
0.0
220
0.0
230
1.0
 70
     8
 71
     3
 72
     8
 73
     4
 74
     0
 42
0.00000001
 43
0.00000001
 40
0.0
 40
0.0
 40
0.0
 40
0.0
 40
1.0
 40
1.0
 40
1.0
 40
1.0
 10
-4.232442730350016
 20
1.0214553202623
 30
0.0
 10
-4.232442730350016
 20
1.097116320262302
 30
0.0
 10
-4.235874730350013
 20
1.101667320262303
 30
0.0
 10
-4.341187730350017
 20
1.165641320262301
 30
0.0
  0
SPLINE
  5
24C
330
1F
100
AcDbEntity
  8
0
  6
Continuous
 62
     7
370
    25
100
AcDbSpline
210
0.0
220
0.0
230
1.0
 70
     8
 71
     3
 72
     8
 73
     4
 74
     0
 42
0.00000001
 43
0.00000001
 40
0.0
 40
0.0
 40
0.0
 40
0.0
 40
1.0
 40
1.0
 40
1.0
 40
1.0
 10
-3.892723730350017
 20
0.5284433202623028
 30
0.0
 10
-4.092880730350017
 20
0.6251483202623053
 30
0.0
 10
-4.232442730350016
 20
0.8276883202623029
 30
0.0
 10
-4.232442730350016
 20
1.0214553202623
 30
0.0
  0
SPLINE
  5
24D
330
1F
100
AcDbEntity
  8
0
  6
Continuous
 62
     7
370
    25
100
AcDbSpline
210
0.0
220
0.0
230
1.0
 70
     8
 71
     3
 72
     8
 73
     4
 74
     0
 42
0.00000001
 43
0.00000001
 40
0.0
 40
0.0
 40
0.0
 40
0.0
 40
1.0
 40
1.0
 40
1.0
 40
1.0
 10
-3.625725730350017
 20
0.4819833202623011
 30
0.0
 10
-3.768396730350017
 20
0.4755593202623032
 30
0.0
 10
-3.791637730350017
 20
0.4796023202623019
 30
0.0
 10
-3.892723730350017
 20
0.5284433202623028
 30
0.0
  0
SPLINE
  5
24E
330
1F
100
AcDbEntity
  8
0
  6
Continuous
 62
     7
370
    25
100
AcDbSpline
210
0.0
220
0.0
230
1.0
 70
     8
 71
     3
 72
     8
 73
     4
 74
     0
 42
0.00000001
 43
0.00000001
 40
0.0
 40
0.0
 40
0.0
 40
0.0
 40
1.0
 40
1.0
 40
1.0
 40
1.0
 10
-2.776287730350016
 20
3.541954320262303
 30
0.0
 10
-2.657222730350017
 20
3.483485320262304
 30
0.0
 10
-2.517490730350014
 20
3.339992320262303
 30
0.0
 10
-2.485640730350017
 20
3.243484320262304
 30
0.0
  0
SPLINE
  5
24F
330
1F
100
AcDbEntity
  8
0
  6
Continuous
 62
     7
370
    25
100
AcDbSpline
210
0.0
220
0.0
230
1.0
 70
     8
 71
     3
 72
     8
 73
     4
 74
     0
 42
0.00000001
 43
0.00000001
 40
0.0
 40
0.0
 40
0.0
 40
0.0
 40
1.0
 40
1.0
 40
1.0
 40
1.0
 10
-2.445299730350015
 20
10.49513332026231
 30
0.0
 10
-2.945504730350015
 20
11.6286593202623
 30
0.0
 10
-4.231964730350017
 20
12.0872513202623
 30
0.0
 10
-5.312257730350014
 20
11.5171343202623
 30
0.0
  0
SPLINE
  5
250
330
1F
100
AcDbEntity
  8
0
  6
Continuous
 62
     7
370
    25
100
AcDbSpline
210
0.0
220
0.0
230
1.0
 70
     8
 71
     3
 72
     8
 73
     4
 74
     0
 42
0.00000001
 43
0.00000001
 40
0.0
 40
0.0
 40
0.0
 40
0.0
 40
1.0
 40
1.0
 40
1.0
 40
1.0
 10
-2.268171730350016
 20
7.550306320262303
 30
0.0
 10
-2.179154730350016
 20
7.594021320262303
 30
0.0
 10
-2.141499730350015
 20
7.601413320262304
 30
0.0
 10
-2.007828730350016
 20
7.601413320262304
 30
0.0
  0
SPLINE
  5
251
330
1F
100
AcDbEntity
  8
0
  6
Continuous
 62
     7
370
    25
100
AcDbSpline
210
0.0
220
0.0
230
1.0
 70
     8
 71
     3
 72
     8
 73
     4
 74
     0
 42
0.00000001
 43
0.00000001
 40
0.0
 40
0.0
 40
0.0
 40
0.0
 40
1.0
 40
1.0
 40
1.0
 40
1.0
 10
0.6003702696499823
 20
6.708892320262297
 30
0.0
 10
0.533925269649984
 20
6.565282320262302
 30
0.0
 10
0.4521612696499859
 20
6.480007320262299
 30
0.0
 10
0.3209302696499869
 20
6.4174653202623
 30
0.0
  0
SPLINE
  5
252
330
1F
100
AcDbEntity
  8
0
  6
Continuous
 62
     7
370
    25
100
AcDbSpline
210
0.0
220
0.0
230
1.0
 70
     8
 71
     3
 72
     8
 73
     4
 74
     0
 42
0.00000001
 43
0.00000001
 40
0.0
 40
0.0
 40
0.0
 40
0.0
 40
1.0
 40
1.0
 40
1.0
 40
1.0
 10
-2.270351730350017
 20
9.706493320262306
 30
0.0
 10
-2.281728730350017
 20
10.0157773202623
 30
0.0
 10
-2.330202730350016
 20
10.2343123202623
 30
0.0
 10
-2.445299730350015
 20
10.49513332026231
 30
0.0
  0
SPLINE
  5
253
330
1F
100
AcDbEntity
  8
0
  6
Continuous
 62
     7
370
    25
100
AcDbSpline
210
0.0
220
0.0
230
1.0
 70
     8
 71
     3
 72
     8
 73
     4
 74
     0
 42
0.00000001
 43
0.00000001
 40
0.0
 40
0.0
 40
0.0
 40
0.0
 40
1.0
 40
1.0
 40
1.0
 40
1.0
 10
-2.155529730350016
 20
9.311522320262306
 30
0.0
 10
-2.242964730350017
 20
9.3567363202623
 30
0.0
 10
-2.259595730350016
 20
9.413952320262306
 30
0.0
 10
-2.270351730350017
 20
9.706493320262306
 30
0.0
  0
SPLINE
  5
254
330
1F
100
AcDbEntity
  8
0
  6
Continuous
 62
     7
370
    25
100
AcDbSpline
210
0.0
220
0.0
230
1.0
 70
     8
 71
     3
 72
     8
 73
     4
 74
     0
 42
0.00000001
 43
0.00000001
 40
0.0
 40
0.0
 40
0.0
 40
0.0
 40
1.0
 40
1.0
 40
1.0
 40
1.0
 10
-1.885644730350015
 20
9.321561320262301
 30
0.0
 10
-1.990567730350015
 20
9.276586320262306
 30
0.0
 10
-2.081436730350016
 20
9.273206320262302
 30
0.0
 10
-2.155529730350016
 20
9.311522320262306
 30
0.0
  0
SPLINE
  5
255
330
1F
100
AcDbEntity
  8
0
  6
Continuous
 62
     7
370
    25
100
AcDbSpline
210
0.0
220
0.0
230
1.0
 70
     8
 71
     3
 72
     8
 73
     4
 74
     0
 42
0.00000001
 43
0.00000001
 40
0.0
 40
0.0
 40
0.0
 40
0.0
 40
1.0
 40
1.0
 40
1.0
 40
1.0
 10
-0.8322957303500134
 20
9.470876320262306
 30
0.0
 10
-1.154042730350018
 20
9.5066533202623
 30
0.0
 10
-1.601968730350015
 20
9.443158320262302
 30
0.0
 10
-1.885644730350015
 20
9.321561320262301
 30
0.0
  0
SPLINE
  5
256
330
1F
100
AcDbEntity
  8
0
  6
Continuous
 62
     7
370
    25
100
AcDbSpline
210
0.0
220
0.0
230
1.0
 70
     8
 71
     3
 72
     8
 73
     4
 74
     0
 42
0.00000001
 43
0.00000001
 40
0.0
 40
0.0
 40
0.0
 40
0.0
 40
1.0
 40
1.0
 40
1.0
 40
1.0
 10
0.4314972696499858
 20
8.873590320262304
 30
0.0
 10
0.0702032696499842
 20
9.222103320262304
 30
0.0
 10
-0.340456730350016
 20
9.416187320262303
 30
0.0
 10
-0.8322957303500134
 20
9.470876320262306
 30
0.0
  0
SPLINE
  5
257
330
1F
100
AcDbEntity
  8
0
  6
Continuous
 62
     7
370
    25
100
AcDbSpline
210
0.0
220
0.0
230
1.0
 70
     8
 71
     3
 72
     8
 73
     4
 74
     0
 42
0.00000001
 43
0.00000001
 40
0.0
 40
0.0
 40
0.0
 40
0.0
 40
1.0
 40
1.0
 40
1.0
 40
1.0
 10
0.8553832696499841
 20
6.5902013202623
 30
0.0
 10
1.242931269649982
 20
7.361549320262305
 30
0.0
 10
1.078009269649984
 20
8.249944320262298
 30
0.0
 10
0.4314972696499858
 20
8.873590320262304
 30
0.0
  0
SPLINE
  5
258
330
1F
100
AcDbEntity
  8
0
  6
Continuous
 62
     7
370
    25
100
AcDbSpline
210
0.0
220
0.0
230
1.0
 70
     8
 71
     3
 72
     8
 73
     4
 74
     0
 42
0.00000001
 43
0.00000001
 40
0.0
 40
0.0
 40
0.0
 40
0.0
 40
1.0
 40
1.0
 40
1.0
 40
1.0
 10
-0.2308797303500164
 20
5.541233320262302
 30
0.0
 10
0.2195492696499858
 20
5.754603320262307
 30
0.0
 10
0.6391202696499829
 20
6.159771320262298
 30
0.0
 10
0.8553832696499841
 20
6.5902013202623
 30
0.0
  0
SPLINE
  5
259
330
1F
100
AcDbEntity
  8
0
  6
Continuous
 62
     7
370
    25
100
AcDbSpline
210
0.0
220
0.0
230
1.0
 70
     8
 71
     3
 72
     8
 73
     4
 74
     0
 42
0.00000001
 43
0.00000001
 40
0.0
 40
0.0
 40
0.0
 40
0.0
 40
1.0
 40
1.0
 40
1.0
 40
1.0
 10
-0.8519837303500172
 20
5.357650320262302
 30
0.0
 10
-0.6745887303500169
 20
5.378451320262302
 30
0.0
 10
-0.4084657303500168
 20
5.457110320262304
 30
0.0
 10
-0.2308797303500164
 20
5.541233320262302
 30
0.0
  0
SPLINE
  5
25C
330
1F
100
AcDbEntity
  8
0
  6
Continuous
 62
     7
370
    25
100
AcDbSpline
210
0.0
220
0.0
230
1.0
 70
     8
 71
     3
 72
     8
 73
     4
 74
     0
 42
0.00000001
 43
0.00000001
 40
0.0
 40
0.0
 40
0.0
 40
0.0
 40
1.0
 40
1.0
 40
1.0
 40
1.0
 10
-1.289233730350014
 20
5.733071320262302
 30
0.0
 10
-1.158844730350016
 20
5.671943320262302
 30
0.0
 10
-1.059551730350015
 20
5.572774320262305
 30
0.0
 10
-1.001266730350017
 20
5.445467320262305
 30
0.0
  0
SPLINE
  5
25D
330
1F
100
AcDbEntity
  8
0
  6
Continuous
 62
     7
370
    25
100
AcDbSpline
210
0.0
220
0.0
230
1.0
 70
     8
 71
     3
 72
     8
 73
     4
 74
     0
 42
0.00000001
 43
0.00000001
 40
0.0
 40
0.0
 40
0.0
 40
0.0
 40
1.0
 40
1.0
 40
1.0
 40
1.0
 10
-1.772069730350014
 20
5.741250320262299
 30
0.0
 10
-1.642071730350019
 20
5.800913320262301
 30
0.0
 10
-1.426139730350017
 20
5.797256320262304
 30
0.0
 10
-1.289233730350014
 20
5.733071320262302
 30
0.0
  0
SPLINE
  5
25E
330
1F
100
AcDbEntity
  8
0
  6
Continuous
 62
     7
370
    25
100
AcDbSpline
210
0.0
220
0.0
230
1.0
 70
     8
 71
     3
 72
     8
 73
     4
 74
     0
 42
0.00000001
 43
0.00000001
 40
0.0
 40
0.0
 40
0.0
 40
0.0
 40
1.0
 40
1.0
 40
1.0
 40
1.0
 10
-2.118509730350014
 20
5.093673320262303
 30
0.0
 10
-2.167407730350016
 20
5.351496320262307
 30
0.0
 10
-2.019695730350015
 20
5.627599320262306
 30
0.0
 10
-1.772069730350014
 20
5.741250320262299
 30
0.0
  0
SPLINE
  5
25F
330
1F
100
AcDbEntity
  8
0
  6
Continuous
 62
     7
370
    25
100
AcDbSpline
210
0.0
220
0.0
230
1.0
 70
     8
 71
     3
 72
     8
 73
     4
 74
     0
 42
0.00000001
 43
0.00000001
 40
0.0
 40
0.0
 40
0.0
 40
0.0
 40
1.0
 40
1.0
 40
1.0
 40
1.0
 10
-1.550361730350013
 20
4.607263320262303
 30
0.0
 10
-1.831875730350017
 20
4.610941320262303
 30
0.0
 10
-2.064777730350017
 20
4.810335320262301
 30
0.0
 10
-2.118509730350014
 20
5.093673320262303
 30
0.0
  0
SPLINE
  5
260
330
1F
100
AcDbEntity
  8
0
  6
Continuous
 62
     7
370
    25
100
AcDbSpline
210
0.0
220
0.0
230
1.0
 70
     8
 71
     3
 72
     8
 73
     4
 74
     0
 42
0.00000001
 43
0.00000001
 40
0.0
 40
0.0
 40
0.0
 40
0.0
 40
1.0
 40
1.0
 40
1.0
 40
1.0
 10
-1.120546730350017
 20
4.781129320262298
 30
0.0
 10
-1.248956730350016
 20
4.652719320262309
 30
0.0
 10
-1.367240730350015
 20
4.6048703202623
 30
0.0
 10
-1.550361730350013
 20
4.607263320262303
 30
0.0
  0
SPLINE
  5
261
330
1F
100
AcDbEntity
  8
0
  6
Continuous
 62
     7
370
    25
100
AcDbSpline
210
0.0
220
0.0
230
1.0
 70
     8
 71
     3
 72
     8
 73
     4
 74
     0
 42
0.00000001
 43
0.00000001
 40
0.0
 40
0.0
 40
0.0
 40
0.0
 40
1.0
 40
1.0
 40
1.0
 40
1.0
 10
-0.881354730350014
 20
4.899344320262303
 30
0.0
 10
-1.013276730350017
 20
4.887509320262301
 30
0.0
 10
-1.015032730350019
 20
4.886641320262306
 30
0.0
 10
-1.120546730350017
 20
4.781129320262298
 30
0.0
  0
SPLINE
  5
262
330
1F
100
AcDbEntity
  8
0
  6
Continuous
 62
     7
370
    25
100
AcDbSpline
210
0.0
220
0.0
230
1.0
 70
     8
 71
     3
 72
     8
 73
     4
 74
     0
 42
0.00000001
 43
0.00000001
 40
0.0
 40
0.0
 40
0.0
 40
0.0
 40
1.0
 40
1.0
 40
1.0
 40
1.0
 10
0.115642269649982
 20
5.202889320262298
 30
0.0
 10
-0.1703957303500134
 20
5.046849320262302
 30
0.0
 10
-0.5602727303500171
 20
4.928147320262304
 30
0.0
 10
-0.881354730350014
 20
4.899344320262303
 30
0.0
  0
SPLINE
  5
265
330
1F
100
AcDbEntity
  8
0
  6
Continuous
 62
     7
370
    25
100
AcDbSpline
210
0.0
220
0.0
230
1.0
 70
     8
 71
     3
 72
     8
 73
     4
 74
     0
 42
0.00000001
 43
0.00000001
 40
0.0
 40
0.0
 40
0.0
 40
0.0
 40
1.0
 40
1.0
 40
1.0
 40
1.0
 10
1.675882269649986
 20
4.594619320262304
 30
0.0
 10
1.327251269649985
 20
4.924629320262302
 30
0.0
 10
0.8513142696499852
 20
5.167662320262299
 30
0.0
 10
0.4002492696499848
 20
5.246014320262303
 30
0.0
  0
SPLINE
  5
266
330
1F
100
AcDbEntity
  8
0
  6
Continuous
 62
     7
370
    25
100
AcDbSpline
210
0.0
220
0.0
230
1.0
 70
     8
 71
     3
 72
     8
 73
     4
 74
     0
 42
0.00000001
 43
0.00000001
 40
0.0
 40
0.0
 40
0.0
 40
0.0
 40
1.0
 40
1.0
 40
1.0
 40
1.0
 10
2.305128269649987
 20
3.234902320262304
 30
0.0
 10
2.275113269649985
 20
3.800333320262306
 30
0.0
 10
2.088116269649984
 20
4.204405320262304
 30
0.0
 10
1.675882269649986
 20
4.594619320262304
 30
0.0
  0
SPLINE
  5
267
330
1F
100
AcDbEntity
  8
0
  6
Continuous
 62
     7
370
    25
100
AcDbSpline
210
0.0
220
0.0
230
1.0
 70
     8
 71
     3
 72
     8
 73
     4
 74
     0
 42
0.00000001
 43
0.00000001
 40
0.0
 40
0.0
 40
0.0
 40
0.0
 40
1.0
 40
1.0
 40
1.0
 40
1.0
 10
1.865432269649983
 20
1.809398320262303
 30
0.0
 10
2.158080269649989
 20
2.172782320262304
 30
0.0
 10
2.331639269649986
 20
2.735465320262302
 30
0.0
 10
2.305128269649987
 20
3.234902320262304
 30
0.0
  0
SPLINE
  5
268
330
1F
100
AcDbEntity
  8
0
  6
Continuous
 62
     7
370
    25
100
AcDbSpline
210
0.0
220
0.0
230
1.0
 70
     8
 71
     3
 72
     8
 73
     4
 74
     0
 42
0.00000001
 43
0.00000001
 40
0.0
 40
0.0
 40
0.0
 40
0.0
 40
1.0
 40
1.0
 40
1.0
 40
1.0
 10
0.078873269649983
 20
1.010276320262304
 30
0.0
 10
0.7842792696499817
 20
1.010938320262306
 30
0.0
 10
1.469084269649985
 20
1.317248320262303
 30
0.0
 10
1.865432269649983
 20
1.809398320262303
 30
0.0
  0
SPLINE
  5
269
330
1F
100
AcDbEntity
  8
0
  6
Continuous
 62
     7
370
    25
100
AcDbSpline
210
0.0
220
0.0
230
1.0
 70
     8
 71
     3
 72
     8
 73
     4
 74
     0
 42
0.00000001
 43
0.00000001
 40
0.0
 40
0.0
 40
0.0
 40
0.0
 40
1.0
 40
1.0
 40
1.0
 40
1.0
 10
-0.1106817303500145
 20
0.9730513202623019
 30
0.0
 10
-0.0650177303500171
 20
1.000892320262303
 30
0.0
 10
-0.0176947303500152
 20
1.010186320262302
 30
0.0
 10
0.078873269649983
 20
1.010276320262304
 30
0.0
  0
SPLINE
  5
26A
330
1F
100
AcDbEntity
  8
0
  6
Continuous
 62
     7
370
    25
100
AcDbSpline
210
0.0
220
0.0
230
1.0
 70
     8
 71
     3
 72
     8
 73
     4
 74
     0
 42
0.00000001
 43
0.00000001
 40
0.0
 40
0.0
 40
0.0
 40
0.0
 40
1.0
 40
1.0
 40
1.0
 40
1.0
 10
-0.1726947303500141
 20
0.647710320262302
 30
0.0
 10
-0.2503637303500166
 20
0.7490333202623024
 30
0.0
 10
-0.2204157303500147
 20
0.9061483202623017
 30
0.0
 10
-0.1106817303500145
 20
0.9730513202623019
 30
0.0
  0
SPLINE
  5
26B
330
1F
100
AcDbEntity
  8
0
  6
Continuous
 62
     7
370
    25
100
AcDbSpline
210
0.0
220
0.0
230
1.0
 70
     8
 71
     3
 72
     8
 73
     4
 74
     0
 42
0.00000001
 43
0.00000001
 40
0.0
 40
0.0
 40
0.0
 40
0.0
 40
1.0
 40
1.0
 40
1.0
 40
1.0
 10
0.042104269649984
 20
0.5166083202623011
 30
0.0
 10
-0.0590167303500151
 20
0.5665103202623021
 30
0.0
 10
-0.1556747303500181
 20
0.6255063202623041
 30
0.0
 10
-0.1726947303500141
 20
0.647710320262302
 30
0.0
  0
SPLINE
  5
26C
330
1F
100
AcDbEntity
  8
0
  6
Continuous
 62
     7
370
    25
100
AcDbSpline
210
0.0
220
0.0
230
1.0
 70
     8
 71
     3
 72
     8
 73
     4
 74
     0
 42
0.00000001
 43
0.00000001
 40
0.0
 40
0.0
 40
0.0
 40
0.0
 40
1.0
 40
1.0
 40
1.0
 40
1.0
 10
0.9980702696499831
 20
-0.3915786797377002
 30
0.0
 10
0.7862502696499851
 20
-0.0037736797376987
 30
0.0
 10
0.450787269649984
 20
0.314921320262302
 30
0.0
 10
0.042104269649984
 20
0.5166083202623011
 30
0.0
  0
SPLINE
  5
270
330
1F
100
AcDbEntity
  8
0
  6
Continuous
 62
     7
370
    25
100
AcDbSpline
210
0.0
220
0.0
230
1.0
 70
     8
 71
     3
 72
     8
 73
     4
 74
     0
 42
0.00000001
 43
0.00000001
 40
0.0
 40
0.0
 40
0.0
 40
0.0
 40
1.0
 40
1.0
 40
1.0
 40
1.0
 10
-0.8280307303500135
 20
0.2591723202623047
 30
0.0
 10
-0.3994537303500176
 20
0.1720093202623035
 30
0.0
 10
0.1309752696499848
 20
-0.0992186797376983
 30
0.0
 10
0.4493142696499822
 20
-0.3939796797376993
 30
0.0
  0
SPLINE
  5
271
330
1F
100
AcDbEntity
  8
0
  6
Continuous
 62
     7
370
    25
100
AcDbSpline
210
0.0
220
0.0
230
1.0
 70
     8
 71
     3
 72
     8
 73
     4
 74
     0
 42
0.00000001
 43
0.00000001
 40
0.0
 40
0.0
 40
0.0
 40
0.0
 40
1.0
 40
1.0
 40
1.0
 40
1.0
 10
-1.011881730350016
 20
0.2466843202623033
 30
0.0
 10
-0.9498637303500153
 20
0.2798913202623037
 30
0.0
 10
-0.934903730350014
 20
0.2809073202623031
 30
0.0
 10
-0.8280307303500135
 20
0.2591723202623047
 30
0.0
  0
SPLINE
  5
272
330
1F
100
AcDbEntity
  8
0
  6
Continuous
 62
     7
370
    25
100
AcDbSpline
210
0.0
220
0.0
230
1.0
 70
     8
 71
     3
 72
     8
 73
     4
 74
     0
 42
0.00000001
 43
0.00000001
 40
0.0
 40
0.0
 40
0.0
 40
0.0
 40
1.0
 40
1.0
 40
1.0
 40
1.0
 10
-1.133381730350016
 20
0.0085453202623015
 30
0.0
 10
-1.150446730350016
 20
0.0994923202623024
 30
0.0
 10
-1.099199730350015
 20
0.1999303202623037
 30
0.0
 10
-1.011881730350016
 20
0.2466843202623033
 30
0.0
  0
SPLINE
  5
274
330
1F
100
AcDbEntity
  8
0
  6
Continuous
 62
     7
370
    25
100
AcDbSpline
210
0.0
220
0.0
230
1.0
 70
     8
 71
     3
 72
     8
 73
     4
 74
     0
 42
0.00000001
 43
0.00000001
 40
0.0
 40
0.0
 40
0.0
 40
0.0
 40
1.0
 40
1.0
 40
1.0
 40
1.0
 10
-0.179023730350017
 20
-0.4912326797376979
 30
0.0
 10
-0.343747730350015
 20
-0.3801846797376954
 30
0.0
 10
-0.6613617303500158
 20
-0.2455566797376976
 30
0.0
 10
-0.8831697303500162
 20
-0.1927636797376987
 30
0.0
  0
SPLINE
  5
275
330
1F
100
AcDbEntity
  8
0
  6
Continuous
 62
     7
370
    25
100
AcDbSpline
210
0.0
220
0.0
230
1.0
 70
     8
 71
     3
 72
     8
 73
     4
 74
     0
 42
0.00000001
 43
0.00000001
 40
0.0
 40
0.0
 40
0.0
 40
0.0
 40
1.0
 40
1.0
 40
1.0
 40
1.0
 10
-0.6701197303500168
 20
-0.5156806797376977
 30
0.0
 10
-0.2254397303500175
 20
-0.5156806797376977
 30
0.0
 10
-0.1484457303500136
 20
-0.5118466797376999
 30
0.0
 10
-0.179023730350017
 20
-0.4912326797376979
 30
0.0
  0
SPLINE
  5
278
330
1F
100
AcDbEntity
  8
0
  6
Continuous
 62
     7
370
    25
100
AcDbSpline
210
0.0
220
0.0
230
1.0
 70
     8
 71
     3
 72
     8
 73
     4
 74
     0
 42
0.00000001
 43
0.00000001
 40
0.0
 40
0.0
 40
0.0
 40
0.0
 40
1.0
 40
1.0
 40
1.0
 40
1.0
 10
-1.628871730350017
 20
-0.0158546797376959
 30
0.0
 10
-1.424711730350015
 20
-0.0778646797376971
 30
0.0
 10
-1.271387730350015
 20
-0.2352526797376985
 30
0.0
 10
-1.218063730350015
 20
-0.4375426797376958
 30
0.0
  0
SPLINE
  5
279
330
1F
100
AcDbEntity
  8
0
  6
Continuous
 62
     7
370
    25
100
AcDbSpline
210
0.0
220
0.0
230
1.0
 70
     8
 71
     3
 72
     8
 73
     4
 74
     0
 42
0.00000001
 43
0.00000001
 40
0.0
 40
0.0
 40
0.0
 40
0.0
 40
1.0
 40
1.0
 40
1.0
 40
1.0
 10
-2.026217730350013
 20
-0.0289966797377
 30
0.0
 10
-1.797614730350016
 20
0.0232143202623034
 30
0.0
 10
-1.761430730350018
 20
0.0244103202623018
 30
0.0
 10
-1.628871730350017
 20
-0.0158546797376959
 30
0.0
  0
SPLINE
  5
27A
330
1F
100
AcDbEntity
  8
0
  6
Continuous
 62
     7
370
    25
100
AcDbSpline
210
0.0
220
0.0
230
1.0
 70
     8
 71
     3
 72
     8
 73
     4
 74
     0
 42
0.00000001
 43
0.00000001
 40
0.0
 40
0.0
 40
0.0
 40
0.0
 40
1.0
 40
1.0
 40
1.0
 40
1.0
 10
-2.132995730350019
 20
0.0506873202623
 30
0.0
 10
-2.080965730350014
 20
-0.0264686797376984
 30
0.0
 10
-2.065542730350017
 20
-0.0379776797376982
 30
0.0
 10
-2.026217730350013
 20
-0.0289966797377
 30
0.0
  0
SPLINE
  5
27B
330
1F
100
AcDbEntity
  8
0
  6
Continuous
 62
     7
370
    25
100
AcDbSpline
210
0.0
220
0.0
230
1.0
 70
     8
 71
     3
 72
     8
 73
     4
 74
     0
 42
0.00000001
 43
0.00000001
 40
0.0
 40
0.0
 40
0.0
 40
0.0
 40
1.0
 40
1.0
 40
1.0
 40
1.0
 10
-2.320381730350016
 20
0.6513483202623023
 30
0.0
 10
-2.320381730350016
 20
0.4514373202623018
 30
0.0
 10
-2.249049730350016
 20
0.2227803202623016
 30
0.0
 10
-2.132995730350019
 20
0.0506873202623
 30
0.0
  0
SPLINE
  5
27C
330
1F
100
AcDbEntity
  8
0
  6
Continuous
 62
     7
370
    25
100
AcDbSpline
210
0.0
220
0.0
230
1.0
 70
     8
 71
     3
 72
     8
 73
     4
 74
     0
 42
0.00000001
 43
0.00000001
 40
0.0
 40
0.0
 40
0.0
 40
0.0
 40
1.0
 40
1.0
 40
1.0
 40
1.0
 10
-2.194913730350016
 20
1.126875320262302
 30
0.0
 10
-2.258505730350014
 20
1.014315320262301
 30
0.0
 10
-2.320381730350016
 20
0.7798003202623034
 30
0.0
 10
-2.320381730350016
 20
0.6513483202623023
 30
0.0
  0
SPLINE
  5
27F
330
1F
100
AcDbEntity
  8
0
  6
Continuous
 62
     7
370
    25
100
AcDbSpline
210
0.0
220
0.0
230
1.0
 70
     8
 71
     3
 72
     8
 73
     4
 74
     0
 42
0.00000001
 43
0.00000001
 40
0.0
 40
0.0
 40
0.0
 40
0.0
 40
1.0
 40
1.0
 40
1.0
 40
1.0
 10
-1.710701730350015
 20
1.273198320262303
 30
0.0
 10
-1.799088730350017
 20
1.230095320262303
 30
0.0
 10
-1.839556730350016
 20
1.222138320262304
 30
0.0
 10
-1.978978730350016
 20
1.2204443202623
 30
0.0
  0
SPLINE
  5
280
330
1F
100
AcDbEntity
  8
0
  6
Continuous
 62
     7
370
    25
100
AcDbSpline
210
0.0
220
0.0
230
1.0
 70
     8
 71
     3
 72
     8
 73
     4
 74
     0
 42
0.00000001
 43
0.00000001
 40
0.0
 40
0.0
 40
0.0
 40
0.0
 40
1.0
 40
1.0
 40
1.0
 40
1.0
 10
-1.377911730350016
 20
1.799211320262301
 30
0.0
 10
-1.376853730350017
 20
1.580907320262302
 30
0.0
 10
-1.509446730350018
 20
1.371347320262301
 30
0.0
 10
-1.710701730350015
 20
1.273198320262303
 30
0.0
  0
SPLINE
  5
281
330
1F
100
AcDbEntity
  8
0
  6
Continuous
 62
     7
370
    25
100
AcDbSpline
210
0.0
220
0.0
230
1.0
 70
     8
 71
     3
 72
     8
 73
     4
 74
     0
 42
0.00000001
 43
0.00000001
 40
0.0
 40
0.0
 40
0.0
 40
0.0
 40
1.0
 40
1.0
 40
1.0
 40
1.0
 10
-1.709513730350016
 20
2.3378403202623
 30
0.0
 10
-1.496003730350016
 20
2.232777320262305
 30
0.0
 10
-1.379075730350017
 20
2.042849320262302
 30
0.0
 10
-1.377911730350016
 20
1.799211320262301
 30
0.0
  0
SPLINE
  5
282
330
1F
100
AcDbEntity
  8
0
  6
Continuous
 62
     7
370
    25
100
AcDbSpline
210
0.0
220
0.0
230
1.0
 70
     8
 71
     3
 72
     8
 73
     4
 74
     0
 42
0.00000001
 43
0.00000001
 40
0.0
 40
0.0
 40
0.0
 40
0.0
 40
1.0
 40
1.0
 40
1.0
 40
1.0
 10
-1.979923730350015
 20
2.397183320262303
 30
0.0
 10
-1.849081730350016
 20
2.398241320262305
 30
0.0
 10
-1.818683730350015
 20
2.391560320262304
 30
0.0
 10
-1.709513730350016
 20
2.3378403202623
 30
0.0
  0
SPLINE
  5
283
330
1F
100
AcDbEntity
  8
0
  6
Continuous
 62
     7
370
    25
100
AcDbSpline
210
0.0
220
0.0
230
1.0
 70
     8
 71
     3
 72
     8
 73
     4
 74
     0
 42
0.00000001
 43
0.00000001
 40
0.0
 40
0.0
 40
0.0
 40
0.0
 40
1.0
 40
1.0
 40
1.0
 40
1.0
 10
-2.219262730350016
 20
2.351889320262302
 30
0.0
 10
-2.146851730350018
 20
2.386637320262303
 30
0.0
 10
-2.096046730350017
 20
2.396252320262301
 30
0.0
 10
-1.979923730350015
 20
2.397183320262303
 30
0.0
  0
SPLINE
  5
284
330
1F
100
AcDbEntity
  8
0
  6
Continuous
 62
     7
370
    25
100
AcDbSpline
210
0.0
220
0.0
230
1.0
 70
     8
 71
     3
 72
     8
 73
     4
 74
     0
 42
0.00000001
 43
0.00000001
 40
0.0
 40
0.0
 40
0.0
 40
0.0
 40
1.0
 40
1.0
 40
1.0
 40
1.0
 10
-2.521218730350019
 20
2.030183320262301
 30
0.0
 10
-2.474559730350014
 20
2.154890320262302
 30
0.0
 10
-2.347344730350014
 20
2.290427320262304
 30
0.0
 10
-2.219262730350016
 20
2.351889320262302
 30
0.0
  0
SPLINE
  5
285
330
1F
100
AcDbEntity
  8
0
  6
Continuous
 62
     7
370
    25
100
AcDbSpline
210
0.0
220
0.0
230
1.0
 70
     8
 71
     3
 72
     8
 73
     4
 74
     0
 42
0.00000001
 43
0.00000001
 40
0.0
 40
0.0
 40
0.0
 40
0.0
 40
1.0
 40
1.0
 40
1.0
 40
1.0
 10
-2.470220730350019
 20
1.492551320262304
 30
0.0
 10
-2.565081730350017
 20
1.622772320262301
 30
0.0
 10
-2.587038730350017
 20
1.854263320262301
 30
0.0
 10
-2.521218730350019
 20
2.030183320262301
 30
0.0
  0
SPLINE
  5
286
330
1F
100
AcDbEntity
  8
0
  6
Continuous
 62
     7
370
    25
100
AcDbSpline
210
0.0
220
0.0
230
1.0
 70
     8
 71
     3
 72
     8
 73
     4
 74
     0
 42
0.00000001
 43
0.00000001
 40
0.0
 40
0.0
 40
0.0
 40
0.0
 40
1.0
 40
1.0
 40
1.0
 40
1.0
 10
-2.516522730350014
 20
1.287629320262305
 30
0.0
 10
-2.436014730350017
 20
1.445300320262299
 30
0.0
 10
-2.435964730350015
 20
1.445523320262303
 30
0.0
 10
-2.470220730350019
 20
1.492551320262304
 30
0.0
  0
SPLINE
  5
287
330
1F
100
AcDbEntity
  8
0
  6
Continuous
 62
     7
370
    25
100
AcDbSpline
210
0.0
220
0.0
230
1.0
 70
     8
 71
     3
 72
     8
 73
     4
 74
     0
 42
0.00000001
 43
0.00000001
 40
0.0
 40
0.0
 40
0.0
 40
0.0
 40
1.0
 40
1.0
 40
1.0
 40
1.0
 10
-2.671247730350018
 20
0.6425783202623006
 30
0.0
 10
-2.671247730350018
 20
0.8848893202623026
 30
0.0
 10
-2.626139730350016
 20
1.0729483202623
 30
0.0
 10
-2.516522730350014
 20
1.287629320262305
 30
0.0
  0
SPLINE
  5
288
330
1F
100
AcDbEntity
  8
0
  6
Continuous
 62
     7
370
    25
100
AcDbSpline
210
0.0
220
0.0
230
1.0
 70
     8
 71
     3
 72
     8
 73
     4
 74
     0
 42
0.00000001
 43
0.00000001
 40
0.0
 40
0.0
 40
0.0
 40
0.0
 40
1.0
 40
1.0
 40
1.0
 40
1.0
 10
-2.396300730350017
 20
-0.2029926797376992
 30
0.0
 10
-2.573994730350016
 20
0.0317203202623018
 30
0.0
 10
-2.671247730350018
 20
0.3308133202623055
 30
0.0
 10
-2.671247730350018
 20
0.6425783202623006
 30
0.0
  0
SPLINE
  5
289
330
1F
100
AcDbEntity
  8
0
  6
Continuous
 62
     7
370
    25
100
AcDbSpline
210
0.0
220
0.0
230
1.0
 70
     8
 71
     3
 72
     8
 73
     4
 74
     0
 42
0.00000001
 43
0.00000001
 40
0.0
 40
0.0
 40
0.0
 40
0.0
 40
1.0
 40
1.0
 40
1.0
 40
1.0
 10
-2.332194730350016
 20
-0.3316886797376968
 30
0.0
 10
-2.324416730350016
 20
-0.314194679737697
 30
0.0
 10
-2.348069730350014
 20
-0.2667046797376962
 30
0.0
 10
-2.396300730350017
 20
-0.2029926797376992
 30
0.0
  0
SPLINE
  5
28A
330
1F
100
AcDbEntity
  8
0
  6
Continuous
 62
     7
370
    25
100
AcDbSpline
210
0.0
220
0.0
230
1.0
 70
     8
 71
     3
 72
     8
 73
     4
 74
     0
 42
0.00000001
 43
0.00000001
 40
0.0
 40
0.0
 40
0.0
 40
0.0
 40
1.0
 40
1.0
 40
1.0
 40
1.0
 10
-2.364212730350014
 20
-0.4375526797376975
 30
0.0
 10
-2.353390730350017
 20
-0.3945776797376968
 30
0.0
 10
-2.338970730350016
 20
-0.3469396797376977
 30
0.0
 10
-2.332194730350016
 20
-0.3316886797376968
 30
0.0
  0
SPLINE
  5
28F
330
1F
100
AcDbEntity
  8
0
  6
Continuous
 62
     7
370
    25
100
AcDbSpline
210
0.0
220
0.0
230
1.0
 70
     8
 71
     3
 72
     8
 73
     4
 74
     0
 42
0.00000001
 43
0.00000001
 40
0.0
 40
0.0
 40
0.0
 40
0.0
 40
1.0
 40
1.0
 40
1.0
 40
1.0
 10
-5.312257730350014
 20
11.5171343202623
 30
0.0
 10
-5.827929730350015
 20
11.2449913202623
 30
0.0
 10
-6.210166730350016
 20
10.7731303202623
 30
0.0
 10
-6.378462730350014
 20
10.20093132026231
 30
0.0
  0
SPLINE
  5
290
330
1F
100
AcDbEntity
  8
0
  6
Continuous
 62
     7
370
    25
100
AcDbSpline
210
0.0
220
0.0
230
1.0
 70
     8
 71
     3
 72
     8
 73
     4
 74
     0
 42
0.00000001
 43
0.00000001
 40
0.0
 40
0.0
 40
0.0
 40
0.0
 40
1.0
 40
1.0
 40
1.0
 40
1.0
 10
-0.8831697303500162
 20
-0.1927636797376987
 30
0.0
 10
-1.038890730350014
 20
-0.1556996797376989
 30
0.0
 10
-1.113889730350016
 20
-0.0953586797376969
 30
0.0
 10
-1.133381730350016
 20
0.0085453202623015
 30
0.0
  0
SPLINE
  5
291
330
1F
100
AcDbEntity
  8
0
  6
Continuous
 62
     7
370
    25
100
AcDbSpline
210
0.0
220
0.0
230
1.0
 70
     8
 71
     3
 72
     8
 73
     4
 74
     0
 42
0.00000001
 43
0.00000001
 40
0.0
 40
0.0
 40
0.0
 40
0.0
 40
1.0
 40
1.0
 40
1.0
 40
1.0
 10
-3.081291730350016
 20
9.432909320262306
 30
0.0
 10
-3.186709730350016
 20
9.322875320262304
 30
0.0
 10
-3.149810730350016
 20
9.131040320262303
 30
0.0
 10
-3.011655730350018
 20
9.070898320262303
 30
0.0
  0
SPLINE
  5
292
330
1F
100
AcDbEntity
  8
0
  6
Continuous
 62
     7
370
    25
100
AcDbSpline
210
0.0
220
0.0
230
1.0
 70
     8
 71
     3
 72
     8
 73
     4
 74
     0
 42
0.00000001
 43
0.00000001
 40
0.0
 40
0.0
 40
0.0
 40
0.0
 40
1.0
 40
1.0
 40
1.0
 40
1.0
 10
-2.714724730350015
 20
9.392153320262302
 30
0.0
 10
-2.786603730350015
 20
9.5311573202623
 30
0.0
 10
-2.967856730350018
 20
9.551309320262304
 30
0.0
 10
-3.081291730350016
 20
9.432909320262306
 30
0.0
  0
SPLINE
  5
293
330
1F
100
AcDbEntity
  8
0
  6
Continuous
 62
     7
370
    25
100
AcDbSpline
210
0.0
220
0.0
230
1.0
 70
     8
 71
     3
 72
     8
 73
     4
 74
     0
 42
0.00000001
 43
0.00000001
 40
0.0
 40
0.0
 40
0.0
 40
0.0
 40
1.0
 40
1.0
 40
1.0
 40
1.0
 10
-2.825788730350016
 20
9.071122320262305
 30
0.0
 10
-2.708054730350018
 20
9.1203153202623
 30
0.0
 10
-2.654380730350014
 20
9.275461320262302
 30
0.0
 10
-2.714724730350015
 20
9.392153320262302
 30
0.0
  0
SPLINE
  5
294
330
1F
100
AcDbEntity
  8
0
  6
Continuous
 62
     7
370
    25
100
AcDbSpline
210
0.0
220
0.0
230
1.0
 70
     8
 71
     3
 72
     8
 73
     4
 74
     0
 42
0.00000001
 43
0.00000001
 40
0.0
 40
0.0
 40
0.0
 40
0.0
 40
1.0
 40
1.0
 40
1.0
 40
1.0
 10
-3.011655730350018
 20
9.070898320262303
 30
0.0
 10
-2.937876730350016
 20
9.0387793202623
 30
0.0
 10
-2.903094730350015
 20
9.038822320262305
 30
0.0
 10
-2.825788730350016
 20
9.071122320262305
 30
0.0
  0
SPLINE
  5
295
330
1F
100
AcDbEntity
  8
0
  6
Continuous
 62
     7
370
    25
100
AcDbSpline
210
0.0
220
0.0
230
1.0
 70
     8
 71
     3
 72
     8
 73
     4
 74
     0
 42
0.00000001
 43
0.00000001
 40
0.0
 40
0.0
 40
0.0
 40
0.0
 40
1.0
 40
1.0
 40
1.0
 40
1.0
 10
-5.881013730350014
 20
9.007605320262298
 30
0.0
 10
-5.879294730350017
 20
9.007458320262298
 30
0.0
 10
-5.845460730350017
 20
8.996030320262305
 30
0.0
 10
-5.805792730350017
 20
8.982224320262306
 30
0.0
  0
SPLINE
  5
296
330
1F
100
AcDbEntity
  8
0
  6
Continuous
 62
     7
370
    25
100
AcDbSpline
210
0.0
220
0.0
230
1.0
 70
     8
 71
     3
 72
     8
 73
     4
 74
     0
 42
0.00000001
 43
0.00000001
 40
0.0
 40
0.0
 40
0.0
 40
0.0
 40
1.0
 40
1.0
 40
1.0
 40
1.0
 10
-5.960583730350015
 20
9.193904320262305
 30
0.0
 10
-5.960583730350015
 20
9.146742320262302
 30
0.0
 10
-5.902011730350019
 20
9.009482320262302
 30
0.0
 10
-5.881013730350014
 20
9.007605320262298
 30
0.0
  0
SPLINE
  5
297
330
1F
100
AcDbEntity
  8
0
  6
Continuous
 62
     7
370
    25
100
AcDbSpline
210
0.0
220
0.0
230
1.0
 70
     8
 71
     3
 72
     8
 73
     4
 74
     0
 42
0.00000001
 43
0.00000001
 40
0.0
 40
0.0
 40
0.0
 40
0.0
 40
1.0
 40
1.0
 40
1.0
 40
1.0
 10
-5.846806730350016
 20
9.395862320262301
 30
0.0
 10
-5.906065730350019
 20
9.364148320262299
 30
0.0
 10
-5.960500730350017
 20
9.267521320262304
 30
0.0
 10
-5.960583730350015
 20
9.193904320262305
 30
0.0
  0
SPLINE
  5
298
330
1F
100
AcDbEntity
  8
0
  6
Continuous
 62
     7
370
    25
100
AcDbSpline
210
0.0
220
0.0
230
1.0
 70
     8
 71
     3
 72
     8
 73
     4
 74
     0
 42
0.00000001
 43
0.00000001
 40
0.0
 40
0.0
 40
0.0
 40
0.0
 40
1.0
 40
1.0
 40
1.0
 40
1.0
 10
-5.605230730350016
 20
9.385112320262301
 30
0.0
 10
-5.663822730350015
 20
9.423502320262301
 30
0.0
 10
-5.785078730350015
 20
9.428898320262306
 30
0.0
 10
-5.846806730350016
 20
9.395862320262301
 30
0.0
  0
SPLINE
  5
299
330
1F
100
AcDbEntity
  8
0
  6
Continuous
 62
     7
370
    25
100
AcDbSpline
210
0.0
220
0.0
230
1.0
 70
     8
 71
     3
 72
     8
 73
     4
 74
     0
 42
0.00000001
 43
0.00000001
 40
0.0
 40
0.0
 40
0.0
 40
0.0
 40
1.0
 40
1.0
 40
1.0
 40
1.0
 10
-5.598427730350016
 20
9.008726320262303
 30
0.0
 10
-5.468338730350016
 20
9.089968320262297
 30
0.0
 10
-5.472096730350017
 20
9.297879320262304
 30
0.0
 10
-5.605230730350017
 20
9.385112320262301
 30
0.0
  0
SPLINE
  5
29A
330
1F
100
AcDbEntity
  8
0
  6
Continuous
 62
     7
370
    25
100
AcDbSpline
210
0.0
220
0.0
230
1.0
 70
     8
 71
     3
 72
     8
 73
     4
 74
     0
 42
0.00000001
 43
0.00000001
 40
0.0
 40
0.0
 40
0.0
 40
0.0
 40
1.0
 40
1.0
 40
1.0
 40
1.0
 10
-5.805792730350017
 20
8.982224320262306
 30
0.0
 10
-5.731615730350019
 20
8.956406320262303
 30
0.0
 10
-5.669494730350017
 20
8.964346320262301
 30
0.0
 10
-5.598427730350016
 20
9.008726320262305
 30
0.0
  0
SPLINE
  5
29B
330
1F
100
AcDbEntity
  8
0
  6
Continuous
 62
     7
370
    25
100
AcDbSpline
210
0.0
220
0.0
230
1.0
 70
     8
 71
     3
 72
     8
 73
     4
 74
     0
 42
0.00000001
 43
0.00000001
 40
0.0
 40
0.0
 40
0.0
 40
0.0
 40
1.0
 40
1.0
 40
1.0
 40
1.0
 10
-4.594999730350019
 20
8.693723320262304
 30
0.0
 10
-4.537453730350017
 20
8.608332320262306
 30
0.0
 10
-4.480051730350016
 20
8.5819783202623
 30
0.0
 10
-4.371424730350019
 20
8.591075320262306
 30
0.0
  0
SPLINE
  5
29C
330
1F
100
AcDbEntity
  8
0
  6
Continuous
 62
     7
370
    25
100
AcDbSpline
210
0.0
220
0.0
230
1.0
 70
     8
 71
     3
 72
     8
 73
     4
 74
     0
 42
0.00000001
 43
0.00000001
 40
0.0
 40
0.0
 40
0.0
 40
0.0
 40
1.0
 40
1.0
 40
1.0
 40
1.0
 10
-4.610446730350017
 20
8.906950320262306
 30
0.0
 10
-4.647400730350016
 20
8.8185063202623
 30
0.0
 10
-4.643583730350016
 20
8.765818320262305
 30
0.0
 10
-4.594999730350019
 20
8.693723320262304
 30
0.0
  0
SPLINE
  5
29D
330
1F
100
AcDbEntity
  8
0
  6
Continuous
 62
     7
370
    25
100
AcDbSpline
210
0.0
220
0.0
230
1.0
 70
     8
 71
     3
 72
     8
 73
     4
 74
     0
 42
0.00000001
 43
0.00000001
 40
0.0
 40
0.0
 40
0.0
 40
0.0
 40
1.0
 40
1.0
 40
1.0
 40
1.0
 10
-4.237669730350016
 20
8.964000320262302
 30
0.0
 10
-4.351326730350015
 20
9.088019320262305
 30
0.0
 10
-4.547322730350016
 20
9.058024320262307
 30
0.0
 10
-4.610446730350017
 20
8.906950320262306
 30
0.0
  0
SPLINE
  5
29E
330
1F
100
AcDbEntity
  8
0
  6
Continuous
 62
     7
370
    25
100
AcDbSpline
210
0.0
220
0.0
230
1.0
 70
     8
 71
     3
 72
     8
 73
     4
 74
     0
 42
0.00000001
 43
0.00000001
 40
0.0
 40
0.0
 40
0.0
 40
0.0
 40
1.0
 40
1.0
 40
1.0
 40
1.0
 10
-4.177287730350015
 20
8.806204320262301
 30
0.0
 10
-4.177287730350015
 20
8.8844583202623
 30
0.0
 10
-4.186256730350016
 20
8.9078973202623
 30
0.0
 10
-4.237669730350016
 20
8.964000320262302
 30
0.0
  0
SPLINE
  5
29F
330
1F
100
AcDbEntity
  8
0
  6
Continuous
 62
     7
370
    25
100
AcDbSpline
210
0.0
220
0.0
230
1.0
 70
     8
 71
     3
 72
     8
 73
     4
 74
     0
 42
0.00000001
 43
0.00000001
 40
0.0
 40
0.0
 40
0.0
 40
0.0
 40
1.0
 40
1.0
 40
1.0
 40
1.0
 10
-4.228939730350017
 20
8.656490320262298
 30
0.0
 10
-4.186924730350018
 20
8.703512320262305
 30
0.0
 10
-4.177287730350015
 20
8.7314463202623
 30
0.0
 10
-4.177287730350015
 20
8.806204320262301
 30
0.0
  0
SPLINE
  5
2A0
330
1F
100
AcDbEntity
  8
0
  6
Continuous
 62
     7
370
    25
100
AcDbSpline
210
0.0
220
0.0
230
1.0
 70
     8
 71
     3
 72
     8
 73
     4
 74
     0
 42
0.00000001
 43
0.00000001
 40
0.0
 40
0.0
 40
0.0
 40
0.0
 40
1.0
 40
1.0
 40
1.0
 40
1.0
 10
-4.371424730350019
 20
8.591075320262306
 30
0.0
 10
-4.297957730350014
 20
8.597227320262302
 30
0.0
 10
-4.270714730350019
 20
8.609736320262302
 30
0.0
 10
-4.228939730350017
 20
8.656490320262298
 30
0.0
  0
SPLINE
  5
2A1
330
1F
100
AcDbEntity
  8
0
  6
Continuous
 62
     7
370
    25
100
AcDbSpline
210
0.0
220
0.0
230
1.0
 70
     8
 71
     3
 72
     8
 73
     4
 74
     0
 42
0.00000001
 43
0.00000001
 40
0.0
 40
0.0
 40
0.0
 40
0.0
 40
1.0
 40
1.0
 40
1.0
 40
1.0
 10
-1.823980730350016
 20
8.545312320262303
 30
0.0
 10
-1.823980730350016
 20
8.453300320262299
 30
0.0
 10
-1.790143730350018
 20
8.395249320262304
 30
0.0
 10
-1.706928730350016
 20
8.344507320262304
 30
0.0
  0
SPLINE
  5
2A2
330
1F
100
AcDbEntity
  8
0
  6
Continuous
 62
     7
370
    25
100
AcDbSpline
210
0.0
220
0.0
230
1.0
 70
     8
 71
     3
 72
     8
 73
     4
 74
     0
 42
0.00000001
 43
0.00000001
 40
0.0
 40
0.0
 40
0.0
 40
0.0
 40
1.0
 40
1.0
 40
1.0
 40
1.0
 10
-1.750280730350017
 20
8.699820320262306
 30
0.0
 10
-1.813934730350016
 20
8.636166320262303
 30
0.0
 10
-1.823980730350016
 20
8.615101320262303
 30
0.0
 10
-1.823980730350016
 20
8.545312320262303
 30
0.0
  0
SPLINE
  5
2A3
330
1F
100
AcDbEntity
  8
0
  6
Continuous
 62
     7
370
    25
100
AcDbSpline
210
0.0
220
0.0
230
1.0
 70
     8
 71
     3
 72
     8
 73
     4
 74
     0
 42
0.00000001
 43
0.00000001
 40
0.0
 40
0.0
 40
0.0
 40
0.0
 40
1.0
 40
1.0
 40
1.0
 40
1.0
 10
-1.583106730350017
 20
8.764539320262298
 30
0.0
 10
-1.672551730350014
 20
8.773133320262305
 30
0.0
 10
-1.679753730350019
 20
8.770347320262301
 30
0.0
 10
-1.750280730350017
 20
8.699820320262306
 30
0.0
  0
SPLINE
  5
2A4
330
1F
100
AcDbEntity
  8
0
  6
Continuous
 62
     7
370
    25
100
AcDbSpline
210
0.0
220
0.0
230
1.0
 70
     8
 71
     3
 72
     8
 73
     4
 74
     0
 42
0.00000001
 43
0.00000001
 40
0.0
 40
0.0
 40
0.0
 40
0.0
 40
1.0
 40
1.0
 40
1.0
 40
1.0
 10
-1.480149730350017
 20
8.345275320262303
 30
0.0
 10
-1.285270730350018
 20
8.4640963202623
 30
0.0
 10
-1.353630730350015
 20
8.74249032026231
 30
0.0
 10
-1.583106730350017
 20
8.764539320262298
 30
0.0
  0
SPLINE
  5
2A5
330
1F
100
AcDbEntity
  8
0
  6
Continuous
 62
     7
370
    25
100
AcDbSpline
210
0.0
220
0.0
230
1.0
 70
     8
 71
     3
 72
     8
 73
     4
 74
     0
 42
0.00000001
 43
0.00000001
 40
0.0
 40
0.0
 40
0.0
 40
0.0
 40
1.0
 40
1.0
 40
1.0
 40
1.0
 10
-1.706928730350016
 20
8.344507320262304
 30
0.0
 10
-1.633282730350016
 20
8.299601320262306
 30
0.0
 10
-1.554616730350015
 20
8.299865320262306
 30
0.0
 10
-1.480149730350017
 20
8.345275320262303
 30
0.0
  0
SPLINE
  5
2A6
330
1F
100
AcDbEntity
  8
0
  6
Continuous
 62
     7
370
    25
100
AcDbSpline
210
0.0
220
0.0
230
1.0
 70
     8
 71
     3
 72
     8
 73
     4
 74
     0
 42
0.00000001
 43
0.00000001
 40
0.0
 40
0.0
 40
0.0
 40
0.0
 40
1.0
 40
1.0
 40
1.0
 40
1.0
 10
0.1792752696499859
 20
7.139291320262302
 30
0.0
 10
0.0927902696499817
 20
7.190377320262301
 30
0.0
 10
-0.012619730350015
 20
7.178665320262303
 30
0.0
 10
-0.0879837303500164
 20
7.109598320262298
 30
0.0
  0
SPLINE
  5
2A7
330
1F
100
AcDbEntity
  8
0
  6
Continuous
 62
     7
370
    25
100
AcDbSpline
210
0.0
220
0.0
230
1.0
 70
     8
 71
     3
 72
     8
 73
     4
 74
     0
 42
0.00000001
 43
0.00000001
 40
0.0
 40
0.0
 40
0.0
 40
0.0
 40
1.0
 40
1.0
 40
1.0
 40
1.0
 10
0.1633472696499841
 20
6.738201320262302
 30
0.0
 10
0.3215042696499831
 20
6.819989320262302
 30
0.0
 10
0.3306322696499837
 20
7.049880320262305
 30
0.0
 10
0.1792752696499859
 20
7.139291320262302
 30
0.0
  0
SPLINE
  5
2A8
330
1F
100
AcDbEntity
  8
0
  6
Continuous
 62
     7
370
    25
100
AcDbSpline
210
0.0
220
0.0
230
1.0
 70
     8
 71
     3
 72
     8
 73
     4
 74
     0
 42
0.00000001
 43
0.00000001
 40
0.0
 40
0.0
 40
0.0
 40
0.0
 40
1.0
 40
1.0
 40
1.0
 40
1.0
 10
-0.0879837303500164
 20
7.109598320262298
 30
0.0
 10
-0.2839367303500151
 20
6.930022320262304
 30
0.0
 10
-0.0718177303500149
 20
6.616587320262303
 30
0.0
 10
0.1633472696499841
 20
6.738201320262302
 30
0.0
  0
SPLINE
  5
2A9
330
1F
100
AcDbEntity
  8
0
  6
Continuous
 62
     7
370
    25
100
AcDbSpline
210
0.0
220
0.0
230
1.0
 70
     8
 71
     3
 72
     8
 73
     4
 74
     0
 42
0.00000001
 43
0.00000001
 40
0.0
 40
0.0
 40
0.0
 40
0.0
 40
1.0
 40
1.0
 40
1.0
 40
1.0
 10
0.9081592696499816
 20
3.401165320262304
 30
0.0
 10
0.9599782696499831
 20
3.355669320262305
 30
0.0
 10
0.988119269649982
 20
3.345239320262303
 30
0.0
 10
1.059051269649985
 20
3.345239320262303
 30
0.0
  0
SPLINE
  5
2AA
330
1F
100
AcDbEntity
  8
0
  6
Continuous
 62
     7
370
    25
100
AcDbSpline
210
0.0
220
0.0
230
1.0
 70
     8
 71
     3
 72
     8
 73
     4
 74
     0
 42
0.00000001
 43
0.00000001
 40
0.0
 40
0.0
 40
0.0
 40
0.0
 40
1.0
 40
1.0
 40
1.0
 40
1.0
 10
0.8992162696499841
 20
3.730689320262305
 30
0.0
 10
0.7985192696499839
 20
3.629990320262302
 30
0.0
 10
0.8021992696499829
 20
3.494192320262303
 30
0.0
 10
0.9081592696499816
 20
3.401165320262304
 30
0.0
  0
SPLINE
  5
2AB
330
1F
100
AcDbEntity
  8
0
  6
Continuous
 62
     7
370
    25
100
AcDbSpline
210
0.0
220
0.0
230
1.0
 70
     8
 71
     3
 72
     8
 73
     4
 74
     0
 42
0.00000001
 43
0.00000001
 40
0.0
 40
0.0
 40
0.0
 40
0.0
 40
1.0
 40
1.0
 40
1.0
 40
1.0
 10
1.141853269649981
 20
3.779886320262299
 30
0.0
 10
1.053672269649985
 20
3.8167303202623
 30
0.0
 10
0.9678602696499838
 20
3.799330320262299
 30
0.0
 10
0.8992162696499841
 20
3.730689320262305
 30
0.0
  0
SPLINE
  5
2AC
330
1F
100
AcDbEntity
  8
0
  6
Continuous
 62
     7
370
    25
100
AcDbSpline
210
0.0
220
0.0
230
1.0
 70
     8
 71
     3
 72
     8
 73
     4
 74
     0
 42
0.00000001
 43
0.00000001
 40
0.0
 40
0.0
 40
0.0
 40
0.0
 40
1.0
 40
1.0
 40
1.0
 40
1.0
 10
1.187213269649986
 20
3.373933320262302
 30
0.0
 10
1.330373269649982
 20
3.474212320262303
 30
0.0
 10
1.303783269649986
 20
3.712227320262302
 30
0.0
 10
1.141853269649981
 20
3.779886320262299
 30
0.0
  0
SPLINE
  5
2AD
330
1F
100
AcDbEntity
  8
0
  6
Continuous
 62
     7
370
    25
100
AcDbSpline
210
0.0
220
0.0
230
1.0
 70
     8
 71
     3
 72
     8
 73
     4
 74
     0
 42
0.00000001
 43
0.00000001
 40
0.0
 40
0.0
 40
0.0
 40
0.0
 40
1.0
 40
1.0
 40
1.0
 40
1.0
 10
1.059051269649985
 20
3.345239320262303
 30
0.0
 10
1.108309269649985
 20
3.345239320262303
 30
0.0
 10
1.164070269649983
 20
3.357722320262303
 30
0.0
 10
1.187213269649986
 20
3.373933320262302
 30
0.0
  0
SPLINE
  5
2AE
330
1F
100
AcDbEntity
  8
0
  6
Continuous
 62
     7
370
    25
100
AcDbSpline
210
0.0
220
0.0
230
1.0
 70
     8
 71
     3
 72
     8
 73
     4
 74
     0
 42
0.00000001
 43
0.00000001
 40
0.0
 40
0.0
 40
0.0
 40
0.0
 40
1.0
 40
1.0
 40
1.0
 40
1.0
 10
-2.164499730350017
 20
7.181842320262303
 30
0.0
 10
-2.281095730350017
 20
7.065245320262307
 30
0.0
 10
-2.262109730350015
 20
6.9214193202623
 30
0.0
 10
-2.117152730350017
 20
6.823204320262303
 30
0.0
  0
SPLINE
  5
2AF
330
1F
100
AcDbEntity
  8
0
  6
Continuous
 62
     7
370
    25
100
AcDbSpline
210
0.0
220
0.0
230
1.0
 70
     8
 71
     3
 72
     8
 73
     4
 74
     0
 42
0.00000001
 43
0.00000001
 40
0.0
 40
0.0
 40
0.0
 40
0.0
 40
1.0
 40
1.0
 40
1.0
 40
1.0
 10
-2.011086730350015
 20
7.242902320262306
 30
0.0
 10
-2.091170730350013
 20
7.242902320262306
 30
0.0
 10
-2.111550730350017
 20
7.2347923202623
 30
0.0
 10
-2.164499730350017
 20
7.181842320262303
 30
0.0
  0
SPLINE
  5
2B0
330
1F
100
AcDbEntity
  8
0
  6
Continuous
 62
     7
370
    25
100
AcDbSpline
210
0.0
220
0.0
230
1.0
 70
     8
 71
     3
 72
     8
 73
     4
 74
     0
 42
0.00000001
 43
0.00000001
 40
0.0
 40
0.0
 40
0.0
 40
0.0
 40
1.0
 40
1.0
 40
1.0
 40
1.0
 10
-1.786560730350016
 20
7.0750153202623
 30
0.0
 10
-1.815667730350017
 20
7.183104320262299
 30
0.0
 10
-1.895637730350015
 20
7.242902320262306
 30
0.0
 10
-2.011086730350015
 20
7.242902320262306
 30
0.0
  0
SPLINE
  5
2B1
330
1F
100
AcDbEntity
  8
0
  6
Continuous
 62
     7
370
    25
100
AcDbSpline
210
0.0
220
0.0
230
1.0
 70
     8
 71
     3
 72
     8
 73
     4
 74
     0
 42
0.00000001
 43
0.00000001
 40
0.0
 40
0.0
 40
0.0
 40
0.0
 40
1.0
 40
1.0
 40
1.0
 40
1.0
 10
-1.800001730350016
 20
6.935058320262296
 30
0.0
 10
-1.772418730350014
 20
6.990501320262306
 30
0.0
 10
-1.770153730350017
 20
7.014086320262298
 30
0.0
 10
-1.786560730350016
 20
7.0750153202623
 30
0.0
  0
SPLINE
  5
2B2
330
1F
100
AcDbEntity
  8
0
  6
Continuous
 62
     7
370
    25
100
AcDbSpline
210
0.0
220
0.0
230
1.0
 70
     8
 71
     3
 72
     8
 73
     4
 74
     0
 42
0.00000001
 43
0.00000001
 40
0.0
 40
0.0
 40
0.0
 40
0.0
 40
1.0
 40
1.0
 40
1.0
 40
1.0
 10
-1.879569730350018
 20
6.834536320262298
 30
0.0
 10
-1.854061730350017
 20
6.853151320262304
 30
0.0
 10
-1.818244730350017
 20
6.898384320262303
 30
0.0
 10
-1.800001730350016
 20
6.935058320262296
 30
0.0
  0
SPLINE
  5
2B3
330
1F
100
AcDbEntity
  8
0
  6
Continuous
 62
     7
370
    25
100
AcDbSpline
210
0.0
220
0.0
230
1.0
 70
     8
 71
     3
 72
     8
 73
     4
 74
     0
 42
0.00000001
 43
0.00000001
 40
0.0
 40
0.0
 40
0.0
 40
0.0
 40
1.0
 40
1.0
 40
1.0
 40
1.0
 10
-2.117152730350017
 20
6.823204320262303
 30
0.0
 10
-2.044381730350018
 20
6.773898320262303
 30
0.0
 10
-1.956989730350016
 20
6.778067320262301
 30
0.0
 10
-1.879569730350018
 20
6.834536320262298
 30
0.0
  0
SPLINE
  5
2B4
330
1F
100
AcDbEntity
  8
0
  6
Continuous
 62
     7
370
    25
100
AcDbSpline
210
0.0
220
0.0
230
1.0
 70
     8
 71
     3
 72
     8
 73
     4
 74
     0
 42
0.00000001
 43
0.00000001
 40
0.0
 40
0.0
 40
0.0
 40
0.0
 40
1.0
 40
1.0
 40
1.0
 40
1.0
 10
-3.360246730350017
 20
4.990903320262308
 30
0.0
 10
-3.394174730350016
 20
4.909699320262306
 30
0.0
 10
-3.393552730350014
 20
4.881976320262306
 30
0.0
 10
-3.356013730350018
 20
4.802874320262301
 30
0.0
  0
SPLINE
  5
2B5
330
1F
100
AcDbEntity
  8
0
  6
Continuous
 62
     7
370
    25
100
AcDbSpline
210
0.0
220
0.0
230
1.0
 70
     8
 71
     3
 72
     8
 73
     4
 74
     0
 42
0.00000001
 43
0.00000001
 40
0.0
 40
0.0
 40
0.0
 40
0.0
 40
1.0
 40
1.0
 40
1.0
 40
1.0
 10
-3.043961730350015
 20
4.699030320262302
 30
0.0
 10
-2.891238730350017
 20
4.771506320262304
 30
0.0
 10
-2.886748730350018
 20
5.023119320262302
 30
0.0
 10
-3.036798730350017
 20
5.100714320262302
 30
0.0
  0
SPLINE
  5
2B6
330
1F
100
AcDbEntity
  8
0
  6
Continuous
 62
     7
370
    25
100
AcDbSpline
210
0.0
220
0.0
230
1.0
 70
     8
 71
     3
 72
     8
 73
     4
 74
     0
 42
0.00000001
 43
0.00000001
 40
0.0
 40
0.0
 40
0.0
 40
0.0
 40
1.0
 40
1.0
 40
1.0
 40
1.0
 10
-3.356013730350018
 20
4.802874320262301
 30
0.0
 10
-3.298516730350014
 20
4.681712320262307
 30
0.0
 10
-3.170344730350015
 20
4.639059320262303
 30
0.0
 10
-3.043961730350015
 20
4.699030320262302
 30
0.0
  0
SPLINE
  5
2B7
330
1F
100
AcDbEntity
  8
0
  6
Continuous
 62
     7
370
    25
100
AcDbSpline
210
0.0
220
0.0
230
1.0
 70
     8
 71
     3
 72
     8
 73
     4
 74
     0
 42
0.00000001
 43
0.00000001
 40
0.0
 40
0.0
 40
0.0
 40
0.0
 40
1.0
 40
1.0
 40
1.0
 40
1.0
 10
-3.036798730350017
 20
5.100714320262302
 30
0.0
 10
-3.155858730350014
 20
5.162283320262306
 30
0.0
 10
-3.310589730350016
 20
5.109753320262297
 30
0.0
 10
-3.360246730350017
 20
4.990903320262308
 30
0.0
  0
SPLINE
  5
2B8
330
1F
100
AcDbEntity
  8
0
  6
Continuous
 62
     7
370
    25
100
AcDbSpline
210
0.0
220
0.0
230
1.0
 70
     8
 71
     3
 72
     8
 73
     4
 74
     0
 42
0.00000001
 43
0.00000001
 40
0.0
 40
0.0
 40
0.0
 40
0.0
 40
1.0
 40
1.0
 40
1.0
 40
1.0
 10
-2.879048730350015
 20
3.174544320262301
 30
0.0
 10
-2.931179730350016
 20
3.222319320262304
 30
0.0
 10
-2.960720730350013
 20
3.234928320262301
 30
0.0
 10
-3.020508730350015
 20
3.234928320262301
 30
0.0
  0
SPLINE
  5
2B9
330
1F
100
AcDbEntity
  8
0
  6
Continuous
 62
     7
370
    25
100
AcDbSpline
210
0.0
220
0.0
230
1.0
 70
     8
 71
     3
 72
     8
 73
     4
 74
     0
 42
0.00000001
 43
0.00000001
 40
0.0
 40
0.0
 40
0.0
 40
0.0
 40
1.0
 40
1.0
 40
1.0
 40
1.0
 10
-2.936098730350018
 20
2.801770320262301
 30
0.0
 10
-2.785024730350017
 20
2.864892320262304
 30
0.0
 10
-2.755030730350019
 20
3.0608893202623
 30
0.0
 10
-2.879048730350015
 20
3.174544320262301
 30
0.0
  0
SPLINE
  5
2BA
330
1F
100
AcDbEntity
  8
0
  6
Continuous
 62
     7
370
    25
100
AcDbSpline
210
0.0
220
0.0
230
1.0
 70
     8
 71
     3
 72
     8
 73
     4
 74
     0
 42
0.00000001
 43
0.00000001
 40
0.0
 40
0.0
 40
0.0
 40
0.0
 40
1.0
 40
1.0
 40
1.0
 40
1.0
 10
-3.142227730350014
 20
2.811324320262303
 30
0.0
 10
-3.072036730350017
 20
2.768526320262303
 30
0.0
 10
-3.021288730350014
 20
2.766173320262303
 30
0.0
 10
-2.936098730350018
 20
2.801770320262301
 30
0.0
  0
SPLINE
  5
2BB
330
1F
100
AcDbEntity
  8
0
  6
Continuous
 62
     7
370
    25
100
AcDbSpline
210
0.0
220
0.0
230
1.0
 70
     8
 71
     3
 72
     8
 73
     4
 74
     0
 42
0.00000001
 43
0.00000001
 40
0.0
 40
0.0
 40
0.0
 40
0.0
 40
1.0
 40
1.0
 40
1.0
 40
1.0
 10
-3.020508730350015
 20
3.234928320262301
 30
0.0
 10
-3.260125730350016
 20
3.234928320262301
 30
0.0
 10
-3.346120730350014
 20
2.935645320262303
 30
0.0
 10
-3.142227730350014
 20
2.811324320262303
 30
0.0
  0
SPLINE
  5
2BC
330
1F
100
AcDbEntity
  8
0
  6
Continuous
 62
     7
370
    25
100
AcDbSpline
210
0.0
220
0.0
230
1.0
 70
     8
 71
     3
 72
     8
 73
     4
 74
     0
 42
0.00000001
 43
0.00000001
 40
0.0
 40
0.0
 40
0.0
 40
0.0
 40
1.0
 40
1.0
 40
1.0
 40
1.0
 10
-3.421444730350016
 20
1.121070320262301
 30
0.0
 10
-3.486824730350016
 20
1.339287320262304
 30
0.0
 10
-3.793754730350016
 20
1.344883320262304
 30
0.0
 10
-3.864949730350016
 20
1.129156320262302
 30
0.0
  0
SPLINE
  5
2BD
330
1F
100
AcDbEntity
  8
0
  6
Continuous
 62
     7
370
    25
100
AcDbSpline
210
0.0
220
0.0
230
1.0
 70
     8
 71
     3
 72
     8
 73
     4
 74
     0
 42
0.00000001
 43
0.00000001
 40
0.0
 40
0.0
 40
0.0
 40
0.0
 40
1.0
 40
1.0
 40
1.0
 40
1.0
 10
-3.434912730350015
 20
0.9811273202623011
 30
0.0
 10
-3.405508730350018
 20
1.040320320262304
 30
0.0
 10
-3.403506730350017
 20
1.061165320262302
 30
0.0
 10
-3.421444730350016
 20
1.121070320262301
 30
0.0
  0
SPLINE
  5
2BE
330
1F
100
AcDbEntity
  8
0
  6
Continuous
 62
     7
370
    25
100
AcDbSpline
210
0.0
220
0.0
230
1.0
 70
     8
 71
     3
 72
     8
 73
     4
 74
     0
 42
0.00000001
 43
0.00000001
 40
0.0
 40
0.0
 40
0.0
 40
0.0
 40
1.0
 40
1.0
 40
1.0
 40
1.0
 10
-3.515411730350016
 20
0.878424320262302
 30
0.0
 10
-3.490141730350019
 20
0.8966573202623014
 30
0.0
 10
-3.453909730350015
 20
0.9428723202623036
 30
0.0
 10
-3.434912730350015
 20
0.9811273202623011
 30
0.0
  0
SPLINE
  5
2BF
330
1F
100
AcDbEntity
  8
0
  6
Continuous
 62
     7
370
    25
100
AcDbSpline
210
0.0
220
0.0
230
1.0
 70
     8
 71
     3
 72
     8
 73
     4
 74
     0
 42
0.00000001
 43
0.00000001
 40
0.0
 40
0.0
 40
0.0
 40
0.0
 40
1.0
 40
1.0
 40
1.0
 40
1.0
 10
-3.813277730350017
 20
0.9128373202623025
 30
0.0
 10
-3.717619730350015
 20
0.8213653202623004
 30
0.0
 10
-3.611524730350014
 20
0.8091073202623027
 30
0.0
 10
-3.515411730350016
 20
0.878424320262302
 30
0.0
  0
SPLINE
  5
2C0
330
1F
100
AcDbEntity
  8
0
  6
Continuous
 62
     7
370
    25
100
AcDbSpline
210
0.0
220
0.0
230
1.0
 70
     8
 71
     3
 72
     8
 73
     4
 74
     0
 42
0.00000001
 43
0.00000001
 40
0.0
 40
0.0
 40
0.0
 40
0.0
 40
1.0
 40
1.0
 40
1.0
 40
1.0
 10
-3.864949730350016
 20
1.129156320262302
 30
0.0
 10
-3.892475730350016
 20
1.045754320262302
 30
0.0
 10
-3.874770730350016
 20
0.9716403202623021
 30
0.0
 10
-3.813277730350017
 20
0.9128373202623025
 30
0.0
  0
SPLINE
  5
2C1
330
1F
100
AcDbEntity
  8
0
  6
Continuous
 62
     7
370
    25
100
AcDbSpline
210
0.0
220
0.0
230
1.0
 70
     8
 71
     3
 72
     8
 73
     4
 74
     0
 42
0.00000001
 43
0.00000001
 40
0.0
 40
0.0
 40
0.0
 40
0.0
 40
1.0
 40
1.0
 40
1.0
 40
1.0
 10
-0.2774617303500163
 20
1.522941320262303
 30
0.0
 10
-0.2191087303500157
 20
1.581295320262303
 30
0.0
 10
-0.2060957303500165
 20
1.607293320262302
 30
0.0
 10
-0.2061517303500147
 20
1.6654263202623
 30
0.0
  0
SPLINE
  5
2C2
330
1F
100
AcDbEntity
  8
0
  6
Continuous
 62
     7
370
    25
100
AcDbSpline
210
0.0
220
0.0
230
1.0
 70
     8
 71
     3
 72
     8
 73
     4
 74
     0
 42
0.00000001
 43
0.00000001
 40
0.0
 40
0.0
 40
0.0
 40
0.0
 40
1.0
 40
1.0
 40
1.0
 40
1.0
 10
-0.5499137303500157
 20
1.875167320262303
 30
0.0
 10
-0.748282730350016
 20
1.754214320262303
 30
0.0
 10
-0.6654707303500145
 20
1.451563320262302
 30
0.0
 10
-0.4340057303500143
 20
1.451563320262302
 30
0.0
  0
SPLINE
  5
2C3
330
1F
100
AcDbEntity
  8
0
  6
Continuous
 62
     7
370
    25
100
AcDbSpline
210
0.0
220
0.0
230
1.0
 70
     8
 71
     3
 72
     8
 73
     4
 74
     0
 42
0.00000001
 43
0.00000001
 40
0.0
 40
0.0
 40
0.0
 40
0.0
 40
1.0
 40
1.0
 40
1.0
 40
1.0
 10
-0.4340057303500143
 20
1.451563320262302
 30
0.0
 10
-0.359588730350014
 20
1.451563320262302
 30
0.0
 10
-0.3398297303500164
 20
1.460572320262303
 30
0.0
 10
-0.2774617303500163
 20
1.522941320262303
 30
0.0
  0
SPLINE
  5
2C4
330
1F
100
AcDbEntity
  8
0
  6
Continuous
 62
     7
370
    25
100
AcDbSpline
210
0.0
220
0.0
230
1.0
 70
     8
 71
     3
 72
     8
 73
     4
 74
     0
 42
0.00000001
 43
0.00000001
 40
0.0
 40
0.0
 40
0.0
 40
0.0
 40
1.0
 40
1.0
 40
1.0
 40
1.0
 10
-0.2061517303500147
 20
1.6654263202623
 30
0.0
 10
-0.2063367303500145
 20
1.851895320262302
 30
0.0
 10
-0.3971437303500157
 20
1.968316320262304
 30
0.0
 10
-0.5499137303500157
 20
1.875167320262303
 30
0.0
  0
LINE
  5
2C5
330
1F
100
AcDbEntity
  8
0
  6
Continuous
 62
     7
370
    25
100
AcDbLine
 10
-4.2692617304
 20
-23.0375236797
 30
0.0
 11
-4.2692617304
 21
-23.1009366797
 31
0.0
  0
LINE
  5
2C6
330
1F
100
AcDbEntity
  8
0
  6
Continuous
 62
     7
370
    25
100
AcDbLine
 10
-3.3674197304
 20
-23.0375236797
 30
0.0
 11
-4.2692617304
 21
-23.0375236797
 31
0.0
  0
LINE
  5
2C7
330
1F
100
AcDbEntity
  8
0
  6
Continuous
 62
     7
370
    25
100
AcDbLine
 10
-1.8809637304
 20
-17.5068926797
 30
0.0
 11
-1.7966387304
 21
-17.5725896797
 31
0.0
  0
LINE
  5
2C8
330
1F
100
AcDbEntity
  8
0
  6
Continuous
 62
     7
370
    25
100
AcDbLine
 10
-1.7958587304
 20
-17.4362916797
 30
0.0
 11
-1.8809637304
 21
-17.5068926797
 31
0.0
  0
LINE
  5
2C9
330
1F
100
AcDbEntity
  8
0
  6
Continuous
 62
     7
370
    25
100
AcDbLine
 10
5.1990322696
 20
-0.5156506797
 30
0.0
 11
5.1990322696
 21
-0.8236026797
 31
0.0
  0
LINE
  5
2CA
330
1F
100
AcDbEntity
  8
0
  6
Continuous
 62
     7
370
    25
100
AcDbLine
 10
4.2797712696
 20
-0.5156506797
 30
0.0
 11
5.1990322696
 21
-0.5156506797
 31
0.0
  0
LINE
  5
2CB
330
1F
100
AcDbEntity
  8
0
  6
Continuous
 62
     7
370
    25
100
AcDbLine
 10
4.5417702696
 20
5.0690093203
 30
0.0
 11
4.5317422696
 21
4.4323443203
 31
0.0
  0
LINE
  5
2CC
330
1F
100
AcDbEntity
  8
0
  6
Continuous
 62
     7
370
    25
100
AcDbLine
 10
4.6176022696
 20
5.0914703203
 30
0.0
 11
4.5417702696
 21
5.0690093203
 31
0.0
  0
LINE
  5
2CD
330
1F
100
AcDbEntity
  8
0
  6
Continuous
 62
     7
370
    25
100
AcDbLine
 10
2.8535112696
 20
-0.5064596797
 30
0.0
 11
3.0047552696
 21
-0.1847186797
 31
0.0
  0
LINE
  5
2CE
330
1F
100
AcDbEntity
  8
0
  6
Continuous
 62
     7
370
    25
100
AcDbLine
 10
1.5648152696
 20
-0.5161166797
 30
0.0
 11
2.8535112696
 21
-0.5064596797
 31
0.0
  0
LINE
  5
2CF
330
1F
100
AcDbEntity
  8
0
  6
Continuous
 62
     7
370
    25
100
AcDbLine
 10
1.4428372696
 20
-0.2722806797
 30
0.0
 11
1.5648152696
 21
-0.5161166797
 31
0.0
  0
LINE
  5
2D0
330
1F
100
AcDbEntity
  8
0
  6
Continuous
 62
     7
370
    25
100
AcDbLine
 10
-1.8185727304
 20
9.8312933203
 30
0.0
 11
-1.7615607304
 21
9.8415033203
 31
0.0
  0
LINE
  5
2D1
330
1F
100
AcDbEntity
  8
0
  6
Continuous
 62
     7
370
    25
100
AcDbLine
 10
-1.8314047304
 20
9.9573543203
 30
0.0
 11
-1.8185727304
 21
9.8312933203
 31
0.0
  0
LINE
  5
2D2
330
1F
100
AcDbEntity
  8
0
  6
Continuous
 62
     7
370
    25
100
AcDbLine
 10
-6.8884987304
 20
10.0282603203
 30
0.0
 11
-6.8391967304
 21
10.2261063203
 31
0.0
  0
LINE
  5
2D3
330
1F
100
AcDbEntity
  8
0
  6
Continuous
 62
     7
370
    25
100
AcDbLine
 10
-6.8989287304
 20
-0.5156536797
 30
0.0
 11
-6.8884987304
 21
10.0282603203
 31
0.0
  0
LINE
  5
2D4
330
1F
100
AcDbEntity
  8
0
  6
Continuous
 62
     7
370
    25
100
AcDbLine
 10
-7.1001137304
 20
-0.5156536797
 30
0.0
 11
-6.8989287304
 21
-0.5156536797
 31
0.0
  0
LINE
  5
2D5
330
1F
100
AcDbEntity
  8
0
  6
Continuous
 62
     7
370
    25
100
AcDbLine
 10
-7.1108927304
 20
10.0466453203
 30
0.0
 11
-7.1001137304
 21
-0.5156536797
 31
0.0
  0
LINE
  5
2D6
330
1F
100
AcDbEntity
  8
0
  6
Continuous
 62
     7
370
    25
100
AcDbLine
 10
-7.1499377304
 20
10.2029193203
 30
0.0
 11
-7.1108927304
 21
10.0466453203
 31
0.0
  0
LINE
  5
2D7
330
1F
100
AcDbEntity
  8
0
  6
Continuous
 62
     7
370
    25
100
AcDbLine
 10
-12.1748487304
 20
9.6378943203
 30
0.0
 11
-12.1748487304
 21
9.7687283203
 31
0.0
  0
LINE
  5
2D8
330
1F
100
AcDbEntity
  8
0
  6
Continuous
 62
     7
370
    25
100
AcDbLine
 10
-12.3365817304
 20
9.6799013203
 30
0.0
 11
-12.1748487304
 21
9.6378943203
 31
0.0
  0
LINE
  5
2D9
330
1F
100
AcDbEntity
  8
0
  6
Continuous
 62
     7
370
    25
100
AcDbLine
 10
-15.5605617304
 20
-0.5156536797
 30
0.0
 11
-15.4702927304
 21
-0.3266846797
 31
0.0
  0
LINE
  5
2DA
330
1F
100
AcDbEntity
  8
0
  6
Continuous
 62
     7
370
    25
100
AcDbLine
 10
-17.0282067304
 20
-0.5156536797
 30
0.0
 11
-15.5605617304
 21
-0.5156536797
 31
0.0
  0
LINE
  5
2DB
330
1F
100
AcDbEntity
  8
0
  6
Continuous
 62
     7
370
    25
100
AcDbLine
 10
-17.1204587304
 20
-0.3318176797
 30
0.0
 11
-17.0282067304
 21
-0.5156536797
 31
0.0
  0
LINE
  5
2DC
330
1F
100
AcDbEntity
  8
0
  6
Continuous
 62
     7
370
    25
100
AcDbLine
 10
-19.3818487304
 20
-0.5156526797
 30
0.0
 11
-18.4606217304
 21
-0.5156526797
 31
0.0
  0
LINE
  5
2DD
330
1F
100
AcDbEntity
  8
0
  6
Continuous
 62
     7
370
    25
100
AcDbLine
 10
-19.3818487304
 20
-0.8635086797
 30
0.0
 11
-19.3818487304
 21
-0.5156526797
 31
0.0
  0
LINE
  5
2DE
330
1F
100
AcDbEntity
  8
0
  6
Continuous
 62
     7
370
    25
100
AcDbLine
 10
-12.2110277304
 20
-17.5035906797
 30
0.0
 11
-12.3452647304
 21
-17.3693546797
 31
0.0
  0
LINE
  5
2DF
330
1F
100
AcDbEntity
  8
0
  6
Continuous
 62
     7
370
    25
100
AcDbLine
 10
-12.3452647304
 20
-17.6378246797
 30
0.0
 11
-12.2110277304
 21
-17.5035906797
 31
0.0
  0
LINE
  5
2E0
330
1F
100
AcDbEntity
  8
0
  6
Continuous
 62
     7
370
    25
100
AcDbLine
 10
-9.9320717304
 20
-23.0394576797
 30
0.0
 11
-10.8282437304
 21
-23.0333196797
 31
0.0
  0
LINE
  5
2E1
330
1F
100
AcDbEntity
  8
0
  6
Continuous
 62
     7
370
    25
100
AcDbLine
 10
-9.9243907304
 20
-23.0798566797
 30
0.0
 11
-9.9320717304
 21
-23.0394576797
 31
0.0
  0
LINE
  5
2E2
330
1F
100
AcDbEntity
  8
0
  6
Continuous
 62
     7
370
    25
100
AcDbLine
 10
-17.9699097304
 20
8.7780683203
 30
0.0
 11
-17.8736997304
 21
9.0170763203
 31
0.0
  0
LINE
  5
2E3
330
1F
100
AcDbEntity
  8
0
  6
Continuous
 62
     7
370
    25
100
AcDbLine
 10
-18.2851937304
 20
8.7777773203
 30
0.0
 11
-17.9699097304
 21
8.7780683203
 31
0.0
  0
LINE
  5
2E4
330
1F
100
AcDbEntity
  8
0
  6
Continuous
 62
     7
370
    25
100
AcDbLine
 10
-239.8
 20
-70.85
 30
0.0
 11
239.8
 21
-70.85
 31
0.0
  0
LINE
  5
2E5
330
1F
100
AcDbEntity
  8
0
  6
Continuous
 62
     7
370
    25
100
AcDbLine
 10
-239.8
 20
70.85
 30
0.0
 11
-239.8
 21
-70.85
 31
0.0
  0
LINE
  5
2E6
330
1F
100
AcDbEntity
  8
0
  6
Continuous
 62
     7
370
    25
100
AcDbLine
 10
239.8
 20
70.85
 30
0.0
 11
-239.8
 21
70.85
 31
0.0
  0
LINE
  5
2E7
330
1F
100
AcDbEntity
  8
0
  6
Continuous
 62
     7
370
    25
100
AcDbLine
 10
239.8
 20
-70.85
 30
0.0
 11
239.8
 21
70.85
 31
0.0
  0
LINE
  5
2E8
330
1F
100
AcDbEntity
  8
0
  6
Continuous
 62
     7
370
    25
100
AcDbLine
 10
-12.1268897304
 20
9.1233613203
 30
0.0
 11
-12.2235557304
 21
9.1661123203
 31
0.0
  0
LINE
  5
2E9
330
1F
100
AcDbEntity
  8
0
  6
Continuous
 62
     7
370
    25
100
AcDbLine
 10
-12.0857937304
 20
8.9734093203
 30
0.0
 11
-12.1268897304
 21
9.1233613203
 31
0.0
  0
LINE
  5
2EA
330
1F
100
AcDbEntity
  8
0
  6
Continuous
 62
     7
370
    25
100
AcDbLine
 10
-7.5693577304
 20
10.0098383203
 30
0.0
 11
-7.6099867304
 21
10.1621033203
 31
0.0
  0
LINE
  5
2EB
330
1F
100
AcDbEntity
  8
0
  6
Continuous
 62
     7
370
    25
100
AcDbLine
 10
-7.5693577304
 20
5.7653603203
 30
0.0
 11
-7.5693577304
 21
10.0098383203
 31
0.0
  0
LINE
  5
2EC
330
1F
100
AcDbEntity
  8
0
  6
Continuous
 62
     7
370
    25
100
AcDbLine
 10
-7.7154317304
 20
5.7406853203
 30
0.0
 11
-7.5693577304
 21
5.7653603203
 31
0.0
  0
LINE
  5
2ED
330
1F
100
AcDbEntity
  8
0
  6
Continuous
 62
     7
370
    25
100
AcDbLine
 10
-7.5601637304
 20
5.3114993203
 30
0.0
 11
-7.6199157304
 21
5.3001813203
 31
0.0
  0
LINE
  5
2EE
330
1F
100
AcDbEntity
  8
0
  6
Continuous
 62
     7
370
    25
100
AcDbLine
 10
-7.5601647304
 20
2.3979053203
 30
0.0
 11
-7.5601637304
 21
5.3114993203
 31
0.0
  0
LINE
  5
2EF
330
1F
100
AcDbEntity
  8
0
  6
Continuous
 62
     7
370
    25
100
AcDbLine
 10
-7.5601647304
 20
-0.5156896797
 30
0.0
 11
-7.5601647304
 21
2.3979053203
 31
0.0
  0
LINE
  5
2F0
330
1F
100
AcDbEntity
  8
0
  6
Continuous
 62
     7
370
    25
100
AcDbLine
 10
-15.0620647304
 20
-0.5156896797
 30
0.0
 11
-7.5601647304
 21
-0.5156896797
 31
0.0
  0
LINE
  5
2F1
330
1F
100
AcDbEntity
  8
0
  6
Continuous
 62
     7
370
    25
100
AcDbLine
 10
-15.0222847304
 20
-0.4375526797
 30
0.0
 11
-15.0620647304
 21
-0.5156896797
 31
0.0
  0
LINE
  5
2F2
330
1F
100
AcDbEntity
  8
0
  6
Continuous
 62
     7
370
    25
100
AcDbLine
 10
-12.2391977304
 20
-16.7038246797
 30
0.0
 11
-12.1804917304
 21
-16.8277576797
 31
0.0
  0
LINE
  5
2F3
330
1F
100
AcDbEntity
  8
0
  6
Continuous
 62
     7
370
    25
100
AcDbLine
 10
-12.2507977304
 20
-15.4536316797
 30
0.0
 11
-12.2391977304
 21
-16.7038246797
 31
0.0
  0
LINE
  5
2F4
330
1F
100
AcDbEntity
  8
0
  6
Continuous
 62
     7
370
    25
100
AcDbLine
 10
-18.9272947304
 20
-0.9660926797
 30
0.0
 11
-18.9243837304
 21
-1.1499446797
 31
0.0
  0
LINE
  5
2F5
330
1F
100
AcDbEntity
  8
0
  6
Continuous
 62
     7
370
    25
100
AcDbLine
 10
4.7453002696
 20
-0.9575046797
 30
0.0
 11
-18.9272947304
 21
-0.9660926797
 31
0.0
  0
LINE
  5
2F6
330
1F
100
AcDbEntity
  8
0
  6
Continuous
 62
     7
370
    25
100
AcDbLine
 10
4.7335532696
 20
-1.2651536797
 30
0.0
 11
4.7453002696
 21
-0.9575046797
 31
0.0
  0
LINE
  5
2F7
330
1F
100
AcDbEntity
  8
0
  6
Continuous
 62
     7
370
    25
100
AcDbLine
 10
-1.8331727304
 20
-16.7047026797
 30
0.0
 11
-1.8213457304
 21
-15.6103436797
 31
0.0
  0
LINE
  5
2F8
330
1F
100
AcDbEntity
  8
0
  6
Continuous
 62
     7
370
    25
100
AcDbLine
 10
-1.8943417304
 20
-16.8289066797
 30
0.0
 11
-1.8331727304
 21
-16.7047026797
 31
0.0
  0
LINE
  5
2F9
330
1F
100
AcDbEntity
  8
0
  6
Continuous
 62
     7
370
    25
100
AcDbLine
 10
-11.6876347304
 20
-17.7517806797
 30
0.0
 11
-11.8115657304
 21
-17.8104866797
 31
0.0
  0
LINE
  5
2FA
330
1F
100
AcDbEntity
  8
0
  6
Continuous
 62
     7
370
    25
100
AcDbLine
 10
-2.3839477304
 20
-17.7517806797
 30
0.0
 11
-11.6876347304
 21
-17.7517806797
 31
0.0
  0
LINE
  5
2FB
330
1F
100
AcDbEntity
  8
0
  6
Continuous
 62
     7
370
    25
100
AcDbLine
 10
-2.2596917304
 20
-17.8129496797
 30
0.0
 11
-2.3839477304
 21
-17.7517806797
 31
0.0
  0
LINE
  5
2FC
330
1F
100
AcDbEntity
  8
0
  6
Continuous
 62
     7
370
    25
100
AcDbLine
 10
-1.8331667304
 20
-18.3024136797
 30
0.0
 11
-1.8943387304
 21
-18.1782306797
 31
0.0
  0
LINE
  5
2FD
330
1F
100
AcDbEntity
  8
0
  6
Continuous
 62
     7
370
    25
100
AcDbLine
 10
-1.8275317304
 20
-18.8314476797
 30
0.0
 11
-1.8331667304
 21
-18.3024136797
 31
0.0
  0
LINE
  5
2FE
330
1F
100
AcDbEntity
  8
0
  6
Continuous
 62
     7
370
    25
100
AcDbLine
 10
-1.8219037304
 20
-19.3603756797
 30
0.0
 11
-1.8275317304
 21
-18.8314476797
 31
0.0
  0
LINE
  5
2FF
330
1F
100
AcDbEntity
  8
0
  6
Continuous
 62
     7
370
    25
100
AcDbLine
 10
-1.9562327304
 20
-19.3582596797
 30
0.0
 11
-1.8219037304
 21
-19.3603756797
 31
0.0
  0
LINE
  5
300
330
1F
100
AcDbEntity
  8
0
  6
Continuous
 62
     7
370
    25
100
AcDbLine
 10
-12.2483827304
 20
-20.4452046797
 30
0.0
 11
-12.1518597304
 21
-20.4462636797
 31
0.0
  0
LINE
  5
301
330
1F
100
AcDbEntity
  8
0
  6
Continuous
 62
     7
370
    25
100
AcDbLine
 10
-12.2483827304
 20
-19.2378606797
 30
0.0
 11
-12.2483827304
 21
-20.4452046797
 31
0.0
  0
LINE
  5
302
330
1F
100
AcDbEntity
  8
0
  6
Continuous
 62
     7
370
    25
100
AcDbLine
 10
-12.1058967304
 20
-19.2460096797
 30
0.0
 11
-12.2483827304
 21
-19.2378606797
 31
0.0
  0
LINE
  5
303
330
1F
100
AcDbEntity
  8
0
  6
Continuous
 62
     7
370
    25
100
AcDbLine
 10
-1.8331667304
 20
-19.8293946797
 30
0.0
 11
-6.8982887304
 21
-19.5417716797
 31
0.0
  0
LINE
  5
304
330
1F
100
AcDbEntity
  8
0
  6
Continuous
 62
     7
370
    25
100
AcDbLine
 10
-1.8283147304
 20
-20.4313806797
 30
0.0
 11
-1.8331667304
 21
-19.8293946797
 31
0.0
  0
LINE
  5
305
330
1F
100
AcDbEntity
  8
0
  6
Continuous
 62
     7
370
    25
100
AcDbLine
 10
-1.8234727304
 20
-21.0334526797
 30
0.0
 11
-1.8283147304
 21
-20.4313806797
 31
0.0
  0
LINE
  5
306
330
1F
100
AcDbEntity
  8
0
  6
Continuous
 62
     7
370
    25
100
AcDbLine
 10
-1.8834727304
 20
-21.0313366797
 30
0.0
 11
-1.8234727304
 21
-21.0334526797
 31
0.0
  0
LINE
  5
307
330
1F
100
AcDbEntity
  8
0
  6
Continuous
 62
     7
370
    25
100
AcDbLine
 10
-12.2391927304
 20
-22.0171476797
 30
0.0
 11
-12.1896287304
 21
-22.1229096797
 31
0.0
  0
LINE
  5
308
330
1F
100
AcDbEntity
  8
0
  6
Continuous
 62
     7
370
    25
100
AcDbLine
 10
-12.2447837304
 20
-21.4609936797
 30
0.0
 11
-12.2391927304
 21
-22.0171476797
 31
0.0
  0
LINE
  5
309
330
1F
100
AcDbEntity
  8
0
  6
Continuous
 62
     7
370
    25
100
AcDbLine
 10
-3.0649847304
 20
5.5072063203
 30
0.0
 11
-2.9504257304
 21
5.4635103203
 31
0.0
  0
LINE
  5
30A
330
1F
100
AcDbEntity
  8
0
  6
Continuous
 62
     7
370
    25
100
AcDbLine
 10
-3.0702767304
 20
5.6664473203
 30
0.0
 11
-3.0649847304
 21
5.5072063203
 31
0.0
  0
LINE
  5
30B
330
1F
100
AcDbEntity
  8
0
  6
Continuous
 62
     7
370
    25
100
AcDbLine
 10
-2.4809277304
 20
6.6356833203
 30
0.0
 11
-2.5891007304
 21
6.5655513203
 31
0.0
  0
LINE
  5
30C
330
1F
100
AcDbEntity
  8
0
  6
Continuous
 62
     7
370
    25
100
AcDbLine
 10
-2.4152797304
 20
6.5780433203
 30
0.0
 11
-2.4809277304
 21
6.6356833203
 31
0.0
  0
LINE
  5
30D
330
1F
100
AcDbEntity
  8
0
  6
Continuous
 62
     7
370
    25
100
AcDbLine
 10
-5.6572787304
 20
7.4459273203
 30
0.0
 11
-5.7042307304
 21
7.3990003203
 31
0.0
  0
LINE
  5
30E
330
1F
100
AcDbEntity
  8
0
  6
Continuous
 62
     7
370
    25
100
AcDbLine
 10
-5.6519447304
 20
8.0235773203
 30
0.0
 11
-5.6572787304
 21
7.4459273203
 31
0.0
  0
LINE
  5
30F
330
1F
100
AcDbEntity
  8
0
  6
Continuous
 62
     7
370
    25
100
AcDbLine
 10
-5.6466077304
 20
8.6012273203
 30
0.0
 11
-5.6519447304
 21
8.0235773203
 31
0.0
  0
LINE
  5
310
330
1F
100
AcDbEntity
  8
0
  6
Continuous
 62
     7
370
    25
100
AcDbLine
 10
-5.5496517304
 20
8.6294133203
 30
0.0
 11
-5.6466077304
 21
8.6012273203
 31
0.0
  0
LINE
  5
311
330
1F
100
AcDbEntity
  8
0
  6
Continuous
 62
     7
370
    25
100
AcDbLine
 10
-5.6512847304
 20
9.7892533203
 30
0.0
 11
-5.5419427304
 21
9.7576013203
 31
0.0
  0
LINE
  5
312
330
1F
100
AcDbEntity
  8
0
  6
Continuous
 62
     7
370
    25
100
AcDbLine
 10
-5.6393207304
 20
9.8806403203
 30
0.0
 11
-5.6512847304
 21
9.7892533203
 31
0.0
  0
LINE
  5
313
330
1F
100
AcDbEntity
  8
0
  6
Continuous
 62
     7
370
    25
100
AcDbLine
 10
-2.8624787304
 20
9.8847693203
 30
0.0
 11
-2.7531867304
 21
9.8492853203
 31
0.0
  0
LINE
  5
314
330
1F
100
AcDbEntity
  8
0
  6
Continuous
 62
     7
370
    25
100
AcDbLine
 10
-2.8770307304
 20
9.9749003203
 30
0.0
 11
-2.8624787304
 21
9.8847693203
 31
0.0
  0
LINE
  5
315
330
1F
100
AcDbEntity
  8
0
  6
Continuous
 62
     7
370
    25
100
AcDbLine
 10
-6.0157917304
 20
8.6727193203
 30
0.0
 11
-6.0652997304
 21
8.7051573203
 31
0.0
  0
LINE
  5
316
330
1F
100
AcDbEntity
  8
0
  6
Continuous
 62
     7
370
    25
100
AcDbLine
 10
-6.0151567304
 20
8.0727183203
 30
0.0
 11
-6.0157917304
 21
8.6727193203
 31
0.0
  0
LINE
  5
317
330
1F
100
AcDbEntity
  8
0
  6
Continuous
 62
     7
370
    25
100
AcDbLine
 10
-4.4531437304
 20
3.6549593203
 30
0.0
 11
-4.5068857304
 21
3.6012183203
 31
0.0
  0
LINE
  5
318
330
1F
100
AcDbEntity
  8
0
  6
Continuous
 62
     7
370
    25
100
AcDbLine
 10
-4.8208497304
 20
7.2271613203
 30
0.0
 11
-4.8667257304
 21
7.3054453203
 31
0.0
  0
LINE
  5
319
330
1F
100
AcDbEntity
  8
0
  6
Continuous
 62
     7
370
    25
100
AcDbLine
 10
-4.8206657304
 20
5.4838413203
 30
0.0
 11
-4.8208497304
 21
7.2271613203
 31
0.0
  0
LINE
  5
31A
330
1F
100
AcDbEntity
  8
0
  6
Continuous
 62
     7
370
    25
100
AcDbLine
 10
-2.4601317304
 20
2.8304543203
 30
0.0
 11
-2.4999937304
 21
2.7484073203
 31
0.0
  0
LINE
  5
31B
330
1F
100
AcDbEntity
  8
0
  6
Continuous
 62
     7
370
    25
100
AcDbLine
 10
-1.4243857304
 20
2.8304543203
 30
0.0
 11
-2.4601317304
 21
2.8304543203
 31
0.0
  0
LINE
  5
31C
330
1F
100
AcDbEntity
  8
0
  6
Continuous
 62
     7
370
    25
100
AcDbLine
 10
-2.4646057304
 20
3.1797723203
 30
0.0
 11
-1.4260607304
 21
3.1797723203
 31
0.0
  0
LINE
  5
31D
330
1F
100
AcDbEntity
  8
0
  6
Continuous
 62
     7
370
    25
100
AcDbLine
 10
-2.4856407304
 20
3.2434843203
 30
0.0
 11
-2.4646057304
 21
3.1797723203
 31
0.0
  0
LINE
  5
31E
330
1F
100
AcDbEntity
  8
0
  6
Continuous
 62
     7
370
    25
100
AcDbLine
 10
-3.5457757304
 20
3.3176613203
 30
0.0
 11
-3.4561687304
 21
3.4123013203
 31
0.0
  0
LINE
  5
31F
330
1F
100
AcDbEntity
  8
0
  6
Continuous
 62
     7
370
    25
100
AcDbLine
 10
-3.7650097304
 20
3.3176613203
 30
0.0
 11
-3.5457757304
 21
3.3176613203
 31
0.0
  0
LINE
  5
320
330
1F
100
AcDbEntity
  8
0
  6
Continuous
 62
     7
370
    25
100
AcDbLine
 10
-0.9555047304
 20
5.3455113203
 30
0.0
 11
-0.8519837304
 21
5.3576503203
 31
0.0
  0
LINE
  5
321
330
1F
100
AcDbEntity
  8
0
  6
Continuous
 62
     7
370
    25
100
AcDbLine
 10
-1.0012667304
 20
5.4454673203
 30
0.0
 11
-0.9555047304
 21
5.3455113203
 31
0.0
  0
LINE
  5
322
330
1F
100
AcDbEntity
  8
0
  6
Continuous
 62
     7
370
    25
100
AcDbLine
 10
0.2443412696
 20
5.2730953203
 30
0.0
 11
0.1156422696
 21
5.2028893203
 31
0.0
  0
LINE
  5
323
330
1F
100
AcDbEntity
  8
0
  6
Continuous
 62
     7
370
    25
100
AcDbLine
 10
0.4002492696
 20
5.2460143203
 30
0.0
 11
0.2443412696
 21
5.2730953203
 31
0.0
  0
LINE
  5
324
330
1F
100
AcDbEntity
  8
0
  6
Continuous
 62
     7
370
    25
100
AcDbLine
 10
1.0658562696
 20
-0.5156786797
 30
0.0
 11
0.9980702696
 21
-0.3915786797
 31
0.0
  0
LINE
  5
325
330
1F
100
AcDbEntity
  8
0
  6
Continuous
 62
     7
370
    25
100
AcDbLine
 10
0.5807482696
 20
-0.5156786797
 30
0.0
 11
1.0658562696
 21
-0.5156786797
 31
0.0
  0
LINE
  5
326
330
1F
100
AcDbEntity
  8
0
  6
Continuous
 62
     7
370
    25
100
AcDbLine
 10
0.4493142696
 20
-0.3939796797
 30
0.0
 11
0.5807482696
 21
-0.5156786797
 31
0.0
  0
LINE
  5
327
330
1F
100
AcDbEntity
  8
0
  6
Continuous
 62
     7
370
    25
100
AcDbLine
 10
-4.4531437304
 20
5.2834643203
 30
0.0
 11
-4.4531437304
 21
3.6549593203
 31
0.0
  0
LINE
  5
328
330
1F
100
AcDbEntity
  8
0
  6
Continuous
 62
     7
370
    25
100
AcDbLine
 10
-1.1974797304
 20
-0.5156806797
 30
0.0
 11
-0.6701197304
 21
-0.5156806797
 31
0.0
  0
LINE
  5
329
330
1F
100
AcDbEntity
  8
0
  6
Continuous
 62
     7
370
    25
100
AcDbLine
 10
-1.2180637304
 20
-0.4375426797
 30
0.0
 11
-1.1974797304
 21
-0.5156806797
 31
0.0
  0
LINE
  5
32A
330
1F
100
AcDbEntity
  8
0
  6
Continuous
 62
     7
370
    25
100
AcDbLine
 10
-2.1431687304
 20
1.2184603203
 30
0.0
 11
-2.1949137304
 21
1.1268753203
 31
0.0
  0
LINE
  5
32B
330
1F
100
AcDbEntity
  8
0
  6
Continuous
 62
     7
370
    25
100
AcDbLine
 10
-1.9789787304
 20
1.2204443203
 30
0.0
 11
-2.1431687304
 21
1.2184603203
 31
0.0
  0
LINE
  5
32C
330
1F
100
AcDbEntity
  8
0
  6
Continuous
 62
     7
370
    25
100
AcDbLine
 10
-2.3839107304
 20
-0.5156786797
 30
0.0
 11
-2.3642127304
 21
-0.4375526797
 31
0.0
  0
LINE
  5
32D
330
1F
100
AcDbEntity
  8
0
  6
Continuous
 62
     7
370
    25
100
AcDbLine
 10
-6.4391157304
 20
-0.5156786797
 30
0.0
 11
-2.3839107304
 21
-0.5156786797
 31
0.0
  0
LINE
  5
32E
330
1F
100
AcDbEntity
  8
0
  6
Continuous
 62
     7
370
    25
100
AcDbLine
 10
-6.4292577304
 20
10.0282343203
 30
0.0
 11
-6.4391157304
 21
-0.5156786797
 31
0.0
  0
LINE
  5
32F
330
1F
100
AcDbEntity
  8
0
  6
Continuous
 62
     7
370
    25
100
AcDbLine
 10
-6.3784627304
 20
10.2009313203
 30
0.0
 11
-6.4292577304
 21
10.0282343203
 31
0.0
  0
ENDSEC
  0
SECTION
  2
OBJECTS
  0
DICTIONARY
  5
C
330
0
100
AcDbDictionary
281
     1
  3
ACAD_GROUP
350
D
  3
ACAD_LAYOUT
350
1A
  3
ACAD_MLINESTYLE
350
17
  3
ACAD_PLOTSETTINGS
350
19
  3
ACAD_PLOTSTYLENAME
350
E
  3
ACAD_SCALELIST
350
47
  3
DWGPROPS
350
330
  0
DICTIONARY
  5
D
102
{ACAD_REACTORS
330
C
102
}
330
C
100
AcDbDictionary
281
     1
  0
DICTIONARY
  5
1A
102
{ACAD_REACTORS
330
C
102
}
330
C
100
AcDbDictionary
281
     1
  3
Layout1
350
1E
  3
Layout2
350
26
  3
Model
350
22
  0
DICTIONARY
  5
17
102
{ACAD_REACTORS
330
C
102
}
330
C
100
AcDbDictionary
281
     1
  3
Standard
350
18
  0
DICTIONARY
  5
19
102
{ACAD_REACTORS
330
C
102
}
330
C
100
AcDbDictionary
281
     1
  0
ACDBDICTIONARYWDFLT
  5
E
102
{ACAD_REACTORS
330
C
102
}
330
C
100
AcDbDictionary
281
     1
  3
Normal
350
F
100
AcDbDictionaryWithDefault
340
F
  0
DICTIONARY
  5
47
102
{ACAD_REACTORS
330
C
102
}
330
C
100
AcDbDictionary
281
     1
  3
A0
350
48
  3
A1
350
49
  3
A2
350
4A
  3
A3
350
4B
  3
A4
350
4C
  3
A5
350
4D
  3
A6
350
4E
  3
A7
350
4F
  3
A8
350
50
  3
A9
350
51
  3
B0
350
52
  3
B1
350
53
  3
B2
350
54
  3
B3
350
55
  3
B4
350
56
  3
B5
350
57
  3
B6
350
58
  3
B7
350
59
  3
B8
350
5A
  3
B9
350
5B
  3
C0
350
5C
  3
C1
350
5D
  3
C2
350
5E
  3
C3
350
5F
  3
C4
350
60
  3
C5
350
61
  3
C6
350
62
  3
C7
350
63
  3
C8
350
64
  3
C9
350
65
  3
D0
350
66
  3
D1
350
67
  3
D2
350
68
  0
XRECORD
  5
330
102
{ACAD_REACTORS
330
C
102
}
330
C
100
AcDbXrecord
280
     1
  1
DWGPROPS COOKIE
  2

  3

  4

  6

  7

  8
ccadic
  9

300
=
301
=
302
=
303
=
304
=
305
=
306
=
307
=
308
=
309
=
 40
0.0
 41
2459520.457368472
 42
2459520.457447662
  1

 90
        0
  0
LAYOUT
  5
1E
102
{ACAD_REACTORS
330
1A
102
}
330
1A
100
AcDbPlotSettings
  1

  2
none_device
  4

  6

 40
0.0
 41
0.0
 42
0.0
 43
0.0
 44
0.0
 45
0.0
 46
0.0
 47
0.0
 48
0.0
 49
0.0
140
0.0
141
0.0
142
1.0
143
1.0
 70
   688
 72
     1
 73
     0
 74
     5
  7

 75
    16
147
1.0
148
0.0
149
0.0
100
AcDbLayout
  1
Layout1
 70
     1
 71
     1
 10
0.0
 20
0.0
 11
420.0
 21
297.0
 12
0.0
 22
0.0
 32
0.0
 14
1.0000000000E+20
 24
1.0000000000E+20
 34
1.0000000000E+20
 15
-1.0000000000E+20
 25
-1.0000000000E+20
 35
-1.0000000000E+20
146
0.0
 13
0.0
 23
0.0
 33
0.0
 16
1.0
 26
0.0
 36
0.0
 17
0.0
 27
1.0
 37
0.0
 76
     0
330
1B
  0
LAYOUT
  5
26
102
{ACAD_REACTORS
330
1A
102
}
330
1A
100
AcDbPlotSettings
  1

  2
none_device
  4

  6

 40
0.0
 41
0.0
 42
0.0
 43
0.0
 44
0.0
 45
0.0
 46
0.0
 47
0.0
 48
0.0
 49
0.0
140
0.0
141
0.0
142
1.0
143
1.0
 70
   688
 72
     1
 73
     0
 74
     5
  7

 75
    16
147
1.0
148
0.0
149
0.0
100
AcDbLayout
  1
Layout2
 70
     1
 71
     2
 10
0.0
 20
0.0
 11
0.0
 21
0.0
 12
0.0
 22
0.0
 32
0.0
 14
0.0
 24
0.0
 34
0.0
 15
0.0
 25
0.0
 35
0.0
146
0.0
 13
0.0
 23
0.0
 33
0.0
 16
1.0
 26
0.0
 36
0.0
 17
0.0
 27
1.0
 37
0.0
 76
     0
330
23
  0
LAYOUT
  5
22
102
{ACAD_REACTORS
330
1A
102
}
330
1A
100
AcDbPlotSettings
  1

  2
none_device
  4
ANSI_A_(11.00_x_8.50_Inches)
  6

 40
6.35
 41
19.05
 42
6.35000508
 43
19.05000254
 44
279.4
 45
215.9
 46
133.34999746
 47
88.89999873
 48
0.0
 49
0.0
140
0.0
141
0.0
142
0.022706422
143
1.0
 70
  1696
 72
     0
 73
     0
 74
     0
  7

 75
     0
147
0.0179189148
148
-1300.4909072572
149
0.0
100
AcDbLayout
  1
Model
 70
     1
 71
     0
 10
0.0
 20
0.0
 11
420.0
 21
297.0
 12
0.0
 22
0.0
 32
0.0
 14
-239.8
 24
-70.85
 34
0.0
 15
239.8
 25
70.85
 35
0.0
146
0.0
 13
0.0
 23
0.0
 33
0.0
 16
1.0
 26
0.0
 36
0.0
 17
0.0
 27
1.0
 37
0.0
 76
     0
330
1F
331
29
  0
MLINESTYLE
  5
18
102
{ACAD_REACTORS
330
17
102
}
330
17
100
AcDbMlineStyle
  2
Standard
 70
     0
  3

 62
   256
 51
90.0
 52
90.0
 71
     2
 49
0.5
 62
   256
  6
BYLAYER
 49
-0.5
 62
   256
  6
BYLAYER
  0
ACDBPLACEHOLDER
  5
F
102
{ACAD_REACTORS
330
E
102
}
330
E
  0
SCALE
  5
48
102
{ACAD_REACTORS
330
47
102
}
330
47
100
AcDbScale
 70
     0
300
1:1
140
1.0
141
1.0
290
     1
  0
SCALE
  5
49
102
{ACAD_REACTORS
330
47
102
}
330
47
100
AcDbScale
 70
     0
300
1:2
140
1.0
141
2.0
290
     0
  0
SCALE
  5
4A
102
{ACAD_REACTORS
330
47
102
}
330
47
100
AcDbScale
 70
     0
300
1:4
140
1.0
141
4.0
290
     0
  0
SCALE
  5
4B
102
{ACAD_REACTORS
330
47
102
}
330
47
100
AcDbScale
 70
     0
300
1:5
140
1.0
141
5.0
290
     0
  0
SCALE
  5
4C
102
{ACAD_REACTORS
330
47
102
}
330
47
100
AcDbScale
 70
     0
300
1:8
140
1.0
141
8.0
290
     0
  0
SCALE
  5
4D
102
{ACAD_REACTORS
330
47
102
}
330
47
100
AcDbScale
 70
     0
300
1:10
140
1.0
141
10.0
290
     0
  0
SCALE
  5
4E
102
{ACAD_REACTORS
330
47
102
}
330
47
100
AcDbScale
 70
     0
300
1:16
140
1.0
141
16.0
290
     0
  0
SCALE
  5
4F
102
{ACAD_REACTORS
330
47
102
}
330
47
100
AcDbScale
 70
     0
300
1:20
140
1.0
141
20.0
290
     0
  0
SCALE
  5
50
102
{ACAD_REACTORS
330
47
102
}
330
47
100
AcDbScale
 70
     0
300
1:30
140
1.0
141
30.0
290
     0
  0
SCALE
  5
51
102
{ACAD_REACTORS
330
47
102
}
330
47
100
AcDbScale
 70
     0
300
1:40
140
1.0
141
40.0
290
     0
  0
SCALE
  5
52
102
{ACAD_REACTORS
330
47
102
}
330
47
100
AcDbScale
 70
     0
300
1:50
140
1.0
141
50.0
290
     0
  0
SCALE
  5
53
102
{ACAD_REACTORS
330
47
102
}
330
47
100
AcDbScale
 70
     0
300
1:100
140
1.0
141
100.0
290
     0
  0
SCALE
  5
54
102
{ACAD_REACTORS
330
47
102
}
330
47
100
AcDbScale
 70
     0
300
2:1
140
2.0
141
1.0
290
     0
  0
SCALE
  5
55
102
{ACAD_REACTORS
330
47
102
}
330
47
100
AcDbScale
 70
     0
300
4:1
140
4.0
141
1.0
290
     0
  0
SCALE
  5
56
102
{ACAD_REACTORS
330
47
102
}
330
47
100
AcDbScale
 70
     0
300
8:1
140
8.0
141
1.0
290
     0
  0
SCALE
  5
57
102
{ACAD_REACTORS
330
47
102
}
330
47
100
AcDbScale
 70
     0
300
10:1
140
10.0
141
1.0
290
     0
  0
SCALE
  5
58
102
{ACAD_REACTORS
330
47
102
}
330
47
100
AcDbScale
 70
     0
300
100:1
140
100.0
141
1.0
290
     0
  0
SCALE
  5
59
102
{ACAD_REACTORS
330
47
102
}
330
47
100
AcDbScale
 70
     0
300
1/128" = 1'-0"
140
0.0078125
141
12.0
290
     0
  0
SCALE
  5
5A
102
{ACAD_REACTORS
330
47
102
}
330
47
100
AcDbScale
 70
     0
300
1/64" = 1'-0"
140
0.015625
141
12.0
290
     0
  0
SCALE
  5
5B
102
{ACAD_REACTORS
330
47
102
}
330
47
100
AcDbScale
 70
     0
300
1/32" = 1'-0"
140
0.03125
141
12.0
290
     0
  0
SCALE
  5
5C
102
{ACAD_REACTORS
330
47
102
}
330
47
100
AcDbScale
 70
     0
300
1/16" = 1'-0"
140
0.0625
141
12.0
290
     0
  0
SCALE
  5
5D
102
{ACAD_REACTORS
330
47
102
}
330
47
100
AcDbScale
 70
     0
300
3/32" = 1'-0"
140
0.09375
141
12.0
290
     0
  0
SCALE
  5
5E
102
{ACAD_REACTORS
330
47
102
}
330
47
100
AcDbScale
 70
     0
300
1/8" = 1'-0"
140
0.125
141
12.0
290
     0
  0
SCALE
  5
5F
102
{ACAD_REACTORS
330
47
102
}
330
47
100
AcDbScale
 70
     0
300
3/16" = 1'-0"
140
0.1875
141
12.0
290
     0
  0
SCALE
  5
60
102
{ACAD_REACTORS
330
47
102
}
330
47
100
AcDbScale
 70
     0
300
1/4" = 1'-0"
140
0.25
141
12.0
290
     0
  0
SCALE
  5
61
102
{ACAD_REACTORS
330
47
102
}
330
47
100
AcDbScale
 70
     0
300
3/8" = 1'-0"
140
0.375
141
12.0
290
     0
  0
SCALE
  5
62
102
{ACAD_REACTORS
330
47
102
}
330
47
100
AcDbScale
 70
     0
300
1/2" = 1'-0"
140
0.5
141
12.0
290
     0
  0
SCALE
  5
63
102
{ACAD_REACTORS
330
47
102
}
330
47
100
AcDbScale
 70
     0
300
3/4" = 1'-0"
140
0.75
141
12.0
290
     0
  0
SCALE
  5
64
102
{ACAD_REACTORS
330
47
102
}
330
47
100
AcDbScale
 70
     0
300
1" = 1'-0"
140
1.0
141
12.0
290
     0
  0
SCALE
  5
65
102
{ACAD_REACTORS
330
47
102
}
330
47
100
AcDbScale
 70
     0
300
1-1/2" = 1'-0"
140
1.5
141
12.0
290
     0
  0
SCALE
  5
66
102
{ACAD_REACTORS
330
47
102
}
330
47
100
AcDbScale
 70
     0
300
3" = 1'-0"
140
3.0
141
12.0
290
     0
  0
SCALE
  5
67
102
{ACAD_REACTORS
330
47
102
}
330
47
100
AcDbScale
 70
     0
300
6" = 1'-0"
140
6.0
141
12.0
290
     0
  0
SCALE
  5
68
102
{ACAD_REACTORS
330
47
102
}
330
47
100
AcDbScale
 70
     0
300
1'-0" = 1'-0"
140
12.0
141
12.0
290
     0
  0
ENDSEC
  0
EOF
