  0
SECTION
  2
HEADER
  9
$ACADVER
  1
AC1015
  9
$ACADMAINTVER
 70
     6
  9
$DWGCODEPAGE
  3
ANSI_1252
  9
$INSBASE
 10
0.0
 20
0.0
 30
0.0
  9
$EXTMIN
 10
-260.0
 20
-30.0
 30
0.0
  9
$EXTMAX
 10
260.0
 20
30.0
 30
0.0
  9
$LIMMIN
 10
0.0
 20
0.0
  9
$LIMMAX
 10
420.0
 20
297.0
  9
$ORTHOMODE
 70
     0
  9
$REGENMODE
 70
     1
  9
$FILLMODE
 70
     1
  9
$QTEXTMODE
 70
     0
  9
$MIRRTEXT
 70
     1
  9
$LTSCALE
 40
1.0
  9
$ATTMODE
 70
     1
  9
$TEXTSIZE
 40
3.5
  9
$TRACEWID
 40
1.0
  9
$TEXTSTYLE
  7
Standard
  9
$CLAYER
  8
0
  9
$CELTYPE
  6
ByLayer
  9
$CECOLOR
 62
   256
  9
$CELTSCALE
 40
1.0
  9
$DISPSILH
 70
     0
  9
$DIMSCALE
 40
1.0
  9
$DIMASZ
 40
3.302
  9
$DIMEXO
 40
0.0
  9
$DIMDLI
 40
3.75
  9
$DIMRND
 40
0.0
  9
$DIMDLE
 40
0.0
  9
$DIMEXE
 40
1.0
  9
$DIMTP
 40
0.0
  9
$DIMTM
 40
0.0
  9
$DIMTXT
 40
3.5
  9
$DIMCEN
 40
2.5
  9
$DIMTSZ
 40
0.0
  9
$DIMTOL
 70
     0
  9
$DIMLIM
 70
     0
  9
$DIMTIH
 70
     1
  9
$DIMTOH
 70
     1
  9
$DIMSE1
 70
     0
  9
$DIMSE2
 70
     0
  9
$DIMTAD
 70
     1
  9
$DIMZIN
 70
     1
  9
$DIMBLK
  1

  9
$DIMASO
 70
     1
  9
$DIMSHO
 70
     1
  9
$DIMPOST
  1

  9
$DIMAPOST
  1

  9
$DIMALT
 70
     0
  9
$DIMALTD
 70
     3
  9
$DIMALTF
 40
0.0393700787
  9
$DIMLFAC
 40
1.0
  9
$DIMTOFL
 70
     1
  9
$DIMTVP
 40
0.0
  9
$DIMTIX
 70
     0
  9
$DIMSOXD
 70
     0
  9
$DIMSAH
 70
     0
  9
$DIMBLK1
  1

  9
$DIMBLK2
  1

  9
$DIMSTYLE
  2
ISO-25
  9
$DIMCLRD
 70
     0
  9
$DIMCLRE
 70
     0
  9
$DIMCLRT
 70
     0
  9
$DIMTFAC
 40
1.0
  9
$DIMGAP
 40
1.524
  9
$DIMJUST
 70
     0
  9
$DIMSD1
 70
     0
  9
$DIMSD2
 70
     0
  9
$DIMTOLJ
 70
     0
  9
$DIMTZIN
 70
     1
  9
$DIMALTZ
 70
     0
  9
$DIMALTTZ
 70
     0
  9
$DIMUPT
 70
     0
  9
$DIMDEC
 70
     2
  9
$DIMTDEC
 70
     2
  9
$DIMALTU
 70
     2
  9
$DIMALTTD
 70
     3
  9
$DIMTXSTY
  7
Standard
  9
$DIMAUNIT
 70
     0
  9
$DIMADEC
 70
     2
  9
$DIMALTRND
 40
0.0
  9
$DIMAZIN
 70
     0
  9
$DIMDSEP
 70
    44
  9
$DIMATFIT
 70
     3
  9
$DIMFRAC
 70
     0
  9
$DIMLDRBLK
  1

  9
$DIMLUNIT
 70
     2
  9
$DIMLWD
 70
    -2
  9
$DIMLWE
 70
    -2
  9
$DIMTMOVE
 70
     0
  9
$LUNITS
 70
     2
  9
$LUPREC
 70
     2
  9
$SKETCHINC
 40
1.0
  9
$FILLETRAD
 40
10.0
  9
$AUNITS
 70
     0
  9
$AUPREC
 70
     2
  9
$MENU
  1
.
  9
$ELEVATION
 40
0.0
  9
$PELEVATION
 40
0.0
  9
$THICKNESS
 40
0.0
  9
$LIMCHECK
 70
     0
  9
$CHAMFERA
 40
0.0
  9
$CHAMFERB
 40
0.0
  9
$CHAMFERC
 40
0.0
  9
$CHAMFERD
 40
0.0
  9
$SKPOLY
 70
     0
  9
$TDCREATE
 40
2459520.492910382
  9
$TDUCREATE
 40
2459520.451243715
  9
$TDUPDATE
 40
2459520.492947083
  9
$TDUUPDATE
 40
2459520.451280416
  9
$TDINDWG
 40
0.0000000116
  9
$TDUSRTIMER
 40
0.0000000116
  9
$USRTIMER
 70
     1
  9
$ANGBASE
 50
0.0
  9
$ANGDIR
 70
     0
  9
$PDMODE
 70
     0
  9
$PDSIZE
 40
-1.0
  9
$PLINEWID
 40
0.0
  9
$SPLFRAME
 70
     0
  9
$SPLINETYPE
 70
     6
  9
$SPLINESEGS
 70
     8
  9
$HANDSEED
  5
3AC
  9
$SURFTAB1
 70
     6
  9
$SURFTAB2
 70
     6
  9
$SURFTYPE
 70
     6
  9
$SURFU
 70
     6
  9
$SURFV
 70
     6
  9
$UCSBASE
  2

  9
$UCSNAME
  2

  9
$UCSORG
 10
0.0
 20
0.0
 30
0.0
  9
$UCSXDIR
 10
1.0
 20
0.0
 30
0.0
  9
$UCSYDIR
 10
0.0
 20
1.0
 30
0.0
  9
$UCSORTHOREF
  2

  9
$UCSORTHOVIEW
 70
     0
  9
$UCSORGTOP
 10
0.0
 20
0.0
 30
0.0
  9
$UCSORGBOTTOM
 10
0.0
 20
0.0
 30
0.0
  9
$UCSORGLEFT
 10
0.0
 20
0.0
 30
0.0
  9
$UCSORGRIGHT
 10
0.0
 20
0.0
 30
0.0
  9
$UCSORGFRONT
 10
0.0
 20
0.0
 30
0.0
  9
$UCSORGBACK
 10
0.0
 20
0.0
 30
0.0
  9
$PUCSBASE
  2

  9
$PUCSNAME
  2

  9
$PUCSORG
 10
0.0
 20
0.0
 30
0.0
  9
$PUCSXDIR
 10
1.0
 20
0.0
 30
0.0
  9
$PUCSYDIR
 10
0.0
 20
1.0
 30
0.0
  9
$PUCSORTHOREF
  2

  9
$PUCSORTHOVIEW
 70
     0
  9
$PUCSORGTOP
 10
0.0
 20
0.0
 30
0.0
  9
$PUCSORGBOTTOM
 10
0.0
 20
0.0
 30
0.0
  9
$PUCSORGLEFT
 10
0.0
 20
0.0
 30
0.0
  9
$PUCSORGRIGHT
 10
0.0
 20
0.0
 30
0.0
  9
$PUCSORGFRONT
 10
0.0
 20
0.0
 30
0.0
  9
$PUCSORGBACK
 10
0.0
 20
0.0
 30
0.0
  9
$USERI1
 70
     0
  9
$USERI2
 70
     0
  9
$USERI3
 70
     0
  9
$USERI4
 70
     0
  9
$USERI5
 70
     0
  9
$USERR1
 40
0.0
  9
$USERR2
 40
0.0
  9
$USERR3
 40
0.0
  9
$USERR4
 40
0.0
  9
$USERR5
 40
0.0
  9
$WORLDVIEW
 70
     1
  9
$SHADEDGE
 70
     3
  9
$SHADEDIF
 70
    70
  9
$TILEMODE
 70
     1
  9
$MAXACTVP
 70
    64
  9
$PINSBASE
 10
0.0
 20
0.0
 30
0.0
  9
$PLIMCHECK
 70
     0
  9
$PEXTMIN
 10
1.0000000000E+20
 20
1.0000000000E+20
 30
1.0000000000E+20
  9
$PEXTMAX
 10
-1.0000000000E+20
 20
-1.0000000000E+20
 30
-1.0000000000E+20
  9
$PLIMMIN
 10
0.0
 20
0.0
  9
$PLIMMAX
 10
420.0
 20
297.0
  9
$UNITMODE
 70
     0
  9
$VISRETAIN
 70
     1
  9
$PLINEGEN
 70
     0
  9
$PSLTSCALE
 70
     1
  9
$TREEDEPTH
 70
  3020
  9
$CMLSTYLE
  2
Standard
  9
$CMLJUST
 70
     0
  9
$CMLSCALE
 40
20.0
  9
$PROXYGRAPHICS
 70
     1
  9
$MEASUREMENT
 70
     1
  9
$CELWEIGHT
370
    -1
  9
$ENDCAPS
280
     0
  9
$JOINSTYLE
280
     0
  9
$LWDISPLAY
290
     1
  9
$INSUNITS
 70
     4
  9
$HYPERLINKBASE
  1

  9
$STYLESHEET
  1

  9
$XEDIT
290
     1
  9
$CEPSNTYPE
380
     0
  9
$PSTYLEMODE
290
     1
  9
$FINGERPRINTGUID
  2
{42121a4a-c92a-4e31-b7df-d436ad74be6c}
  9
$VERSIONGUID
  2
{FAEB1C32-E019-11D5-929B-00C0DF256EC4}
  9
$EXTNAMES
290
     1
  9
$PSVPSCALE
 40
0.0
  9
$OLESTARTUP
290
     0
  0
ENDSEC
  0
SECTION
  2
CLASSES
  0
CLASS
  1
ACDBDICTIONARYWDFLT
  2
AcDbDictionaryWithDefault
  3
ObjectDBX Classes
 90
        0
280
     0
281
     0
  0
CLASS
  1
VISUALSTYLE
  2
AcDbVisualStyle
  3
ObjectDBX Classes
 90
     4095
280
     0
281
     0
  0
CLASS
  1
MATERIAL
  2
AcDbMaterial
  3
ObjectDBX Classes
 90
     1153
280
     0
281
     0
  0
CLASS
  1
SCALE
  2
AcDbScale
  3
ObjectDBX Classes
 90
     1153
280
     0
281
     0
  0
CLASS
  1
TABLESTYLE
  2
AcDbTableStyle
  3
ObjectDBX Classes
 90
     4095
280
     0
281
     0
  0
CLASS
  1
MLEADERSTYLE
  2
AcDbMLeaderStyle
  3
ACDB_MLEADERSTYLE_CLASS
 90
     4095
280
     0
281
     0
  0
CLASS
  1
SUN
  2
AcDbSun
  3
SCENEOE
 90
     1153
280
     0
281
     0
  0
CLASS
  1
ACDBPLACEHOLDER
  2
AcDbPlaceHolder
  3
ObjectDBX Classes
 90
        0
280
     0
281
     0
  0
CLASS
  1
LAYOUT
  2
AcDbLayout
  3
ObjectDBX Classes
 90
        0
280
     0
281
     0
  0
ENDSEC
  0
SECTION
  2
TABLES
  0
TABLE
  2
VPORT
  5
8
330
0
100
AcDbSymbolTable
 70
     1
  0
VPORT
  5
29
330
8
100
AcDbSymbolTableRecord
100
AcDbViewportTableRecord
  2
*Active
 70
     0
 10
0.0
 20
0.0
 11
1.0
 21
1.0
 12
0.0
 22
0.0
 13
0.0
 23
0.0
 14
10.0
 24
10.0
 15
10.0
 25
10.0
 16
0.0
 26
0.0
 36
1.0
 17
0.0
 27
0.0
 37
0.0
 40
61.2
 41
8.6666666667
 42
50.0
 43
0.0
 44
0.0
 50
0.0
 51
0.0
 71
     0
 72
   100
 73
     1
 74
     3
 75
     0
 76
     0
 77
     0
 78
     0
281
     0
 65
     1
110
0.0
120
0.0
130
0.0
111
1.0
121
0.0
131
0.0
112
0.0
122
1.0
132
0.0
 79
     0
146
0.0
  0
ENDTAB
  0
TABLE
  2
LTYPE
  5
5
330
0
100
AcDbSymbolTable
 70
     6
  0
LTYPE
  5
14
330
5
100
AcDbSymbolTableRecord
100
AcDbLinetypeTableRecord
  2
ByBlock
 70
     0
  3

 72
    65
 73
     0
 40
0.0
  0
LTYPE
  5
15
330
5
100
AcDbSymbolTableRecord
100
AcDbLinetypeTableRecord
  2
ByLayer
 70
     0
  3

 72
    65
 73
     0
 40
0.0
  0
LTYPE
  5
16
330
5
100
AcDbSymbolTableRecord
100
AcDbLinetypeTableRecord
  2
Continuous
 70
     0
  3
Solid line
 72
    65
 73
     0
 40
0.0
  0
LTYPE
  5
6E
330
5
100
AcDbSymbolTableRecord
100
AcDbLinetypeTableRecord
  2
HIDDEN
 70
     0
  3
Hidden __ __ __ __ __ __ __ __ __ __ __ __ __ __
 72
    65
 73
     2
 40
1.905
 49
1.27
 74
     0
 49
-0.635
 74
     0
  0
LTYPE
  5
6F
330
5
100
AcDbSymbolTableRecord
100
AcDbLinetypeTableRecord
  2
PHANTOM
 70
     0
  3
Phantom ______  __  __  ______  __  __  ______
 72
    65
 73
     6
 40
12.7
 49
6.35
 74
     0
 49
-1.27
 74
     0
 49
1.27
 74
     0
 49
-1.27
 74
     0
 49
1.27
 74
     0
 49
-1.27
 74
     0
  0
LTYPE
  5
70
330
5
100
AcDbSymbolTableRecord
100
AcDbLinetypeTableRecord
  2
CENTER
 70
     0
  3
Center ____ _ ____ _ ____ _ ____ _ ____ _ ____
 72
    65
 73
     4
 40
10.16
 49
6.35
 74
     0
 49
-1.27
 74
     0
 49
1.27
 74
     0
 49
-1.27
 74
     0
  0
LTYPE
  5
71
330
5
100
AcDbSymbolTableRecord
100
AcDbLinetypeTableRecord
  2
CENTERX2
 70
     0
  3
Center (2x) ________  __  ________  __  _____
 72
    65
 73
     4
 40
20.32
 49
12.7
 74
     0
 49
-2.54
 74
     0
 49
2.54
 74
     0
 49
-2.54
 74
     0
  0
LTYPE
  5
72
330
5
100
AcDbSymbolTableRecord
100
AcDbLinetypeTableRecord
  2
DOT2
 70
     0
  3
Dot (.5x) ........................................
 72
    65
 73
     2
 40
0.635
 49
0.0
 74
     0
 49
-0.635
 74
     0
  0
ENDTAB
  0
TABLE
  2
LAYER
  5
2
330
0
100
AcDbSymbolTable
 70
     1
  0
LAYER
  5
10
330
2
100
AcDbSymbolTableRecord
100
AcDbLayerTableRecord
  2
0
 70
     0
 62
     7
  6
Continuous
370
    -3
390
F
  0
ENDTAB
  0
TABLE
  2
STYLE
  5
3
330
0
100
AcDbSymbolTable
 70
     1
  0
STYLE
  5
11
330
3
100
AcDbSymbolTableRecord
100
AcDbTextStyleTableRecord
  2
Standard
 70
     0
 40
0.0
 41
1.0
 50
0.0
 71
     0
 42
3.5
  3
txt
  4

  0
ENDTAB
  0
TABLE
  2
VIEW
  5
6
330
0
100
AcDbSymbolTable
 70
     0
  0
ENDTAB
  0
TABLE
  2
UCS
  5
7
330
0
100
AcDbSymbolTable
 70
     0
  0
ENDTAB
  0
TABLE
  2
APPID
  5
9
330
0
100
AcDbSymbolTable
 70
     1
  0
APPID
  5
12
330
9
100
AcDbSymbolTableRecord
100
AcDbRegAppTableRecord
  2
ACAD
 70
     0
  0
ENDTAB
  0
TABLE
  2
DIMSTYLE
  5
A
330
0
100
AcDbSymbolTable
 70
     1
100
AcDbDimStyleTable
  0
DIMSTYLE
105
27
330
A
100
AcDbSymbolTableRecord
100
AcDbDimStyleTableRecord
  2
ISO-25
 70
     0
 41
2.5
 42
0.625
 43
3.75
 44
1.25
 73
     0
 74
     0
 77
     1
 78
     8
140
2.5
141
2.5
143
0.0393700787
147
0.625
171
     3
172
     1
178
     0
271
     2
272
     2
274
     3
278
    44
283
     0
284
     8
340
11
  0
ENDTAB
  0
TABLE
  2
BLOCK_RECORD
  5
1
330
0
100
AcDbSymbolTable
 70
     1
  0
BLOCK_RECORD
  5
1F
330
1
100
AcDbSymbolTableRecord
100
AcDbBlockTableRecord
  2
*Model_Space
340
22
  0
BLOCK_RECORD
  5
1B
330
1
100
AcDbSymbolTableRecord
100
AcDbBlockTableRecord
  2
*Paper_Space
340
1E
  0
BLOCK_RECORD
  5
23
330
1
100
AcDbSymbolTableRecord
100
AcDbBlockTableRecord
  2
*Paper_Space0
340
26
  0
ENDTAB
  0
ENDSEC
  0
SECTION
  2
BLOCKS
  0
BLOCK
  5
20
330
1F
100
AcDbEntity
  8
0
100
AcDbBlockBegin
  2
*Model_Space
 70
     0
 10
0.0
 20
0.0
 30
0.0
  3
*Model_Space
  1

  0
ENDBLK
  5
21
330
1F
100
AcDbEntity
  8
0
100
AcDbBlockEnd
  0
BLOCK
  5
1C
330
1B
100
AcDbEntity
 67
     1
  8
0
100
AcDbBlockBegin
  2
*Paper_Space
 70
     0
 10
0.0
 20
0.0
 30
0.0
  3
*Paper_Space
  1

  0
ENDBLK
  5
1D
330
1B
100
AcDbEntity
 67
     1
  8
0
100
AcDbBlockEnd
  0
BLOCK
  5
24
330
23
100
AcDbEntity
  8
0
100
AcDbBlockBegin
  2
*Paper_Space0
 70
     0
 10
0.0
 20
0.0
 30
0.0
  3
*Paper_Space0
  1

  0
ENDBLK
  5
25
330
23
100
AcDbEntity
  8
0
100
AcDbBlockEnd
  0
ENDSEC
  0
SECTION
  2
ENTITIES
  0
SPLINE
  5
73
330
1F
100
AcDbEntity
  8
0
  6
Continuous
 62
     7
370
    25
100
AcDbSpline
210
0.0
220
0.0
230
1.0
 70
     8
 71
     3
 72
     8
 73
     4
 74
     0
 42
0.00000001
 43
0.00000001
 40
0.0
 40
0.0
 40
0.0
 40
0.0
 40
1.0
 40
1.0
 40
1.0
 40
1.0
 10
-105.725534751607
 20
-19.21586122309137
 30
0.0
 10
-105.935035751607
 20
-19.18202922309138
 30
0.0
 10
-106.171163751607
 20
-19.11469722309138
 30
0.0
 10
-106.375101751607
 20
-19.03061522309137
 30
0.0
  0
SPLINE
  5
74
330
1F
100
AcDbEntity
  8
0
  6
Continuous
 62
     7
370
    25
100
AcDbSpline
210
0.0
220
0.0
230
1.0
 70
     8
 71
     3
 72
     8
 73
     4
 74
     0
 42
0.00000001
 43
0.00000001
 40
0.0
 40
0.0
 40
0.0
 40
0.0
 40
1.0
 40
1.0
 40
1.0
 40
1.0
 10
-104.709376751607
 20
-19.19056722309137
 30
0.0
 10
-104.937375751607
 20
-19.24098022309137
 30
0.0
 10
-105.485374751607
 20
-19.25461422309138
 30
0.0
 10
-105.725534751607
 20
-19.21586122309137
 30
0.0
  0
SPLINE
  5
75
330
1F
100
AcDbEntity
  8
0
  6
Continuous
 62
     7
370
    25
100
AcDbSpline
210
0.0
220
0.0
230
1.0
 70
     8
 71
     3
 72
     8
 73
     4
 74
     0
 42
0.00000001
 43
0.00000001
 40
0.0
 40
0.0
 40
0.0
 40
0.0
 40
1.0
 40
1.0
 40
1.0
 40
1.0
 10
-102.602337751607
 20
-17.33661822309137
 30
0.0
 10
-102.926446751607
 20
-18.27201322309137
 30
0.0
 10
-103.722365751607
 20
-18.97233022309138
 30
0.0
 10
-104.709376751607
 20
-19.19056722309137
 30
0.0
  0
SPLINE
  5
76
330
1F
100
AcDbEntity
  8
0
  6
Continuous
 62
     7
370
    25
100
AcDbSpline
210
0.0
220
0.0
230
1.0
 70
     8
 71
     3
 72
     8
 73
     4
 74
     0
 42
0.00000001
 43
0.00000001
 40
0.0
 40
0.0
 40
0.0
 40
0.0
 40
1.0
 40
1.0
 40
1.0
 40
1.0
 10
-102.462161751607
 20
-16.69651222309137
 30
0.0
 10
-102.462161751607
 20
-16.80906522309137
 30
0.0
 10
-102.535356751607
 20
-17.14330822309137
 30
0.0
 10
-102.602337751607
 20
-17.33661822309137
 30
0.0
  0
SPLINE
  5
79
330
1F
100
AcDbEntity
  8
0
  6
Continuous
 62
     7
370
    25
100
AcDbSpline
210
0.0
220
0.0
230
1.0
 70
     8
 71
     3
 72
     8
 73
     4
 74
     0
 42
0.00000001
 43
0.00000001
 40
0.0
 40
0.0
 40
0.0
 40
0.0
 40
1.0
 40
1.0
 40
1.0
 40
1.0
 10
-100.238241751607
 20
-16.50032622309137
 30
0.0
 10
-100.509283751607
 20
-16.62976022309137
 30
0.0
 10
-100.542523751607
 20
-16.63309922309137
 30
0.0
 10
-101.560319751607
 20
-16.63309922309137
 30
0.0
  0
SPLINE
  5
7A
330
1F
100
AcDbEntity
  8
0
  6
Continuous
 62
     7
370
    25
100
AcDbSpline
210
0.0
220
0.0
230
1.0
 70
     8
 71
     3
 72
     8
 73
     4
 74
     0
 42
0.00000001
 43
0.00000001
 40
0.0
 40
0.0
 40
0.0
 40
0.0
 40
1.0
 40
1.0
 40
1.0
 40
1.0
 10
-99.92351175160698
 20
-16.26688422309137
 30
0.0
 10
-100.053046751607
 20
-16.39641922309137
 30
0.0
 10
-100.111601751607
 20
-16.43985022309137
 30
0.0
 10
-100.238241751607
 20
-16.50032622309137
 30
0.0
  0
SPLINE
  5
7B
330
1F
100
AcDbEntity
  8
0
  6
Continuous
 62
     7
370
    25
100
AcDbSpline
210
0.0
220
0.0
230
1.0
 70
     8
 71
     3
 72
     8
 73
     4
 74
     0
 42
0.00000001
 43
0.00000001
 40
0.0
 40
0.0
 40
0.0
 40
0.0
 40
1.0
 40
1.0
 40
1.0
 40
1.0
 10
-99.69007275160698
 20
-15.95215722309137
 30
0.0
 10
-99.75054875160698
 20
-16.07879422309137
 30
0.0
 10
-99.79397775160697
 20
-16.13734922309137
 30
0.0
 10
-99.92351175160698
 20
-16.26688422309137
 30
0.0
  0
SPLINE
  5
7C
330
1F
100
AcDbEntity
  8
0
  6
Continuous
 62
     7
370
    25
100
AcDbSpline
210
0.0
220
0.0
230
1.0
 70
     8
 71
     3
 72
     8
 73
     4
 74
     0
 42
0.00000001
 43
0.00000001
 40
0.0
 40
0.0
 40
0.0
 40
0.0
 40
1.0
 40
1.0
 40
1.0
 40
1.0
 10
-99.55761975160698
 20
-13.75218322309137
 30
0.0
 10
-99.55735475160697
 20
-15.74608622309137
 30
0.0
 10
-99.55230175160698
 20
-15.66365022309137
 30
0.0
 10
-99.69007275160698
 20
-15.95215722309137
 30
0.0
  0
SPLINE
  5
7D
330
1F
100
AcDbEntity
  8
0
  6
Continuous
 62
     7
370
    25
100
AcDbSpline
210
0.0
220
0.0
230
1.0
 70
     8
 71
     3
 72
     8
 73
     4
 74
     0
 42
0.00000001
 43
0.00000001
 40
0.0
 40
0.0
 40
0.0
 40
0.0
 40
1.0
 40
1.0
 40
1.0
 40
1.0
 10
-99.67404675160698
 20
-11.58688922309137
 30
0.0
 10
-99.55542875160697
 20
-11.83488022309137
 30
0.0
 10
-99.55797175160698
 20
-11.78760222309137
 30
0.0
 10
-99.55761975160698
 20
-13.75218322309137
 30
0.0
  0
SPLINE
  5
7E
330
1F
100
AcDbEntity
  8
0
  6
Continuous
 62
     7
370
    25
100
AcDbSpline
210
0.0
220
0.0
230
1.0
 70
     8
 71
     3
 72
     8
 73
     4
 74
     0
 42
0.00000001
 43
0.00000001
 40
0.0
 40
0.0
 40
0.0
 40
0.0
 40
1.0
 40
1.0
 40
1.0
 40
1.0
 10
-99.98953875160697
 20
-11.16816522309137
 30
0.0
 10
-99.88074975160697
 20
-11.25292122309137
 30
0.0
 10
-99.75214375160698
 20
-11.42360922309138
 30
0.0
 10
-99.67404675160698
 20
-11.58688922309137
 30
0.0
  0
SPLINE
  5
81
330
1F
100
AcDbEntity
  8
0
  6
Continuous
 62
     7
370
    25
100
AcDbSpline
210
0.0
220
0.0
230
1.0
 70
     8
 71
     3
 72
     8
 73
     4
 74
     0
 42
0.00000001
 43
0.00000001
 40
0.0
 40
0.0
 40
0.0
 40
0.0
 40
1.0
 40
1.0
 40
1.0
 40
1.0
 10
-99.60207775160698
 20
-10.43728522309137
 30
0.0
 10
-99.67506875160697
 20
-10.66164122309137
 30
0.0
 10
-99.83040475160698
 20
-10.90049922309137
 30
0.0
 10
-99.98875875160698
 20
-11.03186722309137
 30
0.0
  0
SPLINE
  5
82
330
1F
100
AcDbEntity
  8
0
  6
Continuous
 62
     7
370
    25
100
AcDbSpline
210
0.0
220
0.0
230
1.0
 70
     8
 71
     3
 72
     8
 73
     4
 74
     0
 42
0.00000001
 43
0.00000001
 40
0.0
 40
0.0
 40
0.0
 40
0.0
 40
1.0
 40
1.0
 40
1.0
 40
1.0
 10
-99.55629175160698
 20
-9.159514223091376
 30
0.0
 10
-99.56788075160698
 20
-10.21805122309137
 30
0.0
 10
-99.57248375160698
 20
-10.34631622309137
 30
0.0
 10
-99.60207775160698
 20
-10.43728522309137
 30
0.0
  0
SPLINE
  5
83
330
1F
100
AcDbEntity
  8
0
  6
Continuous
 62
     7
370
    25
100
AcDbSpline
210
0.0
220
0.0
230
1.0
 70
     8
 71
     3
 72
     8
 73
     4
 74
     0
 42
0.00000001
 43
0.00000001
 40
0.0
 40
0.0
 40
0.0
 40
0.0
 40
1.0
 40
1.0
 40
1.0
 40
1.0
 10
-99.52257275160697
 20
-7.780622223091375
 30
0.0
 10
-99.53402975160697
 20
-7.891853223091374
 30
0.0
 10
-99.54919775160698
 20
-8.512354223091373
 30
0.0
 10
-99.55629175160698
 20
-9.159514223091376
 30
0.0
  0
SPLINE
  5
84
330
1F
100
AcDbEntity
  8
0
  6
Continuous
 62
     7
370
    25
100
AcDbSpline
210
0.0
220
0.0
230
1.0
 70
     8
 71
     3
 72
     8
 73
     4
 74
     0
 42
0.00000001
 43
0.00000001
 40
0.0
 40
0.0
 40
0.0
 40
0.0
 40
1.0
 40
1.0
 40
1.0
 40
1.0
 10
-98.59207575160697
 20
-5.050212223091374
 30
0.0
 10
-99.13251675160697
 20
-5.861790223091374
 30
0.0
 10
-99.40831575160698
 20
-6.671087223091373
 30
0.0
 10
-99.52257275160697
 20
-7.780622223091375
 30
0.0
  0
SPLINE
  5
85
330
1F
100
AcDbEntity
  8
0
  6
Continuous
 62
     7
370
    25
100
AcDbSpline
210
0.0
220
0.0
230
1.0
 70
     8
 71
     3
 72
     8
 73
     4
 74
     0
 42
0.00000001
 43
0.00000001
 40
0.0
 40
0.0
 40
0.0
 40
0.0
 40
1.0
 40
1.0
 40
1.0
 40
1.0
 10
-96.91902275160697
 20
-3.304033223091376
 30
0.0
 10
-97.62258975160698
 20
-3.847138223091372
 30
0.0
 10
-98.17457875160699
 20
-4.423255223091373
 30
0.0
 10
-98.59207575160697
 20
-5.050212223091374
 30
0.0
  0
SPLINE
  5
86
330
1F
100
AcDbEntity
  8
0
  6
Continuous
 62
     7
370
    25
100
AcDbSpline
210
0.0
220
0.0
230
1.0
 70
     8
 71
     3
 72
     8
 73
     4
 74
     0
 42
0.00000001
 43
0.00000001
 40
0.0
 40
0.0
 40
0.0
 40
0.0
 40
1.0
 40
1.0
 40
1.0
 40
1.0
 10
-96.10306875160698
 20
-2.485548223091373
 30
0.0
 10
-96.40379175160697
 20
-2.822209223091371
 30
0.0
 10
-96.76759675160699
 20
-3.187143223091375
 30
0.0
 10
-96.91902275160697
 20
-3.304033223091376
 30
0.0
  0
SPLINE
  5
87
330
1F
100
AcDbEntity
  8
0
  6
Continuous
 62
     7
370
    25
100
AcDbSpline
210
0.0
220
0.0
230
1.0
 70
     8
 71
     3
 72
     8
 73
     4
 74
     0
 42
0.00000001
 43
0.00000001
 40
0.0
 40
0.0
 40
0.0
 40
0.0
 40
1.0
 40
1.0
 40
1.0
 40
1.0
 10
-93.36267875160698
 20
2.667669776908625
 30
0.0
 10
-93.84142075160698
 20
0.7565527769086249
 30
0.0
 10
-94.77466975160698
 20
-0.9983882230913745
 30
0.0
 10
-96.10306875160698
 20
-2.485548223091373
 30
0.0
  0
SPLINE
  5
88
330
1F
100
AcDbEntity
  8
0
  6
Continuous
 62
     7
370
    25
100
AcDbSpline
210
0.0
220
0.0
230
1.0
 70
     8
 71
     3
 72
     8
 73
     4
 74
     0
 42
0.00000001
 43
0.00000001
 40
0.0
 40
0.0
 40
0.0
 40
0.0
 40
1.0
 40
1.0
 40
1.0
 40
1.0
 10
-92.99386775160698
 20
5.580821776908627
 30
0.0
 10
-92.99412475160699
 20
4.657509776908628
 30
0.0
 10
-93.12686375160698
 20
3.609025776908626
 30
0.0
 10
-93.36267875160698
 20
2.667669776908625
 30
0.0
  0
SPLINE
  5
8B
330
1F
100
AcDbEntity
  8
0
  6
Continuous
 62
     7
370
    25
100
AcDbSpline
210
0.0
220
0.0
230
1.0
 70
     8
 71
     3
 72
     8
 73
     4
 74
     0
 42
0.00000001
 43
0.00000001
 40
0.0
 40
0.0
 40
0.0
 40
0.0
 40
1.0
 40
1.0
 40
1.0
 40
1.0
 10
-94.83238875160697
 20
5.895941776908626
 30
0.0
 10
-94.83238875160697
 20
5.891998776908626
 30
0.0
 10
-94.41872075160698
 20
5.888773776908628
 30
0.0
 10
-93.91312875160699
 20
5.888773776908628
 30
0.0
  0
SPLINE
  5
8C
330
1F
100
AcDbEntity
  8
0
  6
Continuous
 62
     7
370
    25
100
AcDbSpline
210
0.0
220
0.0
230
1.0
 70
     8
 71
     3
 72
     8
 73
     4
 74
     0
 42
0.00000001
 43
0.00000001
 40
0.0
 40
0.0
 40
0.0
 40
0.0
 40
1.0
 40
1.0
 40
1.0
 40
1.0
 10
-94.71550975160697
 20
6.157930776908627
 30
0.0
 10
-94.77979275160698
 20
6.017777776908626
 30
0.0
 10
-94.83238875160697
 20
5.899882776908626
 30
0.0
 10
-94.83238875160697
 20
5.895941776908626
 30
0.0
  0
SPLINE
  5
8D
330
1F
100
AcDbEntity
  8
0
  6
Continuous
 62
     7
370
    25
100
AcDbSpline
210
0.0
220
0.0
230
1.0
 70
     8
 71
     3
 72
     8
 73
     4
 74
     0
 42
0.00000001
 43
0.00000001
 40
0.0
 40
0.0
 40
0.0
 40
0.0
 40
1.0
 40
1.0
 40
1.0
 40
1.0
 10
-93.70031875160697
 20
9.91868377690863
 30
0.0
 10
-93.84142075160698
 20
8.555661776908627
 30
0.0
 10
-94.16422075160698
 20
7.359855776908626
 30
0.0
 10
-94.71550975160697
 20
6.157930776908627
 30
0.0
  0
SPLINE
  5
8E
330
1F
100
AcDbEntity
  8
0
  6
Continuous
 62
     7
370
    25
100
AcDbSpline
210
0.0
220
0.0
230
1.0
 70
     8
 71
     3
 72
     8
 73
     4
 74
     0
 42
0.00000001
 43
0.00000001
 40
0.0
 40
0.0
 40
0.0
 40
0.0
 40
1.0
 40
1.0
 40
1.0
 40
1.0
 10
-93.66115775160698
 20
10.83676877690862
 30
0.0
 10
-93.66705775160698
 20
10.46289877690863
 30
0.0
 10
-93.68319775160697
 20
10.08394177690863
 30
0.0
 10
-93.70031875160697
 20
9.91868377690863
 30
0.0
  0
SPLINE
  5
91
330
1F
100
AcDbEntity
  8
0
  6
Continuous
 62
     7
370
    25
100
AcDbSpline
210
0.0
220
0.0
230
1.0
 70
     8
 71
     3
 72
     8
 73
     4
 74
     0
 42
0.00000001
 43
0.00000001
 40
0.0
 40
0.0
 40
0.0
 40
0.0
 40
1.0
 40
1.0
 40
1.0
 40
1.0
 10
-92.83302575160698
 20
11.94426377690862
 30
0.0
 10
-93.04335575160697
 20
11.74451277690863
 30
0.0
 10
-93.33915475160698
 20
11.56583777690863
 30
0.0
 10
-93.57529775160697
 20
11.49589477690863
 30
0.0
  0
SPLINE
  5
92
330
1F
100
AcDbEntity
  8
0
  6
Continuous
 62
     7
370
    25
100
AcDbSpline
210
0.0
220
0.0
230
1.0
 70
     8
 71
     3
 72
     8
 73
     4
 74
     0
 42
0.00000001
 43
0.00000001
 40
0.0
 40
0.0
 40
0.0
 40
0.0
 40
1.0
 40
1.0
 40
1.0
 40
1.0
 10
-92.55459875160697
 20
14.51521477690863
 30
0.0
 10
-92.00817375160698
 20
13.70442877690862
 30
0.0
 10
-92.12608775160696
 20
12.61563877690863
 30
0.0
 10
-92.83302575160698
 20
11.94426377690862
 30
0.0
  0
SPLINE
  5
93
330
1F
100
AcDbEntity
  8
0
  6
Continuous
 62
     7
370
    25
100
AcDbSpline
210
0.0
220
0.0
230
1.0
 70
     8
 71
     3
 72
     8
 73
     4
 74
     0
 42
0.00000001
 43
0.00000001
 40
0.0
 40
0.0
 40
0.0
 40
0.0
 40
1.0
 40
1.0
 40
1.0
 40
1.0
 10
-93.29831075160696
 20
15.17290577690863
 30
0.0
 10
-93.02242775160697
 20
15.03142177690863
 30
0.0
 10
-92.72556475160698
 20
14.76889577690863
 30
0.0
 10
-92.55459875160697
 20
14.51521477690863
 30
0.0
  0
SPLINE
  5
94
330
1F
100
AcDbEntity
  8
0
  6
Continuous
 62
     7
370
    25
100
AcDbSpline
210
0.0
220
0.0
230
1.0
 70
     8
 71
     3
 72
     8
 73
     4
 74
     0
 42
0.00000001
 43
0.00000001
 40
0.0
 40
0.0
 40
0.0
 40
0.0
 40
1.0
 40
1.0
 40
1.0
 40
1.0
 10
-95.97113175160698
 20
14.34388077690862
 30
0.0
 10
-95.45890675160697
 20
15.29774077690863
 30
0.0
 10
-94.26425675160698
 20
15.66828377690863
 30
0.0
 10
-93.29831075160696
 20
15.17290577690863
 30
0.0
  0
SPLINE
  5
95
330
1F
100
AcDbEntity
  8
0
  6
Continuous
 62
     7
370
    25
100
AcDbSpline
210
0.0
220
0.0
230
1.0
 70
     8
 71
     3
 72
     8
 73
     4
 74
     0
 42
0.00000001
 43
0.00000001
 40
0.0
 40
0.0
 40
0.0
 40
0.0
 40
1.0
 40
1.0
 40
1.0
 40
1.0
 10
-96.19901975160697
 20
13.38074177690863
 30
0.0
 10
-96.19954975160697
 20
13.77765577690863
 30
0.0
 10
-96.14017975160698
 20
14.02908277690863
 30
0.0
 10
-95.97113175160698
 20
14.34388077690862
 30
0.0
  0
SPLINE
  5
96
330
1F
100
AcDbEntity
  8
0
  6
Continuous
 62
     7
370
    25
100
AcDbSpline
210
0.0
220
0.0
230
1.0
 70
     8
 71
     3
 72
     8
 73
     4
 74
     0
 42
0.00000001
 43
0.00000001
 40
0.0
 40
0.0
 40
0.0
 40
0.0
 40
1.0
 40
1.0
 40
1.0
 40
1.0
 10
-96.15068575160699
 20
12.90682077690863
 30
0.0
 10
-96.19259575160697
 20
13.06425177690863
 30
0.0
 10
-96.19859975160696
 20
13.12311577690862
 30
0.0
 10
-96.19901975160697
 20
13.38074177690863
 30
0.0
  0
SPLINE
  5
97
330
1F
100
AcDbEntity
  8
0
  6
Continuous
 62
     7
370
    25
100
AcDbSpline
210
0.0
220
0.0
230
1.0
 70
     8
 71
     3
 72
     8
 73
     4
 74
     0
 42
0.00000001
 43
0.00000001
 40
0.0
 40
0.0
 40
0.0
 40
0.0
 40
1.0
 40
1.0
 40
1.0
 40
1.0
 10
-95.57654575160699
 20
11.94101677690863
 30
0.0
 10
-95.85537175160697
 20
12.20462177690863
 30
0.0
 10
-96.05164475160697
 20
12.53478777690863
 30
0.0
 10
-96.15068575160699
 20
12.90682077690863
 30
0.0
  0
SPLINE
  5
98
330
1F
100
AcDbEntity
  8
0
  6
Continuous
 62
     7
370
    25
100
AcDbSpline
210
0.0
220
0.0
230
1.0
 70
     8
 71
     3
 72
     8
 73
     4
 74
     0
 42
0.00000001
 43
0.00000001
 40
0.0
 40
0.0
 40
0.0
 40
0.0
 40
1.0
 40
1.0
 40
1.0
 40
1.0
 10
-94.29921875160697
 20
11.40085877690863
 30
0.0
 10
-94.77273075160697
 20
11.41636377690863
 30
0.0
 10
-95.22300175160697
 20
11.60677377690862
 30
0.0
 10
-95.57654575160699
 20
11.94101677690863
 30
0.0
  0
SPLINE
  5
99
330
1F
100
AcDbEntity
  8
0
  6
Continuous
 62
     7
370
    25
100
AcDbSpline
210
0.0
220
0.0
230
1.0
 70
     8
 71
     3
 72
     8
 73
     4
 74
     0
 42
0.00000001
 43
0.00000001
 40
0.0
 40
0.0
 40
0.0
 40
0.0
 40
1.0
 40
1.0
 40
1.0
 40
1.0
 10
-94.11206375160697
 20
11.36756277690863
 30
0.0
 10
-94.12161475160698
 20
11.38862877690863
 30
0.0
 10
-94.16579475160697
 20
11.39649077690862
 30
0.0
 10
-94.29921875160697
 20
11.40085877690863
 30
0.0
  0
SPLINE
  5
9A
330
1F
100
AcDbEntity
  8
0
  6
Continuous
 62
     7
370
    25
100
AcDbSpline
210
0.0
220
0.0
230
1.0
 70
     8
 71
     3
 72
     8
 73
     4
 74
     0
 42
0.00000001
 43
0.00000001
 40
0.0
 40
0.0
 40
0.0
 40
0.0
 40
1.0
 40
1.0
 40
1.0
 40
1.0
 10
-94.11589975160697
 20
10.50155677690863
 30
0.0
 10
-94.09481275160697
 20
10.91955577690863
 30
0.0
 10
-94.09301375160697
 20
11.32552077690863
 30
0.0
 10
-94.11206375160697
 20
11.36756277690863
 30
0.0
  0
SPLINE
  5
9B
330
1F
100
AcDbEntity
  8
0
  6
Continuous
 62
     7
370
    25
100
AcDbSpline
210
0.0
220
0.0
230
1.0
 70
     8
 71
     3
 72
     8
 73
     4
 74
     0
 42
0.00000001
 43
0.00000001
 40
0.0
 40
0.0
 40
0.0
 40
0.0
 40
1.0
 40
1.0
 40
1.0
 40
1.0
 10
-95.18814475160697
 20
6.219705776908627
 30
0.0
 10
-94.53794175160698
 20
7.602876776908626
 30
0.0
 10
-94.19256775160697
 20
8.982075776908626
 30
0.0
 10
-94.11589975160697
 20
10.50155677690863
 30
0.0
  0
SPLINE
  5
A0
330
1F
100
AcDbEntity
  8
0
  6
Continuous
 62
     7
370
    25
100
AcDbSpline
210
0.0
220
0.0
230
1.0
 70
     8
 71
     3
 72
     8
 73
     4
 74
     0
 42
0.00000001
 43
0.00000001
 40
0.0
 40
0.0
 40
0.0
 40
0.0
 40
1.0
 40
1.0
 40
1.0
 40
1.0
 10
-97.37574375160698
 20
6.952183776908629
 30
0.0
 10
-97.10392975160698
 20
6.707135776908627
 30
0.0
 10
-96.91161675160697
 20
6.455086776908627
 30
0.0
 10
-96.75006275160698
 20
6.132143776908624
 30
0.0
  0
SPLINE
  5
A1
330
1F
100
AcDbEntity
  8
0
  6
Continuous
 62
     7
370
    25
100
AcDbSpline
210
0.0
220
0.0
230
1.0
 70
     8
 71
     3
 72
     8
 73
     4
 74
     0
 42
0.00000001
 43
0.00000001
 40
0.0
 40
0.0
 40
0.0
 40
0.0
 40
1.0
 40
1.0
 40
1.0
 40
1.0
 10
-97.45827275160698
 20
7.035676776908625
 30
0.0
 10
-97.46157975160698
 20
7.033639776908625
 30
0.0
 10
-97.42442975160698
 20
6.996075776908628
 30
0.0
 10
-97.37574375160698
 20
6.952183776908629
 30
0.0
  0
SPLINE
  5
A2
330
1F
100
AcDbEntity
  8
0
  6
Continuous
 62
     7
370
    25
100
AcDbSpline
210
0.0
220
0.0
230
1.0
 70
     8
 71
     3
 72
     8
 73
     4
 74
     0
 42
0.00000001
 43
0.00000001
 40
0.0
 40
0.0
 40
0.0
 40
0.0
 40
1.0
 40
1.0
 40
1.0
 40
1.0
 10
-97.32358175160698
 20
7.072238776908626
 30
0.0
 10
-97.39436575160698
 20
7.054159776908625
 30
0.0
 10
-97.45497575160697
 20
7.037706776908625
 30
0.0
 10
-97.45827275160698
 20
7.035676776908625
 30
0.0
  0
SPLINE
  5
A3
330
1F
100
AcDbEntity
  8
0
  6
Continuous
 62
     7
370
    25
100
AcDbSpline
210
0.0
220
0.0
230
1.0
 70
     8
 71
     3
 72
     8
 73
     4
 74
     0
 42
0.00000001
 43
0.00000001
 40
0.0
 40
0.0
 40
0.0
 40
0.0
 40
1.0
 40
1.0
 40
1.0
 40
1.0
 10
-96.40906175160697
 20
7.506668776908628
 30
0.0
 10
-96.67423775160697
 20
7.314704776908626
 30
0.0
 10
-97.02308075160698
 20
7.148990776908628
 30
0.0
 10
-97.32358175160698
 20
7.072238776908626
 30
0.0
  0
SPLINE
  5
A4
330
1F
100
AcDbEntity
  8
0
  6
Continuous
 62
     7
370
    25
100
AcDbSpline
210
0.0
220
0.0
230
1.0
 70
     8
 71
     3
 72
     8
 73
     4
 74
     0
 42
0.00000001
 43
0.00000001
 40
0.0
 40
0.0
 40
0.0
 40
0.0
 40
1.0
 40
1.0
 40
1.0
 40
1.0
 10
-95.85634775160698
 20
8.089510776908625
 30
0.0
 10
-95.98632375160699
 20
7.892910776908627
 30
0.0
 10
-96.22896275160697
 20
7.637044776908627
 30
0.0
 10
-96.40906175160697
 20
7.506668776908628
 30
0.0
  0
SPLINE
  5
A5
330
1F
100
AcDbEntity
  8
0
  6
Continuous
 62
     7
370
    25
100
AcDbSpline
210
0.0
220
0.0
230
1.0
 70
     8
 71
     3
 72
     8
 73
     4
 74
     0
 42
0.00000001
 43
0.00000001
 40
0.0
 40
0.0
 40
0.0
 40
0.0
 40
1.0
 40
1.0
 40
1.0
 40
1.0
 10
-95.50070575160697
 20
8.940714776908626
 30
0.0
 10
-95.58463375160697
 20
8.58903077690863
 30
0.0
 10
-95.68513275160697
 20
8.348489776908629
 30
0.0
 10
-95.85634775160698
 20
8.089510776908625
 30
0.0
  0
SPLINE
  5
A6
330
1F
100
AcDbEntity
  8
0
  6
Continuous
 62
     7
370
    25
100
AcDbSpline
210
0.0
220
0.0
230
1.0
 70
     8
 71
     3
 72
     8
 73
     4
 74
     0
 42
0.00000001
 43
0.00000001
 40
0.0
 40
0.0
 40
0.0
 40
0.0
 40
1.0
 40
1.0
 40
1.0
 40
1.0
 10
-95.46562675160698
 20
9.972570776908627
 30
0.0
 10
-95.42014475160698
 20
9.695886776908628
 30
0.0
 10
-95.43669775160699
 20
9.208918776908627
 30
0.0
 10
-95.50070575160697
 20
8.940714776908626
 30
0.0
  0
SPLINE
  5
A7
330
1F
100
AcDbEntity
  8
0
  6
Continuous
 62
     7
370
    25
100
AcDbSpline
210
0.0
220
0.0
230
1.0
 70
     8
 71
     3
 72
     8
 73
     4
 74
     0
 42
0.00000001
 43
0.00000001
 40
0.0
 40
0.0
 40
0.0
 40
0.0
 40
1.0
 40
1.0
 40
1.0
 40
1.0
 10
-95.70795875160698
 20
10.70162677690863
 30
0.0
 10
-95.60261975160697
 20
10.50836377690863
 30
0.0
 10
-95.50583575160698
 20
10.21719777690863
 30
0.0
 10
-95.46562675160698
 20
9.972570776908627
 30
0.0
  0
SPLINE
  5
A8
330
1F
100
AcDbEntity
  8
0
  6
Continuous
 62
     7
370
    25
100
AcDbSpline
210
0.0
220
0.0
230
1.0
 70
     8
 71
     3
 72
     8
 73
     4
 74
     0
 42
0.00000001
 43
0.00000001
 40
0.0
 40
0.0
 40
0.0
 40
0.0
 40
1.0
 40
1.0
 40
1.0
 40
1.0
 10
-97.31881375160698
 20
11.99554877690862
 30
0.0
 10
-96.67845075160697
 20
11.80173577690863
 30
0.0
 10
-96.01875975160698
 20
11.27183777690863
 30
0.0
 10
-95.70795875160698
 20
10.70162677690863
 30
0.0
  0
SPLINE
  5
A9
330
1F
100
AcDbEntity
  8
0
  6
Continuous
 62
     7
370
    25
100
AcDbSpline
210
0.0
220
0.0
230
1.0
 70
     8
 71
     3
 72
     8
 73
     4
 74
     0
 42
0.00000001
 43
0.00000001
 40
0.0
 40
0.0
 40
0.0
 40
0.0
 40
1.0
 40
1.0
 40
1.0
 40
1.0
 10
-97.46129975160697
 20
12.05012177690863
 30
0.0
 10
-97.46111475160697
 20
12.04379477690862
 30
0.0
 10
-97.39708775160697
 20
12.01923877690863
 30
0.0
 10
-97.31881375160698
 20
11.99554877690862
 30
0.0
  0
SPLINE
  5
AA
330
1F
100
AcDbEntity
  8
0
  6
Continuous
 62
     7
370
    25
100
AcDbSpline
210
0.0
220
0.0
230
1.0
 70
     8
 71
     3
 72
     8
 73
     4
 74
     0
 42
0.00000001
 43
0.00000001
 40
0.0
 40
0.0
 40
0.0
 40
0.0
 40
1.0
 40
1.0
 40
1.0
 40
1.0
 10
-97.34383775160697
 20
12.19280877690863
 30
0.0
 10
-97.40853675160697
 20
12.12065577690863
 30
0.0
 10
-97.46139475160697
 20
12.05644677690863
 30
0.0
 10
-97.46129975160697
 20
12.05012177690863
 30
0.0
  0
SPLINE
  5
AB
330
1F
100
AcDbEntity
  8
0
  6
Continuous
 62
     7
370
    25
100
AcDbSpline
210
0.0
220
0.0
230
1.0
 70
     8
 71
     3
 72
     8
 73
     4
 74
     0
 42
0.00000001
 43
0.00000001
 40
0.0
 40
0.0
 40
0.0
 40
0.0
 40
1.0
 40
1.0
 40
1.0
 40
1.0
 10
-96.71410275160697
 20
13.44173877690863
 30
0.0
 10
-96.80247075160698
 20
12.98766677690862
 30
0.0
 10
-97.02263375160699
 20
12.55102377690863
 30
0.0
 10
-97.34383775160697
 20
12.19280877690863
 30
0.0
  0
SPLINE
  5
AC
330
1F
100
AcDbEntity
  8
0
  6
Continuous
 62
     7
370
    25
100
AcDbSpline
210
0.0
220
0.0
230
1.0
 70
     8
 71
     3
 72
     8
 73
     4
 74
     0
 42
0.00000001
 43
0.00000001
 40
0.0
 40
0.0
 40
0.0
 40
0.0
 40
1.0
 40
1.0
 40
1.0
 40
1.0
 10
-96.71463175160697
 20
14.28161577690862
 30
0.0
 10
-96.67371175160697
 20
14.07815477690862
 30
0.0
 10
-96.67340975160698
 20
13.65051377690862
 30
0.0
 10
-96.71410275160697
 20
13.44173877690863
 30
0.0
  0
SPLINE
  5
AD
330
1F
100
AcDbEntity
  8
0
  6
Continuous
 62
     7
370
    25
100
AcDbSpline
210
0.0
220
0.0
230
1.0
 70
     8
 71
     3
 72
     8
 73
     4
 74
     0
 42
0.00000001
 43
0.00000001
 40
0.0
 40
0.0
 40
0.0
 40
0.0
 40
1.0
 40
1.0
 40
1.0
 40
1.0
 10
-98.29793575160697
 20
16.16446877690863
 30
0.0
 10
-97.48826575160697
 20
15.85071477690863
 30
0.0
 10
-96.88621675160697
 20
15.13476377690862
 30
0.0
 10
-96.71463175160697
 20
14.28161577690862
 30
0.0
  0
SPLINE
  5
AE
330
1F
100
AcDbEntity
  8
0
  6
Continuous
 62
     7
370
    25
100
AcDbSpline
210
0.0
220
0.0
230
1.0
 70
     8
 71
     3
 72
     8
 73
     4
 74
     0
 42
0.00000001
 43
0.00000001
 40
0.0
 40
0.0
 40
0.0
 40
0.0
 40
1.0
 40
1.0
 40
1.0
 40
1.0
 10
-99.22638775160696
 20
16.32156977690862
 30
0.0
 10
-98.77849375160697
 20
16.32181977690862
 30
0.0
 10
-98.64624675160698
 20
16.29944277690862
 30
0.0
 10
-98.29793575160697
 20
16.16446877690863
 30
0.0
  0
SPLINE
  5
AF
330
1F
100
AcDbEntity
  8
0
  6
Continuous
 62
     7
370
    25
100
AcDbSpline
210
0.0
220
0.0
230
1.0
 70
     8
 71
     3
 72
     8
 73
     4
 74
     0
 42
0.00000001
 43
0.00000001
 40
0.0
 40
0.0
 40
0.0
 40
0.0
 40
1.0
 40
1.0
 40
1.0
 40
1.0
 10
-99.75956075160697
 20
16.28874377690862
 30
0.0
 10
-99.65010175160698
 20
16.31462777690863
 30
0.0
 10
-99.54016775160699
 20
16.32139477690862
 30
0.0
 10
-99.22638775160696
 20
16.32156977690862
 30
0.0
  0
SPLINE
  5
B0
330
1F
100
AcDbEntity
  8
0
  6
Continuous
 62
     7
370
    25
100
AcDbSpline
210
0.0
220
0.0
230
1.0
 70
     8
 71
     3
 72
     8
 73
     4
 74
     0
 42
0.00000001
 43
0.00000001
 40
0.0
 40
0.0
 40
0.0
 40
0.0
 40
1.0
 40
1.0
 40
1.0
 40
1.0
 10
-99.95446075160697
 20
16.24592777690863
 30
0.0
 10
-99.92310475160699
 20
16.25154177690863
 30
0.0
 10
-99.83539775160698
 20
16.27081177690863
 30
0.0
 10
-99.75956075160697
 20
16.28874377690862
 30
0.0
  0
SPLINE
  5
B3
330
1F
100
AcDbEntity
  8
0
  6
Continuous
 62
     7
370
    25
100
AcDbSpline
210
0.0
220
0.0
230
1.0
 70
     8
 71
     3
 72
     8
 73
     4
 74
     0
 42
0.00000001
 43
0.00000001
 40
0.0
 40
0.0
 40
0.0
 40
0.0
 40
1.0
 40
1.0
 40
1.0
 40
1.0
 10
-100.336719751607
 20
17.31082677690862
 30
0.0
 10
-100.183070751607
 20
17.04147277690862
 30
0.0
 10
-100.053377751607
 20
16.64749077690862
 30
0.0
 10
-100.024304751607
 20
16.36177877690863
 30
0.0
  0
SPLINE
  5
B4
330
1F
100
AcDbEntity
  8
0
  6
Continuous
 62
     7
370
    25
100
AcDbSpline
210
0.0
220
0.0
230
1.0
 70
     8
 71
     3
 72
     8
 73
     4
 74
     0
 42
0.00000001
 43
0.00000001
 40
0.0
 40
0.0
 40
0.0
 40
0.0
 40
1.0
 40
1.0
 40
1.0
 40
1.0
 10
-102.040125751607
 20
18.57596877690863
 30
0.0
 10
-101.316643751607
 20
18.42384077690862
 30
0.0
 10
-100.717989751607
 20
17.97921377690863
 30
0.0
 10
-100.336719751607
 20
17.31082677690862
 30
0.0
  0
SPLINE
  5
B5
330
1F
100
AcDbEntity
  8
0
  6
Continuous
 62
     7
370
    25
100
AcDbSpline
210
0.0
220
0.0
230
1.0
 70
     8
 71
     3
 72
     8
 73
     4
 74
     0
 42
0.00000001
 43
0.00000001
 40
0.0
 40
0.0
 40
0.0
 40
0.0
 40
1.0
 40
1.0
 40
1.0
 40
1.0
 10
-102.967114751607
 20
18.58603677690863
 30
0.0
 10
-102.724139751607
 20
18.63398177690862
 30
0.0
 10
-102.293793751607
 20
18.62930877690863
 30
0.0
 10
-102.040125751607
 20
18.57596877690863
 30
0.0
  0
SPLINE
  5
B6
330
1F
100
AcDbEntity
  8
0
  6
Continuous
 62
     7
370
    25
100
AcDbSpline
210
0.0
220
0.0
230
1.0
 70
     8
 71
     3
 72
     8
 73
     4
 74
     0
 42
0.00000001
 43
0.00000001
 40
0.0
 40
0.0
 40
0.0
 40
0.0
 40
1.0
 40
1.0
 40
1.0
 40
1.0
 10
-104.296324751607
 20
17.90577977690863
 30
0.0
 10
-103.929644751607
 20
18.25524077690863
 30
0.0
 10
-103.481676751607
 20
18.48449977690863
 30
0.0
 10
-102.967114751607
 20
18.58603677690863
 30
0.0
  0
SPLINE
  5
B7
330
1F
100
AcDbEntity
  8
0
  6
Continuous
 62
     7
370
    25
100
AcDbSpline
210
0.0
220
0.0
230
1.0
 70
     8
 71
     3
 72
     8
 73
     4
 74
     0
 42
0.00000001
 43
0.00000001
 40
0.0
 40
0.0
 40
0.0
 40
0.0
 40
1.0
 40
1.0
 40
1.0
 40
1.0
 10
-105.032096751607
 20
16.63053077690862
 30
0.0
 10
-104.904074751607
 20
17.14427777690863
 30
0.0
 10
-104.670417751607
 20
17.54925477690862
 30
0.0
 10
-104.296324751607
 20
17.90577977690863
 30
0.0
  0
SPLINE
  5
BE
330
1F
100
AcDbEntity
  8
0
  6
Continuous
 62
     7
370
    25
100
AcDbSpline
210
0.0
220
0.0
230
1.0
 70
     8
 71
     3
 72
     8
 73
     4
 74
     0
 42
0.00000001
 43
0.00000001
 40
0.0
 40
0.0
 40
0.0
 40
0.0
 40
1.0
 40
1.0
 40
1.0
 40
1.0
 10
-106.718359751607
 20
18.35235377690863
 30
0.0
 10
-106.020185751607
 20
18.00546377690863
 30
0.0
 10
-105.539930751607
 20
17.39620377690863
 30
0.0
 10
-105.342837751607
 20
16.60734377690862
 30
0.0
  0
SPLINE
  5
BF
330
1F
100
AcDbEntity
  8
0
  6
Continuous
 62
     7
370
    25
100
AcDbSpline
210
0.0
220
0.0
230
1.0
 70
     8
 71
     3
 72
     8
 73
     4
 74
     0
 42
0.00000001
 43
0.00000001
 40
0.0
 40
0.0
 40
0.0
 40
0.0
 40
1.0
 40
1.0
 40
1.0
 40
1.0
 10
-109.642564751607
 20
17.86567777690862
 30
0.0
 10
-108.867196751607
 20
18.65374277690863
 30
0.0
 10
-107.711932751607
 20
18.84601377690862
 30
0.0
 10
-106.718359751607
 20
18.35235377690863
 30
0.0
  0
SPLINE
  5
C0
330
1F
100
AcDbEntity
  8
0
  6
Continuous
 62
     7
370
    25
100
AcDbSpline
210
0.0
220
0.0
230
1.0
 70
     8
 71
     3
 72
     8
 73
     4
 74
     0
 42
0.00000001
 43
0.00000001
 40
0.0
 40
0.0
 40
0.0
 40
0.0
 40
1.0
 40
1.0
 40
1.0
 40
1.0
 10
-110.367748751607
 20
16.17315277690863
 30
0.0
 10
-110.367430751607
 20
16.73902077690863
 30
0.0
 10
-110.071481751607
 20
17.42973477690863
 30
0.0
 10
-109.642564751607
 20
17.86567777690862
 30
0.0
  0
SPLINE
  5
C3
330
1F
100
AcDbEntity
  8
0
  6
Continuous
 62
     7
370
    25
100
AcDbSpline
210
0.0
220
0.0
230
1.0
 70
     8
 71
     3
 72
     8
 73
     4
 74
     0
 42
0.00000001
 43
0.00000001
 40
0.0
 40
0.0
 40
0.0
 40
0.0
 40
1.0
 40
1.0
 40
1.0
 40
1.0
 10
-112.316298751607
 20
15.89965477690863
 30
0.0
 10
-111.780577751607
 20
16.16943977690862
 30
0.0
 10
-111.120024751607
 20
16.23770877690863
 30
0.0
 10
-110.529481751607
 20
16.08432577690862
 30
0.0
  0
SPLINE
  5
C4
330
1F
100
AcDbEntity
  8
0
  6
Continuous
 62
     7
370
    25
100
AcDbSpline
210
0.0
220
0.0
230
1.0
 70
     8
 71
     3
 72
     8
 73
     4
 74
     0
 42
0.00000001
 43
0.00000001
 40
0.0
 40
0.0
 40
0.0
 40
0.0
 40
1.0
 40
1.0
 40
1.0
 40
1.0
 10
-113.689348751607
 20
14.00650677690863
 30
0.0
 10
-113.559740751607
 20
14.82333077690862
 30
0.0
 10
-113.045416751607
 20
15.53247677690863
 30
0.0
 10
-112.316298751607
 20
15.89965477690863
 30
0.0
  0
SPLINE
  5
C5
330
1F
100
AcDbEntity
  8
0
  6
Continuous
 62
     7
370
    25
100
AcDbSpline
210
0.0
220
0.0
230
1.0
 70
     8
 71
     3
 72
     8
 73
     4
 74
     0
 42
0.00000001
 43
0.00000001
 40
0.0
 40
0.0
 40
0.0
 40
0.0
 40
1.0
 40
1.0
 40
1.0
 40
1.0
 10
-113.661731751607
 20
13.07738477690862
 30
0.0
 10
-113.714075751607
 20
13.30195677690863
 30
0.0
 10
-113.727812751607
 20
13.76410277690863
 30
0.0
 10
-113.689348751607
 20
14.00650677690863
 30
0.0
  0
SPLINE
  5
C6
330
1F
100
AcDbEntity
  8
0
  6
Continuous
 62
     7
370
    25
100
AcDbSpline
210
0.0
220
0.0
230
1.0
 70
     8
 71
     3
 72
     8
 73
     4
 74
     0
 42
0.00000001
 43
0.00000001
 40
0.0
 40
0.0
 40
0.0
 40
0.0
 40
1.0
 40
1.0
 40
1.0
 40
1.0
 10
-113.225204751607
 20
12.11489977690863
 30
0.0
 10
-113.424446751607
 20
12.38402877690863
 30
0.0
 10
-113.580133751607
 20
12.72729677690863
 30
0.0
 10
-113.661731751607
 20
13.07738477690862
 30
0.0
  0
SPLINE
  5
C7
330
1F
100
AcDbEntity
  8
0
  6
Continuous
 62
     7
370
    25
100
AcDbSpline
210
0.0
220
0.0
230
1.0
 70
     8
 71
     3
 72
     8
 73
     4
 74
     0
 42
0.00000001
 43
0.00000001
 40
0.0
 40
0.0
 40
0.0
 40
0.0
 40
1.0
 40
1.0
 40
1.0
 40
1.0
 10
-113.110534751607
 20
11.94731477690863
 30
0.0
 10
-113.107343751607
 20
11.94998477690863
 30
0.0
 10
-113.158944751607
 20
12.02539877690863
 30
0.0
 10
-113.225204751607
 20
12.11489977690863
 30
0.0
  0
SPLINE
  5
C8
330
1F
100
AcDbEntity
  8
0
  6
Continuous
 62
     7
370
    25
100
AcDbSpline
210
0.0
220
0.0
230
1.0
 70
     8
 71
     3
 72
     8
 73
     4
 74
     0
 42
0.00000001
 43
0.00000001
 40
0.0
 40
0.0
 40
0.0
 40
0.0
 40
1.0
 40
1.0
 40
1.0
 40
1.0
 10
-113.217454751607
 20
11.91041877690863
 30
0.0
 10
-113.161839751607
 20
11.92804277690862
 30
0.0
 10
-113.113725751607
 20
11.94464477690862
 30
0.0
 10
-113.110534751607
 20
11.94731477690863
 30
0.0
  0
SPLINE
  5
C9
330
1F
100
AcDbEntity
  8
0
  6
Continuous
 62
     7
370
    25
100
AcDbSpline
210
0.0
220
0.0
230
1.0
 70
     8
 71
     3
 72
     8
 73
     4
 74
     0
 42
0.00000001
 43
0.00000001
 40
0.0
 40
0.0
 40
0.0
 40
0.0
 40
1.0
 40
1.0
 40
1.0
 40
1.0
 10
-113.506622751607
 20
11.78722077690862
 30
0.0
 10
-113.403195751607
 20
11.83735677690863
 30
0.0
 10
-113.273069751607
 20
11.89279577690863
 30
0.0
 10
-113.217454751607
 20
11.91041877690863
 30
0.0
  0
SPLINE
  5
CA
330
1F
100
AcDbEntity
  8
0
  6
Continuous
 62
     7
370
    25
100
AcDbSpline
210
0.0
220
0.0
230
1.0
 70
     8
 71
     3
 72
     8
 73
     4
 74
     0
 42
0.00000001
 43
0.00000001
 40
0.0
 40
0.0
 40
0.0
 40
0.0
 40
1.0
 40
1.0
 40
1.0
 40
1.0
 10
-114.921735751607
 20
9.381959776908623
 30
0.0
 10
-114.972552751607
 20
10.39612377690863
 30
0.0
 10
-114.412452751607
 20
11.34812477690862
 30
0.0
 10
-113.506622751607
 20
11.78722077690862
 30
0.0
  0
SPLINE
  5
CB
330
1F
100
AcDbEntity
  8
0
  6
Continuous
 62
     7
370
    25
100
AcDbSpline
210
0.0
220
0.0
230
1.0
 70
     8
 71
     3
 72
     8
 73
     4
 74
     0
 42
0.00000001
 43
0.00000001
 40
0.0
 40
0.0
 40
0.0
 40
0.0
 40
1.0
 40
1.0
 40
1.0
 40
1.0
 10
-114.659958751607
 20
8.369314776908627
 30
0.0
 10
-114.807800751607
 20
8.662889776908628
 30
0.0
 10
-114.904435751607
 20
9.036707776908626
 30
0.0
 10
-114.921735751607
 20
9.381959776908623
 30
0.0
  0
SPLINE
  5
CC
330
1F
100
AcDbEntity
  8
0
  6
Continuous
 62
     7
370
    25
100
AcDbSpline
210
0.0
220
0.0
230
1.0
 70
     8
 71
     3
 72
     8
 73
     4
 74
     0
 42
0.00000001
 43
0.00000001
 40
0.0
 40
0.0
 40
0.0
 40
0.0
 40
1.0
 40
1.0
 40
1.0
 40
1.0
 10
-113.092817751607
 20
7.061489776908628
 30
0.0
 10
-113.746184751607
 20
7.243511776908629
 30
0.0
 10
-114.344434751607
 20
7.742768776908628
 30
0.0
 10
-114.659958751607
 20
8.369314776908627
 30
0.0
  0
SPLINE
  5
CD
330
1F
100
AcDbEntity
  8
0
  6
Continuous
 62
     7
370
    25
100
AcDbSpline
210
0.0
220
0.0
230
1.0
 70
     8
 71
     3
 72
     8
 73
     4
 74
     0
 42
0.00000001
 43
0.00000001
 40
0.0
 40
0.0
 40
0.0
 40
0.0
 40
1.0
 40
1.0
 40
1.0
 40
1.0
 10
-112.941815751607
 20
7.008429776908624
 30
0.0
 10
-112.941889751607
 20
7.014495776908626
 30
0.0
 10
-113.009842751607
 20
7.038373776908625
 30
0.0
 10
-113.092817751607
 20
7.061489776908628
 30
0.0
  0
SPLINE
  5
CE
330
1F
100
AcDbEntity
  8
0
  6
Continuous
 62
     7
370
    25
100
AcDbSpline
210
0.0
220
0.0
230
1.0
 70
     8
 71
     3
 72
     8
 73
     4
 74
     0
 42
0.00000001
 43
0.00000001
 40
0.0
 40
0.0
 40
0.0
 40
0.0
 40
1.0
 40
1.0
 40
1.0
 40
1.0
 10
-113.054057751607
 20
6.899650776908627
 30
0.0
 10
-112.992248751607
 20
6.953411776908624
 30
0.0
 10
-112.941739751607
 20
7.002361776908626
 30
0.0
 10
-112.941815751607
 20
7.008429776908624
 30
0.0
  0
SPLINE
  5
CF
330
1F
100
AcDbEntity
  8
0
  6
Continuous
 62
     7
370
    25
100
AcDbSpline
210
0.0
220
0.0
230
1.0
 70
     8
 71
     3
 72
     8
 73
     4
 74
     0
 42
0.00000001
 43
0.00000001
 40
0.0
 40
0.0
 40
0.0
 40
0.0
 40
1.0
 40
1.0
 40
1.0
 40
1.0
 10
-113.663192751607
 20
6.077739776908627
 30
0.0
 10
-113.509593751607
 20
6.399285776908625
 30
0.0
 10
-113.292399751607
 20
6.692347776908629
 30
0.0
 10
-113.054057751607
 20
6.899650776908627
 30
0.0
  0
SPLINE
  5
D3
330
1F
100
AcDbEntity
  8
0
  6
Continuous
 62
     7
370
    25
100
AcDbSpline
210
0.0
220
0.0
230
1.0
 70
     8
 71
     3
 72
     8
 73
     4
 74
     0
 42
0.00000001
 43
0.00000001
 40
0.0
 40
0.0
 40
0.0
 40
0.0
 40
1.0
 40
1.0
 40
1.0
 40
1.0
 10
-116.360069751607
 20
9.470827776908626
 30
0.0
 10
-116.182119751607
 20
8.243264776908624
 30
0.0
 10
-115.831635751607
 20
7.105392776908623
 30
0.0
 10
-115.313358751607
 20
6.072606776908626
 30
0.0
  0
SPLINE
  5
D4
330
1F
100
AcDbEntity
  8
0
  6
Continuous
 62
     7
370
    25
100
AcDbSpline
210
0.0
220
0.0
230
1.0
 70
     8
 71
     3
 72
     8
 73
     4
 74
     0
 42
0.00000001
 43
0.00000001
 40
0.0
 40
0.0
 40
0.0
 40
0.0
 40
1.0
 40
1.0
 40
1.0
 40
1.0
 10
-116.555717751607
 20
9.948201776908627
 30
0.0
 10
-116.434320751607
 20
9.907588776908627
 30
0.0
 10
-116.417397751607
 20
9.866298776908627
 30
0.0
 10
-116.360069751607
 20
9.470827776908626
 30
0.0
  0
SPLINE
  5
D5
330
1F
100
AcDbEntity
  8
0
  6
Continuous
 62
     7
370
    25
100
AcDbSpline
210
0.0
220
0.0
230
1.0
 70
     8
 71
     3
 72
     8
 73
     4
 74
     0
 42
0.00000001
 43
0.00000001
 40
0.0
 40
0.0
 40
0.0
 40
0.0
 40
1.0
 40
1.0
 40
1.0
 40
1.0
 10
-116.707692751607
 20
9.941301776908624
 30
0.0
 10
-116.638308751607
 20
9.967799776908628
 30
0.0
 10
-116.617164751607
 20
9.968759776908625
 30
0.0
 10
-116.555717751607
 20
9.948201776908627
 30
0.0
  0
SPLINE
  5
D6
330
1F
100
AcDbEntity
  8
0
  6
Continuous
 62
     7
370
    25
100
AcDbSpline
210
0.0
220
0.0
230
1.0
 70
     8
 71
     3
 72
     8
 73
     4
 74
     0
 42
0.00000001
 43
0.00000001
 40
0.0
 40
0.0
 40
0.0
 40
0.0
 40
1.0
 40
1.0
 40
1.0
 40
1.0
 10
-116.822164751607
 20
9.83394377690863
 30
0.0
 10
-116.794954751607
 20
9.895455776908625
 30
0.0
 10
-116.772433751607
 20
9.916576776908624
 30
0.0
 10
-116.707692751607
 20
9.941301776908624
 30
0.0
  0
SPLINE
  5
D7
330
1F
100
AcDbEntity
  8
0
  6
Continuous
 62
     7
370
    25
100
AcDbSpline
210
0.0
220
0.0
230
1.0
 70
     8
 71
     3
 72
     8
 73
     4
 74
     0
 42
0.00000001
 43
0.00000001
 40
0.0
 40
0.0
 40
0.0
 40
0.0
 40
1.0
 40
1.0
 40
1.0
 40
1.0
 10
-116.829098751607
 20
9.546680776908627
 30
0.0
 10
-116.854459751607
 20
9.745014776908627
 30
0.0
 10
-116.854054751607
 20
9.761854776908624
 30
0.0
 10
-116.822164751607
 20
9.83394377690863
 30
0.0
  0
SPLINE
  5
D8
330
1F
100
AcDbEntity
  8
0
  6
Continuous
 62
     7
370
    25
100
AcDbSpline
210
0.0
220
0.0
230
1.0
 70
     8
 71
     3
 72
     8
 73
     4
 74
     0
 42
0.00000001
 43
0.00000001
 40
0.0
 40
0.0
 40
0.0
 40
0.0
 40
1.0
 40
1.0
 40
1.0
 40
1.0
 10
-115.879258751607
 20
6.210512776908629
 30
0.0
 10
-116.350951751607
 20
7.231963776908625
 30
0.0
 10
-116.681634751607
 20
8.393438776908628
 30
0.0
 10
-116.829098751607
 20
9.546680776908627
 30
0.0
  0
SPLINE
  5
D9
330
1F
100
AcDbEntity
  8
0
  6
Continuous
 62
     7
370
    25
100
AcDbSpline
210
0.0
220
0.0
230
1.0
 70
     8
 71
     3
 72
     8
 73
     4
 74
     0
 42
0.00000001
 43
0.00000001
 40
0.0
 40
0.0
 40
0.0
 40
0.0
 40
1.0
 40
1.0
 40
1.0
 40
1.0
 10
-115.742100751607
 20
5.911752776908627
 30
0.0
 10
-115.747495751607
 20
5.924391776908625
 30
0.0
 10
-115.809215751607
 20
6.058834776908626
 30
0.0
 10
-115.879258751607
 20
6.210512776908629
 30
0.0
  0
SPLINE
  5
DA
330
1F
100
AcDbEntity
  8
0
  6
Continuous
 62
     7
370
    25
100
AcDbSpline
210
0.0
220
0.0
230
1.0
 70
     8
 71
     3
 72
     8
 73
     4
 74
     0
 42
0.00000001
 43
0.00000001
 40
0.0
 40
0.0
 40
0.0
 40
0.0
 40
1.0
 40
1.0
 40
1.0
 40
1.0
 10
-116.653521751607
 20
5.888771776908626
 30
0.0
 10
-115.923565751607
 20
5.888771776908626
 30
0.0
 10
-115.734329751607
 20
5.893541776908626
 30
0.0
 10
-115.742100751607
 20
5.911752776908627
 30
0.0
  0
SPLINE
  5
DD
330
1F
100
AcDbEntity
  8
0
  6
Continuous
 62
     7
370
    25
100
AcDbSpline
210
0.0
220
0.0
230
1.0
 70
     8
 71
     3
 72
     8
 73
     4
 74
     0
 42
0.00000001
 43
0.00000001
 40
0.0
 40
0.0
 40
0.0
 40
0.0
 40
1.0
 40
1.0
 40
1.0
 40
1.0
 10
-116.922819751607
 20
1.736491776908627
 30
0.0
 10
-117.342295751607
 20
2.967285776908628
 30
0.0
 10
-117.574748751607
 20
4.323793776908624
 30
0.0
 10
-117.574748751607
 20
5.540915776908628
 30
0.0
  0
SPLINE
  5
DE
330
1F
100
AcDbEntity
  8
0
  6
Continuous
 62
     7
370
    25
100
AcDbSpline
210
0.0
220
0.0
230
1.0
 70
     8
 71
     3
 72
     8
 73
     4
 74
     0
 42
0.00000001
 43
0.00000001
 40
0.0
 40
0.0
 40
0.0
 40
0.0
 40
1.0
 40
1.0
 40
1.0
 40
1.0
 10
-114.202381751607
 20
-2.775581223091375
 30
0.0
 10
-115.448763751607
 20
-1.444486223091374
 30
0.0
 10
-116.345699751607
 20
0.0431517769086294
 30
0.0
 10
-116.922819751607
 20
1.736491776908627
 30
0.0
  0
SPLINE
  5
DF
330
1F
100
AcDbEntity
  8
0
  6
Continuous
 62
     7
370
    25
100
AcDbSpline
210
0.0
220
0.0
230
1.0
 70
     8
 71
     3
 72
     8
 73
     4
 74
     0
 42
0.00000001
 43
0.00000001
 40
0.0
 40
0.0
 40
0.0
 40
0.0
 40
1.0
 40
1.0
 40
1.0
 40
1.0
 10
-113.300190751607
 20
-3.595102223091371
 30
0.0
 10
-113.741225751607
 20
-3.243433223091376
 30
0.0
 10
-113.895638751607
 20
-3.103170223091374
 30
0.0
 10
-114.202381751607
 20
-2.775581223091375
 30
0.0
  0
SPLINE
  5
E0
330
1F
100
AcDbEntity
  8
0
  6
Continuous
 62
     7
370
    25
100
AcDbSpline
210
0.0
220
0.0
230
1.0
 70
     8
 71
     3
 72
     8
 73
     4
 74
     0
 42
0.00000001
 43
0.00000001
 40
0.0
 40
0.0
 40
0.0
 40
0.0
 40
1.0
 40
1.0
 40
1.0
 40
1.0
 10
-110.976117751607
 20
-7.286201223091374
 30
0.0
 10
-111.176300751607
 20
-5.893622223091374
 30
0.0
 10
-111.941313751607
 20
-4.678626223091373
 30
0.0
 10
-113.300190751607
 20
-3.595102223091371
 30
0.0
  0
SPLINE
  5
E1
330
1F
100
AcDbEntity
  8
0
  6
Continuous
 62
     7
370
    25
100
AcDbSpline
210
0.0
220
0.0
230
1.0
 70
     8
 71
     3
 72
     8
 73
     4
 74
     0
 42
0.00000001
 43
0.00000001
 40
0.0
 40
0.0
 40
0.0
 40
0.0
 40
1.0
 40
1.0
 40
1.0
 40
1.0
 10
-110.900921751607
 20
-9.141874223091374
 30
0.0
 10
-110.900921751607
 20
-8.008651223091373
 30
0.0
 10
-110.912171751607
 20
-7.731042223091374
 30
0.0
 10
-110.976117751607
 20
-7.286201223091374
 30
0.0
  0
SPLINE
  5
E2
330
1F
100
AcDbEntity
  8
0
  6
Continuous
 62
     7
370
    25
100
AcDbSpline
210
0.0
220
0.0
230
1.0
 70
     8
 71
     3
 72
     8
 73
     4
 74
     0
 42
0.00000001
 43
0.00000001
 40
0.0
 40
0.0
 40
0.0
 40
0.0
 40
1.0
 40
1.0
 40
1.0
 40
1.0
 10
-110.864730751607
 20
-10.38907022309137
 30
0.0
 10
-110.898758751607
 20
-10.25602122309137
 30
0.0
 10
-110.900921751607
 20
-10.18148322309137
 30
0.0
 10
-110.900921751607
 20
-9.141874223091374
 30
0.0
  0
SPLINE
  5
E3
330
1F
100
AcDbEntity
  8
0
  6
Continuous
 62
     7
370
    25
100
AcDbSpline
210
0.0
220
0.0
230
1.0
 70
     8
 71
     3
 72
     8
 73
     4
 74
     0
 42
0.00000001
 43
0.00000001
 40
0.0
 40
0.0
 40
0.0
 40
0.0
 40
1.0
 40
1.0
 40
1.0
 40
1.0
 10
-110.538164751607
 20
-10.96493022309138
 30
0.0
 10
-110.695277751607
 20
-10.80781522309138
 30
0.0
 10
-110.808857751607
 20
-10.60753122309137
 30
0.0
 10
-110.864730751607
 20
-10.38907022309137
 30
0.0
  0
SPLINE
  5
E6
330
1F
100
AcDbEntity
  8
0
  6
Continuous
 62
     7
370
    25
100
AcDbSpline
210
0.0
220
0.0
230
1.0
 70
     8
 71
     3
 72
     8
 73
     4
 74
     0
 42
0.00000001
 43
0.00000001
 40
0.0
 40
0.0
 40
0.0
 40
0.0
 40
1.0
 40
1.0
 40
1.0
 40
1.0
 10
-110.864730751607
 20
-11.80926122309138
 30
0.0
 10
-110.808857751607
 20
-11.59079922309137
 30
0.0
 10
-110.695277751607
 20
-11.39051522309137
 30
0.0
 10
-110.538164751607
 20
-11.23340022309137
 30
0.0
  0
SPLINE
  5
E7
330
1F
100
AcDbEntity
  8
0
  6
Continuous
 62
     7
370
    25
100
AcDbSpline
210
0.0
220
0.0
230
1.0
 70
     8
 71
     3
 72
     8
 73
     4
 74
     0
 42
0.00000001
 43
0.00000001
 40
0.0
 40
0.0
 40
0.0
 40
0.0
 40
1.0
 40
1.0
 40
1.0
 40
1.0
 10
-110.900602751607
 20
-13.74497922309137
 30
0.0
 10
-110.900919751607
 20
-12.01995122309137
 30
0.0
 10
-110.899517751607
 20
-11.94530922309137
 30
0.0
 10
-110.864730751607
 20
-11.80926122309138
 30
0.0
  0
SPLINE
  5
E8
330
1F
100
AcDbEntity
  8
0
  6
Continuous
 62
     7
370
    25
100
AcDbSpline
210
0.0
220
0.0
230
1.0
 70
     8
 71
     3
 72
     8
 73
     4
 74
     0
 42
0.00000001
 43
0.00000001
 40
0.0
 40
0.0
 40
0.0
 40
0.0
 40
1.0
 40
1.0
 40
1.0
 40
1.0
 10
-110.769793751607
 20
-15.95285822309138
 30
0.0
 10
-110.904668751607
 20
-15.67782122309137
 30
0.0
 10
-110.900245751607
 20
-15.75248622309137
 30
0.0
 10
-110.900602751607
 20
-13.74497922309137
 30
0.0
  0
SPLINE
  5
E9
330
1F
100
AcDbEntity
  8
0
  6
Continuous
 62
     7
370
    25
100
AcDbSpline
210
0.0
220
0.0
230
1.0
 70
     8
 71
     3
 72
     8
 73
     4
 74
     0
 42
0.00000001
 43
0.00000001
 40
0.0
 40
0.0
 40
0.0
 40
0.0
 40
1.0
 40
1.0
 40
1.0
 40
1.0
 10
-110.535050751607
 20
-16.26612722309137
 30
0.0
 10
-110.662089751607
 20
-16.13998422309137
 30
0.0
 10
-110.708218751607
 20
-16.07842422309137
 30
0.0
 10
-110.769793751607
 20
-15.95285822309138
 30
0.0
  0
SPLINE
  5
EA
330
1F
100
AcDbEntity
  8
0
  6
Continuous
 62
     7
370
    25
100
AcDbSpline
210
0.0
220
0.0
230
1.0
 70
     8
 71
     3
 72
     8
 73
     4
 74
     0
 42
0.00000001
 43
0.00000001
 40
0.0
 40
0.0
 40
0.0
 40
0.0
 40
1.0
 40
1.0
 40
1.0
 40
1.0
 10
-110.036817751607
 20
-16.58028322309137
 30
0.0
 10
-110.253775751607
 20
-16.50319622309138
 30
0.0
 10
-110.370280751607
 20
-16.42973522309137
 30
0.0
 10
-110.535050751607
 20
-16.26612722309137
 30
0.0
  0
SPLINE
  5
EB
330
1F
100
AcDbEntity
  8
0
  6
Continuous
 62
     7
370
    25
100
AcDbSpline
210
0.0
220
0.0
230
1.0
 70
     8
 71
     3
 72
     8
 73
     4
 74
     0
 42
0.00000001
 43
0.00000001
 40
0.0
 40
0.0
 40
0.0
 40
0.0
 40
1.0
 40
1.0
 40
1.0
 40
1.0
 10
-109.021143751607
 20
-16.62889522309138
 30
0.0
 10
-109.902768751607
 20
-16.62283622309137
 30
0.0
 10
-109.919252751607
 20
-16.62206822309138
 30
0.0
 10
-110.036817751607
 20
-16.58028322309137
 30
0.0
  0
SPLINE
  5
EE
330
1F
100
AcDbEntity
  8
0
  6
Continuous
 62
     7
370
    25
100
AcDbSpline
210
0.0
220
0.0
230
1.0
 70
     8
 71
     3
 72
     8
 73
     4
 74
     0
 42
0.00000001
 43
0.00000001
 40
0.0
 40
0.0
 40
0.0
 40
0.0
 40
1.0
 40
1.0
 40
1.0
 40
1.0
 10
-108.078378751607
 20
-16.90887922309137
 30
0.0
 10
-108.095554751607
 20
-16.80270522309137
 30
0.0
 10
-108.113065751607
 20
-16.69765222309137
 30
0.0
 10
-108.117290751607
 20
-16.67543222309138
 30
0.0
  0
SPLINE
  5
EF
330
1F
100
AcDbEntity
  8
0
  6
Continuous
 62
     7
370
    25
100
AcDbSpline
210
0.0
220
0.0
230
1.0
 70
     8
 71
     3
 72
     8
 73
     4
 74
     0
 42
0.00000001
 43
0.00000001
 40
0.0
 40
0.0
 40
0.0
 40
0.0
 40
1.0
 40
1.0
 40
1.0
 40
1.0
 10
-106.375101751607
 20
-19.03061522309137
 30
0.0
 10
-107.254312751607
 20
-18.66812622309137
 30
0.0
 10
-107.929910751607
 20
-17.82654722309137
 30
0.0
 10
-108.078378751607
 20
-16.90887922309137
 30
0.0
  0
SPLINE
  5
F0
330
1F
100
AcDbEntity
  8
0
  6
Continuous
 62
     7
370
    25
100
AcDbSpline
210
0.0
220
0.0
230
1.0
 70
     8
 71
     3
 72
     8
 73
     4
 74
     0
 42
0.00000001
 43
0.00000001
 40
0.0
 40
0.0
 40
0.0
 40
0.0
 40
1.0
 40
1.0
 40
1.0
 40
1.0
 10
-115.266894751607
 20
11.58346077690863
 30
0.0
 10
-115.516373751607
 20
11.39744377690863
 30
0.0
 10
-115.808178751607
 20
11.26848377690863
 30
0.0
 10
-116.108533751607
 20
11.21150777690862
 30
0.0
  0
SPLINE
  5
F1
330
1F
100
AcDbEntity
  8
0
  6
Continuous
 62
     7
370
    25
100
AcDbSpline
210
0.0
220
0.0
230
1.0
 70
     8
 71
     3
 72
     8
 73
     4
 74
     0
 42
0.00000001
 43
0.00000001
 40
0.0
 40
0.0
 40
0.0
 40
0.0
 40
1.0
 40
1.0
 40
1.0
 40
1.0
 10
-114.493799751607
 20
12.84756977690862
 30
0.0
 10
-114.589618751607
 20
12.32839677690863
 30
0.0
 10
-114.859370751607
 20
11.88731677690862
 30
0.0
 10
-115.266894751607
 20
11.58346077690863
 30
0.0
  0
SPLINE
  5
F2
330
1F
100
AcDbEntity
  8
0
  6
Continuous
 62
     7
370
    25
100
AcDbSpline
210
0.0
220
0.0
230
1.0
 70
     8
 71
     3
 72
     8
 73
     4
 74
     0
 42
0.00000001
 43
0.00000001
 40
0.0
 40
0.0
 40
0.0
 40
0.0
 40
1.0
 40
1.0
 40
1.0
 40
1.0
 10
-114.529411751607
 20
13.68919577690862
 30
0.0
 10
-114.465937751607
 20
13.44478377690863
 30
0.0
 10
-114.450576751607
 20
13.08176277690862
 30
0.0
 10
-114.493799751607
 20
12.84756977690862
 30
0.0
  0
SPLINE
  5
F3
330
1F
100
AcDbEntity
  8
0
  6
Continuous
 62
     7
370
    25
100
AcDbSpline
210
0.0
220
0.0
230
1.0
 70
     8
 71
     3
 72
     8
 73
     4
 74
     0
 42
0.00000001
 43
0.00000001
 40
0.0
 40
0.0
 40
0.0
 40
0.0
 40
1.0
 40
1.0
 40
1.0
 40
1.0
 10
-114.799573751607
 20
14.30144377690863
 30
0.0
 10
-114.702177751607
 20
14.15988277690863
 30
0.0
 10
-114.579377751607
 20
13.88159177690863
 30
0.0
 10
-114.529411751607
 20
13.68919577690862
 30
0.0
  0
SPLINE
  5
F4
330
1F
100
AcDbEntity
  8
0
  6
Continuous
 62
     7
370
    25
100
AcDbSpline
210
0.0
220
0.0
230
1.0
 70
     8
 71
     3
 72
     8
 73
     4
 74
     0
 42
0.00000001
 43
0.00000001
 40
0.0
 40
0.0
 40
0.0
 40
0.0
 40
1.0
 40
1.0
 40
1.0
 40
1.0
 10
-115.543017751607
 20
14.96487377690862
 30
0.0
 10
-115.265006751607
 20
14.82239777690863
 30
0.0
 10
-114.987808751607
 20
14.57503277690863
 30
0.0
 10
-114.799573751607
 20
14.30144377690863
 30
0.0
  0
SPLINE
  5
F5
330
1F
100
AcDbEntity
  8
0
  6
Continuous
 62
     7
370
    25
100
AcDbSpline
210
0.0
220
0.0
230
1.0
 70
     8
 71
     3
 72
     8
 73
     4
 74
     0
 42
0.00000001
 43
0.00000001
 40
0.0
 40
0.0
 40
0.0
 40
0.0
 40
1.0
 40
1.0
 40
1.0
 40
1.0
 10
-115.715719751607
 20
15.05578177690863
 30
0.0
 10
-115.711830751607
 20
15.05246677690863
 30
0.0
 10
-115.634114751607
 20
15.01155877690863
 30
0.0
 10
-115.543017751607
 20
14.96487377690862
 30
0.0
  0
SPLINE
  5
F6
330
1F
100
AcDbEntity
  8
0
  6
Continuous
 62
     7
370
    25
100
AcDbSpline
210
0.0
220
0.0
230
1.0
 70
     8
 71
     3
 72
     8
 73
     4
 74
     0
 42
0.00000001
 43
0.00000001
 40
0.0
 40
0.0
 40
0.0
 40
0.0
 40
1.0
 40
1.0
 40
1.0
 40
1.0
 10
-115.698823751607
 20
15.12214877690863
 30
0.0
 10
-115.712004751607
 20
15.08896177690863
 30
0.0
 10
-115.719609751607
 20
15.05909577690862
 30
0.0
 10
-115.715719751607
 20
15.05578177690863
 30
0.0
  0
SPLINE
  5
F7
330
1F
100
AcDbEntity
  8
0
  6
Continuous
 62
     7
370
    25
100
AcDbSpline
210
0.0
220
0.0
230
1.0
 70
     8
 71
     3
 72
     8
 73
     4
 74
     0
 42
0.00000001
 43
0.00000001
 40
0.0
 40
0.0
 40
0.0
 40
0.0
 40
1.0
 40
1.0
 40
1.0
 40
1.0
 10
-111.043942751607
 20
20.61172177690863
 30
0.0
 10
-113.150328751607
 20
19.34865377690863
 30
0.0
 10
-114.786376751607
 20
17.41923677690863
 30
0.0
 10
-115.698823751607
 20
15.12214877690863
 30
0.0
  0
SPLINE
  5
F8
330
1F
100
AcDbEntity
  8
0
  6
Continuous
 62
     7
370
    25
100
AcDbSpline
210
0.0
220
0.0
230
1.0
 70
     8
 71
     3
 72
     8
 73
     4
 74
     0
 42
0.00000001
 43
0.00000001
 40
0.0
 40
0.0
 40
0.0
 40
0.0
 40
1.0
 40
1.0
 40
1.0
 40
1.0
 10
-106.286234751607
 20
22.17202977690863
 30
0.0
 10
-108.031027751607
 20
21.99779277690862
 30
0.0
 10
-109.579101751607
 20
21.49009577690862
 30
0.0
 10
-111.043942751607
 20
20.61172177690863
 30
0.0
  0
SPLINE
  5
F9
330
1F
100
AcDbEntity
  8
0
  6
Continuous
 62
     7
370
    25
100
AcDbSpline
210
0.0
220
0.0
230
1.0
 70
     8
 71
     3
 72
     8
 73
     4
 74
     0
 42
0.00000001
 43
0.00000001
 40
0.0
 40
0.0
 40
0.0
 40
0.0
 40
1.0
 40
1.0
 40
1.0
 40
1.0
 10
-104.374173751607
 20
22.18156577690863
 30
0.0
 10
-104.776886751607
 20
22.21787077690862
 30
0.0
 10
-105.882402751607
 20
22.21235777690862
 30
0.0
 10
-106.286234751607
 20
22.17202977690863
 30
0.0
  0
SPLINE
  5
FA
330
1F
100
AcDbEntity
  8
0
  6
Continuous
 62
     7
370
    25
100
AcDbSpline
210
0.0
220
0.0
230
1.0
 70
     8
 71
     3
 72
     8
 73
     4
 74
     0
 42
0.00000001
 43
0.00000001
 40
0.0
 40
0.0
 40
0.0
 40
0.0
 40
1.0
 40
1.0
 40
1.0
 40
1.0
 10
-97.73868575160698
 20
19.28186577690863
 30
0.0
 10
-99.59969075160697
 20
20.97580377690863
 30
0.0
 10
-101.835067751607
 20
21.95266077690863
 30
0.0
 10
-104.374173751607
 20
22.18156577690863
 30
0.0
  0
SPLINE
  5
FB
330
1F
100
AcDbEntity
  8
0
  6
Continuous
 62
     7
370
    25
100
AcDbSpline
210
0.0
220
0.0
230
1.0
 70
     8
 71
     3
 72
     8
 73
     4
 74
     0
 42
0.00000001
 43
0.00000001
 40
0.0
 40
0.0
 40
0.0
 40
0.0
 40
1.0
 40
1.0
 40
1.0
 40
1.0
 10
-97.32673475160696
 20
19.02571477690863
 30
0.0
 10
-97.41866975160698
 20
19.00827877690863
 30
0.0
 10
-97.48004275160697
 20
19.04643977690863
 30
0.0
 10
-97.73868575160698
 20
19.28186577690863
 30
0.0
  0
SPLINE
  5
FC
330
1F
100
AcDbEntity
  8
0
  6
Continuous
 62
     7
370
    25
100
AcDbSpline
210
0.0
220
0.0
230
1.0
 70
     8
 71
     3
 72
     8
 73
     4
 74
     0
 42
0.00000001
 43
0.00000001
 40
0.0
 40
0.0
 40
0.0
 40
0.0
 40
1.0
 40
1.0
 40
1.0
 40
1.0
 10
-97.17464475160698
 20
19.36144077690863
 30
0.0
 10
-97.10209575160697
 20
19.22212577690863
 30
0.0
 10
-97.17832275160698
 20
19.05386177690863
 30
0.0
 10
-97.32673475160696
 20
19.02571477690863
 30
0.0
  0
SPLINE
  5
FD
330
1F
100
AcDbEntity
  8
0
  6
Continuous
 62
     7
370
    25
100
AcDbSpline
210
0.0
220
0.0
230
1.0
 70
     8
 71
     3
 72
     8
 73
     4
 74
     0
 42
0.00000001
 43
0.00000001
 40
0.0
 40
0.0
 40
0.0
 40
0.0
 40
1.0
 40
1.0
 40
1.0
 40
1.0
 10
-98.31625075160697
 20
20.35297877690863
 30
0.0
 10
-97.85928075160697
 20
20.00897377690863
 30
0.0
 10
-97.22493375160697
 20
19.45801577690863
 30
0.0
 10
-97.17464475160698
 20
19.36144077690863
 30
0.0
  0
SPLINE
  5
FE
330
1F
100
AcDbEntity
  8
0
  6
Continuous
 62
     7
370
    25
100
AcDbSpline
210
0.0
220
0.0
230
1.0
 70
     8
 71
     3
 72
     8
 73
     4
 74
     0
 42
0.00000001
 43
0.00000001
 40
0.0
 40
0.0
 40
0.0
 40
0.0
 40
1.0
 40
1.0
 40
1.0
 40
1.0
 10
-104.098396751607
 20
22.60888077690863
 30
0.0
 10
-101.986855751607
 20
22.39068877690863
 30
0.0
 10
-99.98627075160697
 20
21.61016177690862
 30
0.0
 10
-98.31625075160697
 20
20.35297877690863
 30
0.0
  0
SPLINE
  5
FF
330
1F
100
AcDbEntity
  8
0
  6
Continuous
 62
     7
370
    25
100
AcDbSpline
210
0.0
220
0.0
230
1.0
 70
     8
 71
     3
 72
     8
 73
     4
 74
     0
 42
0.00000001
 43
0.00000001
 40
0.0
 40
0.0
 40
0.0
 40
0.0
 40
1.0
 40
1.0
 40
1.0
 40
1.0
 10
-112.758496751607
 20
19.94825577690863
 30
0.0
 10
-110.342263751607
 20
21.96708277690863
 30
0.0
 10
-107.207539751607
 20
22.93015777690863
 30
0.0
 10
-104.098396751607
 20
22.60888077690863
 30
0.0
  0
SPLINE
  5
100
330
1F
100
AcDbEntity
  8
0
  6
Continuous
 62
     7
370
    25
100
AcDbSpline
210
0.0
220
0.0
230
1.0
 70
     8
 71
     3
 72
     8
 73
     4
 74
     0
 42
0.00000001
 43
0.00000001
 40
0.0
 40
0.0
 40
0.0
 40
0.0
 40
1.0
 40
1.0
 40
1.0
 40
1.0
 10
-116.066599751607
 20
15.42150077690863
 30
0.0
 10
-115.373414751607
 20
17.14352477690863
 30
0.0
 10
-114.210072751607
 20
18.73542477690863
 30
0.0
 10
-112.758496751607
 20
19.94825577690863
 30
0.0
  0
SPLINE
  5
103
330
1F
100
AcDbEntity
  8
0
  6
Continuous
 62
     7
370
    25
100
AcDbSpline
210
0.0
220
0.0
230
1.0
 70
     8
 71
     3
 72
     8
 73
     4
 74
     0
 42
0.00000001
 43
0.00000001
 40
0.0
 40
0.0
 40
0.0
 40
0.0
 40
1.0
 40
1.0
 40
1.0
 40
1.0
 10
-116.977228751607
 20
15.13174177690862
 30
0.0
 10
-116.810652751607
 20
15.17719777690862
 30
0.0
 10
-116.763751751607
 20
15.18193977690863
 30
0.0
 10
-116.478093751607
 20
15.18220177690863
 30
0.0
  0
SPLINE
  5
104
330
1F
100
AcDbEntity
  8
0
  6
Continuous
 62
     7
370
    25
100
AcDbSpline
210
0.0
220
0.0
230
1.0
 70
     8
 71
     3
 72
     8
 73
     4
 74
     0
 42
0.00000001
 43
0.00000001
 40
0.0
 40
0.0
 40
0.0
 40
0.0
 40
1.0
 40
1.0
 40
1.0
 40
1.0
 10
-117.686774751607
 20
14.78860277690863
 30
0.0
 10
-117.518737751607
 20
14.91604177690863
 30
0.0
 10
-117.196368751607
 20
15.07194077690863
 30
0.0
 10
-116.977228751607
 20
15.13174177690862
 30
0.0
  0
SPLINE
  5
105
330
1F
100
AcDbEntity
  8
0
  6
Continuous
 62
     7
370
    25
100
AcDbSpline
210
0.0
220
0.0
230
1.0
 70
     8
 71
     3
 72
     8
 73
     4
 74
     0
 42
0.00000001
 43
0.00000001
 40
0.0
 40
0.0
 40
0.0
 40
0.0
 40
1.0
 40
1.0
 40
1.0
 40
1.0
 10
-118.457701751607
 20
13.49650577690863
 30
0.0
 10
-118.376354751607
 20
14.00426677690863
 30
0.0
 10
-118.091537751607
 20
14.48162977690862
 30
0.0
 10
-117.686774751607
 20
14.78860277690863
 30
0.0
  0
SPLINE
  5
106
330
1F
100
AcDbEntity
  8
0
  6
Continuous
 62
     7
370
    25
100
AcDbSpline
210
0.0
220
0.0
230
1.0
 70
     8
 71
     3
 72
     8
 73
     4
 74
     0
 42
0.00000001
 43
0.00000001
 40
0.0
 40
0.0
 40
0.0
 40
0.0
 40
1.0
 40
1.0
 40
1.0
 40
1.0
 10
-118.423687751607
 20
12.70003977690862
 30
0.0
 10
-118.472870751607
 20
12.88774677690863
 30
0.0
 10
-118.490204751607
 20
13.29362577690862
 30
0.0
 10
-118.457701751607
 20
13.49650577690863
 30
0.0
  0
SPLINE
  5
107
330
1F
100
AcDbEntity
  8
0
  6
Continuous
 62
     7
370
    25
100
AcDbSpline
210
0.0
220
0.0
230
1.0
 70
     8
 71
     3
 72
     8
 73
     4
 74
     0
 42
0.00000001
 43
0.00000001
 40
0.0
 40
0.0
 40
0.0
 40
0.0
 40
1.0
 40
1.0
 40
1.0
 40
1.0
 10
-117.848355751607
 20
11.72590877690862
 30
0.0
 10
-118.136912751607
 20
11.99988377690862
 30
0.0
 10
-118.322621751607
 20
12.31431977690863
 30
0.0
 10
-118.423687751607
 20
12.70003977690862
 30
0.0
  0
SPLINE
  5
108
330
1F
100
AcDbEntity
  8
0
  6
Continuous
 62
     7
370
    25
100
AcDbSpline
210
0.0
220
0.0
230
1.0
 70
     8
 71
     3
 72
     8
 73
     4
 74
     0
 42
0.00000001
 43
0.00000001
 40
0.0
 40
0.0
 40
0.0
 40
0.0
 40
1.0
 40
1.0
 40
1.0
 40
1.0
 10
-116.876108751607
 20
11.21983677690863
 30
0.0
 10
-117.263265751607
 20
11.30292877690862
 30
0.0
 10
-117.572262751607
 20
11.46376777690862
 30
0.0
 10
-117.848355751607
 20
11.72590877690862
 30
0.0
  0
SPLINE
  5
109
330
1F
100
AcDbEntity
  8
0
  6
Continuous
 62
     7
370
    25
100
AcDbSpline
210
0.0
220
0.0
230
1.0
 70
     8
 71
     3
 72
     8
 73
     4
 74
     0
 42
0.00000001
 43
0.00000001
 40
0.0
 40
0.0
 40
0.0
 40
0.0
 40
1.0
 40
1.0
 40
1.0
 40
1.0
 10
-116.108533751607
 20
11.21150777690862
 30
0.0
 10
-116.310573751607
 20
11.17318177690862
 30
0.0
 10
-116.677266751607
 20
11.17716077690863
 30
0.0
 10
-116.876108751607
 20
11.21983677690863
 30
0.0
  0
CIRCLE
  5
10A
330
1F
100
AcDbEntity
  8
0
  6
Continuous
 62
     7
370
    25
100
AcDbCircle
 10
219.5
 20
-15.5
 30
0.0
 40
1.499999999999972
  0
CIRCLE
  5
10B
330
1F
100
AcDbEntity
  8
0
  6
Continuous
 62
     7
370
    25
100
AcDbCircle
 10
-219.5
 20
15.5
 30
0.0
 40
1.500000000000142
  0
CIRCLE
  5
10C
330
1F
100
AcDbEntity
  8
0
  6
Continuous
 62
     7
370
    25
100
AcDbCircle
 10
-250.5
 20
15.5
 30
0.0
 40
1.500000000000284
  0
CIRCLE
  5
10D
330
1F
100
AcDbEntity
  8
0
  6
Continuous
 62
     7
370
    25
100
AcDbCircle
 10
-219.5
 20
-15.5
 30
0.0
 40
1.500000000000114
  0
CIRCLE
  5
10E
330
1F
100
AcDbEntity
  8
0
  6
Continuous
 62
     7
370
    25
100
AcDbCircle
 10
250.5
 20
-15.5
 30
0.0
 40
1.499999999999829
  0
CIRCLE
  5
10F
330
1F
100
AcDbEntity
  8
0
  6
Continuous
 62
     7
370
    25
100
AcDbCircle
 10
250.5
 20
15.5
 30
0.0
 40
1.499999999999801
  0
CIRCLE
  5
110
330
1F
100
AcDbEntity
  8
0
  6
Continuous
 62
     7
370
    25
100
AcDbCircle
 10
219.5
 20
15.5
 30
0.0
 40
1.499999999999829
  0
CIRCLE
  5
111
330
1F
100
AcDbEntity
  8
0
  6
Continuous
 62
     7
370
    25
100
AcDbCircle
 10
-251.0
 20
-16.0
 30
0.0
 40
1.499999999999972
  0
CIRCLE
  5
112
330
1F
100
AcDbEntity
  8
0
  6
Continuous
 62
     7
370
    25
100
AcDbCircle
 10
-235.0
 20
0.0
 30
0.0
 40
11.5
  0
CIRCLE
  5
113
330
1F
100
AcDbEntity
  8
0
  6
Continuous
 62
     7
370
    25
100
AcDbCircle
 10
235.0
 20
0.0
 30
0.0
 40
11.49999999999997
  0
CIRCLE
  5
114
330
1F
100
AcDbEntity
  8
0
  6
Continuous
 62
     7
370
    25
100
AcDbCircle
 10
-235.0
 20
20.0000000006
 30
0.0
 40
4.0
  0
CIRCLE
  5
115
330
1F
100
AcDbEntity
  8
0
  6
Continuous
 62
     7
370
    25
100
AcDbCircle
 10
-235.0
 20
-19.9999999994
 30
0.0
 40
3.999999999999972
  0
CIRCLE
  5
116
330
1F
100
AcDbEntity
  8
0
  6
Continuous
 62
     7
370
    25
100
AcDbCircle
 10
235.0
 20
20.0000000006
 30
0.0
 40
3.999999999999972
  0
CIRCLE
  5
117
330
1F
100
AcDbEntity
  8
0
  6
Continuous
 62
     7
370
    25
100
AcDbCircle
 10
235.0
 20
-19.9999999994
 30
0.0
 40
3.999999999999972
  0
CIRCLE
  5
11C
330
1F
100
AcDbEntity
  8
0
  6
Continuous
 62
     7
370
    25
100
AcDbCircle
 10
200.0
 20
-19.9999999994
 30
0.0
 40
2.500000000000853
  0
CIRCLE
  5
11D
330
1F
100
AcDbEntity
  8
0
  6
Continuous
 62
     7
370
    25
100
AcDbCircle
 10
-200.0
 20
20.0
 30
0.0
 40
2.500000000000824
  0
CIRCLE
  5
11E
330
1F
100
AcDbEntity
  8
0
  6
Continuous
 62
     7
370
    25
100
AcDbCircle
 10
-200.0
 20
0.0
 30
0.0
 40
2.500000000000853
  0
CIRCLE
  5
11F
330
1F
100
AcDbEntity
  8
0
  6
Continuous
 62
     7
370
    25
100
AcDbCircle
 10
-200.0
 20
-20.0
 30
0.0
 40
2.500000000000853
  0
CIRCLE
  5
120
330
1F
100
AcDbEntity
  8
0
  6
Continuous
 62
     7
370
    25
100
AcDbCircle
 10
200.0
 20
20.0000000006
 30
0.0
 40
2.500000000000796
  0
CIRCLE
  5
121
330
1F
100
AcDbEntity
  8
0
  6
Continuous
 62
     7
370
    25
100
AcDbCircle
 10
200.0
 20
0.0000000006
 30
0.0
 40
2.500000000000796
  0
SPLINE
  5
122
330
1F
100
AcDbEntity
  8
0
  6
Continuous
 62
     7
370
    25
100
AcDbSpline
210
0.0
220
0.0
230
1.0
 70
     8
 71
     3
 72
     8
 73
     4
 74
     0
 42
0.00000001
 43
0.00000001
 40
0.0
 40
0.0
 40
0.0
 40
0.0
 40
1.0
 40
1.0
 40
1.0
 40
1.0
 10
-112.832526751607
 20
6.47790077690863
 30
0.0
 10
-112.985051751607
 20
6.325695776908627
 30
0.0
 10
-113.133296751607
 20
6.127716776908626
 30
0.0
 10
-113.215184751607
 20
5.966871776908627
 30
0.0
  0
SPLINE
  5
123
330
1F
100
AcDbEntity
  8
0
  6
Continuous
 62
     7
370
    25
100
AcDbSpline
210
0.0
220
0.0
230
1.0
 70
     8
 71
     3
 72
     8
 73
     4
 74
     0
 42
0.00000001
 43
0.00000001
 40
0.0
 40
0.0
 40
0.0
 40
0.0
 40
1.0
 40
1.0
 40
1.0
 40
1.0
 10
-110.091962751607
 20
6.669192776908625
 30
0.0
 10
-110.927260751607
 20
7.304729776908627
 30
0.0
 10
-112.084942751607
 20
7.223923776908625
 30
0.0
 10
-112.832526751607
 20
6.47790077690863
 30
0.0
  0
SPLINE
  5
124
330
1F
100
AcDbEntity
  8
0
  6
Continuous
 62
     7
370
    25
100
AcDbSpline
210
0.0
220
0.0
230
1.0
 70
     8
 71
     3
 72
     8
 73
     4
 74
     0
 42
0.00000001
 43
0.00000001
 40
0.0
 40
0.0
 40
0.0
 40
0.0
 40
1.0
 40
1.0
 40
1.0
 40
1.0
 10
-109.832510751607
 20
6.433539776908626
 30
0.0
 10
-109.919594751607
 20
6.520833776908624
 30
0.0
 10
-110.036347751607
 20
6.626877776908628
 30
0.0
 10
-110.091962751607
 20
6.669192776908625
 30
0.0
  0
SPLINE
  5
125
330
1F
100
AcDbEntity
  8
0
  6
Continuous
 62
     7
370
    25
100
AcDbSpline
210
0.0
220
0.0
230
1.0
 70
     8
 71
     3
 72
     8
 73
     4
 74
     0
 42
0.00000001
 43
0.00000001
 40
0.0
 40
0.0
 40
0.0
 40
0.0
 40
1.0
 40
1.0
 40
1.0
 40
1.0
 10
-109.583805751607
 20
6.274823776908627
 30
0.0
 10
-109.672837751607
 20
6.274823776908627
 30
0.0
 10
-109.676523751607
 20
6.277178776908626
 30
0.0
 10
-109.832510751607
 20
6.433539776908626
 30
0.0
  0
SPLINE
  5
126
330
1F
100
AcDbEntity
  8
0
  6
Continuous
 62
     7
370
    25
100
AcDbSpline
210
0.0
220
0.0
230
1.0
 70
     8
 71
     3
 72
     8
 73
     4
 74
     0
 42
0.00000001
 43
0.00000001
 40
0.0
 40
0.0
 40
0.0
 40
0.0
 40
1.0
 40
1.0
 40
1.0
 40
1.0
 10
-109.356622751607
 20
6.499129776908627
 30
0.0
 10
-109.356438751607
 20
6.361691776908627
 30
0.0
 10
-109.444448751607
 20
6.274823776908627
 30
0.0
 10
-109.583805751607
 20
6.274823776908627
 30
0.0
  0
SPLINE
  5
127
330
1F
100
AcDbEntity
  8
0
  6
Continuous
 62
     7
370
    25
100
AcDbSpline
210
0.0
220
0.0
230
1.0
 70
     8
 71
     3
 72
     8
 73
     4
 74
     0
 42
0.00000001
 43
0.00000001
 40
0.0
 40
0.0
 40
0.0
 40
0.0
 40
1.0
 40
1.0
 40
1.0
 40
1.0
 10
-109.575730751607
 20
6.822745776908626
 30
0.0
 10
-109.405361751607
 20
6.655101776908625
 30
0.0
 10
-109.356718751607
 20
6.583257776908626
 30
0.0
 10
-109.356622751607
 20
6.499129776908627
 30
0.0
  0
SPLINE
  5
128
330
1F
100
AcDbEntity
  8
0
  6
Continuous
 62
     7
370
    25
100
AcDbSpline
210
0.0
220
0.0
230
1.0
 70
     8
 71
     3
 72
     8
 73
     4
 74
     0
 42
0.00000001
 43
0.00000001
 40
0.0
 40
0.0
 40
0.0
 40
0.0
 40
1.0
 40
1.0
 40
1.0
 40
1.0
 10
-110.845756751607
 20
7.500739776908627
 30
0.0
 10
-110.359542751607
 20
7.396603776908626
 30
0.0
 10
-109.920997751607
 20
7.162489776908625
 30
0.0
 10
-109.575730751607
 20
6.822745776908626
 30
0.0
  0
SPLINE
  5
129
330
1F
100
AcDbEntity
  8
0
  6
Continuous
 62
     7
370
    25
100
AcDbSpline
210
0.0
220
0.0
230
1.0
 70
     8
 71
     3
 72
     8
 73
     4
 74
     0
 42
0.00000001
 43
0.00000001
 40
0.0
 40
0.0
 40
0.0
 40
0.0
 40
1.0
 40
1.0
 40
1.0
 40
1.0
 10
-111.378926751607
 20
7.532853776908627
 30
0.0
 10
-111.079982751607
 20
7.533937776908629
 30
0.0
 10
-110.969708751607
 20
7.527286776908626
 30
0.0
 10
-110.845756751607
 20
7.500739776908627
 30
0.0
  0
SPLINE
  5
12A
330
1F
100
AcDbEntity
  8
0
  6
Continuous
 62
     7
370
    25
100
AcDbSpline
210
0.0
220
0.0
230
1.0
 70
     8
 71
     3
 72
     8
 73
     4
 74
     0
 42
0.00000001
 43
0.00000001
 40
0.0
 40
0.0
 40
0.0
 40
0.0
 40
1.0
 40
1.0
 40
1.0
 40
1.0
 10
-111.976445751607
 20
7.473150776908626
 30
0.0
 10
-111.764216751607
 20
7.529276776908626
 30
0.0
 10
-111.741486751607
 20
7.531547776908627
 30
0.0
 10
-111.378926751607
 20
7.532853776908627
 30
0.0
  0
SPLINE
  5
12B
330
1F
100
AcDbEntity
  8
0
  6
Continuous
 62
     7
370
    25
100
AcDbSpline
210
0.0
220
0.0
230
1.0
 70
     8
 71
     3
 72
     8
 73
     4
 74
     0
 42
0.00000001
 43
0.00000001
 40
0.0
 40
0.0
 40
0.0
 40
0.0
 40
1.0
 40
1.0
 40
1.0
 40
1.0
 10
-112.383108751607
 20
7.414755776908626
 30
0.0
 10
-112.232849751607
 20
7.414792776908624
 30
0.0
 10
-112.154636751607
 20
7.426026776908627
 30
0.0
 10
-111.976445751607
 20
7.473150776908626
 30
0.0
  0
SPLINE
  5
12C
330
1F
100
AcDbEntity
  8
0
  6
Continuous
 62
     7
370
    25
100
AcDbSpline
210
0.0
220
0.0
230
1.0
 70
     8
 71
     3
 72
     8
 73
     4
 74
     0
 42
0.00000001
 43
0.00000001
 40
0.0
 40
0.0
 40
0.0
 40
0.0
 40
1.0
 40
1.0
 40
1.0
 40
1.0
 10
-113.870121751607
 20
8.04770677690863
 30
0.0
 10
-113.461359751607
 20
7.630023776908628
 30
0.0
 10
-112.955265751607
 20
7.414603776908627
 30
0.0
 10
-112.383108751607
 20
7.414755776908626
 30
0.0
  0
SPLINE
  5
12D
330
1F
100
AcDbEntity
  8
0
  6
Continuous
 62
     7
370
    25
100
AcDbSpline
210
0.0
220
0.0
230
1.0
 70
     8
 71
     3
 72
     8
 73
     4
 74
     0
 42
0.00000001
 43
0.00000001
 40
0.0
 40
0.0
 40
0.0
 40
0.0
 40
1.0
 40
1.0
 40
1.0
 40
1.0
 10
-114.416162751607
 20
9.007899776908625
 30
0.0
 10
-114.307519751607
 20
8.614499776908625
 30
0.0
 10
-114.144823751607
 20
8.32840377690863
 30
0.0
 10
-113.870121751607
 20
8.04770677690863
 30
0.0
  0
SPLINE
  5
12E
330
1F
100
AcDbEntity
  8
0
  6
Continuous
 62
     7
370
    25
100
AcDbSpline
210
0.0
220
0.0
230
1.0
 70
     8
 71
     3
 72
     8
 73
     4
 74
     0
 42
0.00000001
 43
0.00000001
 40
0.0
 40
0.0
 40
0.0
 40
0.0
 40
1.0
 40
1.0
 40
1.0
 40
1.0
 10
-114.456056751607
 20
9.501426776908625
 30
0.0
 10
-114.456001751607
 20
9.199953776908629
 30
0.0
 10
-114.450531751607
 20
9.132355776908627
 30
0.0
 10
-114.416162751607
 20
9.007899776908625
 30
0.0
  0
SPLINE
  5
12F
330
1F
100
AcDbEntity
  8
0
  6
Continuous
 62
     7
370
    25
100
AcDbSpline
210
0.0
220
0.0
230
1.0
 70
     8
 71
     3
 72
     8
 73
     4
 74
     0
 42
0.00000001
 43
0.00000001
 40
0.0
 40
0.0
 40
0.0
 40
0.0
 40
1.0
 40
1.0
 40
1.0
 40
1.0
 10
-114.407658751607
 20
10.03050377690862
 30
0.0
 10
-114.452032751607
 20
9.865922776908628
 30
0.0
 10
-114.456119751607
 20
9.821251776908626
 30
0.0
 10
-114.456056751607
 20
9.501426776908625
 30
0.0
  0
SPLINE
  5
130
330
1F
100
AcDbEntity
  8
0
  6
Continuous
 62
     7
370
    25
100
AcDbSpline
210
0.0
220
0.0
230
1.0
 70
     8
 71
     3
 72
     8
 73
     4
 74
     0
 42
0.00000001
 43
0.00000001
 40
0.0
 40
0.0
 40
0.0
 40
0.0
 40
1.0
 40
1.0
 40
1.0
 40
1.0
 10
-113.631113751607
 20
11.18220277690862
 30
0.0
 10
-114.004235751607
 20
10.90139077690862
 30
0.0
 10
-114.285202751607
 20
10.48468677690863
 30
0.0
 10
-114.407658751607
 20
10.03050377690862
 30
0.0
  0
SPLINE
  5
131
330
1F
100
AcDbEntity
  8
0
  6
Continuous
 62
     7
370
    25
100
AcDbSpline
210
0.0
220
0.0
230
1.0
 70
     8
 71
     3
 72
     8
 73
     4
 74
     0
 42
0.00000001
 43
0.00000001
 40
0.0
 40
0.0
 40
0.0
 40
0.0
 40
1.0
 40
1.0
 40
1.0
 40
1.0
 10
-112.900324751607
 20
11.52822577690862
 30
0.0
 10
-113.136529751607
 20
11.46778277690862
 30
0.0
 10
-113.446966751607
 20
11.32079277690862
 30
0.0
 10
-113.631113751607
 20
11.18220277690862
 30
0.0
  0
SPLINE
  5
132
330
1F
100
AcDbEntity
  8
0
  6
Continuous
 62
     7
370
    25
100
AcDbSpline
210
0.0
220
0.0
230
1.0
 70
     8
 71
     3
 72
     8
 73
     4
 74
     0
 42
0.00000001
 43
0.00000001
 40
0.0
 40
0.0
 40
0.0
 40
0.0
 40
1.0
 40
1.0
 40
1.0
 40
1.0
 10
-112.670510751607
 20
11.55639377690863
 30
0.0
 10
-112.696624751607
 20
11.57456277690862
 30
0.0
 10
-112.740032751607
 20
11.56924477690863
 30
0.0
 10
-112.900324751607
 20
11.52822577690862
 30
0.0
  0
SPLINE
  5
133
330
1F
100
AcDbEntity
  8
0
  6
Continuous
 62
     7
370
    25
100
AcDbSpline
210
0.0
220
0.0
230
1.0
 70
     8
 71
     3
 72
     8
 73
     4
 74
     0
 42
0.00000001
 43
0.00000001
 40
0.0
 40
0.0
 40
0.0
 40
0.0
 40
1.0
 40
1.0
 40
1.0
 40
1.0
 10
-111.074623751607
 20
11.07798177690863
 30
0.0
 10
-111.615401751607
 20
11.05038177690863
 30
0.0
 10
-112.191417751607
 20
11.22305877690863
 30
0.0
 10
-112.670510751607
 20
11.55639377690863
 30
0.0
  0
SPLINE
  5
134
330
1F
100
AcDbEntity
  8
0
  6
Continuous
 62
     7
370
    25
100
AcDbSpline
210
0.0
220
0.0
230
1.0
 70
     8
 71
     3
 72
     8
 73
     4
 74
     0
 42
0.00000001
 43
0.00000001
 40
0.0
 40
0.0
 40
0.0
 40
0.0
 40
1.0
 40
1.0
 40
1.0
 40
1.0
 10
-110.742303751607
 20
11.19384677690863
 30
0.0
 10
-110.793240751607
 20
11.11610777690863
 30
0.0
 10
-110.873091751607
 20
11.08826677690862
 30
0.0
 10
-111.074623751607
 20
11.07798177690863
 30
0.0
  0
SPLINE
  5
135
330
1F
100
AcDbEntity
  8
0
  6
Continuous
 62
     7
370
    25
100
AcDbSpline
210
0.0
220
0.0
230
1.0
 70
     8
 71
     3
 72
     8
 73
     4
 74
     0
 42
0.00000001
 43
0.00000001
 40
0.0
 40
0.0
 40
0.0
 40
0.0
 40
1.0
 40
1.0
 40
1.0
 40
1.0
 10
-110.741324751607
 20
11.43465177690863
 30
0.0
 10
-110.703492751607
 20
11.36149277690862
 30
0.0
 10
-110.703937751607
 20
11.25240677690863
 30
0.0
 10
-110.742303751607
 20
11.19384677690863
 30
0.0
  0
SPLINE
  5
136
330
1F
100
AcDbEntity
  8
0
  6
Continuous
 62
     7
370
    25
100
AcDbSpline
210
0.0
220
0.0
230
1.0
 70
     8
 71
     3
 72
     8
 73
     4
 74
     0
 42
0.00000001
 43
0.00000001
 40
0.0
 40
0.0
 40
0.0
 40
0.0
 40
1.0
 40
1.0
 40
1.0
 40
1.0
 10
-111.051823751607
 20
11.53999177690863
 30
0.0
 10
-110.871214751607
 20
11.55387377690863
 30
0.0
 10
-110.788458751607
 20
11.52579877690862
 30
0.0
 10
-110.741324751607
 20
11.43465177690863
 30
0.0
  0
SPLINE
  5
137
330
1F
100
AcDbEntity
  8
0
  6
Continuous
 62
     7
370
    25
100
AcDbSpline
210
0.0
220
0.0
230
1.0
 70
     8
 71
     3
 72
     8
 73
     4
 74
     0
 42
0.00000001
 43
0.00000001
 40
0.0
 40
0.0
 40
0.0
 40
0.0
 40
1.0
 40
1.0
 40
1.0
 40
1.0
 10
-111.724623751607
 20
11.60873977690863
 30
0.0
 10
-111.520829751607
 20
11.55595177690863
 30
0.0
 10
-111.230343751607
 20
11.52626977690863
 30
0.0
 10
-111.051823751607
 20
11.53999177690863
 30
0.0
  0
SPLINE
  5
138
330
1F
100
AcDbEntity
  8
0
  6
Continuous
 62
     7
370
    25
100
AcDbSpline
210
0.0
220
0.0
230
1.0
 70
     8
 71
     3
 72
     8
 73
     4
 74
     0
 42
0.00000001
 43
0.00000001
 40
0.0
 40
0.0
 40
0.0
 40
0.0
 40
1.0
 40
1.0
 40
1.0
 40
1.0
 10
-112.068375751607
 20
11.74264477690862
 30
0.0
 10
-111.957145751607
 20
11.68915877690863
 30
0.0
 10
-111.802456751607
 20
11.62890077690863
 30
0.0
 10
-111.724623751607
 20
11.60873977690863
 30
0.0
  0
SPLINE
  5
139
330
1F
100
AcDbEntity
  8
0
  6
Continuous
 62
     7
370
    25
100
AcDbSpline
210
0.0
220
0.0
230
1.0
 70
     8
 71
     3
 72
     8
 73
     4
 74
     0
 42
0.00000001
 43
0.00000001
 40
0.0
 40
0.0
 40
0.0
 40
0.0
 40
1.0
 40
1.0
 40
1.0
 40
1.0
 10
-113.237090751607
 20
13.26201277690862
 30
0.0
 10
-113.108859751607
 20
12.58946877690862
 30
0.0
 10
-112.685876751607
 20
12.03957677690862
 30
0.0
 10
-112.068375751607
 20
11.74264477690862
 30
0.0
  0
SPLINE
  5
13A
330
1F
100
AcDbEntity
  8
0
  6
Continuous
 62
     7
370
    25
100
AcDbSpline
210
0.0
220
0.0
230
1.0
 70
     8
 71
     3
 72
     8
 73
     4
 74
     0
 42
0.00000001
 43
0.00000001
 40
0.0
 40
0.0
 40
0.0
 40
0.0
 40
1.0
 40
1.0
 40
1.0
 40
1.0
 10
-113.237672751607
 20
13.97822377690863
 30
0.0
 10
-113.267996751607
 20
13.80901877690863
 30
0.0
 10
-113.267685751607
 20
13.42244877690863
 30
0.0
 10
-113.237090751607
 20
13.26201277690862
 30
0.0
  0
SPLINE
  5
13B
330
1F
100
AcDbEntity
  8
0
  6
Continuous
 62
     7
370
    25
100
AcDbSpline
210
0.0
220
0.0
230
1.0
 70
     8
 71
     3
 72
     8
 73
     4
 74
     0
 42
0.00000001
 43
0.00000001
 40
0.0
 40
0.0
 40
0.0
 40
0.0
 40
1.0
 40
1.0
 40
1.0
 40
1.0
 10
-112.106774751607
 20
15.49211677690863
 30
0.0
 10
-112.694170751607
 20
15.20288277690863
 30
0.0
 10
-113.120467751607
 20
14.63221377690863
 30
0.0
 10
-113.237672751607
 20
13.97822377690863
 30
0.0
  0
SPLINE
  5
13C
330
1F
100
AcDbEntity
  8
0
  6
Continuous
 62
     7
370
    25
100
AcDbSpline
210
0.0
220
0.0
230
1.0
 70
     8
 71
     3
 72
     8
 73
     4
 74
     0
 42
0.00000001
 43
0.00000001
 40
0.0
 40
0.0
 40
0.0
 40
0.0
 40
1.0
 40
1.0
 40
1.0
 40
1.0
 10
-111.090671751607
 20
15.70225077690863
 30
0.0
 10
-111.500367751607
 20
15.71549077690863
 30
0.0
 10
-111.763748751607
 20
15.66102277690863
 30
0.0
 10
-112.106774751607
 20
15.49211677690863
 30
0.0
  0
SPLINE
  5
13D
330
1F
100
AcDbEntity
  8
0
  6
Continuous
 62
     7
370
    25
100
AcDbSpline
210
0.0
220
0.0
230
1.0
 70
     8
 71
     3
 72
     8
 73
     4
 74
     0
 42
0.00000001
 43
0.00000001
 40
0.0
 40
0.0
 40
0.0
 40
0.0
 40
1.0
 40
1.0
 40
1.0
 40
1.0
 10
-110.416455751607
 20
15.57053677690862
 30
0.0
 10
-110.607505751607
 20
15.65502777690862
 30
0.0
 10
-110.801373751607
 20
15.69290077690863
 30
0.0
 10
-111.090671751607
 20
15.70225077690863
 30
0.0
  0
SPLINE
  5
140
330
1F
100
AcDbEntity
  8
0
  6
Continuous
 62
     7
370
    25
100
AcDbSpline
210
0.0
220
0.0
230
1.0
 70
     8
 71
     3
 72
     8
 73
     4
 74
     0
 42
0.00000001
 43
0.00000001
 40
0.0
 40
0.0
 40
0.0
 40
0.0
 40
1.0
 40
1.0
 40
1.0
 40
1.0
 10
-108.538422751607
 20
13.63826577690863
 30
0.0
 10
-109.378859751607
 20
13.88216077690863
 30
0.0
 10
-110.053655751607
 20
14.55668377690863
 30
0.0
 10
-110.278693751607
 20
15.37783377690863
 30
0.0
  0
SPLINE
  5
141
330
1F
100
AcDbEntity
  8
0
  6
Continuous
 62
     7
370
    25
100
AcDbSpline
210
0.0
220
0.0
230
1.0
 70
     8
 71
     3
 72
     8
 73
     4
 74
     0
 42
0.00000001
 43
0.00000001
 40
0.0
 40
0.0
 40
0.0
 40
0.0
 40
1.0
 40
1.0
 40
1.0
 40
1.0
 10
-107.718819751607
 20
13.56834477690863
 30
0.0
 10
-107.819950751607
 20
13.50860477690862
 30
0.0
 10
-108.204743751607
 20
13.54143177690863
 30
0.0
 10
-108.538422751607
 20
13.63826577690863
 30
0.0
  0
SPLINE
  5
142
330
1F
100
AcDbEntity
  8
0
  6
Continuous
 62
     7
370
    25
100
AcDbSpline
210
0.0
220
0.0
230
1.0
 70
     8
 71
     3
 72
     8
 73
     4
 74
     0
 42
0.00000001
 43
0.00000001
 40
0.0
 40
0.0
 40
0.0
 40
0.0
 40
1.0
 40
1.0
 40
1.0
 40
1.0
 10
-107.651972751607
 20
13.88817477690862
 30
0.0
 10
-107.580189751607
 20
13.78141177690863
 30
0.0
 10
-107.611466751607
 20
13.63175877690862
 30
0.0
 10
-107.718819751607
 20
13.56834477690863
 30
0.0
  0
SPLINE
  5
143
330
1F
100
AcDbEntity
  8
0
  6
Continuous
 62
     7
370
    25
100
AcDbSpline
210
0.0
220
0.0
230
1.0
 70
     8
 71
     3
 72
     8
 73
     4
 74
     0
 42
0.00000001
 43
0.00000001
 40
0.0
 40
0.0
 40
0.0
 40
0.0
 40
1.0
 40
1.0
 40
1.0
 40
1.0
 10
-107.933898751607
 20
13.99557077690863
 30
0.0
 10
-107.782671751607
 20
13.99416877690863
 30
0.0
 10
-107.702783751607
 20
13.96374377690863
 30
0.0
 10
-107.651972751607
 20
13.88817477690862
 30
0.0
  0
SPLINE
  5
144
330
1F
100
AcDbEntity
  8
0
  6
Continuous
 62
     7
370
    25
100
AcDbSpline
210
0.0
220
0.0
230
1.0
 70
     8
 71
     3
 72
     8
 73
     4
 74
     0
 42
0.00000001
 43
0.00000001
 40
0.0
 40
0.0
 40
0.0
 40
0.0
 40
1.0
 40
1.0
 40
1.0
 40
1.0
 10
-109.628944751607
 20
15.00892477690863
 30
0.0
 10
-109.267750751607
 20
14.41310877690863
 30
0.0
 10
-108.579289751607
 20
14.00152377690862
 30
0.0
 10
-107.933898751607
 20
13.99557077690863
 30
0.0
  0
SPLINE
  5
145
330
1F
100
AcDbEntity
  8
0
  6
Continuous
 62
     7
370
    25
100
AcDbSpline
210
0.0
220
0.0
230
1.0
 70
     8
 71
     3
 72
     8
 73
     4
 74
     0
 42
0.00000001
 43
0.00000001
 40
0.0
 40
0.0
 40
0.0
 40
0.0
 40
1.0
 40
1.0
 40
1.0
 40
1.0
 10
-108.724453751607
 20
17.96845777690863
 30
0.0
 10
-109.824211751607
 20
17.43130177690862
 30
0.0
 10
-110.250956751607
 20
16.03497777690863
 30
0.0
 10
-109.628944751607
 20
15.00892477690863
 30
0.0
  0
SPLINE
  5
146
330
1F
100
AcDbEntity
  8
0
  6
Continuous
 62
     7
370
    25
100
AcDbSpline
210
0.0
220
0.0
230
1.0
 70
     8
 71
     3
 72
     8
 73
     4
 74
     0
 42
0.00000001
 43
0.00000001
 40
0.0
 40
0.0
 40
0.0
 40
0.0
 40
1.0
 40
1.0
 40
1.0
 40
1.0
 10
-106.600353751607
 20
17.74637377690862
 30
0.0
 10
-107.225239751607
 20
18.21362277690863
 30
0.0
 10
-108.046673751607
 20
18.29950677690863
 30
0.0
 10
-108.724453751607
 20
17.96845777690863
 30
0.0
  0
SPLINE
  5
147
330
1F
100
AcDbEntity
  8
0
  6
Continuous
 62
     7
370
    25
100
AcDbSpline
210
0.0
220
0.0
230
1.0
 70
     8
 71
     3
 72
     8
 73
     4
 74
     0
 42
0.00000001
 43
0.00000001
 40
0.0
 40
0.0
 40
0.0
 40
0.0
 40
1.0
 40
1.0
 40
1.0
 40
1.0
 10
-105.802886751607
 20
16.56652777690863
 30
0.0
 10
-105.930755751607
 20
17.04572677690863
 30
0.0
 10
-106.204022751607
 20
17.45002377690863
 30
0.0
 10
-106.600353751607
 20
17.74637377690862
 30
0.0
  0
SPLINE
  5
14B
330
1F
100
AcDbEntity
  8
0
  6
Continuous
 62
     7
370
    25
100
AcDbSpline
210
0.0
220
0.0
230
1.0
 70
     8
 71
     3
 72
     8
 73
     4
 74
     0
 42
0.00000001
 43
0.00000001
 40
0.0
 40
0.0
 40
0.0
 40
0.0
 40
1.0
 40
1.0
 40
1.0
 40
1.0
 10
-106.865223751607
 20
11.75307777690862
 30
0.0
 10
-106.595441751607
 20
11.93645277690863
 30
0.0
 10
-106.210892751607
 20
12.09399977690862
 30
0.0
 10
-105.908331751607
 20
12.14510977690862
 30
0.0
  0
SPLINE
  5
14C
330
1F
100
AcDbEntity
  8
0
  6
Continuous
 62
     7
370
    25
100
AcDbSpline
210
0.0
220
0.0
230
1.0
 70
     8
 71
     3
 72
     8
 73
     4
 74
     0
 42
0.00000001
 43
0.00000001
 40
0.0
 40
0.0
 40
0.0
 40
0.0
 40
1.0
 40
1.0
 40
1.0
 40
1.0
 10
-107.950599751607
 20
10.03514577690862
 30
0.0
 10
-107.837234751607
 20
10.73407977690863
 30
0.0
 10
-107.440478751607
 20
11.36206577690863
 30
0.0
 10
-106.865223751607
 20
11.75307777690862
 30
0.0
  0
SPLINE
  5
14D
330
1F
100
AcDbEntity
  8
0
  6
Continuous
 62
     7
370
    25
100
AcDbSpline
210
0.0
220
0.0
230
1.0
 70
     8
 71
     3
 72
     8
 73
     4
 74
     0
 42
0.00000001
 43
0.00000001
 40
0.0
 40
0.0
 40
0.0
 40
0.0
 40
1.0
 40
1.0
 40
1.0
 40
1.0
 10
-107.958479751607
 20
9.274537776908623
 30
0.0
 10
-107.985917751607
 20
9.443633776908625
 30
0.0
 10
-107.981780751607
 20
9.842892776908627
 30
0.0
 10
-107.950599751607
 20
10.03514577690862
 30
0.0
  0
SPLINE
  5
14E
330
1F
100
AcDbEntity
  8
0
  6
Continuous
 62
     7
370
    25
100
AcDbSpline
210
0.0
220
0.0
230
1.0
 70
     8
 71
     3
 72
     8
 73
     4
 74
     0
 42
0.00000001
 43
0.00000001
 40
0.0
 40
0.0
 40
0.0
 40
0.0
 40
1.0
 40
1.0
 40
1.0
 40
1.0
 10
-107.805710751607
 20
9.041849776908625
 30
0.0
 10
-107.902584751607
 20
9.078845776908626
 30
0.0
 10
-107.934650751607
 20
9.127685776908624
 30
0.0
 10
-107.958479751607
 20
9.274537776908623
 30
0.0
  0
SPLINE
  5
14F
330
1F
100
AcDbEntity
  8
0
  6
Continuous
 62
     7
370
    25
100
AcDbSpline
210
0.0
220
0.0
230
1.0
 70
     8
 71
     3
 72
     8
 73
     4
 74
     0
 42
0.00000001
 43
0.00000001
 40
0.0
 40
0.0
 40
0.0
 40
0.0
 40
1.0
 40
1.0
 40
1.0
 40
1.0
 10
-107.540651751607
 20
9.124204776908625
 30
0.0
 10
-107.601881751607
 20
9.033216776908624
 30
0.0
 10
-107.701808751607
 20
9.002168776908626
 30
0.0
 10
-107.805710751607
 20
9.041849776908625
 30
0.0
  0
SPLINE
  5
150
330
1F
100
AcDbEntity
  8
0
  6
Continuous
 62
     7
370
    25
100
AcDbSpline
210
0.0
220
0.0
230
1.0
 70
     8
 71
     3
 72
     8
 73
     4
 74
     0
 42
0.00000001
 43
0.00000001
 40
0.0
 40
0.0
 40
0.0
 40
0.0
 40
1.0
 40
1.0
 40
1.0
 40
1.0
 10
-107.512400751607
 20
9.354019776908626
 30
0.0
 10
-107.498417751607
 20
9.197762776908625
 30
0.0
 10
-107.500044751607
 20
9.184545776908626
 30
0.0
 10
-107.540651751607
 20
9.124204776908625
 30
0.0
  0
SPLINE
  5
151
330
1F
100
AcDbEntity
  8
0
  6
Continuous
 62
     7
370
    25
100
AcDbSpline
210
0.0
220
0.0
230
1.0
 70
     8
 71
     3
 72
     8
 73
     4
 74
     0
 42
0.00000001
 43
0.00000001
 40
0.0
 40
0.0
 40
0.0
 40
0.0
 40
1.0
 40
1.0
 40
1.0
 40
1.0
 10
-107.086261751607
 20
10.91087477690863
 30
0.0
 10
-107.427258751607
 20
10.45758677690863
 30
0.0
 10
-107.565842751607
 20
9.951281776908626
 30
0.0
 10
-107.512400751607
 20
9.354019776908626
 30
0.0
  0
SPLINE
  5
152
330
1F
100
AcDbEntity
  8
0
  6
Continuous
 62
     7
370
    25
100
AcDbSpline
210
0.0
220
0.0
230
1.0
 70
     8
 71
     3
 72
     8
 73
     4
 74
     0
 42
0.00000001
 43
0.00000001
 40
0.0
 40
0.0
 40
0.0
 40
0.0
 40
1.0
 40
1.0
 40
1.0
 40
1.0
 10
-105.812815751607
 20
11.70460577690863
 30
0.0
 10
-106.320672751607
 20
11.60839977690863
 30
0.0
 10
-106.774172751607
 20
11.32573677690862
 30
0.0
 10
-107.086261751607
 20
10.91087477690863
 30
0.0
  0
SPLINE
  5
158
330
1F
100
AcDbEntity
  8
0
  6
Continuous
 62
     7
370
    25
100
AcDbSpline
210
0.0
220
0.0
230
1.0
 70
     8
 71
     3
 72
     8
 73
     4
 74
     0
 42
0.00000001
 43
0.00000001
 40
0.0
 40
0.0
 40
0.0
 40
0.0
 40
1.0
 40
1.0
 40
1.0
 40
1.0
 10
-115.620471751607
 20
12.74645177690863
 30
0.0
 10
-115.689741751607
 20
12.60229877690863
 30
0.0
 10
-115.897445751607
 20
12.39967577690863
 30
0.0
 10
-116.050537751607
 20
12.32690577690863
 30
0.0
  0
SPLINE
  5
159
330
1F
100
AcDbEntity
  8
0
  6
Continuous
 62
     7
370
    25
100
AcDbSpline
210
0.0
220
0.0
230
1.0
 70
     8
 71
     3
 72
     8
 73
     4
 74
     0
 42
0.00000001
 43
0.00000001
 40
0.0
 40
0.0
 40
0.0
 40
0.0
 40
1.0
 40
1.0
 40
1.0
 40
1.0
 10
-115.543705751607
 20
13.41654977690863
 30
0.0
 10
-115.488804751607
 20
13.20577177690863
 30
0.0
 10
-115.516680751607
 20
12.96244477690862
 30
0.0
 10
-115.620471751607
 20
12.74645177690863
 30
0.0
  0
SPLINE
  5
15A
330
1F
100
AcDbEntity
  8
0
  6
Continuous
 62
     7
370
    25
100
AcDbSpline
210
0.0
220
0.0
230
1.0
 70
     8
 71
     3
 72
     8
 73
     4
 74
     0
 42
0.00000001
 43
0.00000001
 40
0.0
 40
0.0
 40
0.0
 40
0.0
 40
1.0
 40
1.0
 40
1.0
 40
1.0
 10
-117.143010751607
 20
13.86045277690863
 30
0.0
 10
-116.619995751607
 20
14.38907077690862
 30
0.0
 10
-115.732880751607
 20
14.14284277690863
 30
0.0
 10
-115.543705751607
 20
13.41654977690863
 30
0.0
  0
SPLINE
  5
15B
330
1F
100
AcDbEntity
  8
0
  6
Continuous
 62
     7
370
    25
100
AcDbSpline
210
0.0
220
0.0
230
1.0
 70
     8
 71
     3
 72
     8
 73
     4
 74
     0
 42
0.00000001
 43
0.00000001
 40
0.0
 40
0.0
 40
0.0
 40
0.0
 40
1.0
 40
1.0
 40
1.0
 40
1.0
 10
-117.427666751607
 20
13.18769677690863
 30
0.0
 10
-117.427666751607
 20
13.46223277690862
 30
0.0
 10
-117.345966751607
 20
13.65532177690863
 30
0.0
 10
-117.143010751607
 20
13.86045277690863
 30
0.0
  0
SPLINE
  5
15C
330
1F
100
AcDbEntity
  8
0
  6
Continuous
 62
     7
370
    25
100
AcDbSpline
210
0.0
220
0.0
230
1.0
 70
     8
 71
     3
 72
     8
 73
     4
 74
     0
 42
0.00000001
 43
0.00000001
 40
0.0
 40
0.0
 40
0.0
 40
0.0
 40
1.0
 40
1.0
 40
1.0
 40
1.0
 10
-116.572754751607
 20
12.22661977690863
 30
0.0
 10
-117.063806751607
 20
12.28716977690863
 30
0.0
 10
-117.427666751607
 20
12.69621477690863
 30
0.0
 10
-117.427666751607
 20
13.18769677690863
 30
0.0
  0
SPLINE
  5
15D
330
1F
100
AcDbEntity
  8
0
  6
Continuous
 62
     7
370
    25
100
AcDbSpline
210
0.0
220
0.0
230
1.0
 70
     8
 71
     3
 72
     8
 73
     4
 74
     0
 42
0.00000001
 43
0.00000001
 40
0.0
 40
0.0
 40
0.0
 40
0.0
 40
1.0
 40
1.0
 40
1.0
 40
1.0
 10
-116.050537751607
 20
12.32690577690863
 30
0.0
 10
-116.209228751607
 20
12.25147377690863
 30
0.0
 10
-116.430191751607
 20
12.20904077690862
 30
0.0
 10
-116.572754751607
 20
12.22661977690863
 30
0.0
  0
SPLINE
  5
15E
330
1F
100
AcDbEntity
  8
0
  6
Continuous
 62
     7
370
    25
100
AcDbSpline
210
0.0
220
0.0
230
1.0
 70
     8
 71
     3
 72
     8
 73
     4
 74
     0
 42
0.00000001
 43
0.00000001
 40
0.0
 40
0.0
 40
0.0
 40
0.0
 40
1.0
 40
1.0
 40
1.0
 40
1.0
 10
-117.990511751607
 20
12.83837777690863
 30
0.0
 10
-117.808482751607
 20
12.10401977690863
 30
0.0
 10
-117.142307751607
 20
11.59866077690863
 30
0.0
 10
-116.404746751607
 20
11.63541977690862
 30
0.0
  0
SPLINE
  5
15F
330
1F
100
AcDbEntity
  8
0
  6
Continuous
 62
     7
370
    25
100
AcDbSpline
210
0.0
220
0.0
230
1.0
 70
     8
 71
     3
 72
     8
 73
     4
 74
     0
 42
0.00000001
 43
0.00000001
 40
0.0
 40
0.0
 40
0.0
 40
0.0
 40
1.0
 40
1.0
 40
1.0
 40
1.0
 10
-117.981023751607
 20
13.56459277690862
 30
0.0
 10
-118.034234751607
 20
13.36471677690863
 30
0.0
 10
-118.038577751607
 20
13.03229077690863
 30
0.0
 10
-117.990511751607
 20
12.83837777690863
 30
0.0
  0
SPLINE
  5
160
330
1F
100
AcDbEntity
  8
0
  6
Continuous
 62
     7
370
    25
100
AcDbSpline
210
0.0
220
0.0
230
1.0
 70
     8
 71
     3
 72
     8
 73
     4
 74
     0
 42
0.00000001
 43
0.00000001
 40
0.0
 40
0.0
 40
0.0
 40
0.0
 40
1.0
 40
1.0
 40
1.0
 40
1.0
 10
-116.921281751607
 20
14.67502977690863
 30
0.0
 10
-117.437918751607
 20
14.52044177690862
 30
0.0
 10
-117.838225751607
 20
14.10098577690863
 30
0.0
 10
-117.981023751607
 20
13.56459277690862
 30
0.0
  0
SPLINE
  5
161
330
1F
100
AcDbEntity
  8
0
  6
Continuous
 62
     7
370
    25
100
AcDbSpline
210
0.0
220
0.0
230
1.0
 70
     8
 71
     3
 72
     8
 73
     4
 74
     0
 42
0.00000001
 43
0.00000001
 40
0.0
 40
0.0
 40
0.0
 40
0.0
 40
1.0
 40
1.0
 40
1.0
 40
1.0
 10
-115.195047751607
 20
14.04451377690863
 30
0.0
 10
-115.567328751607
 20
14.60652977690863
 30
0.0
 10
-116.280114751607
 20
14.86687877690863
 30
0.0
 10
-116.921281751607
 20
14.67502977690863
 30
0.0
  0
SPLINE
  5
162
330
1F
100
AcDbEntity
  8
0
  6
Continuous
 62
     7
370
    25
100
AcDbSpline
210
0.0
220
0.0
230
1.0
 70
     8
 71
     3
 72
     8
 73
     4
 74
     0
 42
0.00000001
 43
0.00000001
 40
0.0
 40
0.0
 40
0.0
 40
0.0
 40
1.0
 40
1.0
 40
1.0
 40
1.0
 10
-115.112962751607
 20
12.44309577690863
 30
0.0
 10
-114.842299751607
 20
12.99146877690862
 30
0.0
 10
-114.871217751607
 20
13.55564277690862
 30
0.0
 10
-115.195047751607
 20
14.04451377690863
 30
0.0
  0
SPLINE
  5
163
330
1F
100
AcDbEntity
  8
0
  6
Continuous
 62
     7
370
    25
100
AcDbSpline
210
0.0
220
0.0
230
1.0
 70
     8
 71
     3
 72
     8
 73
     4
 74
     0
 42
0.00000001
 43
0.00000001
 40
0.0
 40
0.0
 40
0.0
 40
0.0
 40
1.0
 40
1.0
 40
1.0
 40
1.0
 10
-116.092197751607
 20
11.68015477690863
 30
0.0
 10
-115.687445751607
 20
11.78197777690863
 30
0.0
 10
-115.284206751607
 20
12.09614977690862
 30
0.0
 10
-115.112962751607
 20
12.44309577690863
 30
0.0
  0
SPLINE
  5
164
330
1F
100
AcDbEntity
  8
0
  6
Continuous
 62
     7
370
    25
100
AcDbSpline
210
0.0
220
0.0
230
1.0
 70
     8
 71
     3
 72
     8
 73
     4
 74
     0
 42
0.00000001
 43
0.00000001
 40
0.0
 40
0.0
 40
0.0
 40
0.0
 40
1.0
 40
1.0
 40
1.0
 40
1.0
 10
-116.404746751607
 20
11.63541977690862
 30
0.0
 10
-116.312341751607
 20
11.64002577690863
 30
0.0
 10
-116.171694751607
 20
11.66015577690863
 30
0.0
 10
-116.092197751607
 20
11.68015477690863
 30
0.0
  0
SPLINE
  5
165
330
1F
100
AcDbEntity
  8
0
  6
Continuous
 62
     7
370
    25
100
AcDbSpline
210
0.0
220
0.0
230
1.0
 70
     8
 71
     3
 72
     8
 73
     4
 74
     0
 42
0.00000001
 43
0.00000001
 40
0.0
 40
0.0
 40
0.0
 40
0.0
 40
1.0
 40
1.0
 40
1.0
 40
1.0
 10
-99.74045975160698
 20
11.82719177690863
 30
0.0
 10
-99.84384575160699
 20
11.82719177690863
 30
0.0
 10
-99.94141375160697
 20
11.73894677690863
 30
0.0
 10
-99.95568575160698
 20
11.63253177690863
 30
0.0
  0
SPLINE
  5
166
330
1F
100
AcDbEntity
  8
0
  6
Continuous
 62
     7
370
    25
100
AcDbSpline
210
0.0
220
0.0
230
1.0
 70
     8
 71
     3
 72
     8
 73
     4
 74
     0
 42
0.00000001
 43
0.00000001
 40
0.0
 40
0.0
 40
0.0
 40
0.0
 40
1.0
 40
1.0
 40
1.0
 40
1.0
 10
-99.50209675160698
 20
11.58882677690862
 30
0.0
 10
-99.50209675160698
 20
11.73726877690863
 30
0.0
 10
-99.59202075160698
 20
11.82719177690863
 30
0.0
 10
-99.74045975160698
 20
11.82719177690863
 30
0.0
  0
SPLINE
  5
167
330
1F
100
AcDbEntity
  8
0
  6
Continuous
 62
     7
370
    25
100
AcDbSpline
210
0.0
220
0.0
230
1.0
 70
     8
 71
     3
 72
     8
 73
     4
 74
     0
 42
0.00000001
 43
0.00000001
 40
0.0
 40
0.0
 40
0.0
 40
0.0
 40
1.0
 40
1.0
 40
1.0
 40
1.0
 10
-99.56247775160699
 20
11.44821377690863
 30
0.0
 10
-99.51493675160698
 20
11.50009077690863
 30
0.0
 10
-99.502096751607
 20
11.52999377690862
 30
0.0
 10
-99.50209675160698
 20
11.58882677690862
 30
0.0
  0
SPLINE
  5
168
330
1F
100
AcDbEntity
  8
0
  6
Continuous
 62
     7
370
    25
100
AcDbSpline
210
0.0
220
0.0
230
1.0
 70
     8
 71
     3
 72
     8
 73
     4
 74
     0
 42
0.00000001
 43
0.00000001
 40
0.0
 40
0.0
 40
0.0
 40
0.0
 40
1.0
 40
1.0
 40
1.0
 40
1.0
 10
-99.95568575160699
 20
11.63253177690863
 30
0.0
 10
-99.985977751607
 20
11.40669377690863
 30
0.0
 10
-99.716356751607
 20
11.28030677690863
 30
0.0
 10
-99.56247775160699
 20
11.44821377690863
 30
0.0
  0
SPLINE
  5
169
330
1F
100
AcDbEntity
  8
0
  6
Continuous
 62
     7
370
    25
100
AcDbSpline
210
0.0
220
0.0
230
1.0
 70
     8
 71
     3
 72
     8
 73
     4
 74
     0
 42
0.00000001
 43
0.00000001
 40
0.0
 40
0.0
 40
0.0
 40
0.0
 40
1.0
 40
1.0
 40
1.0
 40
1.0
 10
-100.167645751607
 20
8.444245776908623
 30
0.0
 10
-100.404331751607
 20
8.443980776908624
 30
0.0
 10
-100.480801751607
 20
8.119087776908628
 30
0.0
 10
-100.268785751607
 20
8.014544776908625
 30
0.0
  0
SPLINE
  5
16A
330
1F
100
AcDbEntity
  8
0
  6
Continuous
 62
     7
370
    25
100
AcDbSpline
210
0.0
220
0.0
230
1.0
 70
     8
 71
     3
 72
     8
 73
     4
 74
     0
 42
0.00000001
 43
0.00000001
 40
0.0
 40
0.0
 40
0.0
 40
0.0
 40
1.0
 40
1.0
 40
1.0
 40
1.0
 10
-99.94333975160697
 20
8.227880776908624
 30
0.0
 10
-99.94333975160697
 20
8.356131776908628
 30
0.0
 10
-100.034843751607
 20
8.444395776908625
 30
0.0
 10
-100.167645751607
 20
8.444245776908623
 30
0.0
  0
SPLINE
  5
16B
330
1F
100
AcDbEntity
  8
0
  6
Continuous
 62
     7
370
    25
100
AcDbSpline
210
0.0
220
0.0
230
1.0
 70
     8
 71
     3
 72
     8
 73
     4
 74
     0
 42
0.00000001
 43
0.00000001
 40
0.0
 40
0.0
 40
0.0
 40
0.0
 40
1.0
 40
1.0
 40
1.0
 40
1.0
 10
-100.060216751607
 20
8.014741776908627
 30
0.0
 10
-99.98247675160698
 20
8.051630776908624
 30
0.0
 10
-99.94333975160697
 20
8.123001776908625
 30
0.0
 10
-99.94333975160697
 20
8.227880776908624
 30
0.0
  0
SPLINE
  5
16C
330
1F
100
AcDbEntity
  8
0
  6
Continuous
 62
     7
370
    25
100
AcDbSpline
210
0.0
220
0.0
230
1.0
 70
     8
 71
     3
 72
     8
 73
     4
 74
     0
 42
0.00000001
 43
0.00000001
 40
0.0
 40
0.0
 40
0.0
 40
0.0
 40
1.0
 40
1.0
 40
1.0
 40
1.0
 10
-100.268785751607
 20
8.014544776908625
 30
0.0
 10
-100.193222751607
 20
7.977285776908625
 30
0.0
 10
-100.139038751607
 20
7.977336776908626
 30
0.0
 10
-100.060216751607
 20
8.014741776908627
 30
0.0
  0
SPLINE
  5
16D
330
1F
100
AcDbEntity
  8
0
  6
Continuous
 62
     7
370
    25
100
AcDbSpline
210
0.0
220
0.0
230
1.0
 70
     8
 71
     3
 72
     8
 73
     4
 74
     0
 42
0.00000001
 43
0.00000001
 40
0.0
 40
0.0
 40
0.0
 40
0.0
 40
1.0
 40
1.0
 40
1.0
 40
1.0
 10
-100.200734751607
 20
5.908972776908626
 30
0.0
 10
-100.200734751607
 20
5.895465776908627
 30
0.0
 10
-100.130672751607
 20
5.888771776908626
 30
0.0
 10
-99.98930375160697
 20
5.888771776908626
 30
0.0
  0
SPLINE
  5
16E
330
1F
100
AcDbEntity
  8
0
  6
Continuous
 62
     7
370
    25
100
AcDbSpline
210
0.0
220
0.0
230
1.0
 70
     8
 71
     3
 72
     8
 73
     4
 74
     0
 42
0.00000001
 43
0.00000001
 40
0.0
 40
0.0
 40
0.0
 40
0.0
 40
1.0
 40
1.0
 40
1.0
 40
1.0
 10
-100.027350751607
 20
6.043592776908628
 30
0.0
 10
-100.091355751607
 20
6.031586776908626
 30
0.0
 10
-100.200734751607
 20
5.946658776908625
 30
0.0
 10
-100.200734751607
 20
5.908972776908626
 30
0.0
  0
SPLINE
  5
16F
330
1F
100
AcDbEntity
  8
0
  6
Continuous
 62
     7
370
    25
100
AcDbSpline
210
0.0
220
0.0
230
1.0
 70
     8
 71
     3
 72
     8
 73
     4
 74
     0
 42
0.00000001
 43
0.00000001
 40
0.0
 40
0.0
 40
0.0
 40
0.0
 40
1.0
 40
1.0
 40
1.0
 40
1.0
 10
-99.80785475160697
 20
5.960162776908626
 30
0.0
 10
-99.84992875160698
 20
6.020232776908625
 30
0.0
 10
-99.94970875160696
 20
6.058159776908624
 30
0.0
 10
-100.027350751607
 20
6.043592776908628
 30
0.0
  0
SPLINE
  5
170
330
1F
100
AcDbEntity
  8
0
  6
Continuous
 62
     7
370
    25
100
AcDbSpline
210
0.0
220
0.0
230
1.0
 70
     8
 71
     3
 72
     8
 73
     4
 74
     0
 42
0.00000001
 43
0.00000001
 40
0.0
 40
0.0
 40
0.0
 40
0.0
 40
1.0
 40
1.0
 40
1.0
 40
1.0
 10
-99.77787475160696
 20
5.903067776908632
 30
0.0
 10
-99.77787475160696
 20
5.910926776908631
 30
0.0
 10
-99.79136875160697
 20
5.936622776908631
 30
0.0
 10
-99.80785475160697
 20
5.960162776908626
 30
0.0
  0
SPLINE
  5
171
330
1F
100
AcDbEntity
  8
0
  6
Continuous
 62
     7
370
    25
100
AcDbSpline
210
0.0
220
0.0
230
1.0
 70
     8
 71
     3
 72
     8
 73
     4
 74
     0
 42
0.00000001
 43
0.00000001
 40
0.0
 40
0.0
 40
0.0
 40
0.0
 40
1.0
 40
1.0
 40
1.0
 40
1.0
 10
-99.98930375160695
 20
5.888771776908627
 30
0.0
 10
-99.87301675160697
 20
5.888771776908627
 30
0.0
 10
-99.77787475160696
 20
5.895203776908626
 30
0.0
 10
-99.77787475160696
 20
5.903067776908625
 30
0.0
  0
SPLINE
  5
172
330
1F
100
AcDbEntity
  8
0
  6
Continuous
 62
     7
370
    25
100
AcDbSpline
210
0.0
220
0.0
230
1.0
 70
     8
 71
     3
 72
     8
 73
     4
 74
     0
 42
0.00000001
 43
0.00000001
 40
0.0
 40
0.0
 40
0.0
 40
0.0
 40
1.0
 40
1.0
 40
1.0
 40
1.0
 10
-110.438436751607
 20
-12.13332222309138
 30
0.0
 10
-110.442032751607
 20
-12.26224822309137
 30
0.0
 10
-110.437934751607
 20
-12.36820322309137
 30
0.0
 10
-110.429340751607
 20
-12.36877822309137
 30
0.0
  0
SPLINE
  5
173
330
1F
100
AcDbEntity
  8
0
  6
Continuous
 62
     7
370
    25
100
AcDbSpline
210
0.0
220
0.0
230
1.0
 70
     8
 71
     3
 72
     8
 73
     4
 74
     0
 42
0.00000001
 43
0.00000001
 40
0.0
 40
0.0
 40
0.0
 40
0.0
 40
1.0
 40
1.0
 40
1.0
 40
1.0
 10
-110.373288751607
 20
-11.77498122309137
 30
0.0
 10
-110.427903751607
 20
-11.89046422309137
 30
0.0
 10
-110.432344751607
 20
-11.91488522309137
 30
0.0
 10
-110.438436751607
 20
-12.13332222309138
 30
0.0
  0
SPLINE
  5
174
330
1F
100
AcDbEntity
  8
0
  6
Continuous
 62
     7
370
    25
100
AcDbSpline
210
0.0
220
0.0
230
1.0
 70
     8
 71
     3
 72
     8
 73
     4
 74
     0
 42
0.00000001
 43
0.00000001
 40
0.0
 40
0.0
 40
0.0
 40
0.0
 40
1.0
 40
1.0
 40
1.0
 40
1.0
 10
-110.004465751607
 20
-11.40606222309137
 30
0.0
 10
-110.164966751607
 20
-11.48209322309137
 30
0.0
 10
-110.297436751607
 20
-11.61459622309138
 30
0.0
 10
-110.373288751607
 20
-11.77498122309137
 30
0.0
  0
SPLINE
  5
178
330
1F
100
AcDbEntity
  8
0
  6
Continuous
 62
     7
370
    25
100
AcDbSpline
210
0.0
220
0.0
230
1.0
 70
     8
 71
     3
 72
     8
 73
     4
 74
     0
 42
0.00000001
 43
0.00000001
 40
0.0
 40
0.0
 40
0.0
 40
0.0
 40
1.0
 40
1.0
 40
1.0
 40
1.0
 10
-100.087238751607
 20
-11.77380622309138
 30
0.0
 10
-100.165094751607
 20
-11.61575222309137
 30
0.0
 10
-100.294537751607
 20
-11.48633922309138
 30
0.0
 10
-100.452591751607
 20
-11.40852522309137
 30
0.0
  0
SPLINE
  5
17D
330
1F
100
AcDbEntity
  8
0
  6
Continuous
 62
     7
370
    25
100
AcDbSpline
210
0.0
220
0.0
230
1.0
 70
     8
 71
     3
 72
     8
 73
     4
 74
     0
 42
0.00000001
 43
0.00000001
 40
0.0
 40
0.0
 40
0.0
 40
0.0
 40
1.0
 40
1.0
 40
1.0
 40
1.0
 10
-110.429340751607
 20
-12.36877822309137
 30
0.0
 10
-110.058055751607
 20
-12.39359522309138
 30
0.0
 10
-100.240382751607
 20
-12.95232122309137
 30
0.0
 10
-100.149132751607
 20
-12.95383522309138
 30
0.0
  0
SPLINE
  5
17E
330
1F
100
AcDbEntity
  8
0
  6
Continuous
 62
     7
370
    25
100
AcDbSpline
210
0.0
220
0.0
230
1.0
 70
     8
 71
     3
 72
     8
 73
     4
 74
     0
 42
0.00000001
 43
0.00000001
 40
0.0
 40
0.0
 40
0.0
 40
0.0
 40
1.0
 40
1.0
 40
1.0
 40
1.0
 10
-110.344759751607
 20
-14.04183922309137
 30
0.0
 10
-110.291672751607
 20
-14.04236822309137
 30
0.0
 10
-107.973068751607
 20
-14.17380722309137
 30
0.0
 10
-105.192307751607
 20
-14.33380922309138
 30
0.0
  0
LWPOLYLINE
  5
182
330
1F
100
AcDbEntity
  8
0
  6
Continuous
 62
     7
370
    25
100
AcDbPolyline
 90
        5
 70
   128
 43
0.0
 10
-105.0911887516
 20
-13.1373472231
 10
-107.2872135133
 20
-13.0126416331
 10
-109.0350693414
 20
-12.9133770438
 10
-109.9375960947
 20
-12.8621128373
 10
-110.2987967516
 20
-12.8415852231
  0
SPLINE
  5
187
330
1F
100
AcDbEntity
  8
0
  6
Continuous
 62
     7
370
    25
100
AcDbSpline
210
0.0
220
0.0
230
1.0
 70
     8
 71
     3
 72
     8
 73
     4
 74
     0
 42
0.00000001
 43
0.00000001
 40
0.0
 40
0.0
 40
0.0
 40
0.0
 40
1.0
 40
1.0
 40
1.0
 40
1.0
 10
-105.192307751607
 20
-14.33380922309138
 30
0.0
 10
-102.411545751607
 20
-14.49381022309137
 30
0.0
 10
-100.109376751607
 20
-14.62570522309137
 30
0.0
 10
-100.076372751607
 20
-14.62691222309137
 30
0.0
  0
SPLINE
  5
188
330
1F
100
AcDbEntity
  8
0
  6
Continuous
 62
     7
370
    25
100
AcDbSpline
210
0.0
220
0.0
230
1.0
 70
     8
 71
     3
 72
     8
 73
     4
 74
     0
 42
0.00000001
 43
0.00000001
 40
0.0
 40
0.0
 40
0.0
 40
0.0
 40
1.0
 40
1.0
 40
1.0
 40
1.0
 10
-109.922390751607
 20
-16.13723522309137
 30
0.0
 10
-109.828103751607
 20
-16.17116522309137
 30
0.0
 10
-109.696576751607
 20
-16.17216322309137
 30
0.0
 10
-105.236556751607
 20
-16.17280622309137
 30
0.0
  0
SPLINE
  5
189
330
1F
100
AcDbEntity
  8
0
  6
Continuous
 62
     7
370
    25
100
AcDbSpline
210
0.0
220
0.0
230
1.0
 70
     8
 71
     3
 72
     8
 73
     4
 74
     0
 42
0.00000001
 43
0.00000001
 40
0.0
 40
0.0
 40
0.0
 40
0.0
 40
1.0
 40
1.0
 40
1.0
 40
1.0
 10
-110.080255751607
 20
-16.06471622309137
 30
0.0
 10
-110.046784751607
 20
-16.08540622309138
 30
0.0
 10
-109.975744751607
 20
-16.11803522309138
 30
0.0
 10
-109.922390751607
 20
-16.13723522309137
 30
0.0
  0
SPLINE
  5
18A
330
1F
100
AcDbEntity
  8
0
  6
Continuous
 62
     7
370
    25
100
AcDbSpline
210
0.0
220
0.0
230
1.0
 70
     8
 71
     3
 72
     8
 73
     4
 74
     0
 42
0.00000001
 43
0.00000001
 40
0.0
 40
0.0
 40
0.0
 40
0.0
 40
1.0
 40
1.0
 40
1.0
 40
1.0
 10
-110.382528751607
 20
-15.71848522309137
 30
0.0
 10
-110.329451751607
 20
-15.83174222309137
 30
0.0
 10
-110.179730751607
 20
-16.00323722309138
 30
0.0
 10
-110.080255751607
 20
-16.06471622309137
 30
0.0
  0
SPLINE
  5
18D
330
1F
100
AcDbEntity
  8
0
  6
Continuous
 62
     7
370
    25
100
AcDbSpline
210
0.0
220
0.0
230
1.0
 70
     8
 71
     3
 72
     8
 73
     4
 74
     0
 42
0.00000001
 43
0.00000001
 40
0.0
 40
0.0
 40
0.0
 40
0.0
 40
1.0
 40
1.0
 40
1.0
 40
1.0
 10
-110.410105751607
 20
-14.50042822309137
 30
0.0
 10
-110.441465751607
 20
-14.50041722309137
 30
0.0
 10
-110.442967751607
 20
-14.53074122309138
 30
0.0
 10
-110.437683751607
 20
-15.05656922309137
 30
0.0
  0
SPLINE
  5
18E
330
1F
100
AcDbEntity
  8
0
  6
Continuous
 62
     7
370
    25
100
AcDbSpline
210
0.0
220
0.0
230
1.0
 70
     8
 71
     3
 72
     8
 73
     4
 74
     0
 42
0.00000001
 43
0.00000001
 40
0.0
 40
0.0
 40
0.0
 40
0.0
 40
1.0
 40
1.0
 40
1.0
 40
1.0
 10
-105.210695751607
 20
-14.79458122309137
 30
0.0
 10
-108.052128751607
 20
-14.63280122309137
 30
0.0
 10
-110.391861751607
 20
-14.50043322309138
 30
0.0
 10
-110.410105751607
 20
-14.50042822309137
 30
0.0
  0
SPLINE
  5
18F
330
1F
100
AcDbEntity
  8
0
  6
Continuous
 62
     7
370
    25
100
AcDbSpline
210
0.0
220
0.0
230
1.0
 70
     8
 71
     3
 72
     8
 73
     4
 74
     0
 42
0.00000001
 43
0.00000001
 40
0.0
 40
0.0
 40
0.0
 40
0.0
 40
1.0
 40
1.0
 40
1.0
 40
1.0
 10
-100.030665751607
 20
-15.08873422309138
 30
0.0
 10
-100.038258751607
 20
-15.08872922309137
 30
0.0
 10
-102.369262751607
 20
-14.95636022309137
 30
0.0
 10
-105.210695751607
 20
-14.79458122309137
 30
0.0
  0
SPLINE
  5
190
330
1F
100
AcDbEntity
  8
0
  6
Continuous
 62
     7
370
    25
100
AcDbSpline
210
0.0
220
0.0
230
1.0
 70
     8
 71
     3
 72
     8
 73
     4
 74
     0
 42
0.00000001
 43
0.00000001
 40
0.0
 40
0.0
 40
0.0
 40
0.0
 40
1.0
 40
1.0
 40
1.0
 40
1.0
 10
-100.016880751607
 20
-15.31568022309137
 30
0.0
 10
-100.016880751607
 20
-15.19086622309137
 30
0.0
 10
-100.023071751607
 20
-15.08873922309137
 30
0.0
 10
-100.030665751607
 20
-15.08873422309138
 30
0.0
  0
SPLINE
  5
191
330
1F
100
AcDbEntity
  8
0
  6
Continuous
 62
     7
370
    25
100
AcDbSpline
210
0.0
220
0.0
230
1.0
 70
     8
 71
     3
 72
     8
 73
     4
 74
     0
 42
0.00000001
 43
0.00000001
 40
0.0
 40
0.0
 40
0.0
 40
0.0
 40
1.0
 40
1.0
 40
1.0
 40
1.0
 10
-100.226970751607
 20
-15.93177022309138
 30
0.0
 10
-100.060608751607
 20
-15.75395222309137
 30
0.0
 10
-100.016880751607
 20
-15.62571922309137
 30
0.0
 10
-100.016880751607
 20
-15.31568022309137
 30
0.0
  0
SPLINE
  5
192
330
1F
100
AcDbEntity
  8
0
  6
Continuous
 62
     7
370
    25
100
AcDbSpline
210
0.0
220
0.0
230
1.0
 70
     8
 71
     3
 72
     8
 73
     4
 74
     0
 42
0.00000001
 43
0.00000001
 40
0.0
 40
0.0
 40
0.0
 40
0.0
 40
1.0
 40
1.0
 40
1.0
 40
1.0
 10
-100.546378751607
 20
-16.13860122309137
 30
0.0
 10
-100.416258751607
 20
-16.09383022309137
 30
0.0
 10
-100.320696751607
 20
-16.03195022309137
 30
0.0
 10
-100.226970751607
 20
-15.93177022309138
 30
0.0
  0
SPLINE
  5
193
330
1F
100
AcDbEntity
  8
0
  6
Continuous
 62
     7
370
    25
100
AcDbSpline
210
0.0
220
0.0
230
1.0
 70
     8
 71
     3
 72
     8
 73
     4
 74
     0
 42
0.00000001
 43
0.00000001
 40
0.0
 40
0.0
 40
0.0
 40
0.0
 40
1.0
 40
1.0
 40
1.0
 40
1.0
 10
-105.236556751607
 20
-16.17280622309137
 30
0.0
 10
-100.778031751607
 20
-16.17333522309137
 30
0.0
 10
-100.644853751607
 20
-16.17254122309138
 30
0.0
 10
-100.546378751607
 20
-16.13860122309137
 30
0.0
  0
SPLINE
  5
194
330
1F
100
AcDbEntity
  8
0
  6
Continuous
 62
     7
370
    25
100
AcDbSpline
210
0.0
220
0.0
230
1.0
 70
     8
 71
     3
 72
     8
 73
     4
 74
     0
 42
0.00000001
 43
0.00000001
 40
0.0
 40
0.0
 40
0.0
 40
0.0
 40
1.0
 40
1.0
 40
1.0
 40
1.0
 10
-107.255357751607
 20
-17.75445922309138
 30
0.0
 10
-107.136728751607
 20
-17.93180122309138
 30
0.0
 10
-106.812751751607
 20
-18.25577822309138
 30
0.0
 10
-106.635408751607
 20
-18.37440622309137
 30
0.0
  0
SPLINE
  5
195
330
1F
100
AcDbEntity
  8
0
  6
Continuous
 62
     7
370
    25
100
AcDbSpline
210
0.0
220
0.0
230
1.0
 70
     8
 71
     3
 72
     8
 73
     4
 74
     0
 42
0.00000001
 43
0.00000001
 40
0.0
 40
0.0
 40
0.0
 40
0.0
 40
1.0
 40
1.0
 40
1.0
 40
1.0
 10
-107.636776751607
 20
-16.82207522309137
 30
0.0
 10
-107.580812751607
 20
-17.14201422309138
 30
0.0
 10
-107.448221751607
 20
-17.46613422309137
 30
0.0
 10
-107.255357751607
 20
-17.75445922309138
 30
0.0
  0
SPLINE
  5
196
330
1F
100
AcDbEntity
  8
0
  6
Continuous
 62
     7
370
    25
100
AcDbSpline
210
0.0
220
0.0
230
1.0
 70
     8
 71
     3
 72
     8
 73
     4
 74
     0
 42
0.00000001
 43
0.00000001
 40
0.0
 40
0.0
 40
0.0
 40
0.0
 40
1.0
 40
1.0
 40
1.0
 40
1.0
 10
-107.665065751607
 20
-16.64689422309137
 30
0.0
 10
-107.665065751607
 20
-16.65448822309137
 30
0.0
 10
-107.652302751607
 20
-16.73331022309137
 30
0.0
 10
-107.636776751607
 20
-16.82207522309137
 30
0.0
  0
SPLINE
  5
197
330
1F
100
AcDbEntity
  8
0
  6
Continuous
 62
     7
370
    25
100
AcDbSpline
210
0.0
220
0.0
230
1.0
 70
     8
 71
     3
 72
     8
 73
     4
 74
     0
 42
0.00000001
 43
0.00000001
 40
0.0
 40
0.0
 40
0.0
 40
0.0
 40
1.0
 40
1.0
 40
1.0
 40
1.0
 10
-102.918233751607
 20
-16.64274022309138
 30
0.0
 10
-102.933542751607
 20
-16.62742122309137
 30
0.0
 10
-107.665132751607
 20
-16.63157522309137
 30
0.0
 10
-107.665065751607
 20
-16.64689422309137
 30
0.0
  0
SPLINE
  5
198
330
1F
100
AcDbEntity
  8
0
  6
Continuous
 62
     7
370
    25
100
AcDbSpline
210
0.0
220
0.0
230
1.0
 70
     8
 71
     3
 72
     8
 73
     4
 74
     0
 42
0.00000001
 43
0.00000001
 40
0.0
 40
0.0
 40
0.0
 40
0.0
 40
1.0
 40
1.0
 40
1.0
 40
1.0
 10
-103.025178751607
 20
-17.16833022309137
 30
0.0
 10
-102.962379751607
 20
-16.97928522309137
 30
0.0
 10
-102.898013751607
 20
-16.66295722309138
 30
0.0
 10
-102.918233751607
 20
-16.64274022309138
 30
0.0
  0
SPLINE
  5
199
330
1F
100
AcDbEntity
  8
0
  6
Continuous
 62
     7
370
    25
100
AcDbSpline
210
0.0
220
0.0
230
1.0
 70
     8
 71
     3
 72
     8
 73
     4
 74
     0
 42
0.00000001
 43
0.00000001
 40
0.0
 40
0.0
 40
0.0
 40
0.0
 40
1.0
 40
1.0
 40
1.0
 40
1.0
 10
-104.859723751607
 20
-18.75550222309138
 30
0.0
 10
-104.027506751607
 20
-18.61200822309138
 30
0.0
 10
-103.293923751607
 20
-17.97734422309138
 30
0.0
 10
-103.025178751607
 20
-17.16833022309137
 30
0.0
  0
SPLINE
  5
19A
330
1F
100
AcDbEntity
  8
0
  6
Continuous
 62
     7
370
    25
100
AcDbSpline
210
0.0
220
0.0
230
1.0
 70
     8
 71
     3
 72
     8
 73
     4
 74
     0
 42
0.00000001
 43
0.00000001
 40
0.0
 40
0.0
 40
0.0
 40
0.0
 40
1.0
 40
1.0
 40
1.0
 40
1.0
 10
-106.635408751607
 20
-18.37440622309137
 30
0.0
 10
-106.094569751607
 20
-18.73618422309137
 30
0.0
 10
-105.494553751607
 20
-18.86495722309137
 30
0.0
 10
-104.859723751607
 20
-18.75550222309138
 30
0.0
  0
SPLINE
  5
19B
330
1F
100
AcDbEntity
  8
0
  6
Continuous
 62
     7
370
    25
100
AcDbSpline
210
0.0
220
0.0
230
1.0
 70
     8
 71
     3
 72
     8
 73
     4
 74
     0
 42
0.00000001
 43
0.00000001
 40
0.0
 40
0.0
 40
0.0
 40
0.0
 40
1.0
 40
1.0
 40
1.0
 40
1.0
 10
-116.936986751607
 20
12.98381577690862
 30
0.0
 10
-116.894313751607
 20
12.88858677690862
 30
0.0
 10
-116.794017751607
 20
12.78037277690863
 30
0.0
 10
-116.706467751607
 20
12.73509877690863
 30
0.0
  0
SPLINE
  5
19C
330
1F
100
AcDbEntity
  8
0
  6
Continuous
 62
     7
370
    25
100
AcDbSpline
210
0.0
220
0.0
230
1.0
 70
     8
 71
     3
 72
     8
 73
     4
 74
     0
 42
0.00000001
 43
0.00000001
 40
0.0
 40
0.0
 40
0.0
 40
0.0
 40
1.0
 40
1.0
 40
1.0
 40
1.0
 10
-116.933607751607
 20
13.39428977690863
 30
0.0
 10
-116.989060751607
 20
13.27973777690862
 30
0.0
 10
-116.990512751607
 20
13.10326977690862
 30
0.0
 10
-116.936986751607
 20
12.98381577690862
 30
0.0
  0
SPLINE
  5
19D
330
1F
100
AcDbEntity
  8
0
  6
Continuous
 62
     7
370
    25
100
AcDbSpline
210
0.0
220
0.0
230
1.0
 70
     8
 71
     3
 72
     8
 73
     4
 74
     0
 42
0.00000001
 43
0.00000001
 40
0.0
 40
0.0
 40
0.0
 40
0.0
 40
1.0
 40
1.0
 40
1.0
 40
1.0
 10
-116.641438751607
 20
13.66224077690862
 30
0.0
 10
-116.738345751607
 20
13.63320677690863
 30
0.0
 10
-116.881509751607
 20
13.50190977690863
 30
0.0
 10
-116.933607751607
 20
13.39428977690863
 30
0.0
  0
SPLINE
  5
19E
330
1F
100
AcDbEntity
  8
0
  6
Continuous
 62
     7
370
    25
100
AcDbSpline
210
0.0
220
0.0
230
1.0
 70
     8
 71
     3
 72
     8
 73
     4
 74
     0
 42
0.00000001
 43
0.00000001
 40
0.0
 40
0.0
 40
0.0
 40
0.0
 40
1.0
 40
1.0
 40
1.0
 40
1.0
 10
-115.975818751607
 20
13.18769677690863
 30
0.0
 10
-115.976480751607
 20
13.53522877690863
 30
0.0
 10
-116.298670751607
 20
13.76493677690863
 30
0.0
 10
-116.641438751607
 20
13.66224077690862
 30
0.0
  0
SPLINE
  5
19F
330
1F
100
AcDbEntity
  8
0
  6
Continuous
 62
     7
370
    25
100
AcDbSpline
210
0.0
220
0.0
230
1.0
 70
     8
 71
     3
 72
     8
 73
     4
 74
     0
 42
0.00000001
 43
0.00000001
 40
0.0
 40
0.0
 40
0.0
 40
0.0
 40
1.0
 40
1.0
 40
1.0
 40
1.0
 10
-116.273586751607
 20
12.72230677690863
 30
0.0
 10
-116.099167751607
 20
12.79472977690862
 30
0.0
 10
-115.975444751607
 20
12.98810077690863
 30
0.0
 10
-115.975818751607
 20
13.18769677690863
 30
0.0
  0
SPLINE
  5
1A0
330
1F
100
AcDbEntity
  8
0
  6
Continuous
 62
     7
370
    25
100
AcDbSpline
210
0.0
220
0.0
230
1.0
 70
     8
 71
     3
 72
     8
 73
     4
 74
     0
 42
0.00000001
 43
0.00000001
 40
0.0
 40
0.0
 40
0.0
 40
0.0
 40
1.0
 40
1.0
 40
1.0
 40
1.0
 10
-116.706467751607
 20
12.73509877690863
 30
0.0
 10
-116.590808751607
 20
12.67528977690863
 30
0.0
 10
-116.400371751607
 20
12.66966177690863
 30
0.0
 10
-116.273586751607
 20
12.72230677690863
 30
0.0
  0
SPLINE
  5
1A1
330
1F
100
AcDbEntity
  8
0
  6
Continuous
 62
     7
370
    25
100
AcDbSpline
210
0.0
220
0.0
230
1.0
 70
     8
 71
     3
 72
     8
 73
     4
 74
     0
 42
0.00000001
 43
0.00000001
 40
0.0
 40
0.0
 40
0.0
 40
0.0
 40
1.0
 40
1.0
 40
1.0
 40
1.0
 10
-108.580253751607
 20
2.732583776908628
 30
0.0
 10
-108.298167751607
 20
2.946725776908628
 30
0.0
 10
-108.331310751607
 20
3.410208776908626
 30
0.0
 10
-108.640957751607
 20
3.581509776908628
 30
0.0
  0
SPLINE
  5
1A2
330
1F
100
AcDbEntity
  8
0
  6
Continuous
 62
     7
370
    25
100
AcDbSpline
210
0.0
220
0.0
230
1.0
 70
     8
 71
     3
 72
     8
 73
     4
 74
     0
 42
0.00000001
 43
0.00000001
 40
0.0
 40
0.0
 40
0.0
 40
0.0
 40
1.0
 40
1.0
 40
1.0
 40
1.0
 10
-109.085381751607
 20
2.634774776908627
 30
0.0
 10
-108.758731751607
 20
2.634958776908627
 30
0.0
 10
-108.691894751607
 20
2.647831776908628
 30
0.0
 10
-108.580253751607
 20
2.732583776908628
 30
0.0
  0
SPLINE
  5
1A8
330
1F
100
AcDbEntity
  8
0
  6
Continuous
 62
     7
370
    25
100
AcDbSpline
210
0.0
220
0.0
230
1.0
 70
     8
 71
     3
 72
     8
 73
     4
 74
     0
 42
0.00000001
 43
0.00000001
 40
0.0
 40
0.0
 40
0.0
 40
0.0
 40
1.0
 40
1.0
 40
1.0
 40
1.0
 10
-107.843948751607
 20
1.186754776908626
 30
0.0
 10
-107.829848751607
 20
1.168604776908624
 30
0.0
 10
-107.880558751607
 20
1.163762776908623
 30
0.0
 10
-108.084772751607
 20
1.163762776908623
 30
0.0
  0
SPLINE
  5
1A9
330
1F
100
AcDbEntity
  8
0
  6
Continuous
 62
     7
370
    25
100
AcDbSpline
210
0.0
220
0.0
230
1.0
 70
     8
 71
     3
 72
     8
 73
     4
 74
     0
 42
0.00000001
 43
0.00000001
 40
0.0
 40
0.0
 40
0.0
 40
0.0
 40
1.0
 40
1.0
 40
1.0
 40
1.0
 10
-108.287443751607
 20
1.728871776908627
 30
0.0
 10
-108.053342751607
 20
1.443347776908625
 30
0.0
 10
-107.853769751607
 20
1.199396776908626
 30
0.0
 10
-107.843948751607
 20
1.186754776908626
 30
0.0
  0
SPLINE
  5
1AA
330
1F
100
AcDbEntity
  8
0
  6
Continuous
 62
     7
370
    25
100
AcDbSpline
210
0.0
220
0.0
230
1.0
 70
     8
 71
     3
 72
     8
 73
     4
 74
     0
 42
0.00000001
 43
0.00000001
 40
0.0
 40
0.0
 40
0.0
 40
0.0
 40
1.0
 40
1.0
 40
1.0
 40
1.0
 10
-108.713081751607
 20
2.255096776908629
 30
0.0
 10
-108.713081751607
 20
2.251196776908625
 30
0.0
 10
-108.521544751607
 20
2.014395776908626
 30
0.0
 10
-108.287443751607
 20
1.728871776908627
 30
0.0
  0
SPLINE
  5
1AB
330
1F
100
AcDbEntity
  8
0
  6
Continuous
 62
     7
370
    25
100
AcDbSpline
210
0.0
220
0.0
230
1.0
 70
     8
 71
     3
 72
     8
 73
     4
 74
     0
 42
0.00000001
 43
0.00000001
 40
0.0
 40
0.0
 40
0.0
 40
0.0
 40
1.0
 40
1.0
 40
1.0
 40
1.0
 10
-108.643219751607
 20
2.273358776908627
 30
0.0
 10
-108.681642751607
 20
2.267214776908624
 30
0.0
 10
-108.713081751607
 20
2.258996776908627
 30
0.0
 10
-108.713081751607
 20
2.255096776908629
 30
0.0
  0
SPLINE
  5
1AC
330
1F
100
AcDbEntity
  8
0
  6
Continuous
 62
     7
370
    25
100
AcDbSpline
210
0.0
220
0.0
230
1.0
 70
     8
 71
     3
 72
     8
 73
     4
 74
     0
 42
0.00000001
 43
0.00000001
 40
0.0
 40
0.0
 40
0.0
 40
0.0
 40
1.0
 40
1.0
 40
1.0
 40
1.0
 10
-108.239020751607
 20
2.499745776908625
 30
0.0
 10
-108.343084751607
 20
2.395904776908628
 30
0.0
 10
-108.529378751607
 20
2.291563776908628
 30
0.0
 10
-108.643219751607
 20
2.273358776908627
 30
0.0
  0
SPLINE
  5
1AD
330
1F
100
AcDbEntity
  8
0
  6
Continuous
 62
     7
370
    25
100
AcDbSpline
210
0.0
220
0.0
230
1.0
 70
     8
 71
     3
 72
     8
 73
     4
 74
     0
 42
0.00000001
 43
0.00000001
 40
0.0
 40
0.0
 40
0.0
 40
0.0
 40
1.0
 40
1.0
 40
1.0
 40
1.0
 10
-108.431085751607
 20
3.943973776908624
 30
0.0
 10
-107.934372751607
 20
3.673628776908626
 30
0.0
 10
-107.832242751607
 20
2.905663776908627
 30
0.0
 10
-108.239020751607
 20
2.499745776908625
 30
0.0
  0
SPLINE
  5
1AE
330
1F
100
AcDbEntity
  8
0
  6
Continuous
 62
     7
370
    25
100
AcDbSpline
210
0.0
220
0.0
230
1.0
 70
     8
 71
     3
 72
     8
 73
     4
 74
     0
 42
0.00000001
 43
0.00000001
 40
0.0
 40
0.0
 40
0.0
 40
0.0
 40
1.0
 40
1.0
 40
1.0
 40
1.0
 10
-109.332848751607
 20
4.050251776908626
 30
0.0
 10
-108.686001751607
 20
4.050251776908626
 30
0.0
 10
-108.609864751607
 20
4.041276776908628
 30
0.0
 10
-108.431085751607
 20
3.943973776908624
 30
0.0
  0
SPLINE
  5
1B6
330
1F
100
AcDbEntity
  8
0
  6
Continuous
 62
     7
370
    25
100
AcDbSpline
210
0.0
220
0.0
230
1.0
 70
     8
 71
     3
 72
     8
 73
     4
 74
     0
 42
0.00000001
 43
0.00000001
 40
0.0
 40
0.0
 40
0.0
 40
0.0
 40
1.0
 40
1.0
 40
1.0
 40
1.0
 10
-115.426688751607
 20
3.178814776908626
 30
0.0
 10
-115.435144751607
 20
3.184039776908624
 30
0.0
 10
-115.442063751607
 20
2.732794776908624
 30
0.0
 10
-115.442063751607
 20
2.176045776908626
 30
0.0
  0
SPLINE
  5
1B7
330
1F
100
AcDbEntity
  8
0
  6
Continuous
 62
     7
370
    25
100
AcDbSpline
210
0.0
220
0.0
230
1.0
 70
     8
 71
     3
 72
     8
 73
     4
 74
     0
 42
0.00000001
 43
0.00000001
 40
0.0
 40
0.0
 40
0.0
 40
0.0
 40
1.0
 40
1.0
 40
1.0
 40
1.0
 10
-115.055241751607
 20
2.626171776908624
 30
0.0
 10
-115.251080751607
 20
2.924898776908627
 30
0.0
 10
-115.418232751607
 20
3.173587776908626
 30
0.0
 10
-115.426688751607
 20
3.178814776908626
 30
0.0
  0
SPLINE
  5
1D3
330
1F
100
AcDbEntity
  8
0
  6
Continuous
 62
     7
370
    25
100
AcDbSpline
210
0.0
220
0.0
230
1.0
 70
     8
 71
     3
 72
     8
 73
     4
 74
     0
 42
0.00000001
 43
0.00000001
 40
0.0
 40
0.0
 40
0.0
 40
0.0
 40
1.0
 40
1.0
 40
1.0
 40
1.0
 10
-94.88723975160698
 20
2.525809776908625
 30
0.0
 10
-94.67074675160697
 20
2.309086776908626
 30
0.0
 10
-94.62786375160698
 20
1.969802776908627
 30
0.0
 10
-94.77833175160698
 20
1.664155776908628
 30
0.0
  0
SPLINE
  5
1D4
330
1F
100
AcDbEntity
  8
0
  6
Continuous
 62
     7
370
    25
100
AcDbSpline
210
0.0
220
0.0
230
1.0
 70
     8
 71
     3
 72
     8
 73
     4
 74
     0
 42
0.00000001
 43
0.00000001
 40
0.0
 40
0.0
 40
0.0
 40
0.0
 40
1.0
 40
1.0
 40
1.0
 40
1.0
 10
-95.71952875160697
 20
2.826758776908626
 30
0.0
 10
-95.287040751607
 20
2.771007776908627
 30
0.0
 10
-95.04461075160697
 20
2.683346776908627
 30
0.0
 10
-94.88723975160698
 20
2.525809776908625
 30
0.0
  0
SPLINE
  5
1D5
330
1F
100
AcDbEntity
  8
0
  6
Continuous
 62
     7
370
    25
100
AcDbSpline
210
0.0
220
0.0
230
1.0
 70
     8
 71
     3
 72
     8
 73
     4
 74
     0
 42
0.00000001
 43
0.00000001
 40
0.0
 40
0.0
 40
0.0
 40
0.0
 40
1.0
 40
1.0
 40
1.0
 40
1.0
 10
-96.32836475160697
 20
3.232264776908626
 30
0.0
 10
-96.32836475160697
 20
2.976178776908627
 30
0.0
 10
-96.19629975160699
 20
2.888218776908626
 30
0.0
 10
-95.71952875160697
 20
2.826758776908626
 30
0.0
  0
SPLINE
  5
1D6
330
1F
100
AcDbEntity
  8
0
  6
Continuous
 62
     7
370
    25
100
AcDbSpline
210
0.0
220
0.0
230
1.0
 70
     8
 71
     3
 72
     8
 73
     4
 74
     0
 42
0.00000001
 43
0.00000001
 40
0.0
 40
0.0
 40
0.0
 40
0.0
 40
1.0
 40
1.0
 40
1.0
 40
1.0
 10
-95.94625275160698
 20
3.655679776908626
 30
0.0
 10
-96.19729475160699
 20
3.583519776908624
 30
0.0
 10
-96.32836475160697
 20
3.438283776908625
 30
0.0
 10
-96.32836475160697
 20
3.232264776908626
 30
0.0
  0
SPLINE
  5
1D7
330
1F
100
AcDbEntity
  8
0
  6
Continuous
 62
     7
370
    25
100
AcDbSpline
210
0.0
220
0.0
230
1.0
 70
     8
 71
     3
 72
     8
 73
     4
 74
     0
 42
0.00000001
 43
0.00000001
 40
0.0
 40
0.0
 40
0.0
 40
0.0
 40
1.0
 40
1.0
 40
1.0
 40
1.0
 10
-95.18012275160697
 20
3.374806776908625
 30
0.0
 10
-95.25642875160698
 20
3.606019776908626
 30
0.0
 10
-95.63551575160697
 20
3.744996776908628
 30
0.0
 10
-95.94625275160698
 20
3.655679776908626
 30
0.0
  0
SPLINE
  5
1DA
330
1F
100
AcDbEntity
  8
0
  6
Continuous
 62
     7
370
    25
100
AcDbSpline
210
0.0
220
0.0
230
1.0
 70
     8
 71
     3
 72
     8
 73
     4
 74
     0
 42
0.00000001
 43
0.00000001
 40
0.0
 40
0.0
 40
0.0
 40
0.0
 40
1.0
 40
1.0
 40
1.0
 40
1.0
 10
-94.84990675160698
 20
3.333279776908626
 30
0.0
 10
-94.89791075160697
 20
3.333279776908626
 30
0.0
 10
-94.98704075160697
 20
3.328069776908624
 30
0.0
 10
-95.04797675160698
 20
3.321698776908629
 30
0.0
  0
SPLINE
  5
1DD
330
1F
100
AcDbEntity
  8
0
  6
Continuous
 62
     7
370
    25
100
AcDbSpline
210
0.0
220
0.0
230
1.0
 70
     8
 71
     3
 72
     8
 73
     4
 74
     0
 42
0.00000001
 43
0.00000001
 40
0.0
 40
0.0
 40
0.0
 40
0.0
 40
1.0
 40
1.0
 40
1.0
 40
1.0
 10
-94.85254775160698
 20
3.605005776908626
 30
0.0
 10
-94.82170275160698
 20
3.541506776908628
 30
0.0
 10
-94.78884875160698
 20
3.454391776908629
 30
0.0
 10
-94.77954075160699
 20
3.411416776908625
 30
0.0
  0
SPLINE
  5
1DE
330
1F
100
AcDbEntity
  8
0
  6
Continuous
 62
     7
370
    25
100
AcDbSpline
210
0.0
220
0.0
230
1.0
 70
     8
 71
     3
 72
     8
 73
     4
 74
     0
 42
0.00000001
 43
0.00000001
 40
0.0
 40
0.0
 40
0.0
 40
0.0
 40
1.0
 40
1.0
 40
1.0
 40
1.0
 10
-96.23819175160698
 20
3.970227776908628
 30
0.0
 10
-95.71745475160698
 20
4.219699776908625
 30
0.0
 10
-95.06800275160698
 20
4.048518776908629
 30
0.0
 10
-94.85254775160698
 20
3.605005776908626
 30
0.0
  0
SPLINE
  5
1DF
330
1F
100
AcDbEntity
  8
0
  6
Continuous
 62
     7
370
    25
100
AcDbSpline
210
0.0
220
0.0
230
1.0
 70
     8
 71
     3
 72
     8
 73
     4
 74
     0
 42
0.00000001
 43
0.00000001
 40
0.0
 40
0.0
 40
0.0
 40
0.0
 40
1.0
 40
1.0
 40
1.0
 40
1.0
 10
-96.68977975160698
 20
3.478836776908627
 30
0.0
 10
-96.61581275160698
 20
3.697800776908625
 30
0.0
 10
-96.46555375160698
 20
3.861304776908627
 30
0.0
 10
-96.23819175160698
 20
3.970227776908628
 30
0.0
  0
SPLINE
  5
1E0
330
1F
100
AcDbEntity
  8
0
  6
Continuous
 62
     7
370
    25
100
AcDbSpline
210
0.0
220
0.0
230
1.0
 70
     8
 71
     3
 72
     8
 73
     4
 74
     0
 42
0.00000001
 43
0.00000001
 40
0.0
 40
0.0
 40
0.0
 40
0.0
 40
1.0
 40
1.0
 40
1.0
 40
1.0
 10
-96.67303175160698
 20
2.907715776908626
 30
0.0
 10
-96.73422675160698
 20
3.065506776908627
 30
0.0
 10
-96.74182575160698
 20
3.324741776908627
 30
0.0
 10
-96.68977975160698
 20
3.478836776908627
 30
0.0
  0
SPLINE
  5
1E1
330
1F
100
AcDbEntity
  8
0
  6
Continuous
 62
     7
370
    25
100
AcDbSpline
210
0.0
220
0.0
230
1.0
 70
     8
 71
     3
 72
     8
 73
     4
 74
     0
 42
0.00000001
 43
0.00000001
 40
0.0
 40
0.0
 40
0.0
 40
0.0
 40
1.0
 40
1.0
 40
1.0
 40
1.0
 10
-95.73248075160699
 20
2.414500776908628
 30
0.0
 10
-96.30967975160698
 20
2.489034776908625
 30
0.0
 10
-96.56195975160698
 20
2.621328776908623
 30
0.0
 10
-96.67303175160698
 20
2.907715776908626
 30
0.0
  0
SPLINE
  5
1E2
330
1F
100
AcDbEntity
  8
0
  6
Continuous
 62
     7
370
    25
100
AcDbSpline
210
0.0
220
0.0
230
1.0
 70
     8
 71
     3
 72
     8
 73
     4
 74
     0
 42
0.00000001
 43
0.00000001
 40
0.0
 40
0.0
 40
0.0
 40
0.0
 40
1.0
 40
1.0
 40
1.0
 40
1.0
 10
-95.18249375160698
 20
2.249484776908624
 30
0.0
 10
-95.27211075160697
 20
2.339101776908624
 30
0.0
 10
-95.36543975160697
 20
2.367103776908627
 30
0.0
 10
-95.73248075160699
 20
2.414500776908628
 30
0.0
  0
SPLINE
  5
1E3
330
1F
100
AcDbEntity
  8
0
  6
Continuous
 62
     7
370
    25
100
AcDbSpline
210
0.0
220
0.0
230
1.0
 70
     8
 71
     3
 72
     8
 73
     4
 74
     0
 42
0.00000001
 43
0.00000001
 40
0.0
 40
0.0
 40
0.0
 40
0.0
 40
1.0
 40
1.0
 40
1.0
 40
1.0
 10
-95.29326675160699
 20
1.679714776908626
 30
0.0
 10
-95.07522075160699
 20
1.837667776908625
 30
0.0
 10
-95.025648751607
 20
2.092640776908624
 30
0.0
 10
-95.18249375160698
 20
2.249484776908624
 30
0.0
  0
SPLINE
  5
1E4
330
1F
100
AcDbEntity
  8
0
  6
Continuous
 62
     7
370
    25
100
AcDbSpline
210
0.0
220
0.0
230
1.0
 70
     8
 71
     3
 72
     8
 73
     4
 74
     0
 42
0.00000001
 43
0.00000001
 40
0.0
 40
0.0
 40
0.0
 40
0.0
 40
1.0
 40
1.0
 40
1.0
 40
1.0
 10
-95.74230975160697
 20
1.559153776908625
 30
0.0
 10
-95.53470375160697
 20
1.559153776908625
 30
0.0
 10
-95.41563675160697
 20
1.591069776908628
 30
0.0
 10
-95.29326675160699
 20
1.679714776908626
 30
0.0
  0
SPLINE
  5
1E5
330
1F
100
AcDbEntity
  8
0
  6
Continuous
 62
     7
370
    25
100
AcDbSpline
210
0.0
220
0.0
230
1.0
 70
     8
 71
     3
 72
     8
 73
     4
 74
     0
 42
0.00000001
 43
0.00000001
 40
0.0
 40
0.0
 40
0.0
 40
0.0
 40
1.0
 40
1.0
 40
1.0
 40
1.0
 10
-96.04691875160698
 20
1.616375776908628
 30
0.0
 10
-95.93688375160697
 20
1.564275776908625
 30
0.0
 10
-95.90983875160697
 20
1.559195776908624
 30
0.0
 10
-95.74230975160697
 20
1.559153776908625
 30
0.0
  0
SPLINE
  5
1E6
330
1F
100
AcDbEntity
  8
0
  6
Continuous
 62
     7
370
    25
100
AcDbSpline
210
0.0
220
0.0
230
1.0
 70
     8
 71
     3
 72
     8
 73
     4
 74
     0
 42
0.00000001
 43
0.00000001
 40
0.0
 40
0.0
 40
0.0
 40
0.0
 40
1.0
 40
1.0
 40
1.0
 40
1.0
 10
-96.34852075160698
 20
1.961551776908627
 30
0.0
 10
-96.313253751607
 20
1.801164776908625
 30
0.0
 10
-96.22579375160697
 20
1.701068776908624
 30
0.0
 10
-96.04691875160698
 20
1.616375776908628
 30
0.0
  0
SPLINE
  5
1E9
330
1F
100
AcDbEntity
  8
0
  6
Continuous
 62
     7
370
    25
100
AcDbSpline
210
0.0
220
0.0
230
1.0
 70
     8
 71
     3
 72
     8
 73
     4
 74
     0
 42
0.00000001
 43
0.00000001
 40
0.0
 40
0.0
 40
0.0
 40
0.0
 40
1.0
 40
1.0
 40
1.0
 40
1.0
 10
-96.67764875160698
 20
1.991292776908626
 30
0.0
 10
-96.63847675160697
 20
1.991292776908626
 30
0.0
 10
-96.55102975160698
 20
1.996655776908628
 30
0.0
 10
-96.48331975160698
 20
2.003050776908627
 30
0.0
  0
SPLINE
  5
1EC
330
1F
100
AcDbEntity
  8
0
  6
Continuous
 62
     7
370
    25
100
AcDbSpline
210
0.0
220
0.0
230
1.0
 70
     8
 71
     3
 72
     8
 73
     4
 74
     0
 42
0.00000001
 43
0.00000001
 40
0.0
 40
0.0
 40
0.0
 40
0.0
 40
1.0
 40
1.0
 40
1.0
 40
1.0
 10
-96.02251375160698
 20
1.182341776908628
 30
0.0
 10
-96.42411475160698
 20
1.287534776908628
 30
0.0
 10
-96.71435175160697
 20
1.574917776908626
 30
0.0
 10
-96.74077275160697
 20
1.893497776908625
 30
0.0
  0
SPLINE
  5
1ED
330
1F
100
AcDbEntity
  8
0
  6
Continuous
 62
     7
370
    25
100
AcDbSpline
210
0.0
220
0.0
230
1.0
 70
     8
 71
     3
 72
     8
 73
     4
 74
     0
 42
0.00000001
 43
0.00000001
 40
0.0
 40
0.0
 40
0.0
 40
0.0
 40
1.0
 40
1.0
 40
1.0
 40
1.0
 10
-94.77833175160698
 20
1.664155776908628
 30
0.0
 10
-94.968754751607
 20
1.277353776908626
 30
0.0
 10
-95.54036075160698
 20
1.055997776908627
 30
0.0
 10
-96.02251375160698
 20
1.182341776908628
 30
0.0
  0
SPLINE
  5
1F5
330
1F
100
AcDbEntity
  8
0
  6
Continuous
 62
     7
370
    25
100
AcDbSpline
210
0.0
220
0.0
230
1.0
 70
     8
 71
     3
 72
     8
 73
     4
 74
     0
 42
0.00000001
 43
0.00000001
 40
0.0
 40
0.0
 40
0.0
 40
0.0
 40
1.0
 40
1.0
 40
1.0
 40
1.0
 10
-99.73463375160698
 20
2.712825776908626
 30
0.0
 10
-99.44288875160697
 20
1.956888776908625
 30
0.0
 10
-99.18862175160697
 20
1.299096776908624
 30
0.0
 10
-99.16959475160697
 20
1.251064776908624
 30
0.0
  0
SPLINE
  5
20C
330
1F
100
AcDbEntity
  8
0
  6
Continuous
 62
     7
370
    25
100
AcDbSpline
210
0.0
220
0.0
230
1.0
 70
     8
 71
     3
 72
     8
 73
     4
 74
     0
 42
0.00000001
 43
0.00000001
 40
0.0
 40
0.0
 40
0.0
 40
0.0
 40
1.0
 40
1.0
 40
1.0
 40
1.0
 10
-98.67681675160698
 20
3.178201776908626
 30
0.0
 10
-98.68623575160699
 20
3.184019776908624
 30
0.0
 10
-98.69311475160697
 20
2.760296776908627
 30
0.0
 10
-98.69311475160697
 20
2.176009776908627
 30
0.0
  0
SPLINE
  5
20D
330
1F
100
AcDbEntity
  8
0
  6
Continuous
 62
     7
370
    25
100
AcDbSpline
210
0.0
220
0.0
230
1.0
 70
     8
 71
     3
 72
     8
 73
     4
 74
     0
 42
0.00000001
 43
0.00000001
 40
0.0
 40
0.0
 40
0.0
 40
0.0
 40
1.0
 40
1.0
 40
1.0
 40
1.0
 10
-97.98433575160698
 20
2.165930776908624
 30
0.0
 10
-98.35622875160698
 20
2.717135776908627
 30
0.0
 10
-98.66784675160697
 20
3.172656776908627
 30
0.0
 10
-98.67681675160698
 20
3.178201776908626
 30
0.0
  0
SPLINE
  5
215
330
1F
100
AcDbEntity
  8
0
  6
Continuous
 62
     7
370
    25
100
AcDbSpline
210
0.0
220
0.0
230
1.0
 70
     8
 71
     3
 72
     8
 73
     4
 74
     0
 42
0.00000001
 43
0.00000001
 40
0.0
 40
0.0
 40
0.0
 40
0.0
 40
1.0
 40
1.0
 40
1.0
 40
1.0
 10
-98.75535275160698
 20
4.026472776908627
 30
0.0
 10
-98.74405475160697
 20
4.014251776908628
 30
0.0
 10
-98.43380975160699
 20
3.557491776908624
 30
0.0
 10
-98.06590675160697
 20
3.011451776908626
 30
0.0
  0
SPLINE
  5
216
330
1F
100
AcDbEntity
  8
0
  6
Continuous
 62
     7
370
    25
100
AcDbSpline
210
0.0
220
0.0
230
1.0
 70
     8
 71
     3
 72
     8
 73
     4
 74
     0
 42
0.00000001
 43
0.00000001
 40
0.0
 40
0.0
 40
0.0
 40
0.0
 40
1.0
 40
1.0
 40
1.0
 40
1.0
 10
-98.92755975160696
 20
4.061290776908626
 30
0.0
 10
-98.84413675160697
 20
4.054360776908625
 30
0.0
 10
-98.76664275160697
 20
4.038692776908627
 30
0.0
 10
-98.75535275160698
 20
4.026472776908627
 30
0.0
  0
SPLINE
  5
21C
330
1F
100
AcDbEntity
  8
0
  6
Continuous
 62
     7
370
    25
100
AcDbSpline
210
0.0
220
0.0
230
1.0
 70
     8
 71
     3
 72
     8
 73
     4
 74
     0
 42
0.00000001
 43
0.00000001
 40
0.0
 40
0.0
 40
0.0
 40
0.0
 40
1.0
 40
1.0
 40
1.0
 40
1.0
 10
-106.143430751607
 20
2.388500776908626
 30
0.0
 10
-106.357812751607
 20
2.175236776908628
 30
0.0
 10
-106.485420751607
 20
2.138704776908626
 30
0.0
 10
-107.017045751607
 20
2.138408776908626
 30
0.0
  0
SPLINE
  5
21D
330
1F
100
AcDbEntity
  8
0
  6
Continuous
 62
     7
370
    25
100
AcDbSpline
210
0.0
220
0.0
230
1.0
 70
     8
 71
     3
 72
     8
 73
     4
 74
     0
 42
0.00000001
 43
0.00000001
 40
0.0
 40
0.0
 40
0.0
 40
0.0
 40
1.0
 40
1.0
 40
1.0
 40
1.0
 10
-106.120205751607
 20
3.779729776908627
 30
0.0
 10
-105.771923751607
 20
3.399286776908625
 30
0.0
 10
-105.782807751607
 20
2.747244776908623
 30
0.0
 10
-106.143430751607
 20
2.388500776908626
 30
0.0
  0
SPLINE
  5
21E
330
1F
100
AcDbEntity
  8
0
  6
Continuous
 62
     7
370
    25
100
AcDbSpline
210
0.0
220
0.0
230
1.0
 70
     8
 71
     3
 72
     8
 73
     4
 74
     0
 42
0.00000001
 43
0.00000001
 40
0.0
 40
0.0
 40
0.0
 40
0.0
 40
1.0
 40
1.0
 40
1.0
 40
1.0
 10
-106.490768751607
 20
4.015613776908626
 30
0.0
 10
-106.333514751607
 20
3.966669776908627
 30
0.0
 10
-106.232452751607
 20
3.902338776908626
 30
0.0
 10
-106.120205751607
 20
3.779729776908627
 30
0.0
  0
SPLINE
  5
21F
330
1F
100
AcDbEntity
  8
0
  6
Continuous
 62
     7
370
    25
100
AcDbSpline
210
0.0
220
0.0
230
1.0
 70
     8
 71
     3
 72
     8
 73
     4
 74
     0
 42
0.00000001
 43
0.00000001
 40
0.0
 40
0.0
 40
0.0
 40
0.0
 40
1.0
 40
1.0
 40
1.0
 40
1.0
 10
-107.207132751607
 20
4.050251776908626
 30
0.0
 10
-106.666115751607
 20
4.050251776908626
 30
0.0
 10
-106.590278751607
 20
4.046583776908627
 30
0.0
 10
-106.490768751607
 20
4.015613776908626
 30
0.0
  0
SPLINE
  5
226
330
1F
100
AcDbEntity
  8
0
  6
Continuous
 62
     7
370
    25
100
AcDbSpline
210
0.0
220
0.0
230
1.0
 70
     8
 71
     3
 72
     8
 73
     4
 74
     0
 42
0.00000001
 43
0.00000001
 40
0.0
 40
0.0
 40
0.0
 40
0.0
 40
1.0
 40
1.0
 40
1.0
 40
1.0
 10
-110.245466751607
 20
3.002294776908627
 30
0.0
 10
-110.199218751607
 20
2.833672776908627
 30
0.0
 10
-110.198468751607
 20
2.397189776908629
 30
0.0
 10
-110.244143751607
 20
2.230115776908629
 30
0.0
  0
SPLINE
  5
227
330
1F
100
AcDbEntity
  8
0
  6
Continuous
 62
     7
370
    25
100
AcDbSpline
210
0.0
220
0.0
230
1.0
 70
     8
 71
     3
 72
     8
 73
     4
 74
     0
 42
0.00000001
 43
0.00000001
 40
0.0
 40
0.0
 40
0.0
 40
0.0
 40
1.0
 40
1.0
 40
1.0
 40
1.0
 10
-111.303842751607
 20
4.052422776908628
 30
0.0
 10
-110.796242751607
 20
3.925273776908628
 30
0.0
 10
-110.387327751607
 20
3.519543776908624
 30
0.0
 10
-110.245466751607
 20
3.002294776908627
 30
0.0
  0
SPLINE
  5
228
330
1F
100
AcDbEntity
  8
0
  6
Continuous
 62
     7
370
    25
100
AcDbSpline
210
0.0
220
0.0
230
1.0
 70
     8
 71
     3
 72
     8
 73
     4
 74
     0
 42
0.00000001
 43
0.00000001
 40
0.0
 40
0.0
 40
0.0
 40
0.0
 40
1.0
 40
1.0
 40
1.0
 40
1.0
 10
-112.068377751607
 20
4.024695776908626
 30
0.0
 10
-111.858625751607
 20
4.096157776908627
 30
0.0
 10
-111.526521751607
 20
4.108201776908627
 30
0.0
 10
-111.303842751607
 20
4.052422776908628
 30
0.0
  0
SPLINE
  5
229
330
1F
100
AcDbEntity
  8
0
  6
Continuous
 62
     7
370
    25
100
AcDbSpline
210
0.0
220
0.0
230
1.0
 70
     8
 71
     3
 72
     8
 73
     4
 74
     0
 42
0.00000001
 43
0.00000001
 40
0.0
 40
0.0
 40
0.0
 40
0.0
 40
1.0
 40
1.0
 40
1.0
 40
1.0
 10
-113.064142751607
 20
2.533471776908623
 30
0.0
 10
-113.102726751607
 20
3.195155776908626
 30
0.0
 10
-112.690284751607
 20
3.812815776908625
 30
0.0
 10
-112.068377751607
 20
4.024695776908626
 30
0.0
  0
SPLINE
  5
22A
330
1F
100
AcDbEntity
  8
0
  6
Continuous
 62
     7
370
    25
100
AcDbSpline
210
0.0
220
0.0
230
1.0
 70
     8
 71
     3
 72
     8
 73
     4
 74
     0
 42
0.00000001
 43
0.00000001
 40
0.0
 40
0.0
 40
0.0
 40
0.0
 40
1.0
 40
1.0
 40
1.0
 40
1.0
 10
-111.884530751607
 20
1.153761776908617
 30
0.0
 10
-112.535615751607
 20
1.272347776908621
 30
0.0
 10
-113.023906751607
 20
1.843466776908626
 30
0.0
 10
-113.064142751607
 20
2.533471776908623
 30
0.0
  0
SPLINE
  5
22B
330
1F
100
AcDbEntity
  8
0
  6
Continuous
 62
     7
370
    25
100
AcDbSpline
210
0.0
220
0.0
230
1.0
 70
     8
 71
     3
 72
     8
 73
     4
 74
     0
 42
0.00000001
 43
0.00000001
 40
0.0
 40
0.0
 40
0.0
 40
0.0
 40
1.0
 40
1.0
 40
1.0
 40
1.0
 10
-110.244143751607
 20
2.230115776908622
 30
0.0
 10
-110.447475751607
 20
1.486265776908619
 30
0.0
 10
-111.156344751607
 20
1.021133776908622
 30
0.0
 10
-111.884530751607
 20
1.153761776908623
 30
0.0
  0
SPLINE
  5
22C
330
1F
100
AcDbEntity
  8
0
  6
Continuous
 62
     7
370
    25
100
AcDbSpline
210
0.0
220
0.0
230
1.0
 70
     8
 71
     3
 72
     8
 73
     4
 74
     0
 42
0.00000001
 43
0.00000001
 40
0.0
 40
0.0
 40
0.0
 40
0.0
 40
1.0
 40
1.0
 40
1.0
 40
1.0
 10
-110.373391751607
 20
-10.42333322309138
 30
0.0
 10
-110.271707751607
 20
-10.63799022309137
 30
0.0
 10
-110.065460751607
 20
-10.80349722309137
 30
0.0
 10
-109.841857751607
 20
-10.84987922309137
 30
0.0
  0
SPLINE
  5
231
330
1F
100
AcDbEntity
  8
0
  6
Continuous
 62
     7
370
    25
100
AcDbSpline
210
0.0
220
0.0
230
1.0
 70
     8
 71
     3
 72
     8
 73
     4
 74
     0
 42
0.00000001
 43
0.00000001
 40
0.0
 40
0.0
 40
0.0
 40
0.0
 40
1.0
 40
1.0
 40
1.0
 40
1.0
 10
-110.599940751607
 20
-6.824598223091373
 30
0.0
 10
-110.469302751607
 20
-7.448186223091374
 30
0.0
 10
-110.456917751607
 20
-7.624534223091374
 30
0.0
 10
-110.443697751607
 20
-9.049207223091374
 30
0.0
  0
SPLINE
  5
232
330
1F
100
AcDbEntity
  8
0
  6
Continuous
 62
     7
370
    25
100
AcDbSpline
210
0.0
220
0.0
230
1.0
 70
     8
 71
     3
 72
     8
 73
     4
 74
     0
 42
0.00000001
 43
0.00000001
 40
0.0
 40
0.0
 40
0.0
 40
0.0
 40
1.0
 40
1.0
 40
1.0
 40
1.0
 10
-111.295975751607
 20
-5.114773223091375
 30
0.0
 10
-111.006954751607
 20
-5.572251223091375
 30
0.0
 10
-110.708927751607
 20
-6.304358223091374
 30
0.0
 10
-110.599940751607
 20
-6.824598223091373
 30
0.0
  0
SPLINE
  5
233
330
1F
100
AcDbEntity
  8
0
  6
Continuous
 62
     7
370
    25
100
AcDbSpline
210
0.0
220
0.0
230
1.0
 70
     8
 71
     3
 72
     8
 73
     4
 74
     0
 42
0.00000001
 43
0.00000001
 40
0.0
 40
0.0
 40
0.0
 40
0.0
 40
1.0
 40
1.0
 40
1.0
 40
1.0
 10
-113.136309751607
 20
-3.138944223091373
 30
0.0
 10
-112.369795751607
 20
-3.733725223091375
 30
0.0
 10
-111.744048751607
 20
-4.405544223091373
 30
0.0
 10
-111.295975751607
 20
-5.114773223091375
 30
0.0
  0
SPLINE
  5
234
330
1F
100
AcDbEntity
  8
0
  6
Continuous
 62
     7
370
    25
100
AcDbSpline
210
0.0
220
0.0
230
1.0
 70
     8
 71
     3
 72
     8
 73
     4
 74
     0
 42
0.00000001
 43
0.00000001
 40
0.0
 40
0.0
 40
0.0
 40
0.0
 40
1.0
 40
1.0
 40
1.0
 40
1.0
 10
-113.463811751607
 20
-2.872358223091374
 30
0.0
 10
-113.394043751607
 20
-2.933347223091371
 30
0.0
 10
-113.246667751607
 20
-3.053312223091374
 30
0.0
 10
-113.136309751607
 20
-3.138944223091373
 30
0.0
  0
SPLINE
  5
235
330
1F
100
AcDbEntity
  8
0
  6
Continuous
 62
     7
370
    25
100
AcDbSpline
210
0.0
220
0.0
230
1.0
 70
     8
 71
     3
 72
     8
 73
     4
 74
     0
 42
0.00000001
 43
0.00000001
 40
0.0
 40
0.0
 40
0.0
 40
0.0
 40
1.0
 40
1.0
 40
1.0
 40
1.0
 10
-114.356742751607
 20
-1.915749223091373
 30
0.0
 10
-114.087193751607
 20
-2.237535223091374
 30
0.0
 10
-113.631266751607
 20
-2.725974223091371
 30
0.0
 10
-113.463811751607
 20
-2.872358223091374
 30
0.0
  0
SPLINE
  5
236
330
1F
100
AcDbEntity
  8
0
  6
Continuous
 62
     7
370
    25
100
AcDbSpline
210
0.0
220
0.0
230
1.0
 70
     8
 71
     3
 72
     8
 73
     4
 74
     0
 42
0.00000001
 43
0.00000001
 40
0.0
 40
0.0
 40
0.0
 40
0.0
 40
1.0
 40
1.0
 40
1.0
 40
1.0
 10
-117.086158751607
 20
4.730500776908626
 30
0.0
 10
-116.883472751607
 20
2.287100776908625
 30
0.0
 10
-115.927610751607
 20
-0.0404672230913741
 30
0.0
 10
-114.356742751607
 20
-1.915749223091373
 30
0.0
  0
SPLINE
  5
237
330
1F
100
AcDbEntity
  8
0
  6
Continuous
 62
     7
370
    25
100
AcDbSpline
210
0.0
220
0.0
230
1.0
 70
     8
 71
     3
 72
     8
 73
     4
 74
     0
 42
0.00000001
 43
0.00000001
 40
0.0
 40
0.0
 40
0.0
 40
0.0
 40
1.0
 40
1.0
 40
1.0
 40
1.0
 10
-117.117283751607
 20
5.254479776908627
 30
0.0
 10
-117.115669751607
 20
5.153360776908626
 30
0.0
 10
-117.101676751607
 20
4.917570776908628
 30
0.0
 10
-117.086158751607
 20
4.730500776908626
 30
0.0
  0
SPLINE
  5
23B
330
1F
100
AcDbEntity
  8
0
  6
Continuous
 62
     7
370
    25
100
AcDbSpline
210
0.0
220
0.0
230
1.0
 70
     8
 71
     3
 72
     8
 73
     4
 74
     0
 42
0.00000001
 43
0.00000001
 40
0.0
 40
0.0
 40
0.0
 40
0.0
 40
1.0
 40
1.0
 40
1.0
 40
1.0
 10
-95.089611751607
 20
-0.3438122230913742
 30
0.0
 10
-94.11172175160698
 20
1.294770776908625
 30
0.0
 10
-93.53162075160698
 20
3.245830776908626
 30
0.0
 10
-93.45934675160697
 20
5.139270776908625
 30
0.0
  0
SPLINE
  5
23C
330
1F
100
AcDbEntity
  8
0
  6
Continuous
 62
     7
370
    25
100
AcDbSpline
210
0.0
220
0.0
230
1.0
 70
     8
 71
     3
 72
     8
 73
     4
 74
     0
 42
0.00000001
 43
0.00000001
 40
0.0
 40
0.0
 40
0.0
 40
0.0
 40
1.0
 40
1.0
 40
1.0
 40
1.0
 10
-97.36022375160698
 20
-3.074261223091374
 30
0.0
 10
-96.62448575160698
 20
-2.482148223091375
 30
0.0
 10
-95.70812275160698
 20
-1.380206223091374
 30
0.0
 10
-95.089611751607
 20
-0.3438122230913742
 30
0.0
  0
SPLINE
  5
23D
330
1F
100
AcDbEntity
  8
0
  6
Continuous
 62
     7
370
    25
100
AcDbSpline
210
0.0
220
0.0
230
1.0
 70
     8
 71
     3
 72
     8
 73
     4
 74
     0
 42
0.00000001
 43
0.00000001
 40
0.0
 40
0.0
 40
0.0
 40
0.0
 40
1.0
 40
1.0
 40
1.0
 40
1.0
 10
-99.93282775160698
 20
-7.403728223091374
 30
0.0
 10
-99.70087875160698
 20
-5.679989223091374
 30
0.0
 10
-98.87866975160698
 20
-4.296284223091376
 30
0.0
 10
-97.36022375160698
 20
-3.074261223091374
 30
0.0
  0
SPLINE
  5
23E
330
1F
100
AcDbEntity
  8
0
  6
Continuous
 62
     7
370
    25
100
AcDbSpline
210
0.0
220
0.0
230
1.0
 70
     8
 71
     3
 72
     8
 73
     4
 74
     0
 42
0.00000001
 43
0.00000001
 40
0.0
 40
0.0
 40
0.0
 40
0.0
 40
1.0
 40
1.0
 40
1.0
 40
1.0
 10
-100.014245751607
 20
-9.205919223091374
 30
0.0
 10
-100.002577751607
 20
-8.126229223091373
 30
0.0
 10
-99.98868675160698
 20
-7.818839223091374
 30
0.0
 10
-99.93282775160698
 20
-7.403728223091374
 30
0.0
  0
SPLINE
  5
241
330
1F
100
AcDbEntity
  8
0
  6
Continuous
 62
     7
370
    25
100
AcDbSpline
210
0.0
220
0.0
230
1.0
 70
     8
 71
     3
 72
     8
 73
     4
 74
     0
 42
0.00000001
 43
0.00000001
 40
0.0
 40
0.0
 40
0.0
 40
0.0
 40
1.0
 40
1.0
 40
1.0
 40
1.0
 10
-100.577630751607
 20
-10.84046022309137
 30
0.0
 10
-100.365818751607
 20
-10.77932522309137
 30
0.0
 10
-100.187513751607
 20
-10.62807322309137
 30
0.0
 10
-100.087241751607
 20
-10.42448222309137
 30
0.0
  0
SPLINE
  5
242
330
1F
100
AcDbEntity
  8
0
  6
Continuous
 62
     7
370
    25
100
AcDbSpline
210
0.0
220
0.0
230
1.0
 70
     8
 71
     3
 72
     8
 73
     4
 74
     0
 42
0.00000001
 43
0.00000001
 40
0.0
 40
0.0
 40
0.0
 40
0.0
 40
1.0
 40
1.0
 40
1.0
 40
1.0
 10
-109.841857751607
 20
-10.84987922309137
 30
0.0
 10
-109.703141751607
 20
-10.87865022309137
 30
0.0
 10
-100.678153751607
 20
-10.86948422309137
 30
0.0
 10
-100.577630751607
 20
-10.84046022309137
 30
0.0
  0
SPLINE
  5
243
330
1F
100
AcDbEntity
  8
0
  6
Continuous
 62
     7
370
    25
100
AcDbSpline
210
0.0
220
0.0
230
1.0
 70
     8
 71
     3
 72
     8
 73
     4
 74
     0
 42
0.00000001
 43
0.00000001
 40
0.0
 40
0.0
 40
0.0
 40
0.0
 40
1.0
 40
1.0
 40
1.0
 40
1.0
 10
-100.765802751607
 20
2.436912776908627
 30
0.0
 10
-100.772654751607
 20
2.419021776908628
 30
0.0
 10
-100.696790751607
 20
2.413930776908626
 30
0.0
 10
-100.423322751607
 20
2.413930776908626
 30
0.0
  0
SPLINE
  5
244
330
1F
100
AcDbEntity
  8
0
  6
Continuous
 62
     7
370
    25
100
AcDbSpline
210
0.0
220
0.0
230
1.0
 70
     8
 71
     3
 72
     8
 73
     4
 74
     0
 42
0.00000001
 43
0.00000001
 40
0.0
 40
0.0
 40
0.0
 40
0.0
 40
1.0
 40
1.0
 40
1.0
 40
1.0
 10
-100.595355751607
 20
2.928716776908625
 30
0.0
 10
-100.684257751607
 20
2.670864776908625
 30
0.0
 10
-100.760960751607
 20
2.449552776908629
 30
0.0
 10
-100.765802751607
 20
2.436912776908628
 30
0.0
  0
SPLINE
  5
245
330
1F
100
AcDbEntity
  8
0
  6
Continuous
 62
     7
370
    25
100
AcDbSpline
210
0.0
220
0.0
230
1.0
 70
     8
 71
     3
 72
     8
 73
     4
 74
     0
 42
0.00000001
 43
0.00000001
 40
0.0
 40
0.0
 40
0.0
 40
0.0
 40
1.0
 40
1.0
 40
1.0
 40
1.0
 10
-100.421148751607
 20
3.412199776908626
 30
0.0
 10
-100.428053751607
 20
3.404135776908627
 30
0.0
 10
-100.506452751607
 20
3.186569776908625
 30
0.0
 10
-100.595355751607
 20
2.928716776908629
 30
0.0
  0
SPLINE
  5
246
330
1F
100
AcDbEntity
  8
0
  6
Continuous
 62
     7
370
    25
100
AcDbSpline
210
0.0
220
0.0
230
1.0
 70
     8
 71
     3
 72
     8
 73
     4
 74
     0
 42
0.00000001
 43
0.00000001
 40
0.0
 40
0.0
 40
0.0
 40
0.0
 40
1.0
 40
1.0
 40
1.0
 40
1.0
 10
-100.071913751607
 20
2.427721776908629
 30
0.0
 10
-100.071649751607
 20
2.468752776908625
 30
0.0
 10
-100.410593751607
 20
3.424512776908625
 30
0.0
 10
-100.421148751607
 20
3.412199776908626
 30
0.0
  0
SPLINE
  5
247
330
1F
100
AcDbEntity
  8
0
  6
Continuous
 62
     7
370
    25
100
AcDbSpline
210
0.0
220
0.0
230
1.0
 70
     8
 71
     3
 72
     8
 73
     4
 74
     0
 42
0.00000001
 43
0.00000001
 40
0.0
 40
0.0
 40
0.0
 40
0.0
 40
1.0
 40
1.0
 40
1.0
 40
1.0
 10
-100.423322751607
 20
2.413930776908626
 30
0.0
 10
-100.230113751607
 20
2.413930776908626
 30
0.0
 10
-100.071982751607
 20
2.420135776908625
 30
0.0
 10
-100.071913751607
 20
2.427721776908629
 30
0.0
  0
SPLINE
  5
24A
330
1F
100
AcDbEntity
  8
0
  6
Continuous
 62
     7
370
    25
100
AcDbSpline
210
0.0
220
0.0
230
1.0
 70
     8
 71
     3
 72
     8
 73
     4
 74
     0
 42
0.00000001
 43
0.00000001
 40
0.0
 40
0.0
 40
0.0
 40
0.0
 40
1.0
 40
1.0
 40
1.0
 40
1.0
 10
-106.402839751607
 20
3.475814776908625
 30
0.0
 10
-106.542958751607
 20
3.627827776908624
 30
0.0
 10
-106.572214751607
 20
3.635765776908627
 30
0.0
 10
-107.017046751607
 20
3.642487776908624
 30
0.0
  0
SPLINE
  5
24B
330
1F
100
AcDbEntity
  8
0
  6
Continuous
 62
     7
370
    25
100
AcDbSpline
210
0.0
220
0.0
230
1.0
 70
     8
 71
     3
 72
     8
 73
     4
 74
     0
 42
0.00000001
 43
0.00000001
 40
0.0
 40
0.0
 40
0.0
 40
0.0
 40
1.0
 40
1.0
 40
1.0
 40
1.0
 10
-106.271398751607
 20
3.049073776908627
 30
0.0
 10
-106.261317751607
 20
3.241134776908624
 30
0.0
 10
-106.298854751607
 20
3.363004776908627
 30
0.0
 10
-106.402839751607
 20
3.475814776908625
 30
0.0
  0
SPLINE
  5
24C
330
1F
100
AcDbEntity
  8
0
  6
Continuous
 62
     7
370
    25
100
AcDbSpline
210
0.0
220
0.0
230
1.0
 70
     8
 71
     3
 72
     8
 73
     4
 74
     0
 42
0.00000001
 43
0.00000001
 40
0.0
 40
0.0
 40
0.0
 40
0.0
 40
1.0
 40
1.0
 40
1.0
 40
1.0
 10
-106.335222751607
 20
2.798430776908625
 30
0.0
 10
-106.288829751607
 20
2.881014776908625
 30
0.0
 10
-106.277983751607
 20
2.923605776908623
 30
0.0
 10
-106.271398751607
 20
3.049073776908627
 30
0.0
  0
SPLINE
  5
24D
330
1F
100
AcDbEntity
  8
0
  6
Continuous
 62
     7
370
    25
100
AcDbSpline
210
0.0
220
0.0
230
1.0
 70
     8
 71
     3
 72
     8
 73
     4
 74
     0
 42
0.00000001
 43
0.00000001
 40
0.0
 40
0.0
 40
0.0
 40
0.0
 40
1.0
 40
1.0
 40
1.0
 40
1.0
 10
-106.613037751607
 20
2.561970776908625
 30
0.0
 10
-106.511091751607
 20
2.590201776908628
 30
0.0
 10
-106.398204751607
 20
2.686317776908625
 30
0.0
 10
-106.335222751607
 20
2.798430776908625
 30
0.0
  0
SPLINE
  5
24E
330
1F
100
AcDbEntity
  8
0
  6
Continuous
 62
     7
370
    25
100
AcDbSpline
210
0.0
220
0.0
230
1.0
 70
     8
 71
     3
 72
     8
 73
     4
 74
     0
 42
0.00000001
 43
0.00000001
 40
0.0
 40
0.0
 40
0.0
 40
0.0
 40
1.0
 40
1.0
 40
1.0
 40
1.0
 10
-107.044624751607
 20
2.542848776908625
 30
0.0
 10
-106.844914751607
 20
2.542848776908625
 30
0.0
 10
-106.650701751607
 20
2.551508776908625
 30
0.0
 10
-106.613037751607
 20
2.561970776908625
 30
0.0
  0
SPLINE
  5
250
330
1F
100
AcDbEntity
  8
0
  6
Continuous
 62
     7
370
    25
100
AcDbSpline
210
0.0
220
0.0
230
1.0
 70
     8
 71
     3
 72
     8
 73
     4
 74
     0
 42
0.00000001
 43
0.00000001
 40
0.0
 40
0.0
 40
0.0
 40
0.0
 40
1.0
 40
1.0
 40
1.0
 40
1.0
 10
-93.27943775160698
 20
13.17102177690863
 30
0.0
 10
-93.36024475160698
 20
12.82820977690863
 30
0.0
 10
-93.64543375160697
 20
12.54301877690863
 30
0.0
 10
-93.98824675160697
 20
12.46221277690863
 30
0.0
  0
SPLINE
  5
251
330
1F
100
AcDbEntity
  8
0
  6
Continuous
 62
     7
370
    25
100
AcDbSpline
210
0.0
220
0.0
230
1.0
 70
     8
 71
     3
 72
     8
 73
     4
 74
     0
 42
0.00000001
 43
0.00000001
 40
0.0
 40
0.0
 40
0.0
 40
0.0
 40
1.0
 40
1.0
 40
1.0
 40
1.0
 10
-93.51979075160698
 20
14.05129877690863
 30
0.0
 10
-93.28720875160698
 20
13.80474877690863
 30
0.0
 10
-93.20286775160697
 20
13.49585777690863
 30
0.0
 10
-93.27943775160698
 20
13.17102177690863
 30
0.0
  0
SPLINE
  5
252
330
1F
100
AcDbEntity
  8
0
  6
Continuous
 62
     7
370
    25
100
AcDbSpline
210
0.0
220
0.0
230
1.0
 70
     8
 71
     3
 72
     8
 73
     4
 74
     0
 42
0.00000001
 43
0.00000001
 40
0.0
 40
0.0
 40
0.0
 40
0.0
 40
1.0
 40
1.0
 40
1.0
 40
1.0
 10
-94.20715775160699
 20
14.34596377690862
 30
0.0
 10
-93.926883751607
 20
14.34596377690862
 30
0.0
 10
-93.71009275160698
 20
14.25302777690863
 30
0.0
 10
-93.51979075160698
 20
14.05129877690863
 30
0.0
  0
SPLINE
  5
253
330
1F
100
AcDbEntity
  8
0
  6
Continuous
 62
     7
370
    25
100
AcDbSpline
210
0.0
220
0.0
230
1.0
 70
     8
 71
     3
 72
     8
 73
     4
 74
     0
 42
0.00000001
 43
0.00000001
 40
0.0
 40
0.0
 40
0.0
 40
0.0
 40
1.0
 40
1.0
 40
1.0
 40
1.0
 10
-94.46581175160698
 20
14.31663277690862
 30
0.0
 10
-94.40834075160697
 20
14.33351377690863
 30
0.0
 10
-94.29854175160699
 20
14.34596377690862
 30
0.0
 10
-94.20715775160699
 20
14.34596377690862
 30
0.0
  0
SPLINE
  5
254
330
1F
100
AcDbEntity
  8
0
  6
Continuous
 62
     7
370
    25
100
AcDbSpline
210
0.0
220
0.0
230
1.0
 70
     8
 71
     3
 72
     8
 73
     4
 74
     0
 42
0.00000001
 43
0.00000001
 40
0.0
 40
0.0
 40
0.0
 40
0.0
 40
1.0
 40
1.0
 40
1.0
 40
1.0
 10
-95.16318975160698
 20
13.39965177690863
 30
0.0
 10
-95.16318975160698
 20
13.82841677690862
 30
0.0
 10
-94.88568675160697
 20
14.19330377690862
 30
0.0
 10
-94.46581175160698
 20
14.31663277690862
 30
0.0
  0
SPLINE
  5
255
330
1F
100
AcDbEntity
  8
0
  6
Continuous
 62
     7
370
    25
100
AcDbSpline
210
0.0
220
0.0
230
1.0
 70
     8
 71
     3
 72
     8
 73
     4
 74
     0
 42
0.00000001
 43
0.00000001
 40
0.0
 40
0.0
 40
0.0
 40
0.0
 40
1.0
 40
1.0
 40
1.0
 40
1.0
 10
-94.91498875160698
 20
12.74914777690863
 30
0.0
 10
-95.08787875160698
 20
12.93879477690863
 30
0.0
 10
-95.16318975160698
 20
13.13617277690863
 30
0.0
 10
-95.16318975160698
 20
13.39965177690863
 30
0.0
  0
SPLINE
  5
256
330
1F
100
AcDbEntity
  8
0
  6
Continuous
 62
     7
370
    25
100
AcDbSpline
210
0.0
220
0.0
230
1.0
 70
     8
 71
     3
 72
     8
 73
     4
 74
     0
 42
0.00000001
 43
0.00000001
 40
0.0
 40
0.0
 40
0.0
 40
0.0
 40
1.0
 40
1.0
 40
1.0
 40
1.0
 10
-94.37262475160699
 20
12.44621877690863
 30
0.0
 10
-94.55879175160698
 20
12.47581577690862
 30
0.0
 10
-94.77682875160698
 20
12.59759777690863
 30
0.0
 10
-94.91498875160698
 20
12.74914777690863
 30
0.0
  0
SPLINE
  5
257
330
1F
100
AcDbEntity
  8
0
  6
Continuous
 62
     7
370
    25
100
AcDbSpline
210
0.0
220
0.0
230
1.0
 70
     8
 71
     3
 72
     8
 73
     4
 74
     0
 42
0.00000001
 43
0.00000001
 40
0.0
 40
0.0
 40
0.0
 40
0.0
 40
1.0
 40
1.0
 40
1.0
 40
1.0
 10
-93.98824675160697
 20
12.46221277690863
 30
0.0
 10
-94.09821275160698
 20
12.43629177690862
 30
0.0
 10
-94.26621775160699
 20
12.42930077690863
 30
0.0
 10
-94.37262475160699
 20
12.44621877690863
 30
0.0
  0
SPLINE
  5
258
330
1F
100
AcDbEntity
  8
0
  6
Continuous
 62
     7
370
    25
100
AcDbSpline
210
0.0
220
0.0
230
1.0
 70
     8
 71
     3
 72
     8
 73
     4
 74
     0
 42
0.00000001
 43
0.00000001
 40
0.0
 40
0.0
 40
0.0
 40
0.0
 40
1.0
 40
1.0
 40
1.0
 40
1.0
 10
-95.74750075160698
 20
13.47145877690863
 30
0.0
 10
-95.76631275160697
 20
12.99284877690863
 30
0.0
 10
-95.60750175160699
 20
12.59682777690863
 30
0.0
 10
-95.26710775160697
 20
12.27348577690863
 30
0.0
  0
SPLINE
  5
259
330
1F
100
AcDbEntity
  8
0
  6
Continuous
 62
     7
370
    25
100
AcDbSpline
210
0.0
220
0.0
230
1.0
 70
     8
 71
     3
 72
     8
 73
     4
 74
     0
 42
0.00000001
 43
0.00000001
 40
0.0
 40
0.0
 40
0.0
 40
0.0
 40
1.0
 40
1.0
 40
1.0
 40
1.0
 10
-95.674356751607
 20
13.88090677690863
 30
0.0
 10
-95.73014975160699
 20
13.71843277690862
 30
0.0
 10
-95.739951751607
 20
13.66356077690863
 30
0.0
 10
-95.74750075160698
 20
13.47145877690863
 30
0.0
  0
SPLINE
  5
25A
330
1F
100
AcDbEntity
  8
0
  6
Continuous
 62
     7
370
    25
100
AcDbSpline
210
0.0
220
0.0
230
1.0
 70
     8
 71
     3
 72
     8
 73
     4
 74
     0
 42
0.00000001
 43
0.00000001
 40
0.0
 40
0.0
 40
0.0
 40
0.0
 40
1.0
 40
1.0
 40
1.0
 40
1.0
 10
-94.69089275160697
 20
14.86208677690862
 30
0.0
 10
-95.17269875160697
 20
14.69679777690862
 30
0.0
 10
-95.50960275160698
 20
14.36067577690862
 30
0.0
 10
-95.674356751607
 20
13.88090677690863
 30
0.0
  0
SPLINE
  5
25B
330
1F
100
AcDbEntity
  8
0
  6
Continuous
 62
     7
370
    25
100
AcDbSpline
210
0.0
220
0.0
230
1.0
 70
     8
 71
     3
 72
     8
 73
     4
 74
     0
 42
0.00000001
 43
0.00000001
 40
0.0
 40
0.0
 40
0.0
 40
0.0
 40
1.0
 40
1.0
 40
1.0
 40
1.0
 10
-94.21635175160698
 20
14.92453277690863
 30
0.0
 10
-94.50160675160699
 20
14.92397677690863
 30
0.0
 10
-94.51597675160697
 20
14.92209877690862
 30
0.0
 10
-94.69089275160697
 20
14.86208677690862
 30
0.0
  0
SPLINE
  5
25C
330
1F
100
AcDbEntity
  8
0
  6
Continuous
 62
     7
370
    25
100
AcDbSpline
210
0.0
220
0.0
230
1.0
 70
     8
 71
     3
 72
     8
 73
     4
 74
     0
 42
0.00000001
 43
0.00000001
 40
0.0
 40
0.0
 40
0.0
 40
0.0
 40
1.0
 40
1.0
 40
1.0
 40
1.0
 10
-93.78494575160698
 20
14.88200277690863
 30
0.0
 10
-93.90542875160699
 20
14.91983577690863
 30
0.0
 10
-93.95810775160697
 20
14.92502877690862
 30
0.0
 10
-94.21635175160698
 20
14.92453277690863
 30
0.0
  0
SPLINE
  5
25D
330
1F
100
AcDbEntity
  8
0
  6
Continuous
 62
     7
370
    25
100
AcDbSpline
210
0.0
220
0.0
230
1.0
 70
     8
 71
     3
 72
     8
 73
     4
 74
     0
 42
0.00000001
 43
0.00000001
 40
0.0
 40
0.0
 40
0.0
 40
0.0
 40
1.0
 40
1.0
 40
1.0
 40
1.0
 10
-93.08456975160698
 20
14.44214977690863
 30
0.0
 10
-93.28586275160697
 20
14.65729777690863
 30
0.0
 10
-93.50237575160698
 20
14.79327277690863
 30
0.0
 10
-93.78494575160698
 20
14.88200277690863
 30
0.0
  0
SPLINE
  5
25E
330
1F
100
AcDbEntity
  8
0
  6
Continuous
 62
     7
370
    25
100
AcDbSpline
210
0.0
220
0.0
230
1.0
 70
     8
 71
     3
 72
     8
 73
     4
 74
     0
 42
0.00000001
 43
0.00000001
 40
0.0
 40
0.0
 40
0.0
 40
0.0
 40
1.0
 40
1.0
 40
1.0
 40
1.0
 10
-92.66904475160698
 20
13.48185977690863
 30
0.0
 10
-92.69288375160697
 20
13.86456877690862
 30
0.0
 10
-92.82081175160697
 20
14.16023977690863
 30
0.0
 10
-93.08456975160698
 20
14.44214977690863
 30
0.0
  0
SPLINE
  5
25F
330
1F
100
AcDbEntity
  8
0
  6
Continuous
 62
     7
370
    25
100
AcDbSpline
210
0.0
220
0.0
230
1.0
 70
     8
 71
     3
 72
     8
 73
     4
 74
     0
 42
0.00000001
 43
0.00000001
 40
0.0
 40
0.0
 40
0.0
 40
0.0
 40
1.0
 40
1.0
 40
1.0
 40
1.0
 10
-93.94057375160698
 20
11.87454377690864
 30
0.0
 10
-93.17330075160699
 20
12.00832077690863
 30
0.0
 10
-92.62078675160699
 20
12.70674177690863
 30
0.0
 10
-92.66904475160698
 20
13.48185977690863
 30
0.0
  0
SPLINE
  5
260
330
1F
100
AcDbEntity
  8
0
  6
Continuous
 62
     7
370
    25
100
AcDbSpline
210
0.0
220
0.0
230
1.0
 70
     8
 71
     3
 72
     8
 73
     4
 74
     0
 42
0.00000001
 43
0.00000001
 40
0.0
 40
0.0
 40
0.0
 40
0.0
 40
1.0
 40
1.0
 40
1.0
 40
1.0
 10
-95.26710775160699
 20
12.27348577690863
 30
0.0
 10
-94.90528175160699
 20
11.92978677690863
 30
0.0
 10
-94.434966751607
 20
11.78834477690863
 30
0.0
 10
-93.94057375160699
 20
11.87454377690863
 30
0.0
  0
SPLINE
  5
261
330
1F
100
AcDbEntity
  8
0
  6
Continuous
 62
     7
370
    25
100
AcDbSpline
210
0.0
220
0.0
230
1.0
 70
     8
 71
     3
 72
     8
 73
     4
 74
     0
 42
0.00000001
 43
0.00000001
 40
0.0
 40
0.0
 40
0.0
 40
0.0
 40
1.0
 40
1.0
 40
1.0
 40
1.0
 10
-94.67885675160697
 20
13.25921777690862
 30
0.0
 10
-94.61389575160698
 20
13.03575577690863
 30
0.0
 10
-94.38435975160698
 20
12.87904677690863
 30
0.0
 10
-94.16119375160697
 20
12.90579977690863
 30
0.0
  0
SPLINE
  5
262
330
1F
100
AcDbEntity
  8
0
  6
Continuous
 62
     7
370
    25
100
AcDbSpline
210
0.0
220
0.0
230
1.0
 70
     8
 71
     3
 72
     8
 73
     4
 74
     0
 42
0.00000001
 43
0.00000001
 40
0.0
 40
0.0
 40
0.0
 40
0.0
 40
1.0
 40
1.0
 40
1.0
 40
1.0
 10
-93.89646275160699
 20
13.76414977690863
 30
0.0
 10
-94.26200275160699
 20
14.07703977690863
 30
0.0
 10
-94.81319375160697
 20
13.72131977690863
 30
0.0
 10
-94.67885675160697
 20
13.25921777690862
 30
0.0
  0
SPLINE
  5
263
330
1F
100
AcDbEntity
  8
0
  6
Continuous
 62
     7
370
    25
100
AcDbSpline
210
0.0
220
0.0
230
1.0
 70
     8
 71
     3
 72
     8
 73
     4
 74
     0
 42
0.00000001
 43
0.00000001
 40
0.0
 40
0.0
 40
0.0
 40
0.0
 40
1.0
 40
1.0
 40
1.0
 40
1.0
 10
-93.99197675160697
 20
12.96016977690863
 30
0.0
 10
-93.67961275160697
 20
13.10888977690863
 30
0.0
 10
-93.62896575160698
 20
13.53518377690863
 30
0.0
 10
-93.89646275160699
 20
13.76414977690863
 30
0.0
  0
SPLINE
  5
264
330
1F
100
AcDbEntity
  8
0
  6
Continuous
 62
     7
370
    25
100
AcDbSpline
210
0.0
220
0.0
230
1.0
 70
     8
 71
     3
 72
     8
 73
     4
 74
     0
 42
0.00000001
 43
0.00000001
 40
0.0
 40
0.0
 40
0.0
 40
0.0
 40
1.0
 40
1.0
 40
1.0
 40
1.0
 10
-94.16119375160697
 20
12.90579977690863
 30
0.0
 10
-94.12074675160697
 20
12.91064977690862
 30
0.0
 10
-94.04459975160698
 20
12.93511477690862
 30
0.0
 10
-93.99197675160697
 20
12.96016977690863
 30
0.0
  0
SPLINE
  5
265
330
1F
100
AcDbEntity
  8
0
  6
Continuous
 62
     7
370
    25
100
AcDbSpline
210
0.0
220
0.0
230
1.0
 70
     8
 71
     3
 72
     8
 73
     4
 74
     0
 42
0.00000001
 43
0.00000001
 40
0.0
 40
0.0
 40
0.0
 40
0.0
 40
1.0
 40
1.0
 40
1.0
 40
1.0
 10
-103.897130751607
 20
13.80342477690863
 30
0.0
 10
-103.953507751607
 20
13.74707677690862
 30
0.0
 10
-104.053737751607
 20
13.72891577690863
 30
0.0
 10
-104.114739751607
 20
13.76399577690863
 30
0.0
  0
SPLINE
  5
268
330
1F
100
AcDbEntity
  8
0
  6
Continuous
 62
     7
370
    25
100
AcDbSpline
210
0.0
220
0.0
230
1.0
 70
     8
 71
     3
 72
     8
 73
     4
 74
     0
 42
0.00000001
 43
0.00000001
 40
0.0
 40
0.0
 40
0.0
 40
0.0
 40
1.0
 40
1.0
 40
1.0
 40
1.0
 10
-103.531930751607
 20
16.04624777690863
 30
0.0
 10
-103.183722751607
 20
15.73317777690862
 30
0.0
 10
-103.302604751607
 20
15.16173377690862
 30
0.0
 10
-103.742551751607
 20
15.03383777690862
 30
0.0
  0
SPLINE
  5
269
330
1F
100
AcDbEntity
  8
0
  6
Continuous
 62
     7
370
    25
100
AcDbSpline
210
0.0
220
0.0
230
1.0
 70
     8
 71
     3
 72
     8
 73
     4
 74
     0
 42
0.00000001
 43
0.00000001
 40
0.0
 40
0.0
 40
0.0
 40
0.0
 40
1.0
 40
1.0
 40
1.0
 40
1.0
 10
-103.734842751607
 20
16.16202577690862
 30
0.0
 10
-103.657532751607
 20
16.13964777690863
 30
0.0
 10
-103.598089751607
 20
16.10572977690862
 30
0.0
 10
-103.531930751607
 20
16.04624777690863
 30
0.0
  0
SPLINE
  5
26C
330
1F
100
AcDbEntity
  8
0
  6
Continuous
 62
     7
370
    25
100
AcDbSpline
210
0.0
220
0.0
230
1.0
 70
     8
 71
     3
 72
     8
 73
     4
 74
     0
 42
0.00000001
 43
0.00000001
 40
0.0
 40
0.0
 40
0.0
 40
0.0
 40
1.0
 40
1.0
 40
1.0
 40
1.0
 10
-102.862748751607
 20
17.29580977690862
 30
0.0
 10
-103.361334751607
 20
17.19533277690863
 30
0.0
 10
-103.768642751607
 20
16.77068677690862
 30
0.0
 10
-103.832220751607
 20
16.28506477690862
 30
0.0
  0
SPLINE
  5
26D
330
1F
100
AcDbEntity
  8
0
  6
Continuous
 62
     7
370
    25
100
AcDbSpline
210
0.0
220
0.0
230
1.0
 70
     8
 71
     3
 72
     8
 73
     4
 74
     0
 42
0.00000001
 43
0.00000001
 40
0.0
 40
0.0
 40
0.0
 40
0.0
 40
1.0
 40
1.0
 40
1.0
 40
1.0
 10
-102.103583751607
 20
17.19651477690863
 30
0.0
 10
-102.353897751607
 20
17.31725177690863
 30
0.0
 10
-102.597948751607
 20
17.34917277690863
 30
0.0
 10
-102.862748751607
 20
17.29580977690862
 30
0.0
  0
SPLINE
  5
26E
330
1F
100
AcDbEntity
  8
0
  6
Continuous
 62
     7
370
    25
100
AcDbSpline
210
0.0
220
0.0
230
1.0
 70
     8
 71
     3
 72
     8
 73
     4
 74
     0
 42
0.00000001
 43
0.00000001
 40
0.0
 40
0.0
 40
0.0
 40
0.0
 40
1.0
 40
1.0
 40
1.0
 40
1.0
 10
-101.532276751607
 20
16.64141877690863
 30
0.0
 10
-101.654666751607
 20
16.88294477690863
 30
0.0
 10
-101.852992751607
 20
17.07564377690863
 30
0.0
 10
-102.103583751607
 20
17.19651477690863
 30
0.0
  0
SPLINE
  5
26F
330
1F
100
AcDbEntity
  8
0
  6
Continuous
 62
     7
370
    25
100
AcDbSpline
210
0.0
220
0.0
230
1.0
 70
     8
 71
     3
 72
     8
 73
     4
 74
     0
 42
0.00000001
 43
0.00000001
 40
0.0
 40
0.0
 40
0.0
 40
0.0
 40
1.0
 40
1.0
 40
1.0
 40
1.0
 10
-101.414139751607
 20
16.25299677690863
 30
0.0
 10
-101.414139751607
 20
16.31201777690863
 30
0.0
 10
-101.487376751607
 20
16.55281177690862
 30
0.0
 10
-101.532276751607
 20
16.64141877690863
 30
0.0
  0
SPLINE
  5
270
330
1F
100
AcDbEntity
  8
0
  6
Continuous
 62
     7
370
    25
100
AcDbSpline
210
0.0
220
0.0
230
1.0
 70
     8
 71
     3
 72
     8
 73
     4
 74
     0
 42
0.00000001
 43
0.00000001
 40
0.0
 40
0.0
 40
0.0
 40
0.0
 40
1.0
 40
1.0
 40
1.0
 40
1.0
 10
-101.698656751607
 20
15.68808477690863
 30
0.0
 10
-101.698074751607
 20
15.88122777690863
 30
0.0
 10
-101.654083751607
 20
15.98371577690862
 30
0.0
 10
-101.511485751607
 20
16.12392977690862
 30
0.0
  0
SPLINE
  5
271
330
1F
100
AcDbEntity
  8
0
  6
Continuous
 62
     7
370
    25
100
AcDbSpline
210
0.0
220
0.0
230
1.0
 70
     8
 71
     3
 72
     8
 73
     4
 74
     0
 42
0.00000001
 43
0.00000001
 40
0.0
 40
0.0
 40
0.0
 40
0.0
 40
1.0
 40
1.0
 40
1.0
 40
1.0
 10
-101.647515751607
 20
15.42674877690863
 30
0.0
 10
-101.691942751607
 20
15.51721577690863
 30
0.0
 10
-101.699046751607
 20
15.55351877690862
 30
0.0
 10
-101.698656751607
 20
15.68808477690863
 30
0.0
  0
SPLINE
  5
272
330
1F
100
AcDbEntity
  8
0
  6
Continuous
 62
     7
370
    25
100
AcDbSpline
210
0.0
220
0.0
230
1.0
 70
     8
 71
     3
 72
     8
 73
     4
 74
     0
 42
0.00000001
 43
0.00000001
 40
0.0
 40
0.0
 40
0.0
 40
0.0
 40
1.0
 40
1.0
 40
1.0
 40
1.0
 10
-101.324917751607
 20
15.13535977690863
 30
0.0
 10
-101.462294751607
 20
15.18718277690863
 30
0.0
 10
-101.583745751607
 20
15.29688477690862
 30
0.0
 10
-101.647515751607
 20
15.42674877690863
 30
0.0
  0
SPLINE
  5
273
330
1F
100
AcDbEntity
  8
0
  6
Continuous
 62
     7
370
    25
100
AcDbSpline
210
0.0
220
0.0
230
1.0
 70
     8
 71
     3
 72
     8
 73
     4
 74
     0
 42
0.00000001
 43
0.00000001
 40
0.0
 40
0.0
 40
0.0
 40
0.0
 40
1.0
 40
1.0
 40
1.0
 40
1.0
 10
-100.523827751607
 20
15.68808477690863
 30
0.0
 10
-100.521710751607
 20
15.46182477690863
 30
0.0
 10
-100.632756751607
 20
15.27095477690863
 30
0.0
 10
-100.828915751607
 20
15.16419177690863
 30
0.0
  0
SPLINE
  5
274
330
1F
100
AcDbEntity
  8
0
  6
Continuous
 62
     7
370
    25
100
AcDbSpline
210
0.0
220
0.0
230
1.0
 70
     8
 71
     3
 72
     8
 73
     4
 74
     0
 42
0.00000001
 43
0.00000001
 40
0.0
 40
0.0
 40
0.0
 40
0.0
 40
1.0
 40
1.0
 40
1.0
 40
1.0
 10
-100.946086751607
 20
16.25370977690863
 30
0.0
 10
-100.677100751607
 20
16.16637477690863
 30
0.0
 10
-100.526550751607
 20
15.96470977690863
 30
0.0
 10
-100.523827751607
 20
15.68808477690863
 30
0.0
  0
SPLINE
  5
277
330
1F
100
AcDbEntity
  8
0
  6
Continuous
 62
     7
370
    25
100
AcDbSpline
210
0.0
220
0.0
230
1.0
 70
     8
 71
     3
 72
     8
 73
     4
 74
     0
 42
0.00000001
 43
0.00000001
 40
0.0
 40
0.0
 40
0.0
 40
0.0
 40
1.0
 40
1.0
 40
1.0
 40
1.0
 10
-101.628351751607
 20
17.32656477690862
 30
0.0
 10
-101.344488751607
 20
17.10065077690863
 30
0.0
 10
-101.126752751607
 20
16.73130977690863
 30
0.0
 10
-101.069930751607
 20
16.37932477690862
 30
0.0
  0
SPLINE
  5
278
330
1F
100
AcDbEntity
  8
0
  6
Continuous
 62
     7
370
    25
100
AcDbSpline
210
0.0
220
0.0
230
1.0
 70
     8
 71
     3
 72
     8
 73
     4
 74
     0
 42
0.00000001
 43
0.00000001
 40
0.0
 40
0.0
 40
0.0
 40
0.0
 40
1.0
 40
1.0
 40
1.0
 40
1.0
 10
-102.233041751607
 20
17.62837677690863
 30
0.0
 10
-102.028191751607
 20
17.57641277690863
 30
0.0
 10
-101.797792751607
 20
17.46141577690863
 30
0.0
 10
-101.628351751607
 20
17.32656477690862
 30
0.0
  0
SPLINE
  5
279
330
1F
100
AcDbEntity
  8
0
  6
Continuous
 62
     7
370
    25
100
AcDbSpline
210
0.0
220
0.0
230
1.0
 70
     8
 71
     3
 72
     8
 73
     4
 74
     0
 42
0.00000001
 43
0.00000001
 40
0.0
 40
0.0
 40
0.0
 40
0.0
 40
1.0
 40
1.0
 40
1.0
 40
1.0
 10
-104.201609751607
 20
16.25125977690863
 30
0.0
 10
-104.138323751607
 20
16.91814277690863
 30
0.0
 10
-103.648275751607
 20
17.47941577690863
 30
0.0
 10
-102.991920751607
 20
17.63676677690863
 30
0.0
  0
SPLINE
  5
27A
330
1F
100
AcDbEntity
  8
0
  6
Continuous
 62
     7
370
    25
100
AcDbSpline
210
0.0
220
0.0
230
1.0
 70
     8
 71
     3
 72
     8
 73
     4
 74
     0
 42
0.00000001
 43
0.00000001
 40
0.0
 40
0.0
 40
0.0
 40
0.0
 40
1.0
 40
1.0
 40
1.0
 40
1.0
 10
-104.289509751607
 20
16.06433477690863
 30
0.0
 10
-104.216528751607
 20
16.11830477690863
 30
0.0
 10
-104.213644751607
 20
16.12443877690863
 30
0.0
 10
-104.201609751607
 20
16.25125977690863
 30
0.0
  0
SPLINE
  5
27B
330
1F
100
AcDbEntity
  8
0
  6
Continuous
 62
     7
370
    25
100
AcDbSpline
210
0.0
220
0.0
230
1.0
 70
     8
 71
     3
 72
     8
 73
     4
 74
     0
 42
0.00000001
 43
0.00000001
 40
0.0
 40
0.0
 40
0.0
 40
0.0
 40
1.0
 40
1.0
 40
1.0
 40
1.0
 10
-104.512475751607
 20
15.52502077690862
 30
0.0
 10
-104.539110751607
 20
15.70964777690862
 30
0.0
 10
-104.437814751607
 20
15.95465977690862
 30
0.0
 10
-104.289509751607
 20
16.06433477690863
 30
0.0
  0
SPLINE
  5
27C
330
1F
100
AcDbEntity
  8
0
  6
Continuous
 62
     7
370
    25
100
AcDbSpline
210
0.0
220
0.0
230
1.0
 70
     8
 71
     3
 72
     8
 73
     4
 74
     0
 42
0.00000001
 43
0.00000001
 40
0.0
 40
0.0
 40
0.0
 40
0.0
 40
1.0
 40
1.0
 40
1.0
 40
1.0
 10
-104.258199751607
 20
15.10958177690862
 30
0.0
 10
-104.385887751607
 20
15.19324677690863
 30
0.0
 10
-104.488890751607
 20
15.36153377690862
 30
0.0
 10
-104.512475751607
 20
15.52502077690862
 30
0.0
  0
SPLINE
  5
27F
330
1F
100
AcDbEntity
  8
0
  6
Continuous
 62
     7
370
    25
100
AcDbSpline
210
0.0
220
0.0
230
1.0
 70
     8
 71
     3
 72
     8
 73
     4
 74
     0
 42
0.00000001
 43
0.00000001
 40
0.0
 40
0.0
 40
0.0
 40
0.0
 40
1.0
 40
1.0
 40
1.0
 40
1.0
 10
-104.114739751607
 20
13.76399577690863
 30
0.0
 10
-104.204690751607
 20
13.81571177690863
 30
0.0
 10
-104.207359751607
 20
13.83611877690862
 30
0.0
 10
-104.208056751607
 20
14.47714277690863
 30
0.0
  0
SPLINE
  5
280
330
1F
100
AcDbEntity
  8
0
  6
Continuous
 62
     7
370
    25
100
AcDbSpline
210
0.0
220
0.0
230
1.0
 70
     8
 71
     3
 72
     8
 73
     4
 74
     0
 42
0.00000001
 43
0.00000001
 40
0.0
 40
0.0
 40
0.0
 40
0.0
 40
1.0
 40
1.0
 40
1.0
 40
1.0
 10
-97.59252975160699
 20
13.11331677690862
 30
0.0
 10
-97.65897475160698
 20
12.96970677690862
 30
0.0
 10
-97.74073875160698
 20
12.88443177690862
 30
0.0
 10
-97.87196975160697
 20
12.82188977690862
 30
0.0
  0
SPLINE
  5
281
330
1F
100
AcDbEntity
  8
0
  6
Continuous
 62
     7
370
    25
100
AcDbSpline
210
0.0
220
0.0
230
1.0
 70
     8
 71
     3
 72
     8
 73
     4
 74
     0
 42
0.00000001
 43
0.00000001
 40
0.0
 40
0.0
 40
0.0
 40
0.0
 40
1.0
 40
1.0
 40
1.0
 40
1.0
 10
-97.89481175160697
 20
13.88854977690862
 30
0.0
 10
-97.77664875160698
 20
13.83957377690863
 30
0.0
 10
-97.64246775160699
 20
13.70495677690863
 30
0.0
 10
-97.58504275160698
 20
13.57777977690863
 30
0.0
  0
SPLINE
  5
282
330
1F
100
AcDbEntity
  8
0
  6
Continuous
 62
     7
370
    25
100
AcDbSpline
210
0.0
220
0.0
230
1.0
 70
     8
 71
     3
 72
     8
 73
     4
 74
     0
 42
0.00000001
 43
0.00000001
 40
0.0
 40
0.0
 40
0.0
 40
0.0
 40
1.0
 40
1.0
 40
1.0
 40
1.0
 10
-97.99450675160698
 20
13.96858777690863
 30
0.0
 10
-97.99450675160698
 20
13.93906177690863
 30
0.0
 10
-97.97085275160697
 20
13.92006177690863
 30
0.0
 10
-97.89481175160697
 20
13.88854977690862
 30
0.0
  0
SPLINE
  5
283
330
1F
100
AcDbEntity
  8
0
  6
Continuous
 62
     7
370
    25
100
AcDbSpline
210
0.0
220
0.0
230
1.0
 70
     8
 71
     3
 72
     8
 73
     4
 74
     0
 42
0.00000001
 43
0.00000001
 40
0.0
 40
0.0
 40
0.0
 40
0.0
 40
1.0
 40
1.0
 40
1.0
 40
1.0
 10
-98.13223775160698
 20
14.39437677690863
 30
0.0
 10
-98.05352475160697
 20
14.23389377690862
 30
0.0
 10
-97.99450675160698
 20
14.05144377690863
 30
0.0
 10
-97.99450675160698
 20
13.96858777690863
 30
0.0
  0
SPLINE
  5
284
330
1F
100
AcDbEntity
  8
0
  6
Continuous
 62
     7
370
    25
100
AcDbSpline
210
0.0
220
0.0
230
1.0
 70
     8
 71
     3
 72
     8
 73
     4
 74
     0
 42
0.00000001
 43
0.00000001
 40
0.0
 40
0.0
 40
0.0
 40
0.0
 40
1.0
 40
1.0
 40
1.0
 40
1.0
 10
-99.11901175160698
 20
15.13685277690863
 30
0.0
 10
-98.70992875160697
 20
15.06579077690862
 30
0.0
 10
-98.31627675160698
 20
14.76959277690863
 30
0.0
 10
-98.13223775160698
 20
14.39437677690863
 30
0.0
  0
SPLINE
  5
285
330
1F
100
AcDbEntity
  8
0
  6
Continuous
 62
     7
370
    25
100
AcDbSpline
210
0.0
220
0.0
230
1.0
 70
     8
 71
     3
 72
     8
 73
     4
 74
     0
 42
0.00000001
 43
0.00000001
 40
0.0
 40
0.0
 40
0.0
 40
0.0
 40
1.0
 40
1.0
 40
1.0
 40
1.0
 10
-99.25209775160698
 20
15.20026877690863
 30
0.0
 10
-99.24315475160697
 20
15.16464477690863
 30
0.0
 10
-99.22259075160697
 20
15.15484577690863
 30
0.0
 10
-99.11901175160698
 20
15.13685277690863
 30
0.0
  0
SPLINE
  5
286
330
1F
100
AcDbEntity
  8
0
  6
Continuous
 62
     7
370
    25
100
AcDbSpline
210
0.0
220
0.0
230
1.0
 70
     8
 71
     3
 72
     8
 73
     4
 74
     0
 42
0.00000001
 43
0.00000001
 40
0.0
 40
0.0
 40
0.0
 40
0.0
 40
1.0
 40
1.0
 40
1.0
 40
1.0
 10
-99.53513775160698
 20
15.48023977690862
 30
0.0
 10
-99.42447375160698
 20
15.42598577690862
 30
0.0
 10
-99.27053075160698
 20
15.27371177690862
 30
0.0
 10
-99.25209775160698
 20
15.20026877690863
 30
0.0
  0
SPLINE
  5
287
330
1F
100
AcDbEntity
  8
0
  6
Continuous
 62
     7
370
    25
100
AcDbSpline
210
0.0
220
0.0
230
1.0
 70
     8
 71
     3
 72
     8
 73
     4
 74
     0
 42
0.00000001
 43
0.00000001
 40
0.0
 40
0.0
 40
0.0
 40
0.0
 40
1.0
 40
1.0
 40
1.0
 40
1.0
 10
-99.78706375160698
 20
15.53163977690863
 30
0.0
 10
-99.66328675160698
 20
15.53163977690863
 30
0.0
 10
-99.62337175160697
 20
15.52349577690863
 30
0.0
 10
-99.53513775160698
 20
15.48023977690862
 30
0.0
  0
SPLINE
  5
288
330
1F
100
AcDbEntity
  8
0
  6
Continuous
 62
     7
370
    25
100
AcDbSpline
210
0.0
220
0.0
230
1.0
 70
     8
 71
     3
 72
     8
 73
     4
 74
     0
 42
0.00000001
 43
0.00000001
 40
0.0
 40
0.0
 40
0.0
 40
0.0
 40
1.0
 40
1.0
 40
1.0
 40
1.0
 10
-100.037864751607
 20
15.48078877690862
 30
0.0
 10
-99.95084575160698
 20
15.52345277690863
 30
0.0
 10
-99.91046275160697
 20
15.53163977690863
 30
0.0
 10
-99.78706375160698
 20
15.53163977690863
 30
0.0
  0
SPLINE
  5
289
330
1F
100
AcDbEntity
  8
0
  6
Continuous
 62
     7
370
    25
100
AcDbSpline
210
0.0
220
0.0
230
1.0
 70
     8
 71
     3
 72
     8
 73
     4
 74
     0
 42
0.00000001
 43
0.00000001
 40
0.0
 40
0.0
 40
0.0
 40
0.0
 40
1.0
 40
1.0
 40
1.0
 40
1.0
 10
-100.335388751607
 20
15.17652777690863
 30
0.0
 10
-100.279595751607
 20
15.29808877690863
 30
0.0
 10
-100.159030751607
 20
15.42138677690862
 30
0.0
 10
-100.037864751607
 20
15.48078877690862
 30
0.0
  0
SPLINE
  5
28A
330
1F
100
AcDbEntity
  8
0
  6
Continuous
 62
     7
370
    25
100
AcDbSpline
210
0.0
220
0.0
230
1.0
 70
     8
 71
     3
 72
     8
 73
     4
 74
     0
 42
0.00000001
 43
0.00000001
 40
0.0
 40
0.0
 40
0.0
 40
0.0
 40
1.0
 40
1.0
 40
1.0
 40
1.0
 10
-100.327213751607
 20
14.69369277690862
 30
0.0
 10
-100.391395751607
 20
14.83059877690863
 30
0.0
 10
-100.395052751607
 20
15.04653077690862
 30
0.0
 10
-100.335388751607
 20
15.17652777690863
 30
0.0
  0
SPLINE
  5
28B
330
1F
100
AcDbEntity
  8
0
  6
Continuous
 62
     7
370
    25
100
AcDbSpline
210
0.0
220
0.0
230
1.0
 70
     8
 71
     3
 72
     8
 73
     4
 74
     0
 42
0.00000001
 43
0.00000001
 40
0.0
 40
0.0
 40
0.0
 40
0.0
 40
1.0
 40
1.0
 40
1.0
 40
1.0
 10
-99.58529475160698
 20
14.38395177690863
 30
0.0
 10
-99.86991275160698
 20
14.27697577690862
 30
0.0
 10
-100.195593751607
 20
14.41294277690863
 30
0.0
 10
-100.327213751607
 20
14.69369277690862
 30
0.0
  0
SPLINE
  5
28C
330
1F
100
AcDbEntity
  8
0
  6
Continuous
 62
     7
370
    25
100
AcDbSpline
210
0.0
220
0.0
230
1.0
 70
     8
 71
     3
 72
     8
 73
     4
 74
     0
 42
0.00000001
 43
0.00000001
 40
0.0
 40
0.0
 40
0.0
 40
0.0
 40
1.0
 40
1.0
 40
1.0
 40
1.0
 10
-99.24607575160698
 20
14.69616977690862
 30
0.0
 10
-99.29985475160697
 20
14.57115377690863
 30
0.0
 10
-99.44661375160698
 20
14.43607577690863
 30
0.0
 10
-99.58529475160698
 20
14.38395177690863
 30
0.0
  0
SPLINE
  5
28D
330
1F
100
AcDbEntity
  8
0
  6
Continuous
 62
     7
370
    25
100
AcDbSpline
210
0.0
220
0.0
230
1.0
 70
     8
 71
     3
 72
     8
 73
     4
 74
     0
 42
0.00000001
 43
0.00000001
 40
0.0
 40
0.0
 40
0.0
 40
0.0
 40
1.0
 40
1.0
 40
1.0
 40
1.0
 10
-99.18845675160698
 20
14.78720877690862
 30
0.0
 10
-99.19861675160698
 20
14.78720877690862
 30
0.0
 10
-99.22453575160698
 20
14.74624077690863
 30
0.0
 10
-99.24607575160698
 20
14.69616977690862
 30
0.0
  0
SPLINE
  5
28E
330
1F
100
AcDbEntity
  8
0
  6
Continuous
 62
     7
370
    25
100
AcDbSpline
210
0.0
220
0.0
230
1.0
 70
     8
 71
     3
 72
     8
 73
     4
 74
     0
 42
0.00000001
 43
0.00000001
 40
0.0
 40
0.0
 40
0.0
 40
0.0
 40
1.0
 40
1.0
 40
1.0
 40
1.0
 10
-98.83763075160698
 20
14.64758577690863
 30
0.0
 10
-98.93031675160698
 20
14.70374977690863
 30
0.0
 10
-99.14002275160698
 20
14.78720877690863
 30
0.0
 10
-99.18845675160698
 20
14.78720877690863
 30
0.0
  0
SPLINE
  5
28F
330
1F
100
AcDbEntity
  8
0
  6
Continuous
 62
     7
370
    25
100
AcDbSpline
210
0.0
220
0.0
230
1.0
 70
     8
 71
     3
 72
     8
 73
     4
 74
     0
 42
0.00000001
 43
0.00000001
 40
0.0
 40
0.0
 40
0.0
 40
0.0
 40
1.0
 40
1.0
 40
1.0
 40
1.0
 10
-98.45377575160698
 20
14.23493377690863
 30
0.0
 10
-98.52352775160698
 20
14.37310977690862
 30
0.0
 10
-98.70290975160698
 20
14.56594977690863
 30
0.0
 10
-98.83763075160698
 20
14.64758577690863
 30
0.0
  0
SPLINE
  5
290
330
1F
100
AcDbEntity
  8
0
  6
Continuous
 62
     7
370
    25
100
AcDbSpline
210
0.0
220
0.0
230
1.0
 70
     8
 71
     3
 72
     8
 73
     4
 74
     0
 42
0.00000001
 43
0.00000001
 40
0.0
 40
0.0
 40
0.0
 40
0.0
 40
1.0
 40
1.0
 40
1.0
 40
1.0
 10
-98.36034875160699
 20
13.90840477690863
 30
0.0
 10
-98.33529275160697
 20
13.91675777690862
 30
0.0
 10
-98.39040775160699
 20
14.10939877690862
 30
0.0
 10
-98.45377575160698
 20
14.23493377690863
 30
0.0
  0
SPLINE
  5
291
330
1F
100
AcDbEntity
  8
0
  6
Continuous
 62
     7
370
    25
100
AcDbSpline
210
0.0
220
0.0
230
1.0
 70
     8
 71
     3
 72
     8
 73
     4
 74
     0
 42
0.00000001
 43
0.00000001
 40
0.0
 40
0.0
 40
0.0
 40
0.0
 40
1.0
 40
1.0
 40
1.0
 40
1.0
 10
-98.61138475160698
 20
13.70396977690862
 30
0.0
 10
-98.55983675160698
 20
13.77495177690863
 30
0.0
 10
-98.42063875160697
 20
13.88830877690863
 30
0.0
 10
-98.36034875160699
 20
13.90840477690863
 30
0.0
  0
SPLINE
  5
292
330
1F
100
AcDbEntity
  8
0
  6
Continuous
 62
     7
370
    25
100
AcDbSpline
210
0.0
220
0.0
230
1.0
 70
     8
 71
     3
 72
     8
 73
     4
 74
     0
 42
0.00000001
 43
0.00000001
 40
0.0
 40
0.0
 40
0.0
 40
0.0
 40
1.0
 40
1.0
 40
1.0
 40
1.0
 10
-98.24536075160698
 20
12.76556877690863
 30
0.0
 10
-98.67436375160699
 20
12.85043877690863
 30
0.0
 10
-98.86894875160698
 20
13.34932777690863
 30
0.0
 10
-98.61138475160698
 20
13.70396977690862
 30
0.0
  0
SPLINE
  5
293
330
1F
100
AcDbEntity
  8
0
  6
Continuous
 62
     7
370
    25
100
AcDbSpline
210
0.0
220
0.0
230
1.0
 70
     8
 71
     3
 72
     8
 73
     4
 74
     0
 42
0.00000001
 43
0.00000001
 40
0.0
 40
0.0
 40
0.0
 40
0.0
 40
1.0
 40
1.0
 40
1.0
 40
1.0
 10
-97.87196975160697
 20
12.82188977690862
 30
0.0
 10
-97.99690375160698
 20
12.76234777690863
 30
0.0
 10
-98.12863975160697
 20
12.74247677690863
 30
0.0
 10
-98.24536075160698
 20
12.76556877690863
 30
0.0
  0
SPLINE
  5
296
330
1F
100
AcDbEntity
  8
0
  6
Continuous
 62
     7
370
    25
100
AcDbSpline
210
0.0
220
0.0
230
1.0
 70
     8
 71
     3
 72
     8
 73
     4
 74
     0
 42
0.00000001
 43
0.00000001
 40
0.0
 40
0.0
 40
0.0
 40
0.0
 40
1.0
 40
1.0
 40
1.0
 40
1.0
 10
-101.511485751607
 20
16.12392977690862
 30
0.0
 10
-101.457944751607
 20
16.17657577690863
 30
0.0
 10
-101.414139751607
 20
16.23465577690863
 30
0.0
 10
-101.414139751607
 20
16.25299677690863
 30
0.0
  0
SPLINE
  5
297
330
1F
100
AcDbEntity
  8
0
  6
Continuous
 62
     7
370
    25
100
AcDbSpline
210
0.0
220
0.0
230
1.0
 70
     8
 71
     3
 72
     8
 73
     4
 74
     0
 42
0.00000001
 43
0.00000001
 40
0.0
 40
0.0
 40
0.0
 40
0.0
 40
1.0
 40
1.0
 40
1.0
 40
1.0
 10
-100.828915751607
 20
15.16419177690863
 30
0.0
 10
-100.964184751607
 20
15.09056977690863
 30
0.0
 10
-101.173874751607
 20
15.07838077690863
 30
0.0
 10
-101.324917751607
 20
15.13535977690863
 30
0.0
  0
SPLINE
  5
298
330
1F
100
AcDbEntity
  8
0
  6
Continuous
 62
     7
370
    25
100
AcDbSpline
210
0.0
220
0.0
230
1.0
 70
     8
 71
     3
 72
     8
 73
     4
 74
     0
 42
0.00000001
 43
0.00000001
 40
0.0
 40
0.0
 40
0.0
 40
0.0
 40
1.0
 40
1.0
 40
1.0
 40
1.0
 10
-102.991920751607
 20
17.63676677690863
 30
0.0
 10
-102.766348751607
 20
17.69084377690863
 30
0.0
 10
-102.466213751607
 20
17.68752577690863
 30
0.0
 10
-102.233041751607
 20
17.62837677690863
 30
0.0
  0
SPLINE
  5
299
330
1F
100
AcDbEntity
  8
0
  6
Continuous
 62
     7
370
    25
100
AcDbSpline
210
0.0
220
0.0
230
1.0
 70
     8
 71
     3
 72
     8
 73
     4
 74
     0
 42
0.00000001
 43
0.00000001
 40
0.0
 40
0.0
 40
0.0
 40
0.0
 40
1.0
 40
1.0
 40
1.0
 40
1.0
 10
-97.58504275160698
 20
13.57777977690863
 30
0.0
 10
-97.52680475160697
 20
13.44879677690863
 30
0.0
 10
-97.53004075160699
 20
13.24840877690862
 30
0.0
 10
-97.59252975160699
 20
13.11331677690862
 30
0.0
  0
SPLINE
  5
29A
330
1F
100
AcDbEntity
  8
0
  6
Continuous
 62
     7
370
    25
100
AcDbSpline
210
0.0
220
0.0
230
1.0
 70
     8
 71
     3
 72
     8
 73
     4
 74
     0
 42
0.00000001
 43
0.00000001
 40
0.0
 40
0.0
 40
0.0
 40
0.0
 40
1.0
 40
1.0
 40
1.0
 40
1.0
 10
-100.638199751607
 20
16.89955777690863
 30
0.0
 10
-101.138404751607
 20
18.03308377690863
 30
0.0
 10
-102.424864751607
 20
18.49167577690863
 30
0.0
 10
-103.505157751607
 20
17.92155877690863
 30
0.0
  0
SPLINE
  5
29B
330
1F
100
AcDbEntity
  8
0
  6
Continuous
 62
     7
370
    25
100
AcDbSpline
210
0.0
220
0.0
230
1.0
 70
     8
 71
     3
 72
     8
 73
     4
 74
     0
 42
0.00000001
 43
0.00000001
 40
0.0
 40
0.0
 40
0.0
 40
0.0
 40
1.0
 40
1.0
 40
1.0
 40
1.0
 10
-100.463251751607
 20
16.11091777690863
 30
0.0
 10
-100.474628751607
 20
16.42020177690862
 30
0.0
 10
-100.523102751607
 20
16.63873677690863
 30
0.0
 10
-100.638199751607
 20
16.89955777690863
 30
0.0
  0
SPLINE
  5
29C
330
1F
100
AcDbEntity
  8
0
  6
Continuous
 62
     7
370
    25
100
AcDbSpline
210
0.0
220
0.0
230
1.0
 70
     8
 71
     3
 72
     8
 73
     4
 74
     0
 42
0.00000001
 43
0.00000001
 40
0.0
 40
0.0
 40
0.0
 40
0.0
 40
1.0
 40
1.0
 40
1.0
 40
1.0
 10
-100.348429751607
 20
15.71594677690863
 30
0.0
 10
-100.435864751607
 20
15.76116077690862
 30
0.0
 10
-100.452495751607
 20
15.81837677690863
 30
0.0
 10
-100.463251751607
 20
16.11091777690863
 30
0.0
  0
SPLINE
  5
29D
330
1F
100
AcDbEntity
  8
0
  6
Continuous
 62
     7
370
    25
100
AcDbSpline
210
0.0
220
0.0
230
1.0
 70
     8
 71
     3
 72
     8
 73
     4
 74
     0
 42
0.00000001
 43
0.00000001
 40
0.0
 40
0.0
 40
0.0
 40
0.0
 40
1.0
 40
1.0
 40
1.0
 40
1.0
 10
-100.078544751607
 20
15.72598577690863
 30
0.0
 10
-100.183467751607
 20
15.68101077690863
 30
0.0
 10
-100.274336751607
 20
15.67763077690863
 30
0.0
 10
-100.348429751607
 20
15.71594677690863
 30
0.0
  0
SPLINE
  5
29E
330
1F
100
AcDbEntity
  8
0
  6
Continuous
 62
     7
370
    25
100
AcDbSpline
210
0.0
220
0.0
230
1.0
 70
     8
 71
     3
 72
     8
 73
     4
 74
     0
 42
0.00000001
 43
0.00000001
 40
0.0
 40
0.0
 40
0.0
 40
0.0
 40
1.0
 40
1.0
 40
1.0
 40
1.0
 10
-99.02519575160699
 20
15.87530077690863
 30
0.0
 10
-99.34694275160697
 20
15.91107777690862
 30
0.0
 10
-99.79486875160698
 20
15.84758277690863
 30
0.0
 10
-100.078544751607
 20
15.72598577690863
 30
0.0
  0
SPLINE
  5
29F
330
1F
100
AcDbEntity
  8
0
  6
Continuous
 62
     7
370
    25
100
AcDbSpline
210
0.0
220
0.0
230
1.0
 70
     8
 71
     3
 72
     8
 73
     4
 74
     0
 42
0.00000001
 43
0.00000001
 40
0.0
 40
0.0
 40
0.0
 40
0.0
 40
1.0
 40
1.0
 40
1.0
 40
1.0
 10
-97.76140275160697
 20
15.27801477690863
 30
0.0
 10
-98.12269675160698
 20
15.62652777690863
 30
0.0
 10
-98.53335675160697
 20
15.82061177690863
 30
0.0
 10
-99.02519575160699
 20
15.87530077690863
 30
0.0
  0
SPLINE
  5
2A0
330
1F
100
AcDbEntity
  8
0
  6
Continuous
 62
     7
370
    25
100
AcDbSpline
210
0.0
220
0.0
230
1.0
 70
     8
 71
     3
 72
     8
 73
     4
 74
     0
 42
0.00000001
 43
0.00000001
 40
0.0
 40
0.0
 40
0.0
 40
0.0
 40
1.0
 40
1.0
 40
1.0
 40
1.0
 10
-97.33751675160698
 20
12.99462577690862
 30
0.0
 10
-96.94996875160699
 20
13.76597377690863
 30
0.0
 10
-97.11489075160698
 20
14.65436877690862
 30
0.0
 10
-97.76140275160697
 20
15.27801477690863
 30
0.0
  0
SPLINE
  5
2A1
330
1F
100
AcDbEntity
  8
0
  6
Continuous
 62
     7
370
    25
100
AcDbSpline
210
0.0
220
0.0
230
1.0
 70
     8
 71
     3
 72
     8
 73
     4
 74
     0
 42
0.00000001
 43
0.00000001
 40
0.0
 40
0.0
 40
0.0
 40
0.0
 40
1.0
 40
1.0
 40
1.0
 40
1.0
 10
-98.42377975160697
 20
11.94565777690863
 30
0.0
 10
-97.97335075160697
 20
12.15902777690863
 30
0.0
 10
-97.55377975160698
 20
12.56419577690862
 30
0.0
 10
-97.33751675160698
 20
12.99462577690862
 30
0.0
  0
SPLINE
  5
2A2
330
1F
100
AcDbEntity
  8
0
  6
Continuous
 62
     7
370
    25
100
AcDbSpline
210
0.0
220
0.0
230
1.0
 70
     8
 71
     3
 72
     8
 73
     4
 74
     0
 42
0.00000001
 43
0.00000001
 40
0.0
 40
0.0
 40
0.0
 40
0.0
 40
1.0
 40
1.0
 40
1.0
 40
1.0
 10
-99.04488375160697
 20
11.76207477690862
 30
0.0
 10
-98.86748875160697
 20
11.78287577690863
 30
0.0
 10
-98.60136575160698
 20
11.86153477690863
 30
0.0
 10
-98.42377975160697
 20
11.94565777690863
 30
0.0
  0
SPLINE
  5
2A4
330
1F
100
AcDbEntity
  8
0
  6
Continuous
 62
     7
370
    25
100
AcDbSpline
210
0.0
220
0.0
230
1.0
 70
     8
 71
     3
 72
     8
 73
     4
 74
     0
 42
0.00000001
 43
0.00000001
 40
0.0
 40
0.0
 40
0.0
 40
0.0
 40
1.0
 40
1.0
 40
1.0
 40
1.0
 10
-99.48213375160697
 20
12.13749577690863
 30
0.0
 10
-99.35174475160697
 20
12.07636777690863
 30
0.0
 10
-99.25245175160698
 20
11.97719877690863
 30
0.0
 10
-99.19416675160697
 20
11.84989177690863
 30
0.0
  0
SPLINE
  5
2A5
330
1F
100
AcDbEntity
  8
0
  6
Continuous
 62
     7
370
    25
100
AcDbSpline
210
0.0
220
0.0
230
1.0
 70
     8
 71
     3
 72
     8
 73
     4
 74
     0
 42
0.00000001
 43
0.00000001
 40
0.0
 40
0.0
 40
0.0
 40
0.0
 40
1.0
 40
1.0
 40
1.0
 40
1.0
 10
-99.96496975160697
 20
12.14567477690862
 30
0.0
 10
-99.83497175160699
 20
12.20533777690862
 30
0.0
 10
-99.61903975160698
 20
12.20168077690863
 30
0.0
 10
-99.48213375160697
 20
12.13749577690863
 30
0.0
  0
SPLINE
  5
2A6
330
1F
100
AcDbEntity
  8
0
  6
Continuous
 62
     7
370
    25
100
AcDbSpline
210
0.0
220
0.0
230
1.0
 70
     8
 71
     3
 72
     8
 73
     4
 74
     0
 42
0.00000001
 43
0.00000001
 40
0.0
 40
0.0
 40
0.0
 40
0.0
 40
1.0
 40
1.0
 40
1.0
 40
1.0
 10
-100.311409751607
 20
11.49809777690863
 30
0.0
 10
-100.360307751607
 20
11.75592077690863
 30
0.0
 10
-100.212595751607
 20
12.03202377690863
 30
0.0
 10
-99.96496975160697
 20
12.14567477690862
 30
0.0
  0
SPLINE
  5
2A7
330
1F
100
AcDbEntity
  8
0
  6
Continuous
 62
     7
370
    25
100
AcDbSpline
210
0.0
220
0.0
230
1.0
 70
     8
 71
     3
 72
     8
 73
     4
 74
     0
 42
0.00000001
 43
0.00000001
 40
0.0
 40
0.0
 40
0.0
 40
0.0
 40
1.0
 40
1.0
 40
1.0
 40
1.0
 10
-99.74326175160697
 20
11.01168777690863
 30
0.0
 10
-100.024775751607
 20
11.01536577690863
 30
0.0
 10
-100.257677751607
 20
11.21475977690863
 30
0.0
 10
-100.311409751607
 20
11.49809777690863
 30
0.0
  0
SPLINE
  5
2A8
330
1F
100
AcDbEntity
  8
0
  6
Continuous
 62
     7
370
    25
100
AcDbSpline
210
0.0
220
0.0
230
1.0
 70
     8
 71
     3
 72
     8
 73
     4
 74
     0
 42
0.00000001
 43
0.00000001
 40
0.0
 40
0.0
 40
0.0
 40
0.0
 40
1.0
 40
1.0
 40
1.0
 40
1.0
 10
-99.31344675160697
 20
11.18555377690862
 30
0.0
 10
-99.44185675160698
 20
11.05714377690863
 30
0.0
 10
-99.56014075160698
 20
11.00929477690862
 30
0.0
 10
-99.74326175160697
 20
11.01168777690863
 30
0.0
  0
SPLINE
  5
2A9
330
1F
100
AcDbEntity
  8
0
  6
Continuous
 62
     7
370
    25
100
AcDbSpline
210
0.0
220
0.0
230
1.0
 70
     8
 71
     3
 72
     8
 73
     4
 74
     0
 42
0.00000001
 43
0.00000001
 40
0.0
 40
0.0
 40
0.0
 40
0.0
 40
1.0
 40
1.0
 40
1.0
 40
1.0
 10
-99.07425475160697
 20
11.30376877690863
 30
0.0
 10
-99.20617675160698
 20
11.29193377690862
 30
0.0
 10
-99.20793275160699
 20
11.29106577690863
 30
0.0
 10
-99.31344675160697
 20
11.18555377690862
 30
0.0
  0
SPLINE
  5
2AA
330
1F
100
AcDbEntity
  8
0
  6
Continuous
 62
     7
370
    25
100
AcDbSpline
210
0.0
220
0.0
230
1.0
 70
     8
 71
     3
 72
     8
 73
     4
 74
     0
 42
0.00000001
 43
0.00000001
 40
0.0
 40
0.0
 40
0.0
 40
0.0
 40
1.0
 40
1.0
 40
1.0
 40
1.0
 10
-98.07725775160698
 20
11.60731377690862
 30
0.0
 10
-98.36329575160697
 20
11.45127377690863
 30
0.0
 10
-98.75317275160697
 20
11.33257177690863
 30
0.0
 10
-99.07425475160697
 20
11.30376877690863
 30
0.0
  0
SPLINE
  5
2AD
330
1F
100
AcDbEntity
  8
0
  6
Continuous
 62
     7
370
    25
100
AcDbSpline
210
0.0
220
0.0
230
1.0
 70
     8
 71
     3
 72
     8
 73
     4
 74
     0
 42
0.00000001
 43
0.00000001
 40
0.0
 40
0.0
 40
0.0
 40
0.0
 40
1.0
 40
1.0
 40
1.0
 40
1.0
 10
-96.51701775160699
 20
10.99904377690863
 30
0.0
 10
-96.86564875160697
 20
11.32905377690863
 30
0.0
 10
-97.34158575160698
 20
11.57208677690862
 30
0.0
 10
-97.79265075160698
 20
11.65043877690863
 30
0.0
  0
SPLINE
  5
2AE
330
1F
100
AcDbEntity
  8
0
  6
Continuous
 62
     7
370
    25
100
AcDbSpline
210
0.0
220
0.0
230
1.0
 70
     8
 71
     3
 72
     8
 73
     4
 74
     0
 42
0.00000001
 43
0.00000001
 40
0.0
 40
0.0
 40
0.0
 40
0.0
 40
1.0
 40
1.0
 40
1.0
 40
1.0
 10
-95.88777175160698
 20
9.639326776908629
 30
0.0
 10
-95.91778675160698
 20
10.20475777690863
 30
0.0
 10
-96.10478375160697
 20
10.60882977690863
 30
0.0
 10
-96.51701775160699
 20
10.99904377690863
 30
0.0
  0
SPLINE
  5
2AF
330
1F
100
AcDbEntity
  8
0
  6
Continuous
 62
     7
370
    25
100
AcDbSpline
210
0.0
220
0.0
230
1.0
 70
     8
 71
     3
 72
     8
 73
     4
 74
     0
 42
0.00000001
 43
0.00000001
 40
0.0
 40
0.0
 40
0.0
 40
0.0
 40
1.0
 40
1.0
 40
1.0
 40
1.0
 10
-96.32746775160697
 20
8.213822776908627
 30
0.0
 10
-96.03481975160696
 20
8.577206776908628
 30
0.0
 10
-95.86126075160698
 20
9.139889776908626
 30
0.0
 10
-95.88777175160698
 20
9.639326776908629
 30
0.0
  0
SPLINE
  5
2B0
330
1F
100
AcDbEntity
  8
0
  6
Continuous
 62
     7
370
    25
100
AcDbSpline
210
0.0
220
0.0
230
1.0
 70
     8
 71
     3
 72
     8
 73
     4
 74
     0
 42
0.00000001
 43
0.00000001
 40
0.0
 40
0.0
 40
0.0
 40
0.0
 40
1.0
 40
1.0
 40
1.0
 40
1.0
 10
-98.11402675160697
 20
7.414700776908627
 30
0.0
 10
-97.40862075160697
 20
7.41536277690863
 30
0.0
 10
-96.72381575160698
 20
7.721672776908626
 30
0.0
 10
-96.32746775160697
 20
8.213822776908627
 30
0.0
  0
SPLINE
  5
2B1
330
1F
100
AcDbEntity
  8
0
  6
Continuous
 62
     7
370
    25
100
AcDbSpline
210
0.0
220
0.0
230
1.0
 70
     8
 71
     3
 72
     8
 73
     4
 74
     0
 42
0.00000001
 43
0.00000001
 40
0.0
 40
0.0
 40
0.0
 40
0.0
 40
1.0
 40
1.0
 40
1.0
 40
1.0
 10
-98.36559475160698
 20
7.052134776908626
 30
0.0
 10
-98.44326375160698
 20
7.153457776908626
 30
0.0
 10
-98.41331575160697
 20
7.310572776908626
 30
0.0
 10
-98.30358175160697
 20
7.377475776908626
 30
0.0
  0
SPLINE
  5
2B2
330
1F
100
AcDbEntity
  8
0
  6
Continuous
 62
     7
370
    25
100
AcDbSpline
210
0.0
220
0.0
230
1.0
 70
     8
 71
     3
 72
     8
 73
     4
 74
     0
 42
0.00000001
 43
0.00000001
 40
0.0
 40
0.0
 40
0.0
 40
0.0
 40
1.0
 40
1.0
 40
1.0
 40
1.0
 10
-98.15079575160698
 20
6.921032776908625
 30
0.0
 10
-98.25191675160698
 20
6.970934776908626
 30
0.0
 10
-98.34857475160698
 20
7.029930776908628
 30
0.0
 10
-98.36559475160698
 20
7.052134776908626
 30
0.0
  0
SPLINE
  5
2B3
330
1F
100
AcDbEntity
  8
0
  6
Continuous
 62
     7
370
    25
100
AcDbSpline
210
0.0
220
0.0
230
1.0
 70
     8
 71
     3
 72
     8
 73
     4
 74
     0
 42
0.00000001
 43
0.00000001
 40
0.0
 40
0.0
 40
0.0
 40
0.0
 40
1.0
 40
1.0
 40
1.0
 40
1.0
 10
-97.19482975160699
 20
6.012845776908623
 30
0.0
 10
-97.40664975160698
 20
6.400650776908625
 30
0.0
 10
-97.74211275160698
 20
6.719345776908626
 30
0.0
 10
-98.15079575160698
 20
6.921032776908625
 30
0.0
  0
SPLINE
  5
2B7
330
1F
100
AcDbEntity
  8
0
  6
Continuous
 62
     7
370
    25
100
AcDbSpline
210
0.0
220
0.0
230
1.0
 70
     8
 71
     3
 72
     8
 73
     4
 74
     0
 42
0.00000001
 43
0.00000001
 40
0.0
 40
0.0
 40
0.0
 40
0.0
 40
1.0
 40
1.0
 40
1.0
 40
1.0
 10
-99.02093075160698
 20
6.663596776908628
 30
0.0
 10
-98.59235375160698
 20
6.576433776908627
 30
0.0
 10
-98.06192475160698
 20
6.305205776908625
 30
0.0
 10
-97.74358575160699
 20
6.010444776908624
 30
0.0
  0
SPLINE
  5
2B8
330
1F
100
AcDbEntity
  8
0
  6
Continuous
 62
     7
370
    25
100
AcDbSpline
210
0.0
220
0.0
230
1.0
 70
     8
 71
     3
 72
     8
 73
     4
 74
     0
 42
0.00000001
 43
0.00000001
 40
0.0
 40
0.0
 40
0.0
 40
0.0
 40
1.0
 40
1.0
 40
1.0
 40
1.0
 10
-99.20478175160697
 20
6.651108776908627
 30
0.0
 10
-99.14276375160698
 20
6.684315776908627
 30
0.0
 10
-99.12780375160698
 20
6.685331776908627
 30
0.0
 10
-99.02093075160698
 20
6.663596776908628
 30
0.0
  0
SPLINE
  5
2B9
330
1F
100
AcDbEntity
  8
0
  6
Continuous
 62
     7
370
    25
100
AcDbSpline
210
0.0
220
0.0
230
1.0
 70
     8
 71
     3
 72
     8
 73
     4
 74
     0
 42
0.00000001
 43
0.00000001
 40
0.0
 40
0.0
 40
0.0
 40
0.0
 40
1.0
 40
1.0
 40
1.0
 40
1.0
 10
-99.32628175160697
 20
6.412969776908625
 30
0.0
 10
-99.34334675160697
 20
6.503916776908627
 30
0.0
 10
-99.29209975160698
 20
6.604354776908627
 30
0.0
 10
-99.20478175160697
 20
6.651108776908627
 30
0.0
  0
SPLINE
  5
2BA
330
1F
100
AcDbEntity
  8
0
  6
Continuous
 62
     7
370
    25
100
AcDbSpline
210
0.0
220
0.0
230
1.0
 70
     8
 71
     3
 72
     8
 73
     4
 74
     0
 42
0.00000001
 43
0.00000001
 40
0.0
 40
0.0
 40
0.0
 40
0.0
 40
1.0
 40
1.0
 40
1.0
 40
1.0
 10
-99.07606975160698
 20
6.211660776908625
 30
0.0
 10
-99.23179075160697
 20
6.248724776908625
 30
0.0
 10
-99.30678975160697
 20
6.309065776908627
 30
0.0
 10
-99.32628175160697
 20
6.412969776908625
 30
0.0
  0
SPLINE
  5
2BB
330
1F
100
AcDbEntity
  8
0
  6
Continuous
 62
     7
370
    25
100
AcDbSpline
210
0.0
220
0.0
230
1.0
 70
     8
 71
     3
 72
     8
 73
     4
 74
     0
 42
0.00000001
 43
0.00000001
 40
0.0
 40
0.0
 40
0.0
 40
0.0
 40
1.0
 40
1.0
 40
1.0
 40
1.0
 10
-98.37192375160697
 20
5.913191776908626
 30
0.0
 10
-98.53664775160698
 20
6.024239776908629
 30
0.0
 10
-98.85426175160697
 20
6.158867776908626
 30
0.0
 10
-99.07606975160698
 20
6.211660776908625
 30
0.0
  0
SPLINE
  5
2BC
330
1F
100
AcDbEntity
  8
0
  6
Continuous
 62
     7
370
    25
100
AcDbSpline
210
0.0
220
0.0
230
1.0
 70
     8
 71
     3
 72
     8
 73
     4
 74
     0
 42
0.00000001
 43
0.00000001
 40
0.0
 40
0.0
 40
0.0
 40
0.0
 40
1.0
 40
1.0
 40
1.0
 40
1.0
 10
-98.86301975160698
 20
5.888743776908626
 30
0.0
 10
-98.41833975160698
 20
5.888743776908626
 30
0.0
 10
-98.34134575160697
 20
5.892577776908624
 30
0.0
 10
-98.37192375160697
 20
5.913191776908626
 30
0.0
  0
SPLINE
  5
2BF
330
1F
100
AcDbEntity
  8
0
  6
Continuous
 62
     7
370
    25
100
AcDbSpline
210
0.0
220
0.0
230
1.0
 70
     8
 71
     3
 72
     8
 73
     4
 74
     0
 42
0.00000001
 43
0.00000001
 40
0.0
 40
0.0
 40
0.0
 40
0.0
 40
1.0
 40
1.0
 40
1.0
 40
1.0
 10
-99.82177175160697
 20
6.388569776908628
 30
0.0
 10
-99.61761175160699
 20
6.326559776908627
 30
0.0
 10
-99.46428775160699
 20
6.169171776908625
 30
0.0
 10
-99.41096375160697
 20
5.966881776908628
 30
0.0
  0
SPLINE
  5
2C0
330
1F
100
AcDbEntity
  8
0
  6
Continuous
 62
     7
370
    25
100
AcDbSpline
210
0.0
220
0.0
230
1.0
 70
     8
 71
     3
 72
     8
 73
     4
 74
     0
 42
0.00000001
 43
0.00000001
 40
0.0
 40
0.0
 40
0.0
 40
0.0
 40
1.0
 40
1.0
 40
1.0
 40
1.0
 10
-100.219117751607
 20
6.375427776908624
 30
0.0
 10
-99.99051475160698
 20
6.427638776908627
 30
0.0
 10
-99.95433075160697
 20
6.428834776908626
 30
0.0
 10
-99.82177175160697
 20
6.388569776908628
 30
0.0
  0
SPLINE
  5
2C1
330
1F
100
AcDbEntity
  8
0
  6
Continuous
 62
     7
370
    25
100
AcDbSpline
210
0.0
220
0.0
230
1.0
 70
     8
 71
     3
 72
     8
 73
     4
 74
     0
 42
0.00000001
 43
0.00000001
 40
0.0
 40
0.0
 40
0.0
 40
0.0
 40
1.0
 40
1.0
 40
1.0
 40
1.0
 10
-100.325895751607
 20
6.455111776908624
 30
0.0
 10
-100.273865751607
 20
6.377955776908625
 30
0.0
 10
-100.258442751607
 20
6.366446776908625
 30
0.0
 10
-100.219117751607
 20
6.375427776908624
 30
0.0
  0
SPLINE
  5
2C2
330
1F
100
AcDbEntity
  8
0
  6
Continuous
 62
     7
370
    25
100
AcDbSpline
210
0.0
220
0.0
230
1.0
 70
     8
 71
     3
 72
     8
 73
     4
 74
     0
 42
0.00000001
 43
0.00000001
 40
0.0
 40
0.0
 40
0.0
 40
0.0
 40
1.0
 40
1.0
 40
1.0
 40
1.0
 10
-100.513281751607
 20
7.055772776908626
 30
0.0
 10
-100.513281751607
 20
6.855861776908625
 30
0.0
 10
-100.441949751607
 20
6.627204776908625
 30
0.0
 10
-100.325895751607
 20
6.455111776908624
 30
0.0
  0
SPLINE
  5
2C3
330
1F
100
AcDbEntity
  8
0
  6
Continuous
 62
     7
370
    25
100
AcDbSpline
210
0.0
220
0.0
230
1.0
 70
     8
 71
     3
 72
     8
 73
     4
 74
     0
 42
0.00000001
 43
0.00000001
 40
0.0
 40
0.0
 40
0.0
 40
0.0
 40
1.0
 40
1.0
 40
1.0
 40
1.0
 10
-100.387813751607
 20
7.531299776908626
 30
0.0
 10
-100.451405751607
 20
7.418739776908625
 30
0.0
 10
-100.513281751607
 20
7.184224776908628
 30
0.0
 10
-100.513281751607
 20
7.055772776908626
 30
0.0
  0
SPLINE
  5
2C6
330
1F
100
AcDbEntity
  8
0
  6
Continuous
 62
     7
370
    25
100
AcDbSpline
210
0.0
220
0.0
230
1.0
 70
     8
 71
     3
 72
     8
 73
     4
 74
     0
 42
0.00000001
 43
0.00000001
 40
0.0
 40
0.0
 40
0.0
 40
0.0
 40
1.0
 40
1.0
 40
1.0
 40
1.0
 10
-99.90360175160698
 20
7.677622776908626
 30
0.0
 10
-99.99198875160698
 20
7.634519776908627
 30
0.0
 10
-100.032456751607
 20
7.626562776908628
 30
0.0
 10
-100.171878751607
 20
7.624868776908624
 30
0.0
  0
SPLINE
  5
2C7
330
1F
100
AcDbEntity
  8
0
  6
Continuous
 62
     7
370
    25
100
AcDbSpline
210
0.0
220
0.0
230
1.0
 70
     8
 71
     3
 72
     8
 73
     4
 74
     0
 42
0.00000001
 43
0.00000001
 40
0.0
 40
0.0
 40
0.0
 40
0.0
 40
1.0
 40
1.0
 40
1.0
 40
1.0
 10
-99.57081175160698
 20
8.203635776908625
 30
0.0
 10
-99.56975375160698
 20
7.985331776908626
 30
0.0
 10
-99.70234675160698
 20
7.775771776908625
 30
0.0
 10
-99.90360175160698
 20
7.677622776908626
 30
0.0
  0
SPLINE
  5
2C8
330
1F
100
AcDbEntity
  8
0
  6
Continuous
 62
     7
370
    25
100
AcDbSpline
210
0.0
220
0.0
230
1.0
 70
     8
 71
     3
 72
     8
 73
     4
 74
     0
 42
0.00000001
 43
0.00000001
 40
0.0
 40
0.0
 40
0.0
 40
0.0
 40
1.0
 40
1.0
 40
1.0
 40
1.0
 10
-99.90241375160699
 20
8.742264776908623
 30
0.0
 10
-99.68890375160699
 20
8.63720177690863
 30
0.0
 10
-99.57197575160698
 20
8.447273776908625
 30
0.0
 10
-99.57081175160698
 20
8.203635776908625
 30
0.0
  0
SPLINE
  5
2C9
330
1F
100
AcDbEntity
  8
0
  6
Continuous
 62
     7
370
    25
100
AcDbSpline
210
0.0
220
0.0
230
1.0
 70
     8
 71
     3
 72
     8
 73
     4
 74
     0
 42
0.00000001
 43
0.00000001
 40
0.0
 40
0.0
 40
0.0
 40
0.0
 40
1.0
 40
1.0
 40
1.0
 40
1.0
 10
-100.172823751607
 20
8.801607776908627
 30
0.0
 10
-100.041981751607
 20
8.80266577690863
 30
0.0
 10
-100.011583751607
 20
8.795984776908627
 30
0.0
 10
-99.90241375160699
 20
8.742264776908623
 30
0.0
  0
SPLINE
  5
2CA
330
1F
100
AcDbEntity
  8
0
  6
Continuous
 62
     7
370
    25
100
AcDbSpline
210
0.0
220
0.0
230
1.0
 70
     8
 71
     3
 72
     8
 73
     4
 74
     0
 42
0.00000001
 43
0.00000001
 40
0.0
 40
0.0
 40
0.0
 40
0.0
 40
1.0
 40
1.0
 40
1.0
 40
1.0
 10
-100.412162751607
 20
8.756313776908627
 30
0.0
 10
-100.339751751607
 20
8.791061776908627
 30
0.0
 10
-100.288946751607
 20
8.800676776908624
 30
0.0
 10
-100.172823751607
 20
8.801607776908627
 30
0.0
  0
SPLINE
  5
2CB
330
1F
100
AcDbEntity
  8
0
  6
Continuous
 62
     7
370
    25
100
AcDbSpline
210
0.0
220
0.0
230
1.0
 70
     8
 71
     3
 72
     8
 73
     4
 74
     0
 42
0.00000001
 43
0.00000001
 40
0.0
 40
0.0
 40
0.0
 40
0.0
 40
1.0
 40
1.0
 40
1.0
 40
1.0
 10
-100.714118751607
 20
8.434607776908624
 30
0.0
 10
-100.667459751607
 20
8.559314776908627
 30
0.0
 10
-100.540244751607
 20
8.694851776908628
 30
0.0
 10
-100.412162751607
 20
8.756313776908627
 30
0.0
  0
SPLINE
  5
2CC
330
1F
100
AcDbEntity
  8
0
  6
Continuous
 62
     7
370
    25
100
AcDbSpline
210
0.0
220
0.0
230
1.0
 70
     8
 71
     3
 72
     8
 73
     4
 74
     0
 42
0.00000001
 43
0.00000001
 40
0.0
 40
0.0
 40
0.0
 40
0.0
 40
1.0
 40
1.0
 40
1.0
 40
1.0
 10
-100.663120751607
 20
7.896975776908628
 30
0.0
 10
-100.757981751607
 20
8.027196776908625
 30
0.0
 10
-100.779938751607
 20
8.258687776908625
 30
0.0
 10
-100.714118751607
 20
8.434607776908624
 30
0.0
  0
SPLINE
  5
2CD
330
1F
100
AcDbEntity
  8
0
  6
Continuous
 62
     7
370
    25
100
AcDbSpline
210
0.0
220
0.0
230
1.0
 70
     8
 71
     3
 72
     8
 73
     4
 74
     0
 42
0.00000001
 43
0.00000001
 40
0.0
 40
0.0
 40
0.0
 40
0.0
 40
1.0
 40
1.0
 40
1.0
 40
1.0
 10
-100.709422751607
 20
7.692053776908629
 30
0.0
 10
-100.628914751607
 20
7.849724776908623
 30
0.0
 10
-100.628864751607
 20
7.849947776908627
 30
0.0
 10
-100.663120751607
 20
7.896975776908628
 30
0.0
  0
SPLINE
  5
2CE
330
1F
100
AcDbEntity
  8
0
  6
Continuous
 62
     7
370
    25
100
AcDbSpline
210
0.0
220
0.0
230
1.0
 70
     8
 71
     3
 72
     8
 73
     4
 74
     0
 42
0.00000001
 43
0.00000001
 40
0.0
 40
0.0
 40
0.0
 40
0.0
 40
1.0
 40
1.0
 40
1.0
 40
1.0
 10
-100.864147751607
 20
7.047002776908625
 30
0.0
 10
-100.864147751607
 20
7.289313776908626
 30
0.0
 10
-100.819039751607
 20
7.477372776908624
 30
0.0
 10
-100.709422751607
 20
7.692053776908629
 30
0.0
  0
SPLINE
  5
2CF
330
1F
100
AcDbEntity
  8
0
  6
Continuous
 62
     7
370
    25
100
AcDbSpline
210
0.0
220
0.0
230
1.0
 70
     8
 71
     3
 72
     8
 73
     4
 74
     0
 42
0.00000001
 43
0.00000001
 40
0.0
 40
0.0
 40
0.0
 40
0.0
 40
1.0
 40
1.0
 40
1.0
 40
1.0
 10
-100.589200751607
 20
6.201431776908625
 30
0.0
 10
-100.766894751607
 20
6.436144776908625
 30
0.0
 10
-100.864147751607
 20
6.73523777690863
 30
0.0
 10
-100.864147751607
 20
7.047002776908625
 30
0.0
  0
SPLINE
  5
2D0
330
1F
100
AcDbEntity
  8
0
  6
Continuous
 62
     7
370
    25
100
AcDbSpline
210
0.0
220
0.0
230
1.0
 70
     8
 71
     3
 72
     8
 73
     4
 74
     0
 42
0.00000001
 43
0.00000001
 40
0.0
 40
0.0
 40
0.0
 40
0.0
 40
1.0
 40
1.0
 40
1.0
 40
1.0
 10
-100.525094751607
 20
6.072735776908627
 30
0.0
 10
-100.517316751607
 20
6.090229776908627
 30
0.0
 10
-100.540969751607
 20
6.137719776908628
 30
0.0
 10
-100.589200751607
 20
6.201431776908625
 30
0.0
  0
SPLINE
  5
2D1
330
1F
100
AcDbEntity
  8
0
  6
Continuous
 62
     7
370
    25
100
AcDbSpline
210
0.0
220
0.0
230
1.0
 70
     8
 71
     3
 72
     8
 73
     4
 74
     0
 42
0.00000001
 43
0.00000001
 40
0.0
 40
0.0
 40
0.0
 40
0.0
 40
1.0
 40
1.0
 40
1.0
 40
1.0
 10
-100.557112751607
 20
5.966871776908627
 30
0.0
 10
-100.546290751607
 20
6.009846776908627
 30
0.0
 10
-100.531870751607
 20
6.057484776908626
 30
0.0
 10
-100.525094751607
 20
6.072735776908627
 30
0.0
  0
SPLINE
  5
2D6
330
1F
100
AcDbEntity
  8
0
  6
Continuous
 62
     7
370
    25
100
AcDbSpline
210
0.0
220
0.0
230
1.0
 70
     8
 71
     3
 72
     8
 73
     4
 74
     0
 42
0.00000001
 43
0.00000001
 40
0.0
 40
0.0
 40
0.0
 40
0.0
 40
1.0
 40
1.0
 40
1.0
 40
1.0
 10
-103.505157751607
 20
17.92155877690863
 30
0.0
 10
-104.020829751607
 20
17.64941577690862
 30
0.0
 10
-104.403066751607
 20
17.17755477690863
 30
0.0
 10
-104.571362751607
 20
16.60535577690863
 30
0.0
  0
SPLINE
  5
2D7
330
1F
100
AcDbEntity
  8
0
  6
Continuous
 62
     7
370
    25
100
AcDbSpline
210
0.0
220
0.0
230
1.0
 70
     8
 71
     3
 72
     8
 73
     4
 74
     0
 42
0.00000001
 43
0.00000001
 40
0.0
 40
0.0
 40
0.0
 40
0.0
 40
1.0
 40
1.0
 40
1.0
 40
1.0
 10
-98.30358175160697
 20
7.377475776908626
 30
0.0
 10
-98.25791775160697
 20
7.405316776908626
 30
0.0
 10
-98.21059475160698
 20
7.414610776908626
 30
0.0
 10
-98.11402675160697
 20
7.414700776908627
 30
0.0
  0
SPLINE
  5
2D9
330
1F
100
AcDbEntity
  8
0
  6
Continuous
 62
     7
370
    25
100
AcDbSpline
210
0.0
220
0.0
230
1.0
 70
     8
 71
     3
 72
     8
 73
     4
 74
     0
 42
0.00000001
 43
0.00000001
 40
0.0
 40
0.0
 40
0.0
 40
0.0
 40
1.0
 40
1.0
 40
1.0
 40
1.0
 10
-100.016880751607
 20
14.94973677690863
 30
0.0
 10
-100.016880751607
 20
14.85772477690862
 30
0.0
 10
-99.98304375160698
 20
14.79967377690863
 30
0.0
 10
-99.89982875160698
 20
14.74893177690863
 30
0.0
  0
SPLINE
  5
2DA
330
1F
100
AcDbEntity
  8
0
  6
Continuous
 62
     7
370
    25
100
AcDbSpline
210
0.0
220
0.0
230
1.0
 70
     8
 71
     3
 72
     8
 73
     4
 74
     0
 42
0.00000001
 43
0.00000001
 40
0.0
 40
0.0
 40
0.0
 40
0.0
 40
1.0
 40
1.0
 40
1.0
 40
1.0
 10
-99.94318075160697
 20
15.10424477690863
 30
0.0
 10
-100.006834751607
 20
15.04059077690863
 30
0.0
 10
-100.016880751607
 20
15.01952577690863
 30
0.0
 10
-100.016880751607
 20
14.94973677690863
 30
0.0
  0
SPLINE
  5
2DB
330
1F
100
AcDbEntity
  8
0
  6
Continuous
 62
     7
370
    25
100
AcDbSpline
210
0.0
220
0.0
230
1.0
 70
     8
 71
     3
 72
     8
 73
     4
 74
     0
 42
0.00000001
 43
0.00000001
 40
0.0
 40
0.0
 40
0.0
 40
0.0
 40
1.0
 40
1.0
 40
1.0
 40
1.0
 10
-99.77600675160697
 20
15.16896377690863
 30
0.0
 10
-99.86545175160698
 20
15.17755777690863
 30
0.0
 10
-99.87265375160698
 20
15.17477177690863
 30
0.0
 10
-99.94318075160697
 20
15.10424477690863
 30
0.0
  0
SPLINE
  5
2DC
330
1F
100
AcDbEntity
  8
0
  6
Continuous
 62
     7
370
    25
100
AcDbSpline
210
0.0
220
0.0
230
1.0
 70
     8
 71
     3
 72
     8
 73
     4
 74
     0
 42
0.00000001
 43
0.00000001
 40
0.0
 40
0.0
 40
0.0
 40
0.0
 40
1.0
 40
1.0
 40
1.0
 40
1.0
 10
-99.89982875160698
 20
14.74893177690863
 30
0.0
 10
-99.82618275160698
 20
14.70402577690863
 30
0.0
 10
-99.74751675160698
 20
14.70428977690863
 30
0.0
 10
-99.67304975160698
 20
14.74969977690863
 30
0.0
  0
SPLINE
  5
2DD
330
1F
100
AcDbEntity
  8
0
  6
Continuous
 62
     7
370
    25
100
AcDbSpline
210
0.0
220
0.0
230
1.0
 70
     8
 71
     3
 72
     8
 73
     4
 74
     0
 42
0.00000001
 43
0.00000001
 40
0.0
 40
0.0
 40
0.0
 40
0.0
 40
1.0
 40
1.0
 40
1.0
 40
1.0
 10
-99.67304975160698
 20
14.74969977690863
 30
0.0
 10
-99.47817075160698
 20
14.86852077690864
 30
0.0
 10
-99.546530751607
 20
15.14691477690864
 30
0.0
 10
-99.77600675160699
 20
15.16896377690862
 30
0.0
  0
SPLINE
  5
2DE
330
1F
100
AcDbEntity
  8
0
  6
Continuous
 62
     7
370
    25
100
AcDbSpline
210
0.0
220
0.0
230
1.0
 70
     8
 71
     3
 72
     8
 73
     4
 74
     0
 42
0.00000001
 43
0.00000001
 40
0.0
 40
0.0
 40
0.0
 40
0.0
 40
1.0
 40
1.0
 40
1.0
 40
1.0
 10
-98.01362475160698
 20
13.54371577690863
 30
0.0
 10
-98.10010975160698
 20
13.59480177690862
 30
0.0
 10
-98.20551975160697
 20
13.58308977690863
 30
0.0
 10
-98.28088375160698
 20
13.51402277690862
 30
0.0
  0
SPLINE
  5
2DF
330
1F
100
AcDbEntity
  8
0
  6
Continuous
 62
     7
370
    25
100
AcDbSpline
210
0.0
220
0.0
230
1.0
 70
     8
 71
     3
 72
     8
 73
     4
 74
     0
 42
0.00000001
 43
0.00000001
 40
0.0
 40
0.0
 40
0.0
 40
0.0
 40
1.0
 40
1.0
 40
1.0
 40
1.0
 10
-98.02955275160697
 20
13.14262577690863
 30
0.0
 10
-97.87139575160697
 20
13.22441377690862
 30
0.0
 10
-97.86226775160698
 20
13.45430477690863
 30
0.0
 10
-98.01362475160698
 20
13.54371577690863
 30
0.0
  0
SPLINE
  5
2E0
330
1F
100
AcDbEntity
  8
0
  6
Continuous
 62
     7
370
    25
100
AcDbSpline
210
0.0
220
0.0
230
1.0
 70
     8
 71
     3
 72
     8
 73
     4
 74
     0
 42
0.00000001
 43
0.00000001
 40
0.0
 40
0.0
 40
0.0
 40
0.0
 40
1.0
 40
1.0
 40
1.0
 40
1.0
 10
-98.28088375160698
 20
13.51402277690862
 30
0.0
 10
-98.47683675160698
 20
13.33444677690863
 30
0.0
 10
-98.26471775160697
 20
13.02101177690863
 30
0.0
 10
-98.02955275160697
 20
13.14262577690863
 30
0.0
  0
SPLINE
  5
2E1
330
1F
100
AcDbEntity
  8
0
  6
Continuous
 62
     7
370
    25
100
AcDbSpline
210
0.0
220
0.0
230
1.0
 70
     8
 71
     3
 72
     8
 73
     4
 74
     0
 42
0.00000001
 43
0.00000001
 40
0.0
 40
0.0
 40
0.0
 40
0.0
 40
1.0
 40
1.0
 40
1.0
 40
1.0
 10
-101.274191751607
 20
15.83733377690863
 30
0.0
 10
-101.379609751607
 20
15.72729977690862
 30
0.0
 10
-101.342710751607
 20
15.53546477690862
 30
0.0
 10
-101.204555751607
 20
15.47532277690862
 30
0.0
  0
SPLINE
  5
2E2
330
1F
100
AcDbEntity
  8
0
  6
Continuous
 62
     7
370
    25
100
AcDbSpline
210
0.0
220
0.0
230
1.0
 70
     8
 71
     3
 72
     8
 73
     4
 74
     0
 42
0.00000001
 43
0.00000001
 40
0.0
 40
0.0
 40
0.0
 40
0.0
 40
1.0
 40
1.0
 40
1.0
 40
1.0
 10
-100.907624751607
 20
15.79657777690863
 30
0.0
 10
-100.979503751607
 20
15.93558177690863
 30
0.0
 10
-101.160756751607
 20
15.95573377690863
 30
0.0
 10
-101.274191751607
 20
15.83733377690863
 30
0.0
  0
SPLINE
  5
2E3
330
1F
100
AcDbEntity
  8
0
  6
Continuous
 62
     7
370
    25
100
AcDbSpline
210
0.0
220
0.0
230
1.0
 70
     8
 71
     3
 72
     8
 73
     4
 74
     0
 42
0.00000001
 43
0.00000001
 40
0.0
 40
0.0
 40
0.0
 40
0.0
 40
1.0
 40
1.0
 40
1.0
 40
1.0
 10
-101.018688751607
 20
15.47554677690863
 30
0.0
 10
-100.900954751607
 20
15.52473977690862
 30
0.0
 10
-100.847280751607
 20
15.67988577690863
 30
0.0
 10
-100.907624751607
 20
15.79657777690863
 30
0.0
  0
SPLINE
  5
2E4
330
1F
100
AcDbEntity
  8
0
  6
Continuous
 62
     7
370
    25
100
AcDbSpline
210
0.0
220
0.0
230
1.0
 70
     8
 71
     3
 72
     8
 73
     4
 74
     0
 42
0.00000001
 43
0.00000001
 40
0.0
 40
0.0
 40
0.0
 40
0.0
 40
1.0
 40
1.0
 40
1.0
 40
1.0
 10
-101.204555751607
 20
15.47532277690862
 30
0.0
 10
-101.130776751607
 20
15.44320377690862
 30
0.0
 10
-101.095994751607
 20
15.44324677690863
 30
0.0
 10
-101.018688751607
 20
15.47554677690863
 30
0.0
  0
SPLINE
  5
2E5
330
1F
100
AcDbEntity
  8
0
  6
Continuous
 62
     7
370
    25
100
AcDbSpline
210
0.0
220
0.0
230
1.0
 70
     8
 71
     3
 72
     8
 73
     4
 74
     0
 42
0.00000001
 43
0.00000001
 40
0.0
 40
0.0
 40
0.0
 40
0.0
 40
1.0
 40
1.0
 40
1.0
 40
1.0
 10
-104.153483751607
 20
15.59832877690863
 30
0.0
 10
-104.153483751607
 20
15.55116677690863
 30
0.0
 10
-104.094911751607
 20
15.41390677690863
 30
0.0
 10
-104.073913751607
 20
15.41202977690862
 30
0.0
  0
SPLINE
  5
2E6
330
1F
100
AcDbEntity
  8
0
  6
Continuous
 62
     7
370
    25
100
AcDbSpline
210
0.0
220
0.0
230
1.0
 70
     8
 71
     3
 72
     8
 73
     4
 74
     0
 42
0.00000001
 43
0.00000001
 40
0.0
 40
0.0
 40
0.0
 40
0.0
 40
1.0
 40
1.0
 40
1.0
 40
1.0
 10
-103.798130751607
 20
15.78953677690863
 30
0.0
 10
-103.856722751607
 20
15.82792677690863
 30
0.0
 10
-103.977978751607
 20
15.83332277690863
 30
0.0
 10
-104.039706751607
 20
15.80028677690862
 30
0.0
  0
SPLINE
  5
2E7
330
1F
100
AcDbEntity
  8
0
  6
Continuous
 62
     7
370
    25
100
AcDbSpline
210
0.0
220
0.0
230
1.0
 70
     8
 71
     3
 72
     8
 73
     4
 74
     0
 42
0.00000001
 43
0.00000001
 40
0.0
 40
0.0
 40
0.0
 40
0.0
 40
1.0
 40
1.0
 40
1.0
 40
1.0
 10
-103.791327751607
 20
15.41315077690863
 30
0.0
 10
-103.661238751607
 20
15.49439277690862
 30
0.0
 10
-103.664996751607
 20
15.70230377690863
 30
0.0
 10
-103.798130751607
 20
15.78953677690863
 30
0.0
  0
SPLINE
  5
2E8
330
1F
100
AcDbEntity
  8
0
  6
Continuous
 62
     7
370
    25
100
AcDbSpline
210
0.0
220
0.0
230
1.0
 70
     8
 71
     3
 72
     8
 73
     4
 74
     0
 42
0.00000001
 43
0.00000001
 40
0.0
 40
0.0
 40
0.0
 40
0.0
 40
1.0
 40
1.0
 40
1.0
 40
1.0
 10
-103.998692751607
 20
15.38664877690863
 30
0.0
 10
-103.924515751607
 20
15.36083077690863
 30
0.0
 10
-103.862394751607
 20
15.36877077690862
 30
0.0
 10
-103.791327751607
 20
15.41315077690863
 30
0.0
  0
SPLINE
  5
2E9
330
1F
100
AcDbEntity
  8
0
  6
Continuous
 62
     7
370
    25
100
AcDbSpline
210
0.0
220
0.0
230
1.0
 70
     8
 71
     3
 72
     8
 73
     4
 74
     0
 42
0.00000001
 43
0.00000001
 40
0.0
 40
0.0
 40
0.0
 40
0.0
 40
1.0
 40
1.0
 40
1.0
 40
1.0
 10
-104.039706751607
 20
15.80028677690862
 30
0.0
 10
-104.098965751607
 20
15.76857277690862
 30
0.0
 10
-104.153400751607
 20
15.67194577690863
 30
0.0
 10
-104.153483751607
 20
15.59832877690863
 30
0.0
  0
SPLINE
  5
2EA
330
1F
100
AcDbEntity
  8
0
  6
Continuous
 62
     7
370
    25
100
AcDbSpline
210
0.0
220
0.0
230
1.0
 70
     8
 71
     3
 72
     8
 73
     4
 74
     0
 42
0.00000001
 43
0.00000001
 40
0.0
 40
0.0
 40
0.0
 40
0.0
 40
1.0
 40
1.0
 40
1.0
 40
1.0
 10
-104.073913751607
 20
15.41202977690862
 30
0.0
 10
-104.072194751607
 20
15.41188277690862
 30
0.0
 10
-104.038360751607
 20
15.40045477690863
 30
0.0
 10
-103.998692751607
 20
15.38664877690863
 30
0.0
  0
SPLINE
  5
2EB
330
1F
100
AcDbEntity
  8
0
  6
Continuous
 62
     7
370
    25
100
AcDbSpline
210
0.0
220
0.0
230
1.0
 70
     8
 71
     3
 72
     8
 73
     4
 74
     0
 42
0.00000001
 43
0.00000001
 40
0.0
 40
0.0
 40
0.0
 40
0.0
 40
1.0
 40
1.0
 40
1.0
 40
1.0
 10
-112.621943751607
 20
2.303656776908626
 30
0.0
 10
-112.502596751607
 20
1.949561776908627
 30
0.0
 10
-112.217388751607
 20
1.666523776908627
 30
0.0
 10
-111.891652751607
 20
1.578921776908628
 30
0.0
  0
SPLINE
  5
2EC
330
1F
100
AcDbEntity
  8
0
  6
Continuous
 62
     7
370
    25
100
AcDbSpline
210
0.0
220
0.0
230
1.0
 70
     8
 71
     3
 72
     8
 73
     4
 74
     0
 42
0.00000001
 43
0.00000001
 40
0.0
 40
0.0
 40
0.0
 40
0.0
 40
1.0
 40
1.0
 40
1.0
 40
1.0
 10
-112.615225751607
 20
2.941170776908624
 30
0.0
 10
-112.669965751607
 20
2.767074776908625
 30
0.0
 10
-112.673245751607
 20
2.455866776908625
 30
0.0
 10
-112.621943751607
 20
2.303656776908626
 30
0.0
  0
SPLINE
  5
2ED
330
1F
100
AcDbEntity
  8
0
  6
Continuous
 62
     7
370
    25
100
AcDbSpline
210
0.0
220
0.0
230
1.0
 70
     8
 71
     3
 72
     8
 73
     4
 74
     0
 42
0.00000001
 43
0.00000001
 40
0.0
 40
0.0
 40
0.0
 40
0.0
 40
1.0
 40
1.0
 40
1.0
 40
1.0
 10
-110.632651751607
 20
2.874852776908628
 30
0.0
 10
-110.682009751607
 20
3.071119776908625
 30
0.0
 10
-110.766797751607
 20
3.217735776908627
 30
0.0
 10
-110.919172751607
 20
3.370307776908627
 30
0.0
  0
SPLINE
  5
2EE
330
1F
100
AcDbEntity
  8
0
  6
Continuous
 62
     7
370
    25
100
AcDbSpline
210
0.0
220
0.0
230
1.0
 70
     8
 71
     3
 72
     8
 73
     4
 74
     0
 42
0.00000001
 43
0.00000001
 40
0.0
 40
0.0
 40
0.0
 40
0.0
 40
1.0
 40
1.0
 40
1.0
 40
1.0
 10
-110.658499751607
 20
2.258940776908625
 30
0.0
 10
-110.604049751607
 20
2.408327776908626
 30
0.0
 10
-110.591362751607
 20
2.710659776908625
 30
0.0
 10
-110.632651751607
 20
2.874852776908628
 30
0.0
  0
SPLINE
  5
2EF
330
1F
100
AcDbEntity
  8
0
  6
Continuous
 62
     7
370
    25
100
AcDbSpline
210
0.0
220
0.0
230
1.0
 70
     8
 71
     3
 72
     8
 73
     4
 74
     0
 42
0.00000001
 43
0.00000001
 40
0.0
 40
0.0
 40
0.0
 40
0.0
 40
1.0
 40
1.0
 40
1.0
 40
1.0
 10
-111.389086751607
 20
1.577968776908623
 30
0.0
 10
-111.059153751607
 20
1.663899776908628
 30
0.0
 10
-110.780826751607
 20
1.923327776908627
 30
0.0
 10
-110.658499751607
 20
2.258940776908625
 30
0.0
  0
SPLINE
  5
2F0
330
1F
100
AcDbEntity
  8
0
  6
Continuous
 62
     7
370
    25
100
AcDbSpline
210
0.0
220
0.0
230
1.0
 70
     8
 71
     3
 72
     8
 73
     4
 74
     0
 42
0.00000001
 43
0.00000001
 40
0.0
 40
0.0
 40
0.0
 40
0.0
 40
1.0
 40
1.0
 40
1.0
 40
1.0
 10
-111.891652751607
 20
1.578921776908628
 30
0.0
 10
-111.760239751607
 20
1.543581776908626
 30
0.0
 10
-111.522829751607
 20
1.543127776908626
 30
0.0
 10
-111.389086751607
 20
1.577968776908623
 30
0.0
  0
SPLINE
  5
2F1
330
1F
100
AcDbEntity
  8
0
  6
Continuous
 62
     7
370
    25
100
AcDbSpline
210
0.0
220
0.0
230
1.0
 70
     8
 71
     3
 72
     8
 73
     4
 74
     0
 42
0.00000001
 43
0.00000001
 40
0.0
 40
0.0
 40
0.0
 40
0.0
 40
1.0
 40
1.0
 40
1.0
 40
1.0
 10
-112.283985751607
 20
3.436049776908621
 30
0.0
 10
-112.416452751607
 20
3.328140776908624
 30
0.0
 10
-112.561856751607
 20
3.110906776908624
 30
0.0
 10
-112.615225751607
 20
2.941170776908624
 30
0.0
  0
SPLINE
  5
2F2
330
1F
100
AcDbEntity
  8
0
  6
Continuous
 62
     7
370
    25
100
AcDbSpline
210
0.0
220
0.0
230
1.0
 70
     8
 71
     3
 72
     8
 73
     4
 74
     0
 42
0.00000001
 43
0.00000001
 40
0.0
 40
0.0
 40
0.0
 40
0.0
 40
1.0
 40
1.0
 40
1.0
 40
1.0
 10
-110.919172751607
 20
3.370307776908627
 30
0.0
 10
-111.307431751607
 20
3.759069776908628
 30
0.0
 10
-111.855061751607
 20
3.785448776908625
 30
0.0
 10
-112.283985751607
 20
3.436049776908628
 30
0.0
  0
LINE
  5
2F3
330
1F
100
AcDbEntity
  8
0
  6
Continuous
 62
     7
370
    25
100
AcDbLine
 10
-102.4621617516
 20
-16.6330992231
 30
0.0
 11
-102.4621617516
 21
-16.6965122231
 31
0.0
  0
LINE
  5
2F4
330
1F
100
AcDbEntity
  8
0
  6
Continuous
 62
     7
370
    25
100
AcDbLine
 10
-101.5603197516
 20
-16.6330992231
 30
0.0
 11
-102.4621617516
 21
-16.6330992231
 31
0.0
  0
LINE
  5
2F5
330
1F
100
AcDbEntity
  8
0
  6
Continuous
 62
     7
370
    25
100
AcDbLine
 10
-100.0738637516
 20
-11.1024682231
 30
0.0
 11
-99.9895387516
 21
-11.1681652231
 31
0.0
  0
LINE
  5
2F6
330
1F
100
AcDbEntity
  8
0
  6
Continuous
 62
     7
370
    25
100
AcDbLine
 10
-99.9887587516
 20
-11.0318672231
 30
0.0
 11
-100.0738637516
 21
-11.1024682231
 31
0.0
  0
LINE
  5
2F7
330
1F
100
AcDbEntity
  8
0
  6
Continuous
 62
     7
370
    25
100
AcDbLine
 10
-92.9938677516
 20
5.8887737769
 30
0.0
 11
-92.9938677516
 21
5.5808217769
 31
0.0
  0
LINE
  5
2F8
330
1F
100
AcDbEntity
  8
0
  6
Continuous
 62
     7
370
    25
100
AcDbLine
 10
-93.9131287516
 20
5.8887737769
 30
0.0
 11
-92.9938677516
 21
5.8887737769
 31
0.0
  0
LINE
  5
2F9
330
1F
100
AcDbEntity
  8
0
  6
Continuous
 62
     7
370
    25
100
AcDbLine
 10
-93.6511297516
 20
11.4734337769
 30
0.0
 11
-93.6611577516
 21
10.8367687769
 31
0.0
  0
LINE
  5
2FA
330
1F
100
AcDbEntity
  8
0
  6
Continuous
 62
     7
370
    25
100
AcDbLine
 10
-93.5752977516
 20
11.4958947769
 30
0.0
 11
-93.6511297516
 21
11.4734337769
 31
0.0
  0
LINE
  5
2FB
330
1F
100
AcDbEntity
  8
0
  6
Continuous
 62
     7
370
    25
100
AcDbLine
 10
-95.3393887516
 20
5.8979647769
 30
0.0
 11
-95.1881447516
 21
6.2197057769
 31
0.0
  0
LINE
  5
2FC
330
1F
100
AcDbEntity
  8
0
  6
Continuous
 62
     7
370
    25
100
AcDbLine
 10
-96.6280847516
 20
5.8883077769
 30
0.0
 11
-95.3393887516
 21
5.8979647769
 31
0.0
  0
LINE
  5
2FD
330
1F
100
AcDbEntity
  8
0
  6
Continuous
 62
     7
370
    25
100
AcDbLine
 10
-96.7500627516
 20
6.1321437769
 30
0.0
 11
-96.6280847516
 21
5.8883077769
 31
0.0
  0
LINE
  5
2FE
330
1F
100
AcDbEntity
  8
0
  6
Continuous
 62
     7
370
    25
100
AcDbLine
 10
-100.0114727516
 20
16.2357177769
 30
0.0
 11
-99.9544607516
 21
16.2459277769
 31
0.0
  0
LINE
  5
2FF
330
1F
100
AcDbEntity
  8
0
  6
Continuous
 62
     7
370
    25
100
AcDbLine
 10
-100.0243047516
 20
16.3617787769
 30
0.0
 11
-100.0114727516
 21
16.2357177769
 31
0.0
  0
LINE
  5
300
330
1F
100
AcDbEntity
  8
0
  6
Continuous
 62
     7
370
    25
100
AcDbLine
 10
-105.0813987516
 20
16.4326847769
 30
0.0
 11
-105.0320967516
 21
16.6305307769
 31
0.0
  0
LINE
  5
301
330
1F
100
AcDbEntity
  8
0
  6
Continuous
 62
     7
370
    25
100
AcDbLine
 10
-105.0918287516
 20
5.8887707769
 30
0.0
 11
-105.0813987516
 21
16.4326847769
 31
0.0
  0
LINE
  5
302
330
1F
100
AcDbEntity
  8
0
  6
Continuous
 62
     7
370
    25
100
AcDbLine
 10
-105.2930137516
 20
5.8887707769
 30
0.0
 11
-105.0918287516
 21
5.8887707769
 31
0.0
  0
LINE
  5
303
330
1F
100
AcDbEntity
  8
0
  6
Continuous
 62
     7
370
    25
100
AcDbLine
 10
-105.3037927516
 20
16.4510697769
 30
0.0
 11
-105.2930137516
 21
5.8887707769
 31
0.0
  0
LINE
  5
304
330
1F
100
AcDbEntity
  8
0
  6
Continuous
 62
     7
370
    25
100
AcDbLine
 10
-105.3428377516
 20
16.6073437769
 30
0.0
 11
-105.3037927516
 21
16.4510697769
 31
0.0
  0
LINE
  5
305
330
1F
100
AcDbEntity
  8
0
  6
Continuous
 62
     7
370
    25
100
AcDbLine
 10
-110.3677487516
 20
16.0423187769
 30
0.0
 11
-110.3677487516
 21
16.1731527769
 31
0.0
  0
LINE
  5
306
330
1F
100
AcDbEntity
  8
0
  6
Continuous
 62
     7
370
    25
100
AcDbLine
 10
-110.5294817516
 20
16.0843257769
 30
0.0
 11
-110.3677487516
 21
16.0423187769
 31
0.0
  0
LINE
  5
307
330
1F
100
AcDbEntity
  8
0
  6
Continuous
 62
     7
370
    25
100
AcDbLine
 10
-113.7534617516
 20
5.8887707769
 30
0.0
 11
-113.6631927516
 21
6.0777397769
 31
0.0
  0
LINE
  5
308
330
1F
100
AcDbEntity
  8
0
  6
Continuous
 62
     7
370
    25
100
AcDbLine
 10
-115.2211067516
 20
5.8887707769
 30
0.0
 11
-113.7534617516
 21
5.8887707769
 31
0.0
  0
LINE
  5
309
330
1F
100
AcDbEntity
  8
0
  6
Continuous
 62
     7
370
    25
100
AcDbLine
 10
-115.3133587516
 20
6.0726067769
 30
0.0
 11
-115.2211067516
 21
5.8887707769
 31
0.0
  0
LINE
  5
30A
330
1F
100
AcDbEntity
  8
0
  6
Continuous
 62
     7
370
    25
100
AcDbLine
 10
-117.5747487516
 20
5.8887717769
 30
0.0
 11
-116.6535217516
 21
5.8887717769
 31
0.0
  0
LINE
  5
30B
330
1F
100
AcDbEntity
  8
0
  6
Continuous
 62
     7
370
    25
100
AcDbLine
 10
-117.5747487516
 20
5.5409157769
 30
0.0
 11
-117.5747487516
 21
5.8887717769
 31
0.0
  0
LINE
  5
30C
330
1F
100
AcDbEntity
  8
0
  6
Continuous
 62
     7
370
    25
100
AcDbLine
 10
-110.4039277516
 20
-11.0991662231
 30
0.0
 11
-110.5381647516
 21
-10.9649302231
 31
0.0
  0
LINE
  5
30D
330
1F
100
AcDbEntity
  8
0
  6
Continuous
 62
     7
370
    25
100
AcDbLine
 10
-110.5381647516
 20
-11.2334002231
 30
0.0
 11
-110.4039277516
 21
-11.0991662231
 31
0.0
  0
LINE
  5
30E
330
1F
100
AcDbEntity
  8
0
  6
Continuous
 62
     7
370
    25
100
AcDbLine
 10
-108.1249717516
 20
-16.6350332231
 30
0.0
 11
-109.0211437516
 21
-16.6288952231
 31
0.0
  0
LINE
  5
30F
330
1F
100
AcDbEntity
  8
0
  6
Continuous
 62
     7
370
    25
100
AcDbLine
 10
-108.1172907516
 20
-16.6754322231
 30
0.0
 11
-108.1249717516
 21
-16.6350332231
 31
0.0
  0
LINE
  5
310
330
1F
100
AcDbEntity
  8
0
  6
Continuous
 62
     7
370
    25
100
AcDbLine
 10
-116.1628097516
 20
15.1824927769
 30
0.0
 11
-116.0665997516
 21
15.4215007769
 31
0.0
  0
LINE
  5
311
330
1F
100
AcDbEntity
  8
0
  6
Continuous
 62
     7
370
    25
100
AcDbLine
 10
-116.4780937516
 20
15.1822017769
 30
0.0
 11
-116.1628097516
 21
15.1824927769
 31
0.0
  0
LINE
  5
312
330
1F
100
AcDbEntity
  8
0
  6
Continuous
 62
     7
370
    25
100
AcDbLine
 10
-260.0
 20
-30.0
 30
0.0
 11
260.0
 21
-30.0
 31
0.0
  0
LINE
  5
313
330
1F
100
AcDbEntity
  8
0
  6
Continuous
 62
     7
370
    25
100
AcDbLine
 10
-260.0
 20
30.0
 30
0.0
 11
-260.0
 21
-30.0
 31
0.0
  0
LINE
  5
314
330
1F
100
AcDbEntity
  8
0
  6
Continuous
 62
     7
370
    25
100
AcDbLine
 10
260.0
 20
30.0
 30
0.0
 11
-260.0
 21
30.0
 31
0.0
  0
LINE
  5
315
330
1F
100
AcDbEntity
  8
0
  6
Continuous
 62
     7
370
    25
100
AcDbLine
 10
260.0
 20
-30.0
 30
0.0
 11
260.0
 21
30.0
 31
0.0
  0
LINE
  5
316
330
1F
100
AcDbEntity
  8
0
  6
Continuous
 62
     7
370
    25
100
AcDbLine
 10
-110.3197897516
 20
15.5277857769
 30
0.0
 11
-110.4164557516
 21
15.5705367769
 31
0.0
  0
LINE
  5
317
330
1F
100
AcDbEntity
  8
0
  6
Continuous
 62
     7
370
    25
100
AcDbLine
 10
-110.2786937516
 20
15.3778337769
 30
0.0
 11
-110.3197897516
 21
15.5277857769
 31
0.0
  0
LINE
  5
318
330
1F
100
AcDbEntity
  8
0
  6
Continuous
 62
     7
370
    25
100
AcDbLine
 10
-105.7622577516
 20
16.4142627769
 30
0.0
 11
-105.8028867516
 21
16.5665277769
 31
0.0
  0
LINE
  5
319
330
1F
100
AcDbEntity
  8
0
  6
Continuous
 62
     7
370
    25
100
AcDbLine
 10
-105.7622577516
 20
12.1697847769
 30
0.0
 11
-105.7622577516
 21
16.4142627769
 31
0.0
  0
LINE
  5
31A
330
1F
100
AcDbEntity
  8
0
  6
Continuous
 62
     7
370
    25
100
AcDbLine
 10
-105.9083317516
 20
12.1451097769
 30
0.0
 11
-105.7622577516
 21
12.1697847769
 31
0.0
  0
LINE
  5
31B
330
1F
100
AcDbEntity
  8
0
  6
Continuous
 62
     7
370
    25
100
AcDbLine
 10
-105.7530637516
 20
11.7159237769
 30
0.0
 11
-105.8128157516
 21
11.7046057769
 31
0.0
  0
LINE
  5
31C
330
1F
100
AcDbEntity
  8
0
  6
Continuous
 62
     7
370
    25
100
AcDbLine
 10
-105.7530647516
 20
8.8023297769
 30
0.0
 11
-105.7530637516
 21
11.7159237769
 31
0.0
  0
LINE
  5
31D
330
1F
100
AcDbEntity
  8
0
  6
Continuous
 62
     7
370
    25
100
AcDbLine
 10
-105.7530647516
 20
5.8887347769
 30
0.0
 11
-105.7530647516
 21
8.8023297769
 31
0.0
  0
LINE
  5
31E
330
1F
100
AcDbEntity
  8
0
  6
Continuous
 62
     7
370
    25
100
AcDbLine
 10
-113.2549647516
 20
5.8887347769
 30
0.0
 11
-105.7530647516
 21
5.8887347769
 31
0.0
  0
LINE
  5
31F
330
1F
100
AcDbEntity
  8
0
  6
Continuous
 62
     7
370
    25
100
AcDbLine
 10
-113.2151847516
 20
5.9668717769
 30
0.0
 11
-113.2549647516
 21
5.8887347769
 31
0.0
  0
LINE
  5
320
330
1F
100
AcDbEntity
  8
0
  6
Continuous
 62
     7
370
    25
100
AcDbLine
 10
-109.8805347516
 20
-11.3473562231
 30
0.0
 11
-110.0044657516
 21
-11.4060622231
 31
0.0
  0
LINE
  5
321
330
1F
100
AcDbEntity
  8
0
  6
Continuous
 62
     7
370
    25
100
AcDbLine
 10
-100.5768477516
 20
-11.3473562231
 30
0.0
 11
-109.8805347516
 21
-11.3473562231
 31
0.0
  0
LINE
  5
322
330
1F
100
AcDbEntity
  8
0
  6
Continuous
 62
     7
370
    25
100
AcDbLine
 10
-100.4525917516
 20
-11.4085252231
 30
0.0
 11
-100.5768477516
 21
-11.3473562231
 31
0.0
  0
LINE
  5
323
330
1F
100
AcDbEntity
  8
0
  6
Continuous
 62
     7
370
    25
100
AcDbLine
 10
-100.0260667516
 20
-11.8979892231
 30
0.0
 11
-100.0872387516
 21
-11.7738062231
 31
0.0
  0
LINE
  5
324
330
1F
100
AcDbEntity
  8
0
  6
Continuous
 62
     7
370
    25
100
AcDbLine
 10
-100.0204317516
 20
-12.4270232231
 30
0.0
 11
-100.0260667516
 21
-11.8979892231
 31
0.0
  0
LINE
  5
325
330
1F
100
AcDbEntity
  8
0
  6
Continuous
 62
     7
370
    25
100
AcDbLine
 10
-100.0148037516
 20
-12.9559512231
 30
0.0
 11
-100.0204317516
 21
-12.4270232231
 31
0.0
  0
LINE
  5
326
330
1F
100
AcDbEntity
  8
0
  6
Continuous
 62
     7
370
    25
100
AcDbLine
 10
-100.1491327516
 20
-12.9538352231
 30
0.0
 11
-100.0148037516
 21
-12.9559512231
 31
0.0
  0
LINE
  5
327
330
1F
100
AcDbEntity
  8
0
  6
Continuous
 62
     7
370
    25
100
AcDbLine
 10
-110.4412827516
 20
-14.0407802231
 30
0.0
 11
-110.3447597516
 21
-14.0418392231
 31
0.0
  0
LINE
  5
328
330
1F
100
AcDbEntity
  8
0
  6
Continuous
 62
     7
370
    25
100
AcDbLine
 10
-110.4412827516
 20
-12.8334362231
 30
0.0
 11
-110.4412827516
 21
-14.0407802231
 31
0.0
  0
LINE
  5
329
330
1F
100
AcDbEntity
  8
0
  6
Continuous
 62
     7
370
    25
100
AcDbLine
 10
-110.2987967516
 20
-12.8415852231
 30
0.0
 11
-110.4412827516
 21
-12.8334362231
 31
0.0
  0
LINE
  5
32A
330
1F
100
AcDbEntity
  8
0
  6
Continuous
 62
     7
370
    25
100
AcDbLine
 10
-100.0260667516
 20
-13.4249702231
 30
0.0
 11
-105.0911887516
 21
-13.1373472231
 31
0.0
  0
LINE
  5
32B
330
1F
100
AcDbEntity
  8
0
  6
Continuous
 62
     7
370
    25
100
AcDbLine
 10
-100.0212147516
 20
-14.0269562231
 30
0.0
 11
-100.0260667516
 21
-13.4249702231
 31
0.0
  0
LINE
  5
32C
330
1F
100
AcDbEntity
  8
0
  6
Continuous
 62
     7
370
    25
100
AcDbLine
 10
-100.0163727516
 20
-14.6290282231
 30
0.0
 11
-100.0212147516
 21
-14.0269562231
 31
0.0
  0
LINE
  5
32D
330
1F
100
AcDbEntity
  8
0
  6
Continuous
 62
     7
370
    25
100
AcDbLine
 10
-100.0763727516
 20
-14.6269122231
 30
0.0
 11
-100.0163727516
 21
-14.6290282231
 31
0.0
  0
LINE
  5
32E
330
1F
100
AcDbEntity
  8
0
  6
Continuous
 62
     7
370
    25
100
AcDbLine
 10
-110.4320927516
 20
-15.6127232231
 30
0.0
 11
-110.3825287516
 21
-15.7184852231
 31
0.0
  0
LINE
  5
32F
330
1F
100
AcDbEntity
  8
0
  6
Continuous
 62
     7
370
    25
100
AcDbLine
 10
-110.4376837516
 20
-15.0565692231
 30
0.0
 11
-110.4320927516
 21
-15.6127232231
 31
0.0
  0
LINE
  5
330
330
1F
100
AcDbEntity
  8
0
  6
Continuous
 62
     7
370
    25
100
AcDbLine
 10
-109.3749487516
 20
2.6345907769
 30
0.0
 11
-109.0853817516
 21
2.6347747769
 31
0.0
  0
LINE
  5
331
330
1F
100
AcDbEntity
  8
0
  6
Continuous
 62
     7
370
    25
100
AcDbLine
 10
-109.3749487516
 20
2.4358507769
 30
0.0
 11
-109.3749487516
 21
2.6345907769
 31
0.0
  0
LINE
  5
332
330
1F
100
AcDbEntity
  8
0
  6
Continuous
 62
     7
370
    25
100
AcDbLine
 10
-108.8592037516
 20
1.7998127769
 30
0.0
 11
-109.3749487516
 21
2.4358507769
 31
0.0
  0
LINE
  5
333
330
1F
100
AcDbEntity
  8
0
  6
Continuous
 62
     7
370
    25
100
AcDbLine
 10
-108.3434557516
 20
1.1637627769
 30
0.0
 11
-108.8592037516
 21
1.7998127769
 31
0.0
  0
LINE
  5
334
330
1F
100
AcDbEntity
  8
0
  6
Continuous
 62
     7
370
    25
100
AcDbLine
 10
-108.0847727516
 20
1.1637627769
 30
0.0
 11
-108.3434557516
 21
1.1637627769
 31
0.0
  0
LINE
  5
335
330
1F
100
AcDbEntity
  8
0
  6
Continuous
 62
     7
370
    25
100
AcDbLine
 10
-109.9265047516
 20
4.0502517769
 30
0.0
 11
-109.3328487516
 21
4.0502517769
 31
0.0
  0
LINE
  5
336
330
1F
100
AcDbEntity
  8
0
  6
Continuous
 62
     7
370
    25
100
AcDbLine
 10
-109.9265047516
 20
1.1638557769
 30
0.0
 11
-109.9265047516
 21
4.0502517769
 31
0.0
  0
LINE
  5
337
330
1F
100
AcDbEntity
  8
0
  6
Continuous
 62
     7
370
    25
100
AcDbLine
 10
-109.5404157516
 20
1.1638557769
 30
0.0
 11
-109.9265047516
 21
1.1638557769
 31
0.0
  0
LINE
  5
338
330
1F
100
AcDbEntity
  8
0
  6
Continuous
 62
     7
370
    25
100
AcDbLine
 10
-109.5404157516
 20
3.6489657769
 30
0.0
 11
-109.5404157516
 21
1.1638557769
 31
0.0
  0
LINE
  5
339
330
1F
100
AcDbEntity
  8
0
  6
Continuous
 62
     7
370
    25
100
AcDbLine
 10
-109.1405377516
 20
3.6428137769
 30
0.0
 11
-109.5404157516
 21
3.6489657769
 31
0.0
  0
LINE
  5
33A
330
1F
100
AcDbEntity
  8
0
  6
Continuous
 62
     7
370
    25
100
AcDbLine
 10
-108.7406597516
 20
3.6366647769
 30
0.0
 11
-109.1405377516
 21
3.6428137769
 31
0.0
  0
LINE
  5
33B
330
1F
100
AcDbEntity
  8
0
  6
Continuous
 62
     7
370
    25
100
AcDbLine
 10
-108.6409577516
 20
3.5815097769
 30
0.0
 11
-108.7406597516
 21
3.6366647769
 31
0.0
  0
LINE
  5
33C
330
1F
100
AcDbEntity
  8
0
  6
Continuous
 62
     7
370
    25
100
AcDbLine
 10
-114.6991697516
 20
2.0830347769
 30
0.0
 11
-115.0552417516
 21
2.6261717769
 31
0.0
  0
LINE
  5
33D
330
1F
100
AcDbEntity
  8
0
  6
Continuous
 62
     7
370
    25
100
AcDbLine
 10
-114.4718457516
 20
2.0830347769
 30
0.0
 11
-114.6991697516
 21
2.0830347769
 31
0.0
  0
LINE
  5
33E
330
1F
100
AcDbEntity
  8
0
  6
Continuous
 62
     7
370
    25
100
AcDbLine
 10
-113.7414337516
 20
3.1937587769
 30
0.0
 11
-114.4718457516
 21
2.0830347769
 31
0.0
  0
LINE
  5
33F
330
1F
100
AcDbEntity
  8
0
  6
Continuous
 62
     7
370
    25
100
AcDbLine
 10
-113.7319297516
 20
1.1637737769
 30
0.0
 11
-113.7414337516
 21
3.1937587769
 31
0.0
  0
LINE
  5
340
330
1F
100
AcDbEntity
  8
0
  6
Continuous
 62
     7
370
    25
100
AcDbLine
 10
-113.3277667516
 20
1.1637737769
 30
0.0
 11
-113.7319297516
 21
1.1637737769
 31
0.0
  0
LINE
  5
341
330
1F
100
AcDbEntity
  8
0
  6
Continuous
 62
     7
370
    25
100
AcDbLine
 10
-113.3277667516
 20
4.0502517769
 30
0.0
 11
-113.3277667516
 21
1.1637737769
 31
0.0
  0
LINE
  5
342
330
1F
100
AcDbEntity
  8
0
  6
Continuous
 62
     7
370
    25
100
AcDbLine
 10
-113.6547417516
 20
4.0502517769
 30
0.0
 11
-113.3277667516
 21
4.0502517769
 31
0.0
  0
LINE
  5
343
330
1F
100
AcDbEntity
  8
0
  6
Continuous
 62
     7
370
    25
100
AcDbLine
 10
-114.5810427516
 20
2.6484807769
 30
0.0
 11
-113.6547417516
 21
4.0502517769
 31
0.0
  0
LINE
  5
344
330
1F
100
AcDbEntity
  8
0
  6
Continuous
 62
     7
370
    25
100
AcDbLine
 10
-115.0483967516
 20
3.3493667769
 30
0.0
 11
-114.5810427516
 21
2.6484807769
 31
0.0
  0
LINE
  5
345
330
1F
100
AcDbEntity
  8
0
  6
Continuous
 62
     7
370
    25
100
AcDbLine
 10
-115.5157517516
 20
4.0502517769
 30
0.0
 11
-115.0483967516
 21
3.3493667769
 31
0.0
  0
LINE
  5
346
330
1F
100
AcDbEntity
  8
0
  6
Continuous
 62
     7
370
    25
100
AcDbLine
 10
-115.8465397516
 20
4.0502517769
 30
0.0
 11
-115.5157517516
 21
4.0502517769
 31
0.0
  0
LINE
  5
347
330
1F
100
AcDbEntity
  8
0
  6
Continuous
 62
     7
370
    25
100
AcDbLine
 10
-115.8465397516
 20
1.1637737769
 30
0.0
 11
-115.8465397516
 21
4.0502517769
 31
0.0
  0
LINE
  5
348
330
1F
100
AcDbEntity
  8
0
  6
Continuous
 62
     7
370
    25
100
AcDbLine
 10
-115.4420637516
 20
1.1637737769
 30
0.0
 11
-115.8465397516
 21
1.1637737769
 31
0.0
  0
LINE
  5
349
330
1F
100
AcDbEntity
  8
0
  6
Continuous
 62
     7
370
    25
100
AcDbLine
 10
-115.4420637516
 20
2.1760457769
 30
0.0
 11
-115.4420637516
 21
1.1637737769
 31
0.0
  0
LINE
  5
34A
330
1F
100
AcDbEntity
  8
0
  6
Continuous
 62
     7
370
    25
100
AcDbLine
 10
-105.6795237516
 20
4.0502517769
 30
0.0
 11
-105.2750487516
 21
4.0502517769
 31
0.0
  0
LINE
  5
34B
330
1F
100
AcDbEntity
  8
0
  6
Continuous
 62
     7
370
    25
100
AcDbLine
 10
-105.6795237516
 20
2.6070127769
 30
0.0
 11
-105.6795237516
 21
4.0502517769
 31
0.0
  0
LINE
  5
34C
330
1F
100
AcDbEntity
  8
0
  6
Continuous
 62
     7
370
    25
100
AcDbLine
 10
-105.6795227516
 20
1.1637737769
 30
0.0
 11
-105.6795237516
 21
2.6070127769
 31
0.0
  0
LINE
  5
34D
330
1F
100
AcDbEntity
  8
0
  6
Continuous
 62
     7
370
    25
100
AcDbLine
 10
-105.2750487516
 20
1.1637737769
 30
0.0
 11
-105.6795227516
 21
1.1637737769
 31
0.0
  0
LINE
  5
34E
330
1F
100
AcDbEntity
  8
0
  6
Continuous
 62
     7
370
    25
100
AcDbLine
 10
-105.2750487516
 20
2.4328557769
 30
0.0
 11
-105.2750487516
 21
1.1637737769
 31
0.0
  0
LINE
  5
34F
330
1F
100
AcDbEntity
  8
0
  6
Continuous
 62
     7
370
    25
100
AcDbLine
 10
-104.0708177516
 20
2.4231607769
 30
0.0
 11
-105.2750487516
 21
2.4328557769
 31
0.0
  0
LINE
  5
350
330
1F
100
AcDbEntity
  8
0
  6
Continuous
 62
     7
370
    25
100
AcDbLine
 10
-103.6571517516
 20
1.1637737769
 30
0.0
 11
-104.0611417516
 21
1.1637737769
 31
0.0
  0
LINE
  5
351
330
1F
100
AcDbEntity
  8
0
  6
Continuous
 62
     7
370
    25
100
AcDbLine
 10
-103.6571517516
 20
4.0502517769
 30
0.0
 11
-103.6571517516
 21
1.1637737769
 31
0.0
  0
LINE
  5
352
330
1F
100
AcDbEntity
  8
0
  6
Continuous
 62
     7
370
    25
100
AcDbLine
 10
-104.0616257516
 20
4.0502517769
 30
0.0
 11
-103.6571517516
 21
4.0502517769
 31
0.0
  0
LINE
  5
353
330
1F
100
AcDbEntity
  8
0
  6
Continuous
 62
     7
370
    25
100
AcDbLine
 10
-104.0616257516
 20
2.8368277769
 30
0.0
 11
-104.0616257516
 21
4.0502517769
 31
0.0
  0
LINE
  5
354
330
1F
100
AcDbEntity
  8
0
  6
Continuous
 62
     7
370
    25
100
AcDbLine
 10
-105.2750487516
 20
2.8368277769
 30
0.0
 11
-104.0616257516
 21
2.8368277769
 31
0.0
  0
LINE
  5
355
330
1F
100
AcDbEntity
  8
0
  6
Continuous
 62
     7
370
    25
100
AcDbLine
 10
-105.2750487516
 20
4.0502517769
 30
0.0
 11
-105.2750487516
 21
2.8368277769
 31
0.0
  0
LINE
  5
356
330
1F
100
AcDbEntity
  8
0
  6
Continuous
 62
     7
370
    25
100
AcDbLine
 10
-95.1587707516
 20
3.3101207769
 30
0.0
 11
-95.1801227516
 21
3.3748067769
 31
0.0
  0
LINE
  5
357
330
1F
100
AcDbEntity
  8
0
  6
Continuous
 62
     7
370
    25
100
AcDbLine
 10
-95.0479767516
 20
3.3216987769
 30
0.0
 11
-95.1587707516
 21
3.3101207769
 31
0.0
  0
LINE
  5
358
330
1F
100
AcDbEntity
  8
0
  6
Continuous
 62
     7
370
    25
100
AcDbLine
 10
-94.7626337516
 20
3.3332797769
 30
0.0
 11
-94.8499067516
 21
3.3332797769
 31
0.0
  0
LINE
  5
359
330
1F
100
AcDbEntity
  8
0
  6
Continuous
 62
     7
370
    25
100
AcDbLine
 10
-94.7795407516
 20
3.4114167769
 30
0.0
 11
-94.7626337516
 21
3.3332797769
 31
0.0
  0
LINE
  5
35A
330
1F
100
AcDbEntity
  8
0
  6
Continuous
 62
     7
370
    25
100
AcDbLine
 10
-96.3602147516
 20
2.0146767769
 30
0.0
 11
-96.3485207516
 21
1.9615517769
 31
0.0
  0
LINE
  5
35B
330
1F
100
AcDbEntity
  8
0
  6
Continuous
 62
     7
370
    25
100
AcDbLine
 10
-96.4833197516
 20
2.0030507769
 30
0.0
 11
-96.3602147516
 21
2.0146767769
 31
0.0
  0
LINE
  5
35C
330
1F
100
AcDbEntity
  8
0
  6
Continuous
 62
     7
370
    25
100
AcDbLine
 10
-96.7488687516
 20
1.9911087769
 30
0.0
 11
-96.6776487516
 21
1.9912927769
 31
0.0
  0
LINE
  5
35D
330
1F
100
AcDbEntity
  8
0
  6
Continuous
 62
     7
370
    25
100
AcDbLine
 10
-96.7407727516
 20
1.8934977769
 30
0.0
 11
-96.7488687516
 21
1.9911087769
 31
0.0
  0
LINE
  5
35E
330
1F
100
AcDbEntity
  8
0
  6
Continuous
 62
     7
370
    25
100
AcDbLine
 10
-100.9269497516
 20
2.0186437769
 30
0.0
 11
-101.2663887516
 21
1.1729257769
 31
0.0
  0
LINE
  5
35F
330
1F
100
AcDbEntity
  8
0
  6
Continuous
 62
     7
370
    25
100
AcDbLine
 10
-100.4186377516
 20
2.0235247769
 30
0.0
 11
-100.9269497516
 21
2.0186437769
 31
0.0
  0
LINE
  5
360
330
1F
100
AcDbEntity
  8
0
  6
Continuous
 62
     7
370
    25
100
AcDbLine
 10
-99.9103307516
 20
2.0284087769
 30
0.0
 11
-100.4186377516
 21
2.0235247769
 31
0.0
  0
LINE
  5
361
330
1F
100
AcDbEntity
  8
0
  6
Continuous
 62
     7
370
    25
100
AcDbLine
 10
-99.7383857516
 20
1.5962737769
 30
0.0
 11
-99.9103307516
 21
2.0284087769
 31
0.0
  0
LINE
  5
362
330
1F
100
AcDbEntity
  8
0
  6
Continuous
 62
     7
370
    25
100
AcDbLine
 10
-99.5664437516
 20
1.1641387769
 30
0.0
 11
-99.7383857516
 21
1.5962737769
 31
0.0
  0
LINE
  5
363
330
1F
100
AcDbEntity
  8
0
  6
Continuous
 62
     7
370
    25
100
AcDbLine
 10
-99.1350057516
 20
1.1637367769
 30
0.0
 11
-99.5664437516
 21
1.1641387769
 31
0.0
  0
LINE
  5
364
330
1F
100
AcDbEntity
  8
0
  6
Continuous
 62
     7
370
    25
100
AcDbLine
 10
-99.1695947516
 20
1.2510647769
 30
0.0
 11
-99.1350057516
 21
1.1637367769
 31
0.0
  0
LINE
  5
365
330
1F
100
AcDbEntity
  8
0
  6
Continuous
 62
     7
370
    25
100
AcDbLine
 10
-100.2650807516
 20
4.0872557769
 30
0.0
 11
-99.7346337516
 21
2.7128257769
 31
0.0
  0
LINE
  5
366
330
1F
100
AcDbEntity
  8
0
  6
Continuous
 62
     7
370
    25
100
AcDbLine
 10
-100.5723207516
 20
4.0777887769
 30
0.0
 11
-100.2650807516
 21
4.0872557769
 31
0.0
  0
LINE
  5
367
330
1F
100
AcDbEntity
  8
0
  6
Continuous
 62
     7
370
    25
100
AcDbLine
 10
-101.1265297516
 20
2.6440757769
 30
0.0
 11
-100.5723207516
 21
4.0777887769
 31
0.0
  0
LINE
  5
368
330
1F
100
AcDbEntity
  8
0
  6
Continuous
 62
     7
370
    25
100
AcDbLine
 10
-101.6807437516
 20
1.2103637769
 30
0.0
 11
-101.1265297516
 21
2.6440757769
 31
0.0
  0
LINE
  5
369
330
1F
100
AcDbEntity
  8
0
  6
Continuous
 62
     7
370
    25
100
AcDbLine
 10
-101.6912607516
 20
1.5677457769
 30
0.0
 11
-101.6807437516
 21
1.2103637769
 31
0.0
  0
LINE
  5
36A
330
1F
100
AcDbEntity
  8
0
  6
Continuous
 62
     7
370
    25
100
AcDbLine
 10
-103.0044767516
 20
1.5774027769
 30
0.0
 11
-101.6912607516
 21
1.5677457769
 31
0.0
  0
LINE
  5
36B
330
1F
100
AcDbEntity
  8
0
  6
Continuous
 62
     7
370
    25
100
AcDbLine
 10
-103.0044767516
 20
2.4047367769
 30
0.0
 11
-103.0044767516
 21
1.5774027769
 31
0.0
  0
LINE
  5
36C
330
1F
100
AcDbEntity
  8
0
  6
Continuous
 62
     7
370
    25
100
AcDbLine
 10
-102.3655907516
 20
2.4095737769
 30
0.0
 11
-103.0044767516
 21
2.4047367769
 31
0.0
  0
LINE
  5
36D
330
1F
100
AcDbEntity
  8
0
  6
Continuous
 62
     7
370
    25
100
AcDbLine
 10
-101.7267057516
 20
2.4144077769
 30
0.0
 11
-102.3655907516
 21
2.4095737769
 31
0.0
  0
LINE
  5
36E
330
1F
100
AcDbEntity
  8
0
  6
Continuous
 62
     7
370
    25
100
AcDbLine
 10
-101.7267057516
 20
2.8184057769
 30
0.0
 11
-101.7267057516
 21
2.4144077769
 31
0.0
  0
LINE
  5
36F
330
1F
100
AcDbEntity
  8
0
  6
Continuous
 62
     7
370
    25
100
AcDbLine
 10
-103.0136697516
 20
2.8184057769
 30
0.0
 11
-101.7267057516
 21
2.8184057769
 31
0.0
  0
LINE
  5
370
330
1F
100
AcDbEntity
  8
0
  6
Continuous
 62
     7
370
    25
100
AcDbLine
 10
-103.0136697516
 20
3.6457397769
 30
0.0
 11
-103.0136697516
 21
2.8184057769
 31
0.0
  0
LINE
  5
371
330
1F
100
AcDbEntity
  8
0
  6
Continuous
 62
     7
370
    25
100
AcDbLine
 10
-101.6899347516
 20
3.6457397769
 30
0.0
 11
-103.0136697516
 21
3.6457397769
 31
0.0
  0
LINE
  5
372
330
1F
100
AcDbEntity
  8
0
  6
Continuous
 62
     7
370
    25
100
AcDbLine
 10
-101.6899347516
 20
4.0502147769
 30
0.0
 11
-101.6899347516
 21
3.6457397769
 31
0.0
  0
LINE
  5
373
330
1F
100
AcDbEntity
  8
0
  6
Continuous
 62
     7
370
    25
100
AcDbLine
 10
-103.4181437516
 20
4.0502147769
 30
0.0
 11
-101.6899347516
 21
4.0502147769
 31
0.0
  0
LINE
  5
374
330
1F
100
AcDbEntity
  8
0
  6
Continuous
 62
     7
370
    25
100
AcDbLine
 10
-103.4181447516
 20
1.1634527769
 30
0.0
 11
-103.4181437516
 21
4.0502147769
 31
0.0
  0
LINE
  5
375
330
1F
100
AcDbEntity
  8
0
  6
Continuous
 62
     7
370
    25
100
AcDbLine
 10
-101.2663887516
 20
1.1729257769
 30
0.0
 11
-103.4181447516
 21
1.1634527769
 31
0.0
  0
LINE
  5
376
330
1F
100
AcDbEntity
  8
0
  6
Continuous
 62
     7
370
    25
100
AcDbLine
 10
-97.3081637516
 20
1.1637387769
 30
0.0
 11
-97.9843357516
 21
2.1659307769
 31
0.0
  0
LINE
  5
377
330
1F
100
AcDbEntity
  8
0
  6
Continuous
 62
     7
370
    25
100
AcDbLine
 10
-97.0016867516
 20
1.1637387769
 30
0.0
 11
-97.3081637516
 21
1.1637387769
 31
0.0
  0
LINE
  5
378
330
1F
100
AcDbEntity
  8
0
  6
Continuous
 62
     7
370
    25
100
AcDbLine
 10
-97.0016867516
 20
4.0502157769
 30
0.0
 11
-97.0016867516
 21
1.1637387769
 31
0.0
  0
LINE
  5
379
330
1F
100
AcDbEntity
  8
0
  6
Continuous
 62
     7
370
    25
100
AcDbLine
 10
-97.3874647516
 20
4.0502157769
 30
0.0
 11
-97.0016867516
 21
4.0502157769
 31
0.0
  0
LINE
  5
37A
330
1F
100
AcDbEntity
  8
0
  6
Continuous
 62
     7
370
    25
100
AcDbLine
 10
-97.3969897516
 20
2.0186507769
 30
0.0
 11
-97.3874647516
 21
4.0502157769
 31
0.0
  0
LINE
  5
37B
330
1F
100
AcDbEntity
  8
0
  6
Continuous
 62
     7
370
    25
100
AcDbLine
 10
-98.0659067516
 20
3.0114517769
 30
0.0
 11
-97.3969897516
 21
2.0186507769
 31
0.0
  0
LINE
  5
37C
330
1F
100
AcDbEntity
  8
0
  6
Continuous
 62
     7
370
    25
100
AcDbLine
 10
-99.0792367516
 20
4.0738877769
 30
0.0
 11
-98.9275597516
 21
4.0612907769
 31
0.0
  0
LINE
  5
37D
330
1F
100
AcDbEntity
  8
0
  6
Continuous
 62
     7
370
    25
100
AcDbLine
 10
-99.0792367516
 20
2.6188127769
 30
0.0
 11
-99.0792367516
 21
4.0738877769
 31
0.0
  0
LINE
  5
37E
330
1F
100
AcDbEntity
  8
0
  6
Continuous
 62
     7
370
    25
100
AcDbLine
 10
-99.0792057516
 20
1.1637387769
 30
0.0
 11
-99.0792367516
 21
2.6188127769
 31
0.0
  0
LINE
  5
37F
330
1F
100
AcDbEntity
  8
0
  6
Continuous
 62
     7
370
    25
100
AcDbLine
 10
-98.6931147516
 20
1.1637387769
 30
0.0
 11
-99.0792057516
 21
1.1637387769
 31
0.0
  0
LINE
  5
380
330
1F
100
AcDbEntity
  8
0
  6
Continuous
 62
     7
370
    25
100
AcDbLine
 10
-98.6931147516
 20
2.1760097769
 30
0.0
 11
-98.6931147516
 21
1.1637387769
 31
0.0
  0
LINE
  5
381
330
1F
100
AcDbEntity
  8
0
  6
Continuous
 62
     7
370
    25
100
AcDbLine
 10
-107.8122067516
 20
4.0502517769
 30
0.0
 11
-107.2071327516
 21
4.0502517769
 31
0.0
  0
LINE
  5
382
330
1F
100
AcDbEntity
  8
0
  6
Continuous
 62
     7
370
    25
100
AcDbLine
 10
-107.8122057516
 20
1.1637737769
 30
0.0
 11
-107.8122067516
 21
4.0502517769
 31
0.0
  0
LINE
  5
383
330
1F
100
AcDbEntity
  8
0
  6
Continuous
 62
     7
370
    25
100
AcDbLine
 10
-107.4077317516
 20
1.1637737769
 30
0.0
 11
-107.8122057516
 21
1.1637737769
 31
0.0
  0
LINE
  5
384
330
1F
100
AcDbEntity
  8
0
  6
Continuous
 62
     7
370
    25
100
AcDbLine
 10
-107.4077317516
 20
2.1381897769
 30
0.0
 11
-107.4077317516
 21
1.1637737769
 31
0.0
  0
LINE
  5
385
330
1F
100
AcDbEntity
  8
0
  6
Continuous
 62
     7
370
    25
100
AcDbLine
 10
-107.0170457516
 20
2.1384087769
 30
0.0
 11
-107.4077317516
 21
2.1381897769
 31
0.0
  0
LINE
  5
386
330
1F
100
AcDbEntity
  8
0
  6
Continuous
 62
     7
370
    25
100
AcDbLine
 10
-104.0659817516
 20
1.7934677769
 30
0.0
 11
-104.0708177516
 21
2.4231607769
 31
0.0
  0
LINE
  5
387
330
1F
100
AcDbEntity
  8
0
  6
Continuous
 62
     7
370
    25
100
AcDbLine
 10
-104.0611417516
 20
1.1637737769
 30
0.0
 11
-104.0659817516
 21
1.7934677769
 31
0.0
  0
LINE
  5
388
330
1F
100
AcDbEntity
  8
0
  6
Continuous
 62
     7
370
    25
100
AcDbLine
 10
-110.4320977516
 20
-10.2994002231
 30
0.0
 11
-110.3733917516
 21
-10.4233332231
 31
0.0
  0
LINE
  5
389
330
1F
100
AcDbEntity
  8
0
  6
Continuous
 62
     7
370
    25
100
AcDbLine
 10
-110.4436977516
 20
-9.0492072231
 30
0.0
 11
-110.4320977516
 21
-10.2994002231
 31
0.0
  0
LINE
  5
38A
330
1F
100
AcDbEntity
  8
0
  6
Continuous
 62
     7
370
    25
100
AcDbLine
 10
-117.1201947516
 20
5.4383317769
 30
0.0
 11
-117.1172837516
 21
5.2544797769
 31
0.0
  0
LINE
  5
38B
330
1F
100
AcDbEntity
  8
0
  6
Continuous
 62
     7
370
    25
100
AcDbLine
 10
-93.4475997516
 20
5.4469197769
 30
0.0
 11
-117.1201947516
 21
5.4383317769
 31
0.0
  0
LINE
  5
38C
330
1F
100
AcDbEntity
  8
0
  6
Continuous
 62
     7
370
    25
100
AcDbLine
 10
-93.4593467516
 20
5.1392707769
 30
0.0
 11
-93.4475997516
 21
5.4469197769
 31
0.0
  0
LINE
  5
38D
330
1F
100
AcDbEntity
  8
0
  6
Continuous
 62
     7
370
    25
100
AcDbLine
 10
-100.0260727516
 20
-10.3002782231
 30
0.0
 11
-100.0142457516
 21
-9.2059192231
 31
0.0
  0
LINE
  5
38E
330
1F
100
AcDbEntity
  8
0
  6
Continuous
 62
     7
370
    25
100
AcDbLine
 10
-100.0872417516
 20
-10.4244822231
 30
0.0
 11
-100.0260727516
 21
-10.3002782231
 31
0.0
  0
LINE
  5
38F
330
1F
100
AcDbEntity
  8
0
  6
Continuous
 62
     7
370
    25
100
AcDbLine
 10
-107.4077327516
 20
2.5426647769
 30
0.0
 11
-107.0446247516
 21
2.5428487769
 31
0.0
  0
LINE
  5
390
330
1F
100
AcDbEntity
  8
0
  6
Continuous
 62
     7
370
    25
100
AcDbLine
 10
-107.4077327516
 20
3.6483927769
 30
0.0
 11
-107.4077327516
 21
2.5426647769
 31
0.0
  0
LINE
  5
391
330
1F
100
AcDbEntity
  8
0
  6
Continuous
 62
     7
370
    25
100
AcDbLine
 10
-107.0170467516
 20
3.6424877769
 30
0.0
 11
-107.4077327516
 21
3.6483927769
 31
0.0
  0
LINE
  5
392
330
1F
100
AcDbEntity
  8
0
  6
Continuous
 62
     7
370
    25
100
AcDbLine
 10
-103.8501787516
 20
13.8503517769
 30
0.0
 11
-103.8971307516
 21
13.8034247769
 31
0.0
  0
LINE
  5
393
330
1F
100
AcDbEntity
  8
0
  6
Continuous
 62
     7
370
    25
100
AcDbLine
 10
-103.7425517516
 20
15.0338377769
 30
0.0
 11
-103.8395077516
 21
15.0056517769
 31
0.0
  0
LINE
  5
394
330
1F
100
AcDbEntity
  8
0
  6
Continuous
 62
     7
370
    25
100
AcDbLine
 10
-103.8441847516
 20
16.1936777769
 30
0.0
 11
-103.7348427516
 21
16.1620257769
 31
0.0
  0
LINE
  5
395
330
1F
100
AcDbEntity
  8
0
  6
Continuous
 62
     7
370
    25
100
AcDbLine
 10
-103.8322207516
 20
16.2850647769
 30
0.0
 11
-103.8441847516
 21
16.1936777769
 31
0.0
  0
LINE
  5
396
330
1F
100
AcDbEntity
  8
0
  6
Continuous
 62
     7
370
    25
100
AcDbLine
 10
-101.0553787516
 20
16.2891937769
 30
0.0
 11
-100.9460867516
 21
16.2537097769
 31
0.0
  0
LINE
  5
397
330
1F
100
AcDbEntity
  8
0
  6
Continuous
 62
     7
370
    25
100
AcDbLine
 10
-101.0699307516
 20
16.3793247769
 30
0.0
 11
-101.0553787516
 21
16.2891937769
 31
0.0
  0
LINE
  5
398
330
1F
100
AcDbEntity
  8
0
  6
Continuous
 62
     7
370
    25
100
AcDbLine
 10
-104.2086917516
 20
15.0771437769
 30
0.0
 11
-104.2581997516
 21
15.1095817769
 31
0.0
  0
LINE
  5
399
330
1F
100
AcDbEntity
  8
0
  6
Continuous
 62
     7
370
    25
100
AcDbLine
 10
-104.2080567516
 20
14.4771427769
 30
0.0
 11
-104.2086917516
 21
15.0771437769
 31
0.0
  0
LINE
  5
39A
330
1F
100
AcDbEntity
  8
0
  6
Continuous
 62
     7
370
    25
100
AcDbLine
 10
-103.8448447516
 20
14.4280017769
 30
0.0
 11
-103.8501787516
 21
13.8503517769
 31
0.0
  0
LINE
  5
39B
330
1F
100
AcDbEntity
  8
0
  6
Continuous
 62
     7
370
    25
100
AcDbLine
 10
-103.8395077516
 20
15.0056517769
 30
0.0
 11
-103.8448447516
 21
14.4280017769
 31
0.0
  0
LINE
  5
39C
330
1F
100
AcDbEntity
  8
0
  6
Continuous
 62
     7
370
    25
100
AcDbLine
 10
-99.1484047516
 20
11.7499357769
 30
0.0
 11
-99.0448837516
 21
11.7620747769
 31
0.0
  0
LINE
  5
39D
330
1F
100
AcDbEntity
  8
0
  6
Continuous
 62
     7
370
    25
100
AcDbLine
 10
-97.9485587516
 20
11.6775197769
 30
0.0
 11
-98.0772577516
 21
11.6073137769
 31
0.0
  0
LINE
  5
39E
330
1F
100
AcDbEntity
  8
0
  6
Continuous
 62
     7
370
    25
100
AcDbLine
 10
-97.7926507516
 20
11.6504387769
 30
0.0
 11
-97.9485587516
 21
11.6775197769
 31
0.0
  0
LINE
  5
39F
330
1F
100
AcDbEntity
  8
0
  6
Continuous
 62
     7
370
    25
100
AcDbLine
 10
-97.1270437516
 20
5.8887457769
 30
0.0
 11
-97.1948297516
 21
6.0128457769
 31
0.0
  0
LINE
  5
3A0
330
1F
100
AcDbEntity
  8
0
  6
Continuous
 62
     7
370
    25
100
AcDbLine
 10
-97.6121517516
 20
5.8887457769
 30
0.0
 11
-97.1270437516
 21
5.8887457769
 31
0.0
  0
LINE
  5
3A1
330
1F
100
AcDbEntity
  8
0
  6
Continuous
 62
     7
370
    25
100
AcDbLine
 10
-97.7435857516
 20
6.0104447769
 30
0.0
 11
-97.6121517516
 21
5.8887457769
 31
0.0
  0
LINE
  5
3A2
330
1F
100
AcDbEntity
  8
0
  6
Continuous
 62
     7
370
    25
100
AcDbLine
 10
-99.3903797516
 20
5.8887437769
 30
0.0
 11
-98.8630197516
 21
5.8887437769
 31
0.0
  0
LINE
  5
3A3
330
1F
100
AcDbEntity
  8
0
  6
Continuous
 62
     7
370
    25
100
AcDbLine
 10
-99.4109637516
 20
5.9668817769
 30
0.0
 11
-99.3903797516
 21
5.8887437769
 31
0.0
  0
LINE
  5
3A4
330
1F
100
AcDbEntity
  8
0
  6
Continuous
 62
     7
370
    25
100
AcDbLine
 10
-100.3360687516
 20
7.6228847769
 30
0.0
 11
-100.3878137516
 21
7.5312997769
 31
0.0
  0
LINE
  5
3A5
330
1F
100
AcDbEntity
  8
0
  6
Continuous
 62
     7
370
    25
100
AcDbLine
 10
-100.1718787516
 20
7.6248687769
 30
0.0
 11
-100.3360687516
 21
7.6228847769
 31
0.0
  0
LINE
  5
3A6
330
1F
100
AcDbEntity
  8
0
  6
Continuous
 62
     7
370
    25
100
AcDbLine
 10
-100.5768107516
 20
5.8887457769
 30
0.0
 11
-100.5571127516
 21
5.9668717769
 31
0.0
  0
LINE
  5
3A7
330
1F
100
AcDbEntity
  8
0
  6
Continuous
 62
     7
370
    25
100
AcDbLine
 10
-104.6320157516
 20
5.8887457769
 30
0.0
 11
-100.5768107516
 21
5.8887457769
 31
0.0
  0
LINE
  5
3A8
330
1F
100
AcDbEntity
  8
0
  6
Continuous
 62
     7
370
    25
100
AcDbLine
 10
-104.6221577516
 20
16.4326587769
 30
0.0
 11
-104.6320157516
 21
5.8887457769
 31
0.0
  0
LINE
  5
3A9
330
1F
100
AcDbEntity
  8
0
  6
Continuous
 62
     7
370
    25
100
AcDbLine
 10
-104.5713627516
 20
16.6053557769
 30
0.0
 11
-104.6221577516
 21
16.4326587769
 31
0.0
  0
LINE
  5
3AA
330
1F
100
AcDbEntity
  8
0
  6
Continuous
 62
     7
370
    25
100
AcDbLine
 10
-99.1941667516
 20
11.8498917769
 30
0.0
 11
-99.1484047516
 21
11.7499357769
 31
0.0
  0
ENDSEC
  0
SECTION
  2
OBJECTS
  0
DICTIONARY
  5
C
330
0
100
AcDbDictionary
281
     1
  3
ACAD_GROUP
350
D
  3
ACAD_LAYOUT
350
1A
  3
ACAD_MLINESTYLE
350
17
  3
ACAD_PLOTSETTINGS
350
19
  3
ACAD_PLOTSTYLENAME
350
E
  3
ACAD_SCALELIST
350
47
  3
DWGPROPS
350
3AB
  0
DICTIONARY
  5
D
102
{ACAD_REACTORS
330
C
102
}
330
C
100
AcDbDictionary
281
     1
  0
DICTIONARY
  5
1A
102
{ACAD_REACTORS
330
C
102
}
330
C
100
AcDbDictionary
281
     1
  3
Layout1
350
1E
  3
Layout2
350
26
  3
Model
350
22
  0
DICTIONARY
  5
17
102
{ACAD_REACTORS
330
C
102
}
330
C
100
AcDbDictionary
281
     1
  3
Standard
350
18
  0
DICTIONARY
  5
19
102
{ACAD_REACTORS
330
C
102
}
330
C
100
AcDbDictionary
281
     1
  0
ACDBDICTIONARYWDFLT
  5
E
102
{ACAD_REACTORS
330
C
102
}
330
C
100
AcDbDictionary
281
     1
  3
Normal
350
F
100
AcDbDictionaryWithDefault
340
F
  0
DICTIONARY
  5
47
102
{ACAD_REACTORS
330
C
102
}
330
C
100
AcDbDictionary
281
     1
  3
A0
350
48
  3
A1
350
49
  3
A2
350
4A
  3
A3
350
4B
  3
A4
350
4C
  3
A5
350
4D
  3
A6
350
4E
  3
A7
350
4F
  3
A8
350
50
  3
A9
350
51
  3
B0
350
52
  3
B1
350
53
  3
B2
350
54
  3
B3
350
55
  3
B4
350
56
  3
B5
350
57
  3
B6
350
58
  3
B7
350
59
  3
B8
350
5A
  3
B9
350
5B
  3
C0
350
5C
  3
C1
350
5D
  3
C2
350
5E
  3
C3
350
5F
  3
C4
350
60
  3
C5
350
61
  3
C6
350
62
  3
C7
350
63
  3
C8
350
64
  3
C9
350
65
  3
D0
350
66
  3
D1
350
67
  3
D2
350
68
  0
XRECORD
  5
3AB
102
{ACAD_REACTORS
330
C
102
}
330
C
100
AcDbXrecord
280
     1
  1
DWGPROPS COOKIE
  2

  3

  4

  6

  7

  8
ccadic
  9

300
=
301
=
302
=
303
=
304
=
305
=
306
=
307
=
308
=
309
=
 40
0.0
 41
2459520.451243715
 42
2459520.451280416
  1

 90
        0
  0
LAYOUT
  5
1E
102
{ACAD_REACTORS
330
1A
102
}
330
1A
100
AcDbPlotSettings
  1

  2
none_device
  4

  6

 40
0.0
 41
0.0
 42
0.0
 43
0.0
 44
0.0
 45
0.0
 46
0.0
 47
0.0
 48
0.0
 49
0.0
140
0.0
141
0.0
142
1.0
143
1.0
 70
   688
 72
     1
 73
     0
 74
     5
  7

 75
    16
147
1.0
148
0.0
149
0.0
100
AcDbLayout
  1
Layout1
 70
     1
 71
     1
 10
0.0
 20
0.0
 11
420.0
 21
297.0
 12
0.0
 22
0.0
 32
0.0
 14
1.0000000000E+20
 24
1.0000000000E+20
 34
1.0000000000E+20
 15
-1.0000000000E+20
 25
-1.0000000000E+20
 35
-1.0000000000E+20
146
0.0
 13
0.0
 23
0.0
 33
0.0
 16
1.0
 26
0.0
 36
0.0
 17
0.0
 27
1.0
 37
0.0
 76
     0
330
1B
  0
LAYOUT
  5
26
102
{ACAD_REACTORS
330
1A
102
}
330
1A
100
AcDbPlotSettings
  1

  2
none_device
  4

  6

 40
0.0
 41
0.0
 42
0.0
 43
0.0
 44
0.0
 45
0.0
 46
0.0
 47
0.0
 48
0.0
 49
0.0
140
0.0
141
0.0
142
1.0
143
1.0
 70
   688
 72
     1
 73
     0
 74
     5
  7

 75
    16
147
1.0
148
0.0
149
0.0
100
AcDbLayout
  1
Layout2
 70
     1
 71
     2
 10
0.0
 20
0.0
 11
0.0
 21
0.0
 12
0.0
 22
0.0
 32
0.0
 14
0.0
 24
0.0
 34
0.0
 15
0.0
 25
0.0
 35
0.0
146
0.0
 13
0.0
 23
0.0
 33
0.0
 16
1.0
 26
0.0
 36
0.0
 17
0.0
 27
1.0
 37
0.0
 76
     0
330
23
  0
LAYOUT
  5
22
102
{ACAD_REACTORS
330
1A
102
}
330
1A
100
AcDbPlotSettings
  1

  2
none_device
  4
ANSI_A_(11.00_x_8.50_Inches)
  6

 40
6.35
 41
19.05
 42
6.35000508
 43
19.05000254
 44
279.4
 45
215.9
 46
133.34999746
 47
88.89999873
 48
0.0
 49
0.0
140
0.0
141
0.0
142
0.0209423077
143
1.0
 70
  1696
 72
     0
 73
     0
 74
     0
  7

 75
     0
147
0.0179189148
148
-1300.4909072572
149
0.0
100
AcDbLayout
  1
Model
 70
     1
 71
     0
 10
0.0
 20
0.0
 11
420.0
 21
297.0
 12
0.0
 22
0.0
 32
0.0
 14
-260.0
 24
-30.0
 34
0.0
 15
260.0
 25
30.0
 35
0.0
146
0.0
 13
0.0
 23
0.0
 33
0.0
 16
1.0
 26
0.0
 36
0.0
 17
0.0
 27
1.0
 37
0.0
 76
     0
330
1F
331
29
  0
MLINESTYLE
  5
18
102
{ACAD_REACTORS
330
17
102
}
330
17
100
AcDbMlineStyle
  2
Standard
 70
     0
  3

 62
   256
 51
90.0
 52
90.0
 71
     2
 49
0.5
 62
   256
  6
BYLAYER
 49
-0.5
 62
   256
  6
BYLAYER
  0
ACDBPLACEHOLDER
  5
F
102
{ACAD_REACTORS
330
E
102
}
330
E
  0
SCALE
  5
48
102
{ACAD_REACTORS
330
47
102
}
330
47
100
AcDbScale
 70
     0
300
1:1
140
1.0
141
1.0
290
     1
  0
SCALE
  5
49
102
{ACAD_REACTORS
330
47
102
}
330
47
100
AcDbScale
 70
     0
300
1:2
140
1.0
141
2.0
290
     0
  0
SCALE
  5
4A
102
{ACAD_REACTORS
330
47
102
}
330
47
100
AcDbScale
 70
     0
300
1:4
140
1.0
141
4.0
290
     0
  0
SCALE
  5
4B
102
{ACAD_REACTORS
330
47
102
}
330
47
100
AcDbScale
 70
     0
300
1:5
140
1.0
141
5.0
290
     0
  0
SCALE
  5
4C
102
{ACAD_REACTORS
330
47
102
}
330
47
100
AcDbScale
 70
     0
300
1:8
140
1.0
141
8.0
290
     0
  0
SCALE
  5
4D
102
{ACAD_REACTORS
330
47
102
}
330
47
100
AcDbScale
 70
     0
300
1:10
140
1.0
141
10.0
290
     0
  0
SCALE
  5
4E
102
{ACAD_REACTORS
330
47
102
}
330
47
100
AcDbScale
 70
     0
300
1:16
140
1.0
141
16.0
290
     0
  0
SCALE
  5
4F
102
{ACAD_REACTORS
330
47
102
}
330
47
100
AcDbScale
 70
     0
300
1:20
140
1.0
141
20.0
290
     0
  0
SCALE
  5
50
102
{ACAD_REACTORS
330
47
102
}
330
47
100
AcDbScale
 70
     0
300
1:30
140
1.0
141
30.0
290
     0
  0
SCALE
  5
51
102
{ACAD_REACTORS
330
47
102
}
330
47
100
AcDbScale
 70
     0
300
1:40
140
1.0
141
40.0
290
     0
  0
SCALE
  5
52
102
{ACAD_REACTORS
330
47
102
}
330
47
100
AcDbScale
 70
     0
300
1:50
140
1.0
141
50.0
290
     0
  0
SCALE
  5
53
102
{ACAD_REACTORS
330
47
102
}
330
47
100
AcDbScale
 70
     0
300
1:100
140
1.0
141
100.0
290
     0
  0
SCALE
  5
54
102
{ACAD_REACTORS
330
47
102
}
330
47
100
AcDbScale
 70
     0
300
2:1
140
2.0
141
1.0
290
     0
  0
SCALE
  5
55
102
{ACAD_REACTORS
330
47
102
}
330
47
100
AcDbScale
 70
     0
300
4:1
140
4.0
141
1.0
290
     0
  0
SCALE
  5
56
102
{ACAD_REACTORS
330
47
102
}
330
47
100
AcDbScale
 70
     0
300
8:1
140
8.0
141
1.0
290
     0
  0
SCALE
  5
57
102
{ACAD_REACTORS
330
47
102
}
330
47
100
AcDbScale
 70
     0
300
10:1
140
10.0
141
1.0
290
     0
  0
SCALE
  5
58
102
{ACAD_REACTORS
330
47
102
}
330
47
100
AcDbScale
 70
     0
300
100:1
140
100.0
141
1.0
290
     0
  0
SCALE
  5
59
102
{ACAD_REACTORS
330
47
102
}
330
47
100
AcDbScale
 70
     0
300
1/128" = 1'-0"
140
0.0078125
141
12.0
290
     0
  0
SCALE
  5
5A
102
{ACAD_REACTORS
330
47
102
}
330
47
100
AcDbScale
 70
     0
300
1/64" = 1'-0"
140
0.015625
141
12.0
290
     0
  0
SCALE
  5
5B
102
{ACAD_REACTORS
330
47
102
}
330
47
100
AcDbScale
 70
     0
300
1/32" = 1'-0"
140
0.03125
141
12.0
290
     0
  0
SCALE
  5
5C
102
{ACAD_REACTORS
330
47
102
}
330
47
100
AcDbScale
 70
     0
300
1/16" = 1'-0"
140
0.0625
141
12.0
290
     0
  0
SCALE
  5
5D
102
{ACAD_REACTORS
330
47
102
}
330
47
100
AcDbScale
 70
     0
300
3/32" = 1'-0"
140
0.09375
141
12.0
290
     0
  0
SCALE
  5
5E
102
{ACAD_REACTORS
330
47
102
}
330
47
100
AcDbScale
 70
     0
300
1/8" = 1'-0"
140
0.125
141
12.0
290
     0
  0
SCALE
  5
5F
102
{ACAD_REACTORS
330
47
102
}
330
47
100
AcDbScale
 70
     0
300
3/16" = 1'-0"
140
0.1875
141
12.0
290
     0
  0
SCALE
  5
60
102
{ACAD_REACTORS
330
47
102
}
330
47
100
AcDbScale
 70
     0
300
1/4" = 1'-0"
140
0.25
141
12.0
290
     0
  0
SCALE
  5
61
102
{ACAD_REACTORS
330
47
102
}
330
47
100
AcDbScale
 70
     0
300
3/8" = 1'-0"
140
0.375
141
12.0
290
     0
  0
SCALE
  5
62
102
{ACAD_REACTORS
330
47
102
}
330
47
100
AcDbScale
 70
     0
300
1/2" = 1'-0"
140
0.5
141
12.0
290
     0
  0
SCALE
  5
63
102
{ACAD_REACTORS
330
47
102
}
330
47
100
AcDbScale
 70
     0
300
3/4" = 1'-0"
140
0.75
141
12.0
290
     0
  0
SCALE
  5
64
102
{ACAD_REACTORS
330
47
102
}
330
47
100
AcDbScale
 70
     0
300
1" = 1'-0"
140
1.0
141
12.0
290
     0
  0
SCALE
  5
65
102
{ACAD_REACTORS
330
47
102
}
330
47
100
AcDbScale
 70
     0
300
1-1/2" = 1'-0"
140
1.5
141
12.0
290
     0
  0
SCALE
  5
66
102
{ACAD_REACTORS
330
47
102
}
330
47
100
AcDbScale
 70
     0
300
3" = 1'-0"
140
3.0
141
12.0
290
     0
  0
SCALE
  5
67
102
{ACAD_REACTORS
330
47
102
}
330
47
100
AcDbScale
 70
     0
300
6" = 1'-0"
140
6.0
141
12.0
290
     0
  0
SCALE
  5
68
102
{ACAD_REACTORS
330
47
102
}
330
47
100
AcDbScale
 70
     0
300
1'-0" = 1'-0"
140
12.0
141
12.0
290
     0
  0
ENDSEC
  0
EOF
