0
SECTION
2
HEADER
9
$INSUNITS
70
4
9
$ACADVER
1
AC1014
9
$HANDSEED
5
FFFF
0
ENDSEC
0
SECTION
2
TABLES
0
TABLE
2
VPORT
5
8
100
AcDbSymbolTable
0
ENDTAB
0
TABLE
2
LTYPE
5
5
100
AcDbSymbolTable
0
LTYPE
5
14
100
AcDbSymbolTableRecord
100
AcDbLinetypeTableRecord
2
BYBLOCK
70
0
0
LTYPE
5
15
100
AcDbSymbolTableRecord
100
AcDbLinetypeTableRecord
2
BYLAYER
70
0
0
ENDTAB
0
TABLE
2
LAYER
5
2
100
AcDbSymbolTable
70
2
0
LAYER
5
50
100
AcDbSymbolTableRecord
100
AcDbLayerTableRecord
2
0
70
0
6
CONTINUOUS
0
ENDTAB
0
TABLE
2
STYLE
5
3
100
AcDbSymbolTable
70
1
0
STYLE
5
11
100
AcDbSymbolTableRecord
100
AcDbTextStyleTableRecord
2
STANDARD
70
0
0
ENDTAB
0
TABLE
2
VIEW
5
6
100
AcDbSymbolTable
70
0
0
ENDTAB
0
TABLE
2
UCS
5
7
100
AcDbSymbolTable
70
0
0
ENDTAB
0
TABLE
2
APPID
5
9
100
AcDbSymbolTable
70
2
0
APPID
5
12
100
AcDbSymbolTableRecord
100
AcDbRegAppTableRecord
2
ACAD
70
0
0
ENDTAB
0
TABLE
2
DIMSTYLE
5
A
100
AcDbSymbolTable
70
1
0
ENDTAB
0
TABLE
2
BLOCK_RECORD
5
1
100
AcDbSymbolTable
70
1
0
BLOCK_RECORD
5
1F
100
AcDbSymbolTableRecord
100
AcDbBlockTableRecord
2
*MODEL_SPACE
0
BLOCK_RECORD
5
1B
100
AcDbSymbolTableRecord
100
AcDbBlockTableRecord
2
*PAPER_SPACE
0
ENDTAB
0
ENDSEC
0
SECTION
2
BLOCKS
0
BLOCK
5
20
100
AcDbEntity
100
AcDbBlockBegin
2
*MODEL_SPACE
0
ENDBLK
5
21
100
AcDbEntity
100
AcDbBlockEnd
0
BLOCK
5
1C
100
AcDbEntity
100
AcDbBlockBegin
2
*PAPER_SPACE
0
ENDBLK
5
1D
100
AcDbEntity
100
AcDbBlockEnd
0
ENDSEC
0
SECTION
2
ENTITIES
0
CIRCLE
5
100
100
AcDbEntity
8
0
100
AcDbCircle
10
-57.262476568748241
20
13.914437044416051
30
0
40
2.9999999999999982
210
0
220
0
230
1
0
CIRCLE
5
101
100
AcDbEntity
8
0
100
AcDbCircle
10
-49.751440500473066
20
-24.162976147416376
30
0
40
2.9999999999999982
210
0
220
0
230
1
0
CIRCLE
5
102
100
AcDbEntity
8
0
100
AcDbCircle
10
-48.942612452622107
20
55.815790877287526
30
0
40
2.9999999999999982
210
0
220
0
230
1
0
CIRCLE
5
103
100
AcDbEntity
8
0
100
AcDbCircle
10
-18.009406576507359
20
-56.162976147416387
30
0
40
3.0000000000000004
210
0
220
0
230
1
0
CIRCLE
5
104
100
AcDbEntity
8
0
100
AcDbCircle
10
-18.009406987198545
20
90.81579087728754
30
0
40
3.0000000000000004
210
0
220
0
230
1
0
CIRCLE
5
105
100
AcDbEntity
8
0
100
AcDbCircle
10
-2.0007831152927613
20
11.528710259400922
30
0
40
3.2499999999999996
210
0
220
-0
230
1
0
CIRCLE
5
106
100
AcDbEntity
8
0
100
AcDbCircle
10
4.9999999999997513
20
-30.000000000000089
30
0
40
4.25
210
0
220
-0
230
1
0
CIRCLE
5
107
100
AcDbEntity
8
0
100
AcDbCircle
10
-33.000000491738327
20
27.000000402331352
30
0
40
4.75
210
0
220
-0
230
1
0
CIRCLE
5
108
100
AcDbEntity
8
0
100
AcDbCircle
10
8.0000001192092896
20
-7.0000001043081284
30
0
40
4.25
210
0
220
-0
230
1
0
CIRCLE
5
109
100
AcDbEntity
8
0
100
AcDbCircle
10
-2.0000002533197403
20
28.000000536441803
30
0
40
6.25
210
0
220
-0
230
1
0
CIRCLE
5
110
100
AcDbEntity
8
0
100
AcDbCircle
10
-9.0000001341104525
20
53.000000789761557
30
0
40
4.75
210
0
220
-0
230
1
0
CIRCLE
5
111
100
AcDbEntity
8
0
100
AcDbCircle
10
-12.000000178813934
20
-15.000000223517418
30
0
40
4.25
210
0
220
-0
230
1
0
CIRCLE
5
112
100
AcDbEntity
8
0
100
AcDbCircle
10
-29.000000432133682
20
2.2204460492503131e-15
30
0
40
4.2499999999999982
210
0
220
-0
230
1
0
ARC
5
113
100
AcDbEntity
8
0
100
AcDbCircle
10
41.726313100327332
20
14.844701311326551
30
0
40
104.99291094061385
210
0
220
0
230
1
100
AcDbArc
50
140.42316939878273
51
222.41871567116038
0
SPLINE
5
114
100
AcDbEntity
8
0
100
AcDbSpline
70
4
71
5
72
13
73
7
74
0
42
0.000000001
43
0.0000000001
44
0.0000000001
40
-0.22979734468472049
40
-0.22979734468472049
40
-0.22979734468472049
40
-0.22979734468472049
40
-0.22979734468472049
40
-0.22979734468472049
40
-0.22307692307692309
40
-0.2219753433220325
40
-0.2219753433220325
40
-0.2219753433220325
40
-0.2219753433220325
40
-0.2219753433220325
40
-0.2219753433220325
41
1
41
1
41
1
41
1
41
1
41
1
41
1
10
-35.783132739330064
20
-55.977591460179653
30
0
10
-35.546192054366145
20
-56.278206291487685
30
0
10
-35.259682209641376
20
-56.617895261896663
30
0
10
-34.959836269750269
20
-56.944658037225828
30
0
10
-34.645590123526787
20
-57.257977543171144
30
0
10
-34.315899469798488
20
-57.557799961412229
30
0
10
-34.269159607555729
20
-57.599756555987767
30
0
0
SPLINE
5
115
100
AcDbEntity
8
0
100
AcDbSpline
70
4
71
5
72
49
73
43
74
0
42
0.000000001
43
0.0000000001
44
0.0000000001
40
-1.2219753433220326
40
-1.2219753433220326
40
-1.2219753433220326
40
-1.2219753433220326
40
-1.2219753433220326
40
-1.2219753433220326
40
-1.2153846153846155
40
-1.2076923076923076
40
-1.2
40
-1.1923076923076923
40
-1.1846153846153846
40
-1.176923076923077
40
-1.1692307692307693
40
-1.1615384615384616
40
-1.1538461538461537
40
-1.1461538461538461
40
-1.1384615384615384
40
-1.1307692307692307
40
-1.1230769230769231
40
-1.1153846153846154
40
-1.1076923076923078
40
-1.1000000000000001
40
-1.0923076923076924
40
-1.0846153846153845
40
-1.0769230769230769
40
-1.0692307692307692
40
-1.0615384615384615
40
-1.0538461538461539
40
-1.0461538461538462
40
-1.0384615384615385
40
-1.0307692307692307
40
-1.023076923076923
40
-1.0153846153846153
40
-1.0076923076923077
40
-1
40
-1
40
-1
40
-1
40
-1
40
-0.99230769230768967
40
-0.98461538461538201
40
-0.97692307692307434
40
-0.96923076923076668
40
-0.96457490827136538
40
-0.96457490827136538
40
-0.96457490827136538
40
-0.96457490827136538
40
-0.96457490827136538
40
-0.96457490827136538
41
1
41
1
41
1
41
1
41
1
41
1
41
1
41
1
41
1
41
1
41
1
41
1
41
1
41
1
41
1
41
1
41
1
41
1
41
1
41
1
41
1
41
1
41
1
41
1
41
1
41
1
41
1
41
1
41
1
41
1
41
1
41
1
41
1
41
1
41
1
41
1
41
1
41
1
41
1
41
1
41
1
41
1
41
1
10
-34.26915960755575
20
-57.599756555987732
30
0
10
-33.989516018876159
20
-57.850781957280908
30
0
10
-33.359501251250194
20
-58.374024337993035
30
0
10
-32.305709309899022
20
-59.109853765122217
30
0
10
-30.687921478218296
20
-59.966535877563032
30
0
10
-28.278905270584815
20
-60.848101379427774
30
0
10
-25.384043281244793
20
-61.565637351332619
30
0
10
-22.094276568984942
20
-62.063723311638917
30
0
10
-18.459526477740621
20
-62.282612194425759
30
0
10
-14.5534594021047
20
-62.148103700146997
30
0
10
-10.466686188363838
20
-61.588484259765764
30
0
10
-6.3001321026280532
20
-60.55181721370932
30
0
10
-2.1584891030853983
20
-59.021202733411727
30
0
10
1.8567486933828947
20
-57.035727624398191
30
0
10
5.6519588473746554
20
-54.682843482979138
30
0
10
9.1449856840503099
20
-52.078150616861613
30
0
10
12.26916259013821
20
-49.348993685835396
30
0
10
14.976990705484909
20
-46.616973800685102
30
0
10
17.244369421831284
20
-43.97978164762052
30
0
10
19.073670389055501
20
-41.495992104320358
30
0
10
20.499655302655491
20
-39.161835135271275
30
0
10
21.583252491497035
20
-36.92296603831484
30
0
10
22.39754696452724
20
-34.708924224171191
30
0
10
23.016371131457547
20
-32.459763389487044
30
0
10
23.501264818300115
20
-30.158119531697828
30
0
10
23.89073644432861
20
-27.85257952098025
30
0
10
24.206795138075641
20
-25.609657672354995
30
0
10
24.46002609837506
20
-23.473033840477417
30
0
10
24.65532803229021
20
-21.417118938254358
30
0
10
24.797043999913718
20
-19.311171965709029
30
0
10
24.87131888555313
20
-17.455334206173507
30
0
10
24.907859245176663
20
-15.90767674559703
30
0
10
24.924892891617063
20
-14.802191996648805
30
0
10
24.931758782609634
20
-14.231838865527058
30
0
10
24.938624673602217
20
-13.661485734405112
30
0
10
24.949054591132096
20
-12.485557958866112
30
0
10
24.95587817050469
20
-10.620906878547729
30
0
10
24.952433428437825
20
-7.9858613919057984
30
0
10
24.941460634756993
20
-4.9295154708943159
30
0
10
24.934907310321638
20
-2.6797307906924459
30
0
10
24.932626946156866
20
-1.1841026469130904
30
0
10
24.932000873561655
20
-0.318353515597254
30
0
10
24.931854478839014
20
3.0878077872387166e-15
30
0
0
SPLINE
5
116
100
AcDbEntity
8
0
100
AcDbSpline
70
4
71
5
72
13
73
7
74
0
42
0.000000001
43
0.0000000001
44
0.0000000001
40
-0.96457490827136538
40
-0.96457490827136538
40
-0.96457490827136538
40
-0.96457490827136538
40
-0.96457490827136538
40
-0.96457490827136538
40
-0.96153846153845901
40
-0.95413911208025437
40
-0.95413911208025437
40
-0.95413911208025437
40
-0.95413911208025437
40
-0.95413911208025437
40
-0.95413911208025437
41
1
41
1
41
1
41
1
41
1
41
1
41
1
10
24.931854478839014
20
3.0878077872387166e-15
30
0
10
24.931759003527098
20
0.20762292963079992
30
0
10
24.93156194318772
20
0.90938502823247558
30
0
10
24.931746286051137
20
1.5701031785662201
30
0
10
24.93198008916039
20
2.1896283813966515
30
0
10
24.931553852526545
20
2.7739380682400299
30
0
10
24.930611410460827
20
3.1736683282977243
30
0
0
SPLINE
5
117
100
AcDbEntity
8
0
100
AcDbSpline
70
4
71
5
72
16
73
10
74
0
42
0.000000001
43
0.0000000001
44
0.0000000001
40
-0.95413911208025359
40
-0.95413911208025359
40
-0.95413911208025359
40
-0.95413911208025359
40
-0.95413911208025359
40
-0.95413911208025359
40
-0.95384615384615135
40
-0.94615384615384368
40
-0.93846153846153602
40
-0.93076923076922835
40
-0.92899679129372448
40
-0.92899679129372448
40
-0.92899679129372448
40
-0.92899679129372448
40
-0.92899679129372448
40
-0.92899679129372448
41
1
41
1
41
1
41
1
41
1
41
1
41
1
41
1
41
1
41
1
10
24.93061141046082
20
3.1736683282979339
30
0
10
24.930574096888204
20
3.1894946211045112
30
0
10
24.929529672422266
20
3.6202550962973001
30
0
10
24.925987312504599
20
4.4329506904793758
30
0
10
24.914097764409455
20
5.5707075150946199
30
0
10
24.882321747206632
20
6.7730210072444041
30
0
10
24.819096307757313
20
8.0838865323253977
30
0
10
24.758164119137707
20
9.0728213237514321
30
0
10
24.719292944617159
20
9.6433364349784654
30
0
10
24.711829631304955
20
9.7510420396086879
30
0
0
ARC
5
118
100
AcDbEntity
8
0
100
AcDbCircle
10
-123.50248592332713
20
1.5286953660449694
30
0
40
148.44221205623526
210
0
220
-0
230
1
100
AcDbArc
50
3.17528951309651
51
32.563780427524243
0
SPLINE
5
119
100
AcDbEntity
8
0
100
AcDbSpline
70
4
71
5
72
14
73
8
74
0
42
0.000000001
43
0.0000000001
44
0.0000000001
40
-0.73141760301143111
40
-0.73141760301143111
40
-0.73141760301143111
40
-0.73141760301143111
40
-0.73141760301143111
40
-0.73141760301143111
40
-0.73076923076922906
40
-0.7230769230769214
40
-0.72302024145890031
40
-0.72302024145890031
40
-0.72302024145890031
40
-0.72302024145890031
40
-0.72302024145890031
40
-0.72302024145890031
41
1
41
1
41
1
41
1
41
1
41
1
41
1
41
1
10
1.6035435487603906
20
81.425952577275496
30
0
10
1.5613558028810803
20
81.495588561816348
30
0
10
1.0172078290273134
20
82.390847088336415
30
0
10
0.45071859091935584
20
83.28478351884354
30
0
10
-0.13383940980311371
20
84.166059518916086
30
0
10
-0.73551745753850573
20
85.029349410170738
30
0
10
-1.3044007459614695
20
85.806671127260302
30
0
10
-1.3085626934662842
20
85.81235597617254
30
0
0
SPLINE
5
120
100
AcDbEntity
8
0
100
AcDbSpline
70
4
71
5
72
21
73
15
74
0
42
0.000000001
43
0.0000000001
44
0.0000000001
40
-0.7230202414589002
40
-0.7230202414589002
40
-0.7230202414589002
40
-0.7230202414589002
40
-0.7230202414589002
40
-0.7230202414589002
40
-0.71538461538461373
40
-0.70769230769230607
40
-0.6999999999999984
40
-0.69230769230769074
40
-0.68461538461538307
40
-0.67692307692307541
40
-0.66923076923076774
40
-0.66153846153846008
40
-0.65384615384615241
40
-0.64865590737402035
40
-0.64865590737402035
40
-0.64865590737402035
40
-0.64865590737402035
40
-0.64865590737402035
40
-0.64865590737402035
41
1
41
1
41
1
41
1
41
1
41
1
41
1
41
1
41
1
41
1
41
1
41
1
41
1
41
1
41
1
10
-1.3085626934663246
20
85.812355976172626
30
0
10
-1.8692219688552656
20
86.578166517549008
30
0
10
-3.0213175664167107
20
88.077773474716167
30
0
10
-4.8265162068322738
20
90.193167237932698
30
0
10
-7.3597473939755176
20
92.652663540216679
30
0
10
-10.652833331117913
20
94.951314921641696
30
0
10
-13.974521272948564
20
96.380304086148939
30
0
10
-17.198794443891501
20
96.952945441171906
30
0
10
-20.188451856107203
20
96.818222734102619
30
0
10
-22.821732757345487
20
96.191846043074847
30
0
10
-24.881010319583361
20
95.352481888393925
30
0
10
-26.208575374078332
20
94.623111826358041
30
0
10
-27.057273975241852
20
94.068397019376974
30
0
10
-27.558393027969696
20
93.706072949904012
30
0
10
-27.756480433880899
20
93.557170148647799
30
0
0
SPLINE
5
121
100
AcDbEntity
8
0
100
AcDbSpline
70
4
71
5
72
15
73
9
74
0
42
0.000000001
43
0.0000000001
44
0.0000000001
40
-0.64865590737400358
40
-0.64865590737400358
40
-0.64865590737400358
40
-0.64865590737400358
40
-0.64865590737400358
40
-0.64865590737400358
40
-0.64615384615384475
40
-0.63846153846153708
40
-0.63076923076922942
40
-0.63068646162157649
40
-0.63068646162157649
40
-0.63068646162157649
40
-0.63068646162157649
40
-0.63068646162157649
40
-0.63068646162157649
41
1
41
1
41
1
41
1
41
1
41
1
41
1
41
1
41
1
10
-27.756480433884096
20
93.557170148645383
30
0
10
-27.851972395430295
20
93.485388600968079
30
0
10
-28.237437897595132
20
93.190152006370226
30
0
10
-28.891594862948402
20
92.650729795686843
30
0
10
-29.536439945831209
20
92.0581844674183
30
0
10
-30.217571044465043
20
91.386598051748038
30
0
10
-30.853928291200564
20
90.735861327549827
30
0
10
-31.1881318545278
20
90.38960997021394
30
0
10
-31.191691225037385
20
90.385921800472616
30
0
0
SPLINE
5
122
100
AcDbEntity
8
0
100
AcDbSpline
70
4
71
5
72
15
73
9
74
0
42
0.000000001
43
0.0000000001
44
0.0000000001
40
-0.63068646162157638
40
-0.63068646162157638
40
-0.63068646162157638
40
-0.63068646162157638
40
-0.63068646162157638
40
-0.63068646162157638
40
-0.62307692307692175
40
-0.61538461538461409
40
-0.60769230769230642
40
-0.60198812142704949
40
-0.60198812142704949
40
-0.60198812142704949
40
-0.60198812142704949
40
-0.60198812142704949
40
-0.60198812142704949
41
1
41
1
41
1
41
1
41
1
41
1
41
1
41
1
41
1
10
-31.191691225037413
20
90.385921800472616
30
0
10
-31.518928702472728
20
90.046842921427782
30
0
10
-32.204584090168339
20
89.328110825562874
30
0
10
-33.327829200134936
20
88.132217224801948
30
0
10
-34.912880656825045
20
86.426985080633628
30
0
10
-36.666978469996884
20
84.524224492021204
30
0
10
-37.995474594759273
20
83.069073999370659
30
0
10
-38.840370924281459
20
82.135287416867669
30
0
10
-39.199171846930724
20
81.736982135310996
30
0
0
CIRCLE
5
123
100
AcDbEntity
8
0
100
AcDbCircle
10
-18.009406987198545
20
90.81579087728754
30
0
40
1.7500000000000004
210
0
220
0
230
1
0
CIRCLE
5
124
100
AcDbEntity
8
0
100
AcDbCircle
10
-18.009406987198545
20
90.81579087728754
30
0
40
3.0000000000000004
210
0
220
0
230
1
0
CIRCLE
5
125
100
AcDbEntity
8
0
100
AcDbCircle
10
-48.942612452622107
20
55.815790877287526
30
0
40
1.749999999999998
210
0
220
0
230
1
0
CIRCLE
5
126
100
AcDbEntity
8
0
100
AcDbCircle
10
-48.942612452622107
20
55.815790877287526
30
0
40
2.9999999999999982
210
0
220
0
230
1
0
CIRCLE
5
127
100
AcDbEntity
8
0
100
AcDbCircle
10
-57.262476568748241
20
13.914437044416051
30
0
40
1.749999999999998
210
0
220
0
230
1
0
CIRCLE
5
128
100
AcDbEntity
8
0
100
AcDbCircle
10
-57.262476568748241
20
13.914437044416051
30
0
40
2.9999999999999982
210
0
220
0
230
1
0
CIRCLE
5
129
100
AcDbEntity
8
0
100
AcDbCircle
10
-49.751440500473066
20
-24.162976147416376
30
0
40
1.749999999999998
210
0
220
0
230
1
0
CIRCLE
5
130
100
AcDbEntity
8
0
100
AcDbCircle
10
-49.751440500473066
20
-24.162976147416376
30
0
40
2.9999999999999982
210
0
220
0
230
1
0
CIRCLE
5
131
100
AcDbEntity
8
0
100
AcDbCircle
10
-18.009406576507359
20
-56.162976147416387
30
0
40
1.7500000000000004
210
0
220
0
230
1
0
CIRCLE
5
132
100
AcDbEntity
8
0
100
AcDbCircle
10
-18.009406576507359
20
-56.162976147416387
30
0
40
3.0000000000000004
210
0
220
0
230
1
0
ENDSEC
0
SECTION
2
OBJECTS
0
DICTIONARY
5
C
100
AcDbDictionary
3
ACAD_GROUP
350
D
3
ACAD_MLINESTYLE
350
17
0
DICTIONARY
5
D
100
AcDbDictionary
0
DICTIONARY
5
1A
330
C
100
AcDbDictionary
0
DICTIONARY
5
17
100
AcDbDictionary
0
ENDSEC
0
EOF
