0
SECTION
2
HEADER
9
$INSUNITS
70
4
9
$ACADVER
1
AC1014
9
$HANDSEED
5
FFFF
0
ENDSEC
0
SECTION
2
TABLES
0
TABLE
2
VPORT
5
8
100
AcDbSymbolTable
0
ENDTAB
0
TABLE
2
LTYPE
5
5
100
AcDbSymbolTable
0
LTYPE
5
14
100
AcDbSymbolTableRecord
100
AcDbLinetypeTableRecord
2
BYBLOCK
70
0
0
LTYPE
5
15
100
AcDbSymbolTableRecord
100
AcDbLinetypeTableRecord
2
BYLAYER
70
0
0
ENDTAB
0
TABLE
2
LAYER
5
2
100
AcDbSymbolTable
70
2
0
LAYER
5
50
100
AcDbSymbolTableRecord
100
AcDbLayerTableRecord
2
0
70
0
6
CONTINUOUS
0
ENDTAB
0
TABLE
2
STYLE
5
3
100
AcDbSymbolTable
70
1
0
STYLE
5
11
100
AcDbSymbolTableRecord
100
AcDbTextStyleTableRecord
2
STANDARD
70
0
0
ENDTAB
0
TABLE
2
VIEW
5
6
100
AcDbSymbolTable
70
0
0
ENDTAB
0
TABLE
2
UCS
5
7
100
AcDbSymbolTable
70
0
0
ENDTAB
0
TABLE
2
APPID
5
9
100
AcDbSymbolTable
70
2
0
APPID
5
12
100
AcDbSymbolTableRecord
100
AcDbRegAppTableRecord
2
ACAD
70
0
0
ENDTAB
0
TABLE
2
DIMSTYLE
5
A
100
AcDbSymbolTable
70
1
0
ENDTAB
0
TABLE
2
BLOCK_RECORD
5
1
100
AcDbSymbolTable
70
1
0
BLOCK_RECORD
5
1F
100
AcDbSymbolTableRecord
100
AcDbBlockTableRecord
2
*MODEL_SPACE
0
BLOCK_RECORD
5
1B
100
AcDbSymbolTableRecord
100
AcDbBlockTableRecord
2
*PAPER_SPACE
0
ENDTAB
0
ENDSEC
0
SECTION
2
BLOCKS
0
BLOCK
5
20
100
AcDbEntity
100
AcDbBlockBegin
2
*MODEL_SPACE
0
ENDBLK
5
21
100
AcDbEntity
100
AcDbBlockEnd
0
BLOCK
5
1C
100
AcDbEntity
100
AcDbBlockBegin
2
*PAPER_SPACE
0
ENDBLK
5
1D
100
AcDbEntity
100
AcDbBlockEnd
0
ENDSEC
0
SECTION
2
ENTITIES
0
LWPOLYLINE
5
100
100
AcDbEntity
8
OUTER_PROFILES
100
AcDbPolyline
90
4
70
1
43
0.0
10
136.75106850511025
20
69.145999999999958
10
136.75106850511025
20
0
10
0
20
0
10
0
20
69.145999999999958
0
CIRCLE
5
101
100
AcDbEntity
8
INTERIOR_PROFILES
100
AcDbCircle
10
-6.3497999999999832
20
59.972999999999985
30
0
40
1.905
210
0
220
0
230
-1
0
CIRCLE
5
102
100
AcDbEntity
8
INTERIOR_PROFILES
100
AcDbCircle
10
-130.40126850511024
20
59.972999999999985
30
0
40
1.9050000000000011
210
0
220
0
230
-1
0
CIRCLE
5
103
100
AcDbEntity
8
INTERIOR_PROFILES
100
AcDbCircle
10
-6.3497999999999832
20
34.572999999999979
30
0
40
1.9050000000000011
210
0
220
0
230
-1
0
CIRCLE
5
104
100
AcDbEntity
8
INTERIOR_PROFILES
100
AcDbCircle
10
-6.3497999999999832
20
9.1729999999999823
30
0
40
1.9050000000000011
210
0
220
0
230
-1
0
LWPOLYLINE
5
105
100
AcDbEntity
8
INTERIOR_PROFILES
100
AcDbPolyline
90
4
70
1
43
0.0
10
93.375534252555127
20
47.197999999999993
10
93.375534252555127
20
61.947999999999972
10
73.375534252555141
20
61.947999999999972
10
73.375534252555141
20
47.197999999999993
0
LWPOLYLINE
5
106
100
AcDbEntity
8
INTERIOR_PROFILES
100
AcDbPolyline
90
4
70
1
43
0.0
10
73.375534252555141
20
7.1979999999999933
10
93.375534252555127
20
7.1979999999999933
10
93.375534252555127
20
21.947999999999936
10
73.375534252555141
20
21.947999999999936
0
CIRCLE
5
107
100
AcDbEntity
8
INTERIOR_PROFILES
100
AcDbCircle
10
-130.40126850511024
20
34.572999999999979
30
0
40
1.9050000000000011
210
0
220
0
230
-1
0
LWPOLYLINE
5
108
100
AcDbEntity
8
INTERIOR_PROFILES
100
AcDbPolyline
90
4
70
1
43
0.0
10
43.375534252555127
20
41.947999999999972
10
43.375534252555127
20
27.197999999999993
10
63.375534252555127
20
27.197999999999993
10
63.375534252555127
20
41.947999999999972
0
LWPOLYLINE
5
109
100
AcDbEntity
8
INTERIOR_PROFILES
100
AcDbPolyline
90
4
70
1
43
0.0
10
93.375534252555127
20
41.947999999999972
10
73.375534252555141
20
41.947999999999972
10
73.375534252555141
20
27.197999999999993
10
93.375534252555127
20
27.197999999999993
0
LWPOLYLINE
5
110
100
AcDbEntity
8
INTERIOR_PROFILES
100
AcDbPolyline
90
4
70
1
43
0.0
10
43.375534252555127
20
7.1979999999999933
10
63.375534252555127
20
7.1979999999999933
10
63.375534252555127
20
21.947999999999936
10
43.375534252555127
20
21.947999999999936
0
LWPOLYLINE
5
111
100
AcDbEntity
8
INTERIOR_PROFILES
100
AcDbPolyline
90
4
70
1
43
0.0
10
63.375534252555127
20
47.197999999999993
10
63.375534252555127
20
61.947999999999972
10
43.375534252555127
20
61.947999999999972
10
43.375534252555127
20
47.197999999999993
0
CIRCLE
5
112
100
AcDbEntity
8
INTERIOR_PROFILES
100
AcDbCircle
10
-130.40126850511024
20
9.1729999999999823
30
0
40
1.9050000000000011
210
0
220
0
230
-1
0
LINE
5
113
100
AcDbEntity
8
BEND
100
AcDbLine
10
122.90168494197147
20
-3.5527136788005009e-14
30
8.3642563707035087e-13
11
122.90168494197147
21
69.145999999999958
31
8.4631011103637723e-13
0
LINE
5
114
100
AcDbEntity
8
BEND
100
AcDbLine
10
13.849383563138783
20
69.145999999999958
30
1.1702621872258151e-13
11
13.849383563138783
21
0
31
1.1498528623140557e-13
0
LINE
5
115
100
AcDbEntity
8
BEND
100
AcDbLine
10
99.182917815693912
20
69.145999999999958
30
7.2794414079246741e-13
11
99.182917815693912
21
0
31
7.2794414079246741e-13
0
LINE
5
116
100
AcDbEntity
8
BEND
100
AcDbLine
10
37.568150689416335
20
3.5527136788005009e-14
30
2.8641837590345629e-13
11
37.568150689416335
21
69.145999999999958
31
2.8641837590345629e-13
0
LINE
5
117
100
AcDbEntity
8
BEND_EXTENT
100
AcDbLine
10
124.71146850511026
20
69.145999999999958
30
8.4926201360280181e-13
11
124.71146850511026
21
-3.5527136788005009e-14
31
8.4038022940580055e-13
0
LINE
5
118
100
AcDbEntity
8
BEND_EXTENT
100
AcDbLine
10
121.09190137883269
20
0
30
8.4996988044917062e-13
11
121.09190137883269
21
69.145999999999958
31
8.4996988044917062e-13
0
LINE
5
119
100
AcDbEntity
8
BEND_EXTENT
100
AcDbLine
10
100.99270137883269
20
69.145999999999958
30
7.3258621098009626e-13
11
100.99270137883269
21
0
31
7.3258621098009626e-13
0
LINE
5
120
100
AcDbEntity
8
BEND_EXTENT
100
AcDbLine
10
12.0396
20
0
30
9.9597344640237843e-14
11
12.0396
21
69.145999999999958
31
1.0403823673873847e-13
0
LINE
5
121
100
AcDbEntity
8
BEND_EXTENT
100
AcDbLine
10
15.659167126277559
20
69.145999999999958
30
1.272001649218104e-13
11
15.659167126277559
21
0
31
1.272001649218104e-13
0
LINE
5
122
100
AcDbEntity
8
BEND_EXTENT
100
AcDbLine
10
35.758367126277555
20
3.5527136788005009e-14
30
2.7344963303113887e-13
11
35.758367126277555
21
69.145999999999958
31
2.7344963303113887e-13
0
LINE
5
123
100
AcDbEntity
8
BEND_EXTENT
100
AcDbLine
10
39.377934252555129
20
69.145999999999958
30
2.999422302880864e-13
11
39.377934252555129
21
0
31
2.999422302880864e-13
0
LINE
5
124
100
AcDbEntity
8
BEND_EXTENT
100
AcDbLine
10
97.373134252555133
20
0
30
7.1553050943246267e-13
11
97.373134252555133
21
69.145999999999958
31
7.1553050943246267e-13
0
ENDSEC
0
SECTION
2
OBJECTS
0
DICTIONARY
5
C
100
AcDbDictionary
3
ACAD_GROUP
350
D
3
ACAD_MLINESTYLE
350
17
0
DICTIONARY
5
D
100
AcDbDictionary
0
DICTIONARY
5
1A
330
C
100
AcDbDictionary
0
DICTIONARY
5
17
100
AcDbDictionary
0
ENDSEC
0
EOF
