0
SECTION
2
HEADER
9
$INSUNITS
70
4
9
$ACADVER
1
AC1014
9
$HANDSEED
5
FFFF
0
ENDSEC
0
SECTION
2
TABLES
0
TABLE
2
VPORT
5
8
100
AcDbSymbolTable
0
ENDTAB
0
TABLE
2
LTYPE
5
5
100
AcDbSymbolTable
0
LTYPE
5
14
100
AcDbSymbolTableRecord
100
AcDbLinetypeTableRecord
2
BYBLOCK
70
0
0
LTYPE
5
15
100
AcDbSymbolTableRecord
100
AcDbLinetypeTableRecord
2
BYLAYER
70
0
0
ENDTAB
0
TABLE
2
LAYER
5
2
100
AcDbSymbolTable
70
2
0
LAYER
5
50
100
AcDbSymbolTableRecord
100
AcDbLayerTableRecord
2
0
70
0
6
CONTINUOUS
0
ENDTAB
0
TABLE
2
STYLE
5
3
100
AcDbSymbolTable
70
1
0
STYLE
5
11
100
AcDbSymbolTableRecord
100
AcDbTextStyleTableRecord
2
STANDARD
70
0
0
ENDTAB
0
TABLE
2
VIEW
5
6
100
AcDbSymbolTable
70
0
0
ENDTAB
0
TABLE
2
UCS
5
7
100
AcDbSymbolTable
70
0
0
ENDTAB
0
TABLE
2
APPID
5
9
100
AcDbSymbolTable
70
2
0
APPID
5
12
100
AcDbSymbolTableRecord
100
AcDbRegAppTableRecord
2
ACAD
70
0
0
ENDTAB
0
TABLE
2
DIMSTYLE
5
A
100
AcDbSymbolTable
70
1
0
ENDTAB
0
TABLE
2
BLOCK_RECORD
5
1
100
AcDbSymbolTable
70
1
0
BLOCK_RECORD
5
1F
100
AcDbSymbolTableRecord
100
AcDbBlockTableRecord
2
*MODEL_SPACE
0
BLOCK_RECORD
5
1B
100
AcDbSymbolTableRecord
100
AcDbBlockTableRecord
2
*PAPER_SPACE
0
ENDTAB
0
ENDSEC
0
SECTION
2
BLOCKS
0
BLOCK
5
20
100
AcDbEntity
100
AcDbBlockBegin
2
*MODEL_SPACE
0
ENDBLK
5
21
100
AcDbEntity
100
AcDbBlockEnd
0
BLOCK
5
1C
100
AcDbEntity
100
AcDbBlockBegin
2
*PAPER_SPACE
0
ENDBLK
5
1D
100
AcDbEntity
100
AcDbBlockEnd
0
ENDSEC
0
SECTION
2
ENTITIES
0
LWPOLYLINE
5
100
100
AcDbEntity
8
OUTER_PROFILES
100
AcDbPolyline
90
24
70
1
43
0.0
10
420
20
187.0583671262776
10
420
20
202.71753425255514
10
0
20
202.71753425255514
10
-1.7763568394002505e-14
20
187.0583671262776
42
-0.99999999999999989
10
-1.6001999999999583
20
187.0583671262776
10
-1.6002000000000294
20
190.2587671262776
10
-28.760000000000034
20
190.25876712627758
42
0.41421356237309659
10
-31.300000000000026
20
187.71876712627758
10
-31.300000000000061
20
14.998767126277595
42
0.41421356237309448
10
-28.760000000000048
20
12.458767126277586
10
-1.6002000000000294
20
12.458767126277586
10
-1.6002000000000116
20
15.659167126277573
42
-0.99999999999999989
10
0
20
15.659167126277573
10
0
20
0
10
420.00000000000006
20
3.5527136788005009e-14
10
420
20
15.659167126277573
42
-0.99999999999999989
10
421.60020000000003
20
15.659167126277573
10
421.60020000000003
20
12.458767126277586
10
448.75999999999999
20
12.458767126277621
42
0.41421356237310325
10
451.30000000000001
20
14.998767126277599
10
451.30000000000007
20
187.71876712627758
42
0.41421356237309509
10
448.7600000000001
20
190.2587671262776
10
421.60020000000003
20
190.2587671262776
10
421.60020000000003
20
187.0583671262776
42
-0.99999999999999989
0
LWPOLYLINE
5
101
100
AcDbEntity
8
INTERIOR_PROFILES
100
AcDbPolyline
90
4
70
1
43
0.0
10
65.125000000000057
20
177.85876712627766
42
0.99999999999999989
10
59.875000000000078
20
177.85876712627766
10
59.875000000000078
20
172.85876712627751
42
0.99999999999999989
10
65.125000000000057
20
172.85876712627751
0
LWPOLYLINE
5
102
100
AcDbEntity
8
INTERIOR_PROFILES
100
AcDbPolyline
90
4
70
1
43
0.0
10
354.87499999999989
20
172.85876712627757
42
0.99999999999999989
10
360.12499999999994
20
172.85876712627757
10
360.12499999999994
20
177.85876712627757
42
0.99999999999999989
10
354.87499999999989
20
177.85876712627757
0
LWPOLYLINE
5
103
100
AcDbEntity
8
INTERIOR_PROFILES
100
AcDbPolyline
90
8
70
1
43
0.0
10
440.10000000000002
20
127.2337671262776
42
0.41421356237308893
10
437.56
20
124.69376712627761
10
437.56
20
122.47376712627756
42
0.41421356237310114
10
440.10000000000002
20
119.93376712627762
10
445.02000000000004
20
119.93376712627764
42
0.41421356237308488
10
447.56
20
122.47376712627754
10
447.56
20
124.69376712627761
42
0.41421356237312162
10
445.02000000000004
20
127.23376712627753
0
LWPOLYLINE
5
104
100
AcDbEntity
8
INTERIOR_PROFILES
100
AcDbPolyline
90
8
70
1
43
0.0
10
304.92967900272129
20
141.35876712627757
42
0.19310329410970578
10
282.02499999999998
20
118.4540881235563
10
282.02499999999998
20
84.263446128998822
42
0.19310329410970567
10
304.92967900272129
20
61.35876712627757
10
339.12032099727872
20
61.35876712627757
42
0.19310329410970578
10
362.02499999999998
20
84.263446128998837
10
362.02499999999998
20
118.45408812355632
42
0.19310329410970567
10
339.12032099727872
20
141.35876712627757
0
LWPOLYLINE
5
105
100
AcDbEntity
8
INTERIOR_PROFILES
100
AcDbPolyline
90
8
70
1
43
0.0
10
-20.09999999999998
20
119.93376712627759
10
-25.020000000000024
20
119.93376712627757
42
-0.41421356237309509
10
-27.560000000000002
20
122.47376712627756
10
-27.559999999999985
20
124.69376712627761
42
-0.41421356237309703
10
-25.020000000000024
20
127.23376712627757
10
-20.09999999999998
20
127.23376712627757
42
-0.41421356237309304
10
-17.560000000000002
20
124.69376712627761
10
-17.560000000000038
20
122.47376712627754
42
-0.41421356237309509
0
LWPOLYLINE
5
106
100
AcDbEntity
8
INTERIOR_PROFILES
100
AcDbPolyline
90
8
70
1
43
0.0
10
-17.559999999999967
20
169.1437671262776
42
0.41421356237309093
10
-20.09999999999998
20
171.68376712627759
10
-25.020000000000024
20
171.68376712627759
42
0.41421356237309093
10
-27.560000000000038
20
169.1437671262776
10
-27.560000000000002
20
166.9237671262776
42
0.41421356237309914
10
-25.020000000000024
20
164.38376712627758
10
-20.09999999999998
20
164.38376712627758
42
0.41421356237309093
10
-17.560000000000038
20
166.92376712627748
0
LWPOLYLINE
5
107
100
AcDbEntity
8
INTERIOR_PROFILES
100
AcDbPolyline
90
8
70
1
43
0.0
10
447.56
20
35.793767126277572
42
0.41421356237312573
10
445.02000000000004
20
38.333767126277536
10
440.10000000000002
20
38.333767126277593
42
0.41421356237308277
10
437.56
20
35.793767126277572
10
437.56
20
33.573767126277559
42
0.41421356237309304
10
440.10000000000002
20
31.033767126277532
10
445.02000000000004
20
31.03376712627762
42
0.41421356237311963
10
447.56
20
33.573767126277531
0
LWPOLYLINE
5
108
100
AcDbEntity
8
INTERIOR_PROFILES
100
AcDbPolyline
90
8
70
1
43
0.0
10
69.5625
20
137.35876712627754
42
0.41421356237310281
10
67.5625
20
135.35876712627757
10
67.562500000000014
20
67.35876712627757
42
0.41421356237309509
10
69.5625
20
65.35876712627757
10
130.56250000000003
20
65.35876712627757
42
0.41421356237309509
10
132.5625
20
67.35876712627757
10
132.5625
20
135.35876712627757
42
0.41421356237309509
10
130.56250000000003
20
137.35876712627757
0
LWPOLYLINE
5
109
100
AcDbEntity
8
INTERIOR_PROFILES
100
AcDbPolyline
90
8
70
1
43
0.0
10
447.56
20
80.243767126277589
10
447.56
20
78.023767126277534
42
-0.41421356237308488
10
445.02000000000004
20
75.483767126277598
10
440.10000000000002
20
75.483767126277513
42
-0.41421356237309304
10
437.56
20
78.023767126277548
10
437.56
20
80.243767126277589
42
-0.414213562373136
10
440.10000000000002
20
82.783767126277596
10
445.02000000000004
20
82.783767126277525
42
-0.41421356237312162
0
LWPOLYLINE
5
110
100
AcDbEntity
8
INTERIOR_PROFILES
100
AcDbPolyline
90
8
70
1
43
0.0
10
-27.560000000000002
20
78.023767126277548
10
-27.560000000000002
20
80.243767126277589
42
-0.41421356237309703
10
-25.020000000000024
20
82.783767126277581
10
-20.09999999999998
20
82.783767126277581
42
-0.41421356237309304
10
-17.559999999999988
20
80.243767126277589
10
-17.559999999999995
20
78.023767126277519
42
-0.41421356237309198
10
-20.09999999999998
20
75.483767126277556
10
-25.020000000000024
20
75.483767126277542
42
-0.41421356237309509
0
CIRCLE
5
111
100
AcDbEntity
8
INTERIOR_PROFILES
100
AcDbCircle
10
-286.27500000000003
20
137.10876712627757
30
0
40
2.2500000000000142
210
0
220
0
230
-1
0
LWPOLYLINE
5
112
100
AcDbEntity
8
INTERIOR_PROFILES
100
AcDbPolyline
90
4
70
1
43
0.0
10
59.875000000000078
20
24.858767126277606
10
59.875000000000078
20
29.858767126277606
42
-0.99999999999999989
10
65.125000000000057
20
29.858767126277606
10
65.125000000000057
20
24.858767126277606
42
-0.99999999999999989
0
LWPOLYLINE
5
113
100
AcDbEntity
8
INTERIOR_PROFILES
100
AcDbPolyline
90
4
70
1
43
0.0
10
360.12499999999994
20
29.858767126277606
42
0.99999999999999989
10
354.87499999999989
20
29.858767126277606
10
354.87499999999989
20
24.858767126277606
42
0.99999999999999989
10
360.12499999999994
20
24.858767126277606
0
CIRCLE
5
114
100
AcDbEntity
8
INTERIOR_PROFILES
100
AcDbCircle
10
-139.5505
20
101.35876712627757
30
0
40
1.9050000000000011
210
0
220
0
230
-1
0
LWPOLYLINE
5
115
100
AcDbEntity
8
INTERIOR_PROFILES
100
AcDbPolyline
90
8
70
1
43
0.0
10
-27.560000000000002
20
33.573767126277559
10
-27.560000000000002
20
35.793767126277572
42
-0.41421356237309703
10
-25.020000000000024
20
38.333767126277564
10
-20.09999999999998
20
38.333767126277571
42
-0.41421356237309509
10
-17.560000000000002
20
35.793767126277572
10
-17.559999999999995
20
33.573767126277531
42
-0.41421356237309304
10
-20.09999999999998
20
31.03376712627756
10
-25.020000000000024
20
31.033767126277564
42
-0.41421356237309509
0
CIRCLE
5
116
100
AcDbEntity
8
INTERIOR_PROFILES
100
AcDbCircle
10
-60.574500000000029
20
126.75876712627758
30
0
40
1.9050000000000011
210
0
220
0
230
-1
0
LWPOLYLINE
5
117
100
AcDbEntity
8
INTERIOR_PROFILES
100
AcDbPolyline
90
8
70
1
43
0.0
10
445.02000000000004
20
164.38376712627763
42
0.41421356237307866
10
447.56
20
166.92376712627748
10
447.56
20
169.1437671262776
42
0.41421356237311141
10
445.02000000000004
20
171.68376712627759
10
440.10000000000002
20
171.68376712627762
42
0.41421356237308277
10
437.56
20
169.1437671262776
10
437.56
20
166.9237671262776
42
0.4142135623731073
10
440.10000000000002
20
164.38376712627758
0
CIRCLE
5
118
100
AcDbEntity
8
INTERIOR_PROFILES
100
AcDbCircle
10
-286.27500000000003
20
65.608767126277584
30
0
40
2.2499999999999787
210
0
220
0
230
-1
0
CIRCLE
5
119
100
AcDbEntity
8
INTERIOR_PROFILES
100
AcDbCircle
10
-139.5505
20
75.958767126277564
30
0
40
1.9050000000000011
210
0
220
0
230
-1
0
CIRCLE
5
120
100
AcDbEntity
8
INTERIOR_PROFILES
100
AcDbCircle
10
-357.77499999999998
20
65.608767126277584
30
0
40
2.2500000000000142
210
0
220
0
230
-1
0
CIRCLE
5
121
100
AcDbEntity
8
INTERIOR_PROFILES
100
AcDbCircle
10
-60.574500000000029
20
101.35876712627757
30
0
40
1.9050000000000011
210
0
220
0
230
-1
0
CIRCLE
5
122
100
AcDbEntity
8
INTERIOR_PROFILES
100
AcDbCircle
10
-357.77499999999998
20
137.10876712627757
30
0
40
2.2500000000000142
210
0
220
0
230
-1
0
CIRCLE
5
123
100
AcDbEntity
8
INTERIOR_PROFILES
100
AcDbCircle
10
-139.5505
20
126.75876712627758
30
0
40
1.9050000000000011
210
0
220
0
230
-1
0
CIRCLE
5
124
100
AcDbEntity
8
INTERIOR_PROFILES
100
AcDbCircle
10
-60.574500000000029
20
75.958767126277564
30
0
40
1.9050000000000011
210
0
220
0
230
-1
0
LWPOLYLINE
5
125
100
AcDbEntity
8
INTERIOR_PROFILES
100
AcDbPolyline
90
4
70
1
43
0.0
10
147.5
20
141.35876712627757
10
272.5
20
141.35876712627757
10
272.5
20
61.35876712627757
10
147.5
20
61.35876712627757
0
LINE
5
126
100
AcDbEntity
8
BEND
100
AcDbLine
10
-7.1054273576010019e-14
20
188.86815068941638
30
-2.3948419443014497e-13
11
419.99999999999994
21
188.86815068941638
31
-2.1942910285607274e-13
0
LINE
5
127
100
AcDbEntity
8
BEND
100
AcDbLine
10
419.99999999999994
20
13.849383563138851
30
-2.2252863930652445e-13
11
-7.1054273576010019e-14
21
13.849383563138851
31
-2.425837308805967e-13
0
LINE
5
128
100
AcDbEntity
8
BEND_EXTENT
100
AcDbLine
10
0
20
15.659167126277573
30
-2.4841240175987878e-13
11
420
21
15.659167126277573
31
-2.2907084950421386e-13
0
LINE
5
129
100
AcDbEntity
8
BEND_EXTENT
100
AcDbLine
10
420
20
187.0583671262776
30
-2.2907084950421386e-13
11
0
21
187.0583671262776
31
-2.4841240175987878e-13
0
LINE
5
130
100
AcDbEntity
8
BEND_EXTENT
100
AcDbLine
10
-7.1054273576010019e-14
20
190.67793425255516
30
-2.3869795029440866e-13
11
419.99999999999994
21
190.67793425255516
31
-2.1907884228258745e-13
0
LINE
5
131
100
AcDbEntity
8
BEND_EXTENT
100
AcDbLine
10
419.99999999999994
20
12.039600000000057
30
-1.5801657592820384e-13
11
-7.1054273576010019e-14
21
12.039600000000021
31
-1.7763568394002505e-13
0
ENDSEC
0
SECTION
2
OBJECTS
0
DICTIONARY
5
C
100
AcDbDictionary
3
ACAD_GROUP
350
D
3
ACAD_MLINESTYLE
350
17
0
DICTIONARY
5
D
100
AcDbDictionary
0
DICTIONARY
5
1A
330
C
100
AcDbDictionary
0
DICTIONARY
5
17
100
AcDbDictionary
0
ENDSEC
0
EOF
