  0
SECTION
  2
HEADER
  9
$ACADVER
  1
AC1009
  0
ENDSEC
  0
SECTION
  2
ENTITIES
  0
POLYLINE
  5
90
  8
Layer_1
  62
5
  70
1
  66
1
  10
0
  20
0
  30
0
  0
VERTEX
  5
90
  8
Layer_1
  10
358.40256
  20
36.758251
  0
VERTEX
  5
91
  8
Layer_1
  10
358.32404
  20
36.762001
  0
VERTEX
  5
92
  8
Layer_1
  10
356.86777
  20
36.762001
  0
VERTEX
  5
93
  8
Layer_1
  10
356.86777
  20
34.200001
  0
VERTEX
  5
94
  8
Layer_1
  10
357.4888
  20
34.200001
  0
VERTEX
  5
95
  8
Layer_1
  10
357.4888
  20
36.357002
  0
VERTEX
  5
96
  8
Layer_1
  10
358.12329
  20
36.356251
  0
VERTEX
  5
97
  8
Layer_1
  10
358.17493
  20
36.347569
  0
VERTEX
  5
98
  8
Layer_1
  10
358.21729
  20
36.333748
  0
VERTEX
  5
99
  8
Layer_1
  10
358.23679
  20
36.32275
  0
VERTEX
  5
9a
  8
Layer_1
  10
358.26004
  20
36.304501
  0
VERTEX
  5
9b
  8
Layer_1
  10
358.28952
  20
36.269249
  0
VERTEX
  5
9c
  8
Layer_1
  10
358.31277
  20
36.216999
  0
VERTEX
  5
9d
  8
Layer_1
  10
358.33078
  20
36.14325
  0
VERTEX
  5
9e
  8
Layer_1
  10
358.33804
  20
36.069748
  0
VERTEX
  5
9f
  8
Layer_1
  10
358.34354
  20
35.942249
  0
VERTEX
  5
a0
  8
Layer_1
  10
358.34378
  20
34.200001
  0
VERTEX
  5
a1
  8
Layer_1
  10
358.95578
  20
34.200001
  0
VERTEX
  5
a2
  8
Layer_1
  10
358.95578
  20
36.001999
  0
VERTEX
  5
a3
  8
Layer_1
  10
358.94681
  20
36.181
  0
VERTEX
  5
a4
  8
Layer_1
  10
358.93777
  20
36.260002
  0
VERTEX
  5
a5
  8
Layer_1
  10
358.91403
  20
36.378502
  0
VERTEX
  5
a6
  8
Layer_1
  10
358.88779
  20
36.458252
  0
VERTEX
  5
a7
  8
Layer_1
  10
358.8508
  20
36.535
  0
VERTEX
  5
a8
  8
Layer_1
  10
358.83179
  20
36.566002
  0
VERTEX
  5
a9
  8
Layer_1
  10
358.79379
  20
36.612999
  0
VERTEX
  5
aa
  8
Layer_1
  10
358.74979
  20
36.652
  0
VERTEX
  5
ab
  8
Layer_1
  10
358.72177
  20
36.672001
  0
VERTEX
  5
ac
  8
Layer_1
  10
358.66177
  20
36.705002
  0
VERTEX
  5
ad
  8
Layer_1
  10
358.62778
  20
36.718002
  0
VERTEX
  5
ae
  8
Layer_1
  10
358.53305
  20
36.7425
  0
VERTEX
  5
af
  8
Layer_1
  10
358.40256
  20
36.758251
  0
SEQEND
  0
POLYLINE
  5
b1
  8
Layer_1
  62
5
  70
1
  66
1
  10
0
  20
0
  30
0
  0
VERTEX
  5
b1
  8
Layer_1
  10
355.78479
  20
34.593002
  0
VERTEX
  5
b2
  8
Layer_1
  10
355.78479
  20
36.762001
  0
VERTEX
  5
b3
  8
Layer_1
  10
354.45877
  20
36.762001
  0
VERTEX
  5
b4
  8
Layer_1
  10
354.45877
  20
36.357002
  0
VERTEX
  5
b5
  8
Layer_1
  10
355.16678
  20
36.357002
  0
VERTEX
  5
b6
  8
Layer_1
  10
355.16678
  20
34.593002
  0
VERTEX
  5
b7
  8
Layer_1
  10
354.45877
  20
34.593002
  0
VERTEX
  5
b8
  8
Layer_1
  10
354.45877
  20
34.200001
  0
VERTEX
  5
b9
  8
Layer_1
  10
356.4808
  20
34.200001
  0
VERTEX
  5
ba
  8
Layer_1
  10
356.4808
  20
34.593002
  0
VERTEX
  5
bb
  8
Layer_1
  10
355.78479
  20
34.593002
  0
SEQEND
  0
POLYLINE
  5
bd
  8
Layer_1
  62
5
  70
1
  66
1
  10
0
  20
0
  30
0
  0
VERTEX
  5
bd
  8
Layer_1
  10
350.45377
  20
36.347
  0
VERTEX
  5
be
  8
Layer_1
  10
350.56079
  20
36.355999
  0
VERTEX
  5
bf
  8
Layer_1
  10
351.55478
  20
36.357002
  0
VERTEX
  5
c0
  8
Layer_1
  10
351.55478
  20
36.762001
  0
VERTEX
  5
c1
  8
Layer_1
  10
350.48978
  20
36.762001
  0
VERTEX
  5
c2
  8
Layer_1
  10
350.37802
  20
36.758499
  0
VERTEX
  5
c3
  8
Layer_1
  10
350.26654
  20
36.747749
  0
VERTEX
  5
c4
  8
Layer_1
  10
350.16403
  20
36.729248
  0
VERTEX
  5
c5
  8
Layer_1
  10
350.08853
  20
36.7075
  0
VERTEX
  5
c6
  8
Layer_1
  10
350.02179
  20
36.685001
  0
VERTEX
  5
c7
  8
Layer_1
  10
349.9808
  20
36.667
  0
VERTEX
  5
c8
  8
Layer_1
  10
349.9418
  20
36.646999
  0
VERTEX
  5
c9
  8
Layer_1
  10
349.90479
  20
36.625
  0
VERTEX
  5
ca
  8
Layer_1
  10
349.83878
  20
36.576
  0
VERTEX
  5
cb
  8
Layer_1
  10
349.80881
  20
36.548
  0
VERTEX
  5
cc
  8
Layer_1
  10
349.78177
  20
36.519001
  0
VERTEX
  5
cd
  8
Layer_1
  10
349.75577
  20
36.487
  0
VERTEX
  5
ce
  8
Layer_1
  10
349.73279
  20
36.452
  0
VERTEX
  5
cf
  8
Layer_1
  10
349.71179
  20
36.416
  0
VERTEX
  5
d0
  8
Layer_1
  10
349.69379
  20
36.376999
  0
VERTEX
  5
d1
  8
Layer_1
  10
349.67679
  20
36.334999
  0
VERTEX
  5
d2
  8
Layer_1
  10
349.66278
  20
36.292
  0
VERTEX
  5
d3
  8
Layer_1
  10
349.65079
  20
36.246002
  0
VERTEX
  5
d4
  8
Layer_1
  10
349.64078
  20
36.197998
  0
VERTEX
  5
d5
  8
Layer_1
  10
349.6348
  20
36.159752
  0
VERTEX
  5
d6
  8
Layer_1
  10
349.62604
  20
36.07375
  0
VERTEX
  5
d7
  8
Layer_1
  10
349.62277
  20
35.982002
  0
VERTEX
  5
d8
  8
Layer_1
  10
349.62277
  20
34.200001
  0
VERTEX
  5
d9
  8
Layer_1
  10
350.24078
  20
34.200001
  0
VERTEX
  5
da
  8
Layer_1
  10
350.24179
  20
35.986252
  0
VERTEX
  5
db
  8
Layer_1
  10
350.25104
  20
36.1115
  0
VERTEX
  5
dc
  8
Layer_1
  10
350.26779
  20
36.194
  0
VERTEX
  5
dd
  8
Layer_1
  10
350.28281
  20
36.236
  0
VERTEX
  5
de
  8
Layer_1
  10
350.3038
  20
36.271
  0
VERTEX
  5
df
  8
Layer_1
  10
350.32028
  20
36.289501
  0
VERTEX
  5
e0
  8
Layer_1
  10
350.34805
  20
36.311752
  0
VERTEX
  5
e1
  8
Layer_1
  10
350.38153
  20
36.328251
  0
VERTEX
  5
e2
  8
Layer_1
  10
350.40704
  20
36.337502
  0
VERTEX
  5
e3
  8
Layer_1
  10
350.45377
  20
36.347
  0
SEQEND
  0
POLYLINE
  5
e5
  8
Layer_1
  62
5
  70
1
  66
1
  10
0
  20
0
  30
0
  0
VERTEX
  5
e5
  8
Layer_1
  10
347.6088
  20
36.75275
  0
VERTEX
  5
e6
  8
Layer_1
  10
347.59229
  20
36.7505
  0
VERTEX
  5
e7
  8
Layer_1
  10
347.47778
  20
36.723
  0
VERTEX
  5
e8
  8
Layer_1
  10
347.40729
  20
36.695251
  0
VERTEX
  5
e9
  8
Layer_1
  10
347.37253
  20
36.67625
  0
VERTEX
  5
ea
  8
Layer_1
  10
347.33279
  20
36.64925
  0
VERTEX
  5
eb
  8
Layer_1
  10
347.28903
  20
36.612251
  0
VERTEX
  5
ec
  8
Layer_1
  10
347.2587
  20
36.579399
  0
VERTEX
  5
ed
  8
Layer_1
  10
347.2153
  20
36.518749
  0
VERTEX
  5
ee
  8
Layer_1
  10
347.17606
  20
36.442501
  0
VERTEX
  5
ef
  8
Layer_1
  10
347.15677
  20
36.392998
  0
VERTEX
  5
f0
  8
Layer_1
  10
347.14377
  20
36.350998
  0
VERTEX
  5
f1
  8
Layer_1
  10
347.12628
  20
36.27
  0
VERTEX
  5
f2
  8
Layer_1
  10
347.1138
  20
36.186752
  0
VERTEX
  5
f3
  8
Layer_1
  10
347.10278
  20
36.052002
  0
VERTEX
  5
f4
  8
Layer_1
  10
347.09979
  20
35.924999
  0
VERTEX
  5
f5
  8
Layer_1
  10
347.1008
  20
34.956001
  0
VERTEX
  5
f6
  8
Layer_1
  10
347.10727
  20
34.842499
  0
VERTEX
  5
f7
  8
Layer_1
  10
347.11905
  20
34.733498
  0
VERTEX
  5
f8
  8
Layer_1
  10
347.13629
  20
34.64175
  0
VERTEX
  5
f9
  8
Layer_1
  10
347.15079
  20
34.584999
  0
VERTEX
  5
fa
  8
Layer_1
  10
347.16476
  20
34.543999
  0
VERTEX
  5
fb
  8
Layer_1
  10
347.19778
  20
34.470001
  0
VERTEX
  5
fc
  8
Layer_1
  10
347.2178
  20
34.436001
  0
VERTEX
  5
fd
  8
Layer_1
  10
347.2388
  20
34.404999
  0
VERTEX
  5
fe
  8
Layer_1
  10
347.26178
  20
34.375999
  0
VERTEX
  5
ff
  8
Layer_1
  10
347.2858
  20
34.349998
  0
VERTEX
  5
100
  8
Layer_1
  10
347.3118
  20
34.326
  0
VERTEX
  5
101
  8
Layer_1
  10
347.33978
  20
34.304001
  0
VERTEX
  5
102
  8
Layer_1
  10
347.39203
  20
34.2715
  0
VERTEX
  5
103
  8
Layer_1
  10
347.43753
  20
34.250748
  0
VERTEX
  5
104
  8
Layer_1
  10
347.49878
  20
34.229752
  0
VERTEX
  5
105
  8
Layer_1
  10
347.55078
  20
34.216751
  0
VERTEX
  5
106
  8
Layer_1
  10
347.61578
  20
34.207138
  0
VERTEX
  5
107
  8
Layer_1
  10
347.70981
  20
34.201
  0
VERTEX
  5
108
  8
Layer_1
  10
348.97479
  20
34.200001
  0
VERTEX
  5
109
  8
Layer_1
  10
348.97479
  20
34.593002
  0
VERTEX
  5
10a
  8
Layer_1
  10
348.01102
  20
34.593002
  0
VERTEX
  5
10b
  8
Layer_1
  10
347.95953
  20
34.596001
  0
VERTEX
  5
10c
  8
Layer_1
  10
347.90329
  20
34.603249
  0
VERTEX
  5
10d
  8
Layer_1
  10
347.84628
  20
34.62175
  0
VERTEX
  5
10e
  8
Layer_1
  10
347.82004
  20
34.63625
  0
VERTEX
  5
10f
  8
Layer_1
  10
347.79779
  20
34.655998
  0
VERTEX
  5
110
  8
Layer_1
  10
347.77603
  20
34.68325
  0
VERTEX
  5
111
  8
Layer_1
  10
347.76443
  20
34.704002
  0
VERTEX
  5
112
  8
Layer_1
  10
347.75003
  20
34.73975
  0
VERTEX
  5
113
  8
Layer_1
  10
347.73828
  20
34.784248
  0
VERTEX
  5
114
  8
Layer_1
  10
347.72702
  20
34.889999
  0
VERTEX
  5
115
  8
Layer_1
  10
347.72379
  20
35.262001
  0
VERTEX
  5
116
  8
Layer_1
  10
348.6478
  20
35.262001
  0
VERTEX
  5
117
  8
Layer_1
  10
348.71954
  20
35.265999
  0
VERTEX
  5
118
  8
Layer_1
  10
348.80002
  20
35.278
  0
VERTEX
  5
119
  8
Layer_1
  10
348.87454
  20
35.300499
  0
VERTEX
  5
11a
  8
Layer_1
  10
348.91803
  20
35.32
  0
VERTEX
  5
11b
  8
Layer_1
  10
348.97754
  20
35.355751
  0
VERTEX
  5
11c
  8
Layer_1
  10
349.02402
  20
35.396248
  0
VERTEX
  5
11d
  8
Layer_1
  10
349.05881
  20
35.432999
  0
VERTEX
  5
11e
  8
Layer_1
  10
349.08578
  20
35.473499
  0
VERTEX
  5
11f
  8
Layer_1
  10
349.11252
  20
35.521
  0
VERTEX
  5
120
  8
Layer_1
  10
349.14029
  20
35.5895
  0
VERTEX
  5
121
  8
Layer_1
  10
349.16278
  20
35.667252
  0
VERTEX
  5
122
  8
Layer_1
  10
349.17953
  20
35.75375
  0
VERTEX
  5
123
  8
Layer_1
  10
349.19205
  20
35.87225
  0
VERTEX
  5
124
  8
Layer_1
  10
349.19653
  20
35.98925
  0
VERTEX
  5
125
  8
Layer_1
  10
349.19504
  20
36.078251
  0
VERTEX
  5
126
  8
Layer_1
  10
349.19028
  20
36.156502
  0
VERTEX
  5
127
  8
Layer_1
  10
349.18079
  20
36.235001
  0
VERTEX
  5
128
  8
Layer_1
  10
349.16504
  20
36.318748
  0
VERTEX
  5
129
  8
Layer_1
  10
349.14902
  20
36.380001
  0
VERTEX
  5
12a
  8
Layer_1
  10
349.12155
  20
36.454498
  0
VERTEX
  5
12b
  8
Layer_1
  10
349.08804
  20
36.519249
  0
VERTEX
  5
12c
  8
Layer_1
  10
349.04929
  20
36.575752
  0
VERTEX
  5
12d
  8
Layer_1
  10
349.00552
  20
36.624001
  0
VERTEX
  5
12e
  8
Layer_1
  10
348.95679
  20
36.665501
  0
VERTEX
  5
12f
  8
Layer_1
  10
348.87802
  20
36.713001
  0
VERTEX
  5
130
  8
Layer_1
  10
348.84378
  20
36.728001
  0
VERTEX
  5
131
  8
Layer_1
  10
348.78281
  20
36.747002
  0
VERTEX
  5
132
  8
Layer_1
  10
348.75879
  20
36.751499
  0
VERTEX
  5
133
  8
Layer_1
  10
348.68729
  20
36.76075
  0
VERTEX
  5
134
  8
Layer_1
  10
347.74106
  20
36.762001
  0
VERTEX
  5
135
  8
Layer_1
  10
347.6088
  20
36.75275
  0
SEQEND
  0
POLYLINE
  5
137
  8
Layer_1
  62
5
  70
1
  66
1
  10
0
  20
0
  30
0
  0
VERTEX
  5
137
  8
Layer_1
  10
343.81577
  20
36.755001
  0
VERTEX
  5
138
  8
Layer_1
  10
343.77377
  20
36.758999
  0
VERTEX
  5
139
  8
Layer_1
  10
342.81802
  20
36.762001
  0
VERTEX
  5
13a
  8
Layer_1
  10
342.7648
  20
36.760002
  0
VERTEX
  5
13b
  8
Layer_1
  10
342.68802
  20
36.753502
  0
VERTEX
  5
13c
  8
Layer_1
  10
342.5723
  20
36.730751
  0
VERTEX
  5
13d
  8
Layer_1
  10
342.52731
  20
36.716576
  0
VERTEX
  5
13e
  8
Layer_1
  10
342.49179
  20
36.702499
  0
VERTEX
  5
13f
  8
Layer_1
  10
342.44479
  20
36.68
  0
VERTEX
  5
140
  8
Layer_1
  10
342.4028
  20
36.654999
  0
VERTEX
  5
141
  8
Layer_1
  10
342.35379
  20
36.61425
  0
VERTEX
  5
142
  8
Layer_1
  10
342.3223
  20
36.581001
  0
VERTEX
  5
143
  8
Layer_1
  10
342.29727
  20
36.548
  0
VERTEX
  5
144
  8
Layer_1
  10
342.26779
  20
36.499252
  0
VERTEX
  5
145
  8
Layer_1
  10
342.2468
  20
36.45475
  0
VERTEX
  5
146
  8
Layer_1
  10
342.21854
  20
36.375
  0
VERTEX
  5
147
  8
Layer_1
  10
342.19705
  20
36.285751
  0
VERTEX
  5
148
  8
Layer_1
  10
342.18179
  20
36.185638
  0
VERTEX
  5
149
  8
Layer_1
  10
342.17081
  20
36.045998
  0
VERTEX
  5
14a
  8
Layer_1
  10
342.16779
  20
35.924999
  0
VERTEX
  5
14b
  8
Layer_1
  10
342.16855
  20
34.988251
  0
VERTEX
  5
14c
  8
Layer_1
  10
342.17654
  20
34.824749
  0
VERTEX
  5
14d
  8
Layer_1
  10
342.18954
  20
34.717251
  0
VERTEX
  5
14e
  8
Layer_1
  10
342.20853
  20
34.621498
  0
VERTEX
  5
14f
  8
Layer_1
  10
342.23355
  20
34.537498
  0
VERTEX
  5
150
  8
Layer_1
  10
342.25955
  20
34.476501
  0
VERTEX
  5
151
  8
Layer_1
  10
342.2883
  20
34.424
  0
VERTEX
  5
152
  8
Layer_1
  10
342.30905
  20
34.393749
  0
VERTEX
  5
153
  8
Layer_1
  10
342.36554
  20
34.334
  0
VERTEX
  5
154
  8
Layer_1
  10
342.40479
  20
34.30275
  0
VERTEX
  5
155
  8
Layer_1
  10
342.49429
  20
34.254749
  0
VERTEX
  5
156
  8
Layer_1
  10
342.58255
  20
34.22625
  0
VERTEX
  5
157
  8
Layer_1
  10
342.67154
  20
34.209999
  0
VERTEX
  5
158
  8
Layer_1
  10
342.81802
  20
34.2005
  0
VERTEX
  5
159
  8
Layer_1
  10
343.69778
  20
34.200001
  0
VERTEX
  5
15a
  8
Layer_1
  10
343.77429
  20
34.202499
  0
VERTEX
  5
15b
  8
Layer_1
  10
343.86203
  20
34.211502
  0
VERTEX
  5
15c
  8
Layer_1
  10
343.94205
  20
34.227749
  0
VERTEX
  5
15d
  8
Layer_1
  10
344.01505
  20
34.252499
  0
VERTEX
  5
15e
  8
Layer_1
  10
344.06479
  20
34.275749
  0
VERTEX
  5
15f
  8
Layer_1
  10
344.11053
  20
34.304001
  0
VERTEX
  5
160
  8
Layer_1
  10
344.1528
  20
34.336998
  0
VERTEX
  5
161
  8
Layer_1
  10
344.20178
  20
34.389999
  0
VERTEX
  5
162
  8
Layer_1
  10
344.22379
  20
34.419998
  0
VERTEX
  5
163
  8
Layer_1
  10
344.2413
  20
34.447998
  0
VERTEX
  5
164
  8
Layer_1
  10
344.26279
  20
34.487
  0
VERTEX
  5
165
  8
Layer_1
  10
344.27979
  20
34.525002
  0
VERTEX
  5
166
  8
Layer_1
  10
344.30777
  20
34.607002
  0
VERTEX
  5
167
  8
Layer_1
  10
344.32629
  20
34.693501
  0
VERTEX
  5
168
  8
Layer_1
  10
344.33829
  20
34.773499
  0
VERTEX
  5
169
  8
Layer_1
  10
344.34729
  20
34.85675
  0
VERTEX
  5
16a
  8
Layer_1
  10
344.35452
  20
35.01675
  0
VERTEX
  5
16b
  8
Layer_1
  10
344.35477
  20
35.924999
  0
VERTEX
  5
16c
  8
Layer_1
  10
344.35202
  20
36.038498
  0
VERTEX
  5
16d
  8
Layer_1
  10
344.34579
  20
36.125
  0
VERTEX
  5
16e
  8
Layer_1
  10
344.33279
  20
36.226501
  0
VERTEX
  5
16f
  8
Layer_1
  10
344.32153
  20
36.288002
  0
VERTEX
  5
170
  8
Layer_1
  10
344.30954
  20
36.339752
  0
VERTEX
  5
171
  8
Layer_1
  10
344.29028
  20
36.397499
  0
VERTEX
  5
172
  8
Layer_1
  10
344.25485
  20
36.480392
  0
VERTEX
  5
173
  8
Layer_1
  10
344.21255
  20
36.550251
  0
VERTEX
  5
174
  8
Layer_1
  10
344.17178
  20
36.598999
  0
VERTEX
  5
175
  8
Layer_1
  10
344.12878
  20
36.6385
  0
VERTEX
  5
176
  8
Layer_1
  10
344.08154
  20
36.671749
  0
VERTEX
  5
177
  8
Layer_1
  10
344.01627
  20
36.705002
  0
VERTEX
  5
178
  8
Layer_1
  10
343.9523
  20
36.728001
  0
VERTEX
  5
179
  8
Layer_1
  10
343.87329
  20
36.746498
  0
VERTEX
  5
17a
  8
Layer_1
  10
343.81577
  20
36.755001
  0
SEQEND
  0
POLYLINE
  5
17c
  8
Layer_1
  62
5
  70
1
  66
1
  10
0
  20
0
  30
0
  0
VERTEX
  5
17c
  8
Layer_1
  10
346.14877
  20
34.938
  0
VERTEX
  5
17d
  8
Layer_1
  10
345.89679
  20
36.117001
  0
VERTEX
  5
17e
  8
Layer_1
  10
345.5098
  20
36.117001
  0
VERTEX
  5
17f
  8
Layer_1
  10
345.24878
  20
34.929001
  0
VERTEX
  5
180
  8
Layer_1
  10
345.2308
  20
34.929001
  0
VERTEX
  5
181
  8
Layer_1
  10
345.10477
  20
36.762001
  0
VERTEX
  5
182
  8
Layer_1
  10
344.5228
  20
36.762001
  0
VERTEX
  5
183
  8
Layer_1
  10
344.84079
  20
34.200001
  0
VERTEX
  5
184
  8
Layer_1
  10
345.5098
  20
34.200001
  0
VERTEX
  5
185
  8
Layer_1
  10
345.68979
  20
35.156998
  0
VERTEX
  5
186
  8
Layer_1
  10
345.71078
  20
35.156998
  0
VERTEX
  5
187
  8
Layer_1
  10
345.89679
  20
34.200001
  0
VERTEX
  5
188
  8
Layer_1
  10
346.56577
  20
34.200001
  0
VERTEX
  5
189
  8
Layer_1
  10
346.88678
  20
36.762001
  0
VERTEX
  5
18a
  8
Layer_1
  10
346.29279
  20
36.762001
  0
VERTEX
  5
18b
  8
Layer_1
  10
346.17279
  20
34.938
  0
VERTEX
  5
18c
  8
Layer_1
  10
346.14877
  20
34.938
  0
SEQEND
  0
POLYLINE
  5
18e
  8
Layer_1
  62
5
  70
1
  66
1
  10
0
  20
0
  30
0
  0
VERTEX
  5
18e
  8
Layer_1
  10
341.27652
  20
36.76025
  0
VERTEX
  5
18f
  8
Layer_1
  10
339.74979
  20
36.762001
  0
VERTEX
  5
190
  8
Layer_1
  10
339.74979
  20
33.228001
  0
VERTEX
  5
191
  8
Layer_1
  10
340.36478
  20
33.228001
  0
VERTEX
  5
192
  8
Layer_1
  10
340.36478
  20
34.200001
  0
VERTEX
  5
193
  8
Layer_1
  10
341.21677
  20
34.200001
  0
VERTEX
  5
194
  8
Layer_1
  10
341.28946
  20
34.201561
  0
VERTEX
  5
195
  8
Layer_1
  10
341.38077
  20
34.209499
  0
VERTEX
  5
196
  8
Layer_1
  10
341.45154
  20
34.222
  0
VERTEX
  5
197
  8
Layer_1
  10
341.54056
  20
34.248001
  0
VERTEX
  5
198
  8
Layer_1
  10
341.60779
  20
34.279499
  0
VERTEX
  5
199
  8
Layer_1
  10
341.66702
  20
34.319252
  0
VERTEX
  5
19a
  8
Layer_1
  10
341.72229
  20
34.371002
  0
VERTEX
  5
19b
  8
Layer_1
  10
341.76602
  20
34.43
  0
VERTEX
  5
19c
  8
Layer_1
  10
341.79904
  20
34.48925
  0
VERTEX
  5
19d
  8
Layer_1
  10
341.83231
  20
34.579002
  0
VERTEX
  5
19e
  8
Layer_1
  10
341.85504
  20
34.667999
  0
VERTEX
  5
19f
  8
Layer_1
  10
341.87253
  20
34.775749
  0
VERTEX
  5
1a0
  8
Layer_1
  10
341.8848
  20
34.894001
  0
VERTEX
  5
1a1
  8
Layer_1
  10
341.88852
  20
35.022751
  0
VERTEX
  5
1a2
  8
Layer_1
  10
341.88782
  20
35.992973
  0
VERTEX
  5
1a3
  8
Layer_1
  10
341.88425
  20
36.067406
  0
VERTEX
  5
1a4
  8
Layer_1
  10
341.87802
  20
36.137501
  0
VERTEX
  5
1a5
  8
Layer_1
  10
341.86478
  20
36.24025
  0
VERTEX
  5
1a6
  8
Layer_1
  10
341.84628
  20
36.3335
  0
VERTEX
  5
1a7
  8
Layer_1
  10
341.83054
  20
36.386002
  0
VERTEX
  5
1a8
  8
Layer_1
  10
341.81882
  20
36.41769
  0
VERTEX
  5
1a9
  8
Layer_1
  10
341.78329
  20
36.494499
  0
VERTEX
  5
1aa
  8
Layer_1
  10
341.76102
  20
36.531998
  0
VERTEX
  5
1ab
  8
Layer_1
  10
341.70731
  20
36.600998
  0
VERTEX
  5
1ac
  8
Layer_1
  10
341.66428
  20
36.640499
  0
VERTEX
  5
1ad
  8
Layer_1
  10
341.60379
  20
36.680748
  0
VERTEX
  5
1ae
  8
Layer_1
  10
341.54803
  20
36.708
  0
VERTEX
  5
1af
  8
Layer_1
  10
341.47229
  20
36.73275
  0
VERTEX
  5
1b0
  8
Layer_1
  10
341.39154
  20
36.749001
  0
VERTEX
  5
1b1
  8
Layer_1
  10
341.27652
  20
36.76025
  0
SEQEND
  0
POLYLINE
  5
1b3
  8
Layer_0
  62
1
  70
1
  66
1
  10
0
  20
0
  30
0
  0
VERTEX
  5
1b3
  8
Layer_0
  10
433.0018
  20
-1.001358e-05
  0
VERTEX
  5
1b4
  8
Layer_0
  10
0
  20
-1.001358e-05
  0
VERTEX
  5
1b5
  8
Layer_0
  10
0
  20
48.999908
  0
VERTEX
  5
1b6
  8
Layer_0
  10
433.0018
  20
48.999908
  0
VERTEX
  5
1b7
  8
Layer_0
  10
433.0018
  20
-1.001358e-05
  0
SEQEND
  0
POLYLINE
  5
1b9
  8
Layer_1
  62
5
  70
1
  66
1
  10
0
  20
0
  30
0
  0
VERTEX
  5
1b9
  8
Layer_1
  10
318.41541
  20
37.306252
  0
VERTEX
  5
1ba
  8
Layer_1
  10
318.35492
  20
37.353001
  0
VERTEX
  5
1bb
  8
Layer_1
  10
318.29892
  20
37.383999
  0
VERTEX
  5
1bc
  8
Layer_1
  10
318.26392
  20
37.399002
  0
VERTEX
  5
1bd
  8
Layer_1
  10
318.22791
  20
37.410999
  0
VERTEX
  5
1be
  8
Layer_1
  10
318.19193
  20
37.419998
  0
VERTEX
  5
1bf
  8
Layer_1
  10
318.11591
  20
37.43
  0
VERTEX
  5
1c0
  8
Layer_1
  10
316.6459
  20
37.431
  0
VERTEX
  5
1c1
  8
Layer_1
  10
316.6459
  20
34.200001
  0
VERTEX
  5
1c2
  8
Layer_1
  10
318.14767
  20
34.200001
  0
VERTEX
  5
1c3
  8
Layer_1
  10
318.18365
  20
34.2015
  0
VERTEX
  5
1c4
  8
Layer_1
  10
318.24966
  20
34.210999
  0
VERTEX
  5
1c5
  8
Layer_1
  10
318.3074
  20
34.227249
  0
VERTEX
  5
1c6
  8
Layer_1
  10
318.35666
  20
34.248001
  0
VERTEX
  5
1c7
  8
Layer_1
  10
318.4209
  20
34.285248
  0
VERTEX
  5
1c8
  8
Layer_1
  10
318.48016
  20
34.332249
  0
VERTEX
  5
1c9
  8
Layer_1
  10
318.52441
  20
34.3745
  0
VERTEX
  5
1ca
  8
Layer_1
  10
318.54739
  20
34.400501
  0
VERTEX
  5
1cb
  8
Layer_1
  10
318.58276
  20
34.447998
  0
VERTEX
  5
1cc
  8
Layer_1
  10
318.61966
  20
34.506248
  0
VERTEX
  5
1cd
  8
Layer_1
  10
318.65967
  20
34.585751
  0
VERTEX
  5
1ce
  8
Layer_1
  10
318.70364
  20
34.70475
  0
VERTEX
  5
1cf
  8
Layer_1
  10
318.73489
  20
34.826809
  0
VERTEX
  5
1d0
  8
Layer_1
  10
318.75323
  20
34.947056
  0
VERTEX
  5
1d1
  8
Layer_1
  10
318.76065
  20
35.118752
  0
VERTEX
  5
1d2
  8
Layer_1
  10
318.75424
  20
35.216
  0
VERTEX
  5
1d3
  8
Layer_1
  10
318.73239
  20
35.345501
  0
VERTEX
  5
1d4
  8
Layer_1
  10
318.67792
  20
35.522251
  0
VERTEX
  5
1d5
  8
Layer_1
  10
318.6109
  20
35.665749
  0
VERTEX
  5
1d6
  8
Layer_1
  10
318.56229
  20
35.741829
  0
VERTEX
  5
1d7
  8
Layer_1
  10
318.5249
  20
35.790001
  0
VERTEX
  5
1d8
  8
Layer_1
  10
318.49243
  20
35.824226
  0
VERTEX
  5
1d9
  8
Layer_1
  10
318.46191
  20
35.850857
  0
VERTEX
  5
1da
  8
Layer_1
  10
318.4339
  20
35.871002
  0
VERTEX
  5
1db
  8
Layer_1
  10
318.45639
  20
35.887501
  0
VERTEX
  5
1dc
  8
Layer_1
  10
318.49866
  20
35.923
  0
VERTEX
  5
1dd
  8
Layer_1
  10
318.55942
  20
35.990749
  0
VERTEX
  5
1de
  8
Layer_1
  10
318.59042
  20
36.036251
  0
VERTEX
  5
1df
  8
Layer_1
  10
318.61441
  20
36.07925
  0
VERTEX
  5
1e0
  8
Layer_1
  10
318.63641
  20
36.130501
  0
VERTEX
  5
1e1
  8
Layer_1
  10
318.66617
  20
36.21925
  0
VERTEX
  5
1e2
  8
Layer_1
  10
318.68491
  20
36.300499
  0
VERTEX
  5
1e3
  8
Layer_1
  10
318.70166
  20
36.418499
  0
VERTEX
  5
1e4
  8
Layer_1
  10
318.70667
  20
36.536251
  0
VERTEX
  5
1e5
  8
Layer_1
  10
318.69891
  20
36.697998
  0
VERTEX
  5
1e6
  8
Layer_1
  10
318.6759
  20
36.8344
  0
VERTEX
  5
1e7
  8
Layer_1
  10
318.6409
  20
36.958
  0
VERTEX
  5
1e8
  8
Layer_1
  10
318.60342
  20
37.052002
  0
VERTEX
  5
1e9
  8
Layer_1
  10
318.55789
  20
37.138
  0
VERTEX
  5
1ea
  8
Layer_1
  10
318.5119
  20
37.206001
  0
VERTEX
  5
1eb
  8
Layer_1
  10
318.47189
  20
37.252499
  0
VERTEX
  5
1ec
  8
Layer_1
  10
318.41541
  20
37.306252
  0
SEQEND
  0
POLYLINE
  5
1ee
  8
Layer_1
  62
5
  70
1
  66
1
  10
0
  20
0
  30
0
  0
VERTEX
  5
1ee
  8
Layer_1
  10
315.09491
  20
36.105
  0
VERTEX
  5
1ef
  8
Layer_1
  10
315.04617
  20
36.1105
  0
VERTEX
  5
1f0
  8
Layer_1
  10
315.01889
  20
36.118
  0
VERTEX
  5
1f1
  8
Layer_1
  10
315.00092
  20
36.1255
  0
VERTEX
  5
1f2
  8
Layer_1
  10
314.97141
  20
36.143501
  0
VERTEX
  5
1f3
  8
Layer_1
  10
314.94064
  20
36.168499
  0
VERTEX
  5
1f4
  8
Layer_1
  10
314.91541
  20
36.19725
  0
VERTEX
  5
1f5
  8
Layer_1
  10
314.88736
  20
36.239998
  0
VERTEX
  5
1f6
  8
Layer_1
  10
314.86365
  20
36.28825
  0
VERTEX
  5
1f7
  8
Layer_1
  10
314.84116
  20
36.353752
  0
VERTEX
  5
1f8
  8
Layer_1
  10
314.82767
  20
36.415749
  0
VERTEX
  5
1f9
  8
Layer_1
  10
314.81693
  20
36.514
  0
VERTEX
  5
1fa
  8
Layer_1
  10
314.8179
  20
36.626499
  0
VERTEX
  5
1fb
  8
Layer_1
  10
314.82541
  20
36.699001
  0
VERTEX
  5
1fc
  8
Layer_1
  10
314.84366
  20
36.78175
  0
VERTEX
  5
1fd
  8
Layer_1
  10
314.87466
  20
36.862999
  0
VERTEX
  5
1fe
  8
Layer_1
  10
314.90515
  20
36.916
  0
VERTEX
  5
1ff
  8
Layer_1
  10
314.93616
  20
36.95575
  0
VERTEX
  5
200
  8
Layer_1
  10
314.96567
  20
36.98275
  0
VERTEX
  5
201
  8
Layer_1
  10
314.97791
  20
36.991249
  0
VERTEX
  5
202
  8
Layer_1
  10
315.01392
  20
37.01075
  0
VERTEX
  5
203
  8
Layer_1
  10
315.05316
  20
37.022251
  0
VERTEX
  5
204
  8
Layer_1
  10
315.09192
  20
37.025768
  0
VERTEX
  5
205
  8
Layer_1
  10
316.14792
  20
37.026001
  0
VERTEX
  5
206
  8
Layer_1
  10
316.14792
  20
37.431
  0
VERTEX
  5
207
  8
Layer_1
  10
314.82791
  20
37.431
  0
VERTEX
  5
208
  8
Layer_1
  10
314.76691
  20
37.425999
  0
VERTEX
  5
209
  8
Layer_1
  10
314.72891
  20
37.418999
  0
VERTEX
  5
20a
  8
Layer_1
  10
314.6929
  20
37.409
  0
VERTEX
  5
20b
  8
Layer_1
  10
314.62289
  20
37.380001
  0
VERTEX
  5
20c
  8
Layer_1
  10
314.5899
  20
37.361
  0
VERTEX
  5
20d
  8
Layer_1
  10
314.55692
  20
37.339001
  0
VERTEX
  5
20e
  8
Layer_1
  10
314.51089
  20
37.302002
  0
VERTEX
  5
20f
  8
Layer_1
  10
314.4794
  20
37.271248
  0
VERTEX
  5
210
  8
Layer_1
  10
314.42642
  20
37.209999
  0
VERTEX
  5
211
  8
Layer_1
  10
314.3959
  20
37.168251
  0
VERTEX
  5
212
  8
Layer_1
  10
314.3674
  20
37.12225
  0
VERTEX
  5
213
  8
Layer_1
  10
314.32767
  20
37.043751
  0
VERTEX
  5
214
  8
Layer_1
  10
314.29391
  20
36.957249
  0
VERTEX
  5
215
  8
Layer_1
  10
314.26541
  20
36.863998
  0
VERTEX
  5
216
  8
Layer_1
  10
314.24316
  20
36.766251
  0
VERTEX
  5
217
  8
Layer_1
  10
314.22592
  20
36.644001
  0
VERTEX
  5
218
  8
Layer_1
  10
314.22217
  20
36.594498
  0
VERTEX
  5
219
  8
Layer_1
  10
314.2189
  20
36.511002
  0
VERTEX
  5
21a
  8
Layer_1
  10
314.22241
  20
36.391998
  0
VERTEX
  5
21b
  8
Layer_1
  10
314.23117
  20
36.2985
  0
VERTEX
  5
21c
  8
Layer_1
  10
314.24789
  20
36.19725
  0
VERTEX
  5
21d
  8
Layer_1
  10
314.27115
  20
36.108002
  0
VERTEX
  5
21e
  8
Layer_1
  10
314.29517
  20
36.037251
  0
VERTEX
  5
21f
  8
Layer_1
  10
314.31815
  20
35.981152
  0
VERTEX
  5
220
  8
Layer_1
  10
314.36667
  20
35.8895
  0
VERTEX
  5
221
  8
Layer_1
  10
314.3884
  20
35.856499
  0
VERTEX
  5
222
  8
Layer_1
  10
314.43991
  20
35.792751
  0
VERTEX
  5
223
  8
Layer_1
  10
314.47217
  20
35.75975
  0
VERTEX
  5
224
  8
Layer_1
  10
314.52292
  20
35.718498
  0
VERTEX
  5
225
  8
Layer_1
  10
314.58591
  20
35.677498
  0
VERTEX
  5
226
  8
Layer_1
  10
314.65967
  20
35.64225
  0
VERTEX
  5
227
  8
Layer_1
  10
314.72464
  20
35.621498
  0
VERTEX
  5
228
  8
Layer_1
  10
314.78867
  20
35.608749
  0
VERTEX
  5
229
  8
Layer_1
  10
314.86465
  20
35.601749
  0
VERTEX
  5
22a
  8
Layer_1
  10
315.26743
  20
35.600998
  0
VERTEX
  5
22b
  8
Layer_1
  10
315.37991
  20
35.593498
  0
VERTEX
  5
22c
  8
Layer_1
  10
315.47141
  20
35.5765
  0
VERTEX
  5
22d
  8
Layer_1
  10
315.5274
  20
35.5555
  0
VERTEX
  5
22e
  8
Layer_1
  10
315.56564
  20
35.536095
  0
VERTEX
  5
22f
  8
Layer_1
  10
315.60214
  20
35.510002
  0
VERTEX
  5
230
  8
Layer_1
  10
315.62466
  20
35.487251
  0
VERTEX
  5
231
  8
Layer_1
  10
315.63742
  20
35.470749
  0
VERTEX
  5
232
  8
Layer_1
  10
315.66541
  20
35.422501
  0
VERTEX
  5
233
  8
Layer_1
  10
315.68317
  20
35.373249
  0
VERTEX
  5
234
  8
Layer_1
  10
315.70416
  20
35.271
  0
VERTEX
  5
235
  8
Layer_1
  10
315.71292
  20
35.150249
  0
VERTEX
  5
236
  8
Layer_1
  10
315.70917
  20
35.043999
  0
VERTEX
  5
237
  8
Layer_1
  10
315.68866
  20
34.90575
  0
VERTEX
  5
238
  8
Layer_1
  10
315.66916
  20
34.838501
  0
VERTEX
  5
239
  8
Layer_1
  10
315.63391
  20
34.752998
  0
VERTEX
  5
23a
  8
Layer_1
  10
315.6109
  20
34.716
  0
VERTEX
  5
23b
  8
Layer_1
  10
315.57791
  20
34.674
  0
VERTEX
  5
23c
  8
Layer_1
  10
315.54266
  20
34.640499
  0
VERTEX
  5
23d
  8
Layer_1
  10
315.52664
  20
34.62825
  0
VERTEX
  5
23e
  8
Layer_1
  10
315.50342
  20
34.615501
  0
VERTEX
  5
23f
  8
Layer_1
  10
315.47491
  20
34.603001
  0
VERTEX
  5
240
  8
Layer_1
  10
315.44717
  20
34.596249
  0
VERTEX
  5
241
  8
Layer_1
  10
315.40689
  20
34.593002
  0
VERTEX
  5
242
  8
Layer_1
  10
314.33292
  20
34.593002
  0
VERTEX
  5
243
  8
Layer_1
  10
314.33292
  20
34.200001
  0
VERTEX
  5
244
  8
Layer_1
  10
315.67291
  20
34.200001
  0
VERTEX
  5
245
  8
Layer_1
  10
315.71716
  20
34.202248
  0
VERTEX
  5
246
  8
Layer_1
  10
315.78491
  20
34.214249
  0
VERTEX
  5
247
  8
Layer_1
  10
315.82791
  20
34.227001
  0
VERTEX
  5
248
  8
Layer_1
  10
315.86292
  20
34.242001
  0
VERTEX
  5
249
  8
Layer_1
  10
315.89792
  20
34.260002
  0
VERTEX
  5
24a
  8
Layer_1
  10
315.93091
  20
34.280998
  0
VERTEX
  5
24b
  8
Layer_1
  10
315.98917
  20
34.326
  0
VERTEX
  5
24c
  8
Layer_1
  10
316.02216
  20
34.35725
  0
VERTEX
  5
24d
  8
Layer_1
  10
316.07065
  20
34.413498
  0
VERTEX
  5
24e
  8
Layer_1
  10
316.12842
  20
34.495499
  0
VERTEX
  5
24f
  8
Layer_1
  10
316.15317
  20
34.540501
  0
VERTEX
  5
250
  8
Layer_1
  10
316.19165
  20
34.62125
  0
VERTEX
  5
251
  8
Layer_1
  10
316.20517
  20
34.656502
  0
VERTEX
  5
252
  8
Layer_1
  10
316.24142
  20
34.763252
  0
VERTEX
  5
253
  8
Layer_1
  10
316.26941
  20
34.87825
  0
VERTEX
  5
254
  8
Layer_1
  10
316.28116
  20
34.94875
  0
VERTEX
  5
255
  8
Layer_1
  10
316.29517
  20
35.05975
  0
VERTEX
  5
256
  8
Layer_1
  10
316.29916
  20
35.12225
  0
VERTEX
  5
257
  8
Layer_1
  10
316.30014
  20
35.24675
  0
VERTEX
  5
258
  8
Layer_1
  10
316.29416
  20
35.3465
  0
VERTEX
  5
259
  8
Layer_1
  10
316.28067
  20
35.452751
  0
VERTEX
  5
25a
  8
Layer_1
  10
316.25589
  20
35.574001
  0
VERTEX
  5
25b
  8
Layer_1
  10
316.2244
  20
35.668499
  0
VERTEX
  5
25c
  8
Layer_1
  10
316.17841
  20
35.771751
  0
VERTEX
  5
25d
  8
Layer_1
  10
316.13141
  20
35.852001
  0
VERTEX
  5
25e
  8
Layer_1
  10
316.11591
  20
35.872459
  0
VERTEX
  5
25f
  8
Layer_1
  10
316.0704
  20
35.924248
  0
VERTEX
  5
260
  8
Layer_1
  10
316.0249
  20
35.966499
  0
VERTEX
  5
261
  8
Layer_1
  10
315.97165
  20
36.007
  0
VERTEX
  5
262
  8
Layer_1
  10
315.90018
  20
36.047249
  0
VERTEX
  5
263
  8
Layer_1
  10
315.83041
  20
36.075001
  0
VERTEX
  5
264
  8
Layer_1
  10
315.76416
  20
36.092499
  0
VERTEX
  5
265
  8
Layer_1
  10
315.6694
  20
36.104248
  0
VERTEX
  5
266
  8
Layer_1
  10
315.09491
  20
36.105
  0
SEQEND
  0
POLYLINE
  5
268
  8
Layer_1
  62
5
  70
1
  66
1
  10
0
  20
0
  30
0
  0
VERTEX
  5
268
  8
Layer_1
  10
313.8364
  20
34.769001
  0
VERTEX
  5
269
  8
Layer_1
  10
313.85965
  20
34.895
  0
VERTEX
  5
26a
  8
Layer_1
  10
313.86893
  20
34.99675
  0
VERTEX
  5
26b
  8
Layer_1
  10
313.87039
  20
35.055252
  0
VERTEX
  5
26c
  8
Layer_1
  10
313.87091
  20
37.431
  0
VERTEX
  5
26d
  8
Layer_1
  10
313.2709
  20
37.431
  0
VERTEX
  5
26e
  8
Layer_1
  10
313.2709
  20
35.0625
  0
VERTEX
  5
26f
  8
Layer_1
  10
313.26941
  20
35.02425
  0
VERTEX
  5
270
  8
Layer_1
  10
313.2529
  20
34.902
  0
VERTEX
  5
271
  8
Layer_1
  10
313.23315
  20
34.832001
  0
VERTEX
  5
272
  8
Layer_1
  10
313.20493
  20
34.763
  0
VERTEX
  5
273
  8
Layer_1
  10
313.17392
  20
34.708
  0
VERTEX
  5
274
  8
Layer_1
  10
313.1499
  20
34.674999
  0
VERTEX
  5
275
  8
Layer_1
  10
313.10989
  20
34.635002
  0
VERTEX
  5
276
  8
Layer_1
  10
313.09491
  20
34.6245
  0
VERTEX
  5
277
  8
Layer_1
  10
313.04791
  20
34.601749
  0
VERTEX
  5
278
  8
Layer_1
  10
313.01416
  20
34.594498
  0
VERTEX
  5
279
  8
Layer_1
  10
312.62192
  20
34.594002
  0
VERTEX
  5
27a
  8
Layer_1
  10
312.5849
  20
34.600998
  0
VERTEX
  5
27b
  8
Layer_1
  10
312.5679
  20
34.607002
  0
VERTEX
  5
27c
  8
Layer_1
  10
312.5239
  20
34.632
  0
VERTEX
  5
27d
  8
Layer_1
  10
312.48489
  20
34.667999
  0
VERTEX
  5
27e
  8
Layer_1
  10
312.46091
  20
34.699001
  0
VERTEX
  5
27f
  8
Layer_1
  10
312.4339
  20
34.744999
  0
VERTEX
  5
280
  8
Layer_1
  10
312.39792
  20
34.8255
  0
VERTEX
  5
281
  8
Layer_1
  10
312.37991
  20
34.889999
  0
VERTEX
  5
282
  8
Layer_1
  10
312.3649
  20
34.991001
  0
VERTEX
  5
283
  8
Layer_1
  10
312.36191
  20
35.044998
  0
VERTEX
  5
284
  8
Layer_1
  10
312.36191
  20
37.431
  0
VERTEX
  5
285
  8
Layer_1
  10
311.7709
  20
37.431
  0
VERTEX
  5
286
  8
Layer_1
  10
311.7709
  20
35.072998
  0
VERTEX
  5
287
  8
Layer_1
  10
311.77341
  20
34.98275
  0
VERTEX
  5
288
  8
Layer_1
  10
311.78067
  20
34.895248
  0
VERTEX
  5
289
  8
Layer_1
  10
311.79666
  20
34.798
  0
VERTEX
  5
28a
  8
Layer_1
  10
311.81891
  20
34.705498
  0
VERTEX
  5
28b
  8
Layer_1
  10
311.84717
  20
34.619251
  0
VERTEX
  5
28c
  8
Layer_1
  10
311.88116
  20
34.540501
  0
VERTEX
  5
28d
  8
Layer_1
  10
311.92166
  20
34.46875
  0
VERTEX
  5
28e
  8
Layer_1
  10
311.93289
  20
34.452
  0
VERTEX
  5
28f
  8
Layer_1
  10
311.98141
  20
34.388748
  0
VERTEX
  5
290
  8
Layer_1
  10
312.0199
  20
34.348824
  0
VERTEX
  5
291
  8
Layer_1
  10
312.05692
  20
34.314999
  0
VERTEX
  5
292
  8
Layer_1
  10
312.08792
  20
34.292
  0
VERTEX
  5
293
  8
Layer_1
  10
312.1199
  20
34.271
  0
VERTEX
  5
294
  8
Layer_1
  10
312.15292
  20
34.251999
  0
VERTEX
  5
295
  8
Layer_1
  10
312.18591
  20
34.237
  0
VERTEX
  5
296
  8
Layer_1
  10
312.22189
  20
34.223999
  0
VERTEX
  5
297
  8
Layer_1
  10
312.30392
  20
34.206001
  0
VERTEX
  5
298
  8
Layer_1
  10
312.37564
  20
34.200249
  0
VERTEX
  5
299
  8
Layer_1
  10
313.24991
  20
34.200001
  0
VERTEX
  5
29a
  8
Layer_1
  10
313.31915
  20
34.204002
  0
VERTEX
  5
29b
  8
Layer_1
  10
313.38791
  20
34.217251
  0
VERTEX
  5
29c
  8
Layer_1
  10
313.43091
  20
34.23
  0
VERTEX
  5
29d
  8
Layer_1
  10
313.46591
  20
34.243999
  0
VERTEX
  5
29e
  8
Layer_1
  10
313.50967
  20
34.267502
  0
VERTEX
  5
29f
  8
Layer_1
  10
313.55591
  20
34.299511
  0
VERTEX
  5
2a0
  8
Layer_1
  10
313.5979
  20
34.333748
  0
VERTEX
  5
2a1
  8
Layer_1
  10
313.64966
  20
34.387001
  0
VERTEX
  5
2a2
  8
Layer_1
  10
313.68567
  20
34.432999
  0
VERTEX
  5
2a3
  8
Layer_1
  10
313.72015
  20
34.48325
  0
VERTEX
  5
2a4
  8
Layer_1
  10
313.7579
  20
34.549751
  0
VERTEX
  5
2a5
  8
Layer_1
  10
313.7869
  20
34.613998
  0
VERTEX
  5
2a6
  8
Layer_1
  10
313.80466
  20
34.660751
  0
VERTEX
  5
2a7
  8
Layer_1
  10
313.8364
  20
34.769001
  0
SEQEND
  0
POLYLINE
  5
2a9
  8
Layer_1
  62
5
  70
1
  66
1
  10
0
  20
0
  30
0
  0
VERTEX
  5
2a9
  8
Layer_1
  10
302.2142
  20
36.706749
  0
VERTEX
  5
2aa
  8
Layer_1
  10
302.18121
  20
36.719498
  0
VERTEX
  5
2ab
  8
Layer_1
  10
302.11993
  20
36.736252
  0
VERTEX
  5
2ac
  8
Layer_1
  10
302.0387
  20
36.750748
  0
VERTEX
  5
2ad
  8
Layer_1
  10
301.91571
  20
36.760498
  0
VERTEX
  5
2ae
  8
Layer_1
  10
300.42569
  20
36.762001
  0
VERTEX
  5
2af
  8
Layer_1
  10
300.42569
  20
34.200001
  0
VERTEX
  5
2b0
  8
Layer_1
  10
301.04669
  20
34.200001
  0
VERTEX
  5
2b1
  8
Layer_1
  10
301.04669
  20
36.357002
  0
VERTEX
  5
2b2
  8
Layer_1
  10
301.66168
  20
36.357002
  0
VERTEX
  5
2b3
  8
Layer_1
  10
301.70221
  20
36.354
  0
VERTEX
  5
2b4
  8
Layer_1
  10
301.75793
  20
36.3405
  0
VERTEX
  5
2b5
  8
Layer_1
  10
301.78244
  20
36.32975
  0
VERTEX
  5
2b6
  8
Layer_1
  10
301.80371
  20
36.316002
  0
VERTEX
  5
2b7
  8
Layer_1
  10
301.82446
  20
36.298248
  0
VERTEX
  5
2b8
  8
Layer_1
  10
301.84744
  20
36.269249
  0
VERTEX
  5
2b9
  8
Layer_1
  10
301.86145
  20
36.239998
  0
VERTEX
  5
2ba
  8
Layer_1
  10
301.87671
  20
36.196999
  0
VERTEX
  5
2bb
  8
Layer_1
  10
301.89069
  20
36.132
  0
VERTEX
  5
2bc
  8
Layer_1
  10
301.90143
  20
35.942249
  0
VERTEX
  5
2bd
  8
Layer_1
  10
301.9017
  20
34.200001
  0
VERTEX
  5
2be
  8
Layer_1
  10
302.5137
  20
34.200001
  0
VERTEX
  5
2bf
  8
Layer_1
  10
302.5137
  20
35.970001
  0
VERTEX
  5
2c0
  8
Layer_1
  10
302.50845
  20
36.127998
  0
VERTEX
  5
2c1
  8
Layer_1
  10
302.5007
  20
36.2145
  0
VERTEX
  5
2c2
  8
Layer_1
  10
302.48218
  20
36.331501
  0
VERTEX
  5
2c3
  8
Layer_1
  10
302.45996
  20
36.416748
  0
VERTEX
  5
2c4
  8
Layer_1
  10
302.43069
  20
36.492001
  0
VERTEX
  5
2c5
  8
Layer_1
  10
302.40869
  20
36.535
  0
VERTEX
  5
2c6
  8
Layer_1
  10
302.38971
  20
36.566002
  0
VERTEX
  5
2c7
  8
Layer_1
  10
302.36871
  20
36.593002
  0
VERTEX
  5
2c8
  8
Layer_1
  10
302.32843
  20
36.63475
  0
VERTEX
  5
2c9
  8
Layer_1
  10
302.2692
  20
36.678749
  0
VERTEX
  5
2ca
  8
Layer_1
  10
302.2142
  20
36.706749
  0
SEQEND
  0
POLYLINE
  5
2cc
  8
Layer_1
  62
5
  70
1
  66
1
  10
0
  20
0
  30
0
  0
VERTEX
  5
2cc
  8
Layer_1
  10
288.9567
  20
36.762001
  0
VERTEX
  5
2cd
  8
Layer_1
  10
288.24869
  20
36.762001
  0
VERTEX
  5
2ce
  8
Layer_1
  10
288.24869
  20
36.357002
  0
VERTEX
  5
2cf
  8
Layer_1
  10
288.9567
  20
36.357002
  0
VERTEX
  5
2d0
  8
Layer_1
  10
288.9567
  20
34.593002
  0
VERTEX
  5
2d1
  8
Layer_1
  10
288.24869
  20
34.593002
  0
VERTEX
  5
2d2
  8
Layer_1
  10
288.24869
  20
34.200001
  0
VERTEX
  5
2d3
  8
Layer_1
  10
290.27069
  20
34.200001
  0
VERTEX
  5
2d4
  8
Layer_1
  10
290.27069
  20
34.593002
  0
VERTEX
  5
2d5
  8
Layer_1
  10
289.57471
  20
34.593002
  0
VERTEX
  5
2d6
  8
Layer_1
  10
289.57471
  20
36.762001
  0
VERTEX
  5
2d7
  8
Layer_1
  10
288.9567
  20
36.762001
  0
SEQEND
  0
POLYLINE
  5
2d9
  8
Layer_1
  62
5
  70
1
  66
1
  10
0
  20
0
  30
0
  0
VERTEX
  5
2d9
  8
Layer_1
  10
290.82721
  20
34.4105
  0
VERTEX
  5
2da
  8
Layer_1
  10
290.8512
  20
34.378998
  0
VERTEX
  5
2db
  8
Layer_1
  10
290.87695
  20
34.351501
  0
VERTEX
  5
2dc
  8
Layer_1
  10
290.91895
  20
34.314499
  0
VERTEX
  5
2dd
  8
Layer_1
  10
290.9657
  20
34.282249
  0
VERTEX
  5
2de
  8
Layer_1
  10
291.0072
  20
34.26025
  0
VERTEX
  5
2df
  8
Layer_1
  10
291.06119
  20
34.23925
  0
VERTEX
  5
2e0
  8
Layer_1
  10
291.12421
  20
34.221001
  0
VERTEX
  5
2e1
  8
Layer_1
  10
291.20694
  20
34.207001
  0
VERTEX
  5
2e2
  8
Layer_1
  10
291.2767
  20
34.201752
  0
VERTEX
  5
2e3
  8
Layer_1
  10
292.73669
  20
34.200001
  0
VERTEX
  5
2e4
  8
Layer_1
  10
292.73669
  20
37.577999
  0
VERTEX
  5
2e5
  8
Layer_1
  10
292.11871
  20
37.577999
  0
VERTEX
  5
2e6
  8
Layer_1
  10
292.11871
  20
36.762001
  0
VERTEX
  5
2e7
  8
Layer_1
  10
291.33868
  20
36.762001
  0
VERTEX
  5
2e8
  8
Layer_1
  10
291.26376
  20
36.759201
  0
VERTEX
  5
2e9
  8
Layer_1
  10
291.18768
  20
36.750748
  0
VERTEX
  5
2ea
  8
Layer_1
  10
291.12335
  20
36.738621
  0
VERTEX
  5
2eb
  8
Layer_1
  10
291.0267
  20
36.707001
  0
VERTEX
  5
2ec
  8
Layer_1
  10
290.9917
  20
36.692001
  0
VERTEX
  5
2ed
  8
Layer_1
  10
290.9277
  20
36.652252
  0
VERTEX
  5
2ee
  8
Layer_1
  10
290.87695
  20
36.609749
  0
VERTEX
  5
2ef
  8
Layer_1
  10
290.84668
  20
36.577
  0
VERTEX
  5
2f0
  8
Layer_1
  10
290.80869
  20
36.526001
  0
VERTEX
  5
2f1
  8
Layer_1
  10
290.77795
  20
36.472252
  0
VERTEX
  5
2f2
  8
Layer_1
  10
290.74045
  20
36.382
  0
VERTEX
  5
2f3
  8
Layer_1
  10
290.72119
  20
36.317749
  0
VERTEX
  5
2f4
  8
Layer_1
  10
290.69345
  20
36.181999
  0
VERTEX
  5
2f5
  8
Layer_1
  10
290.68445
  20
36.109249
  0
VERTEX
  5
2f6
  8
Layer_1
  10
290.67444
  20
35.952
  0
VERTEX
  5
2f7
  8
Layer_1
  10
290.6727
  20
35.094002
  0
VERTEX
  5
2f8
  8
Layer_1
  10
290.67844
  20
34.919502
  0
VERTEX
  5
2f9
  8
Layer_1
  10
290.68893
  20
34.813999
  0
VERTEX
  5
2fa
  8
Layer_1
  10
290.70145
  20
34.729752
  0
VERTEX
  5
2fb
  8
Layer_1
  10
290.73621
  20
34.591
  0
VERTEX
  5
2fc
  8
Layer_1
  10
290.76419
  20
34.51825
  0
VERTEX
  5
2fd
  8
Layer_1
  10
290.79321
  20
34.460251
  0
VERTEX
  5
2fe
  8
Layer_1
  10
290.82721
  20
34.4105
  0
SEQEND
  0
POLYLINE
  5
300
  8
Layer_1
  62
5
  70
1
  66
1
  10
0
  20
0
  30
0
  0
VERTEX
  5
300
  8
Layer_1
  10
287.31421
  20
36.24025
  0
VERTEX
  5
301
  8
Layer_1
  10
287.33939
  20
36.154209
  0
VERTEX
  5
302
  8
Layer_1
  10
287.34894
  20
36.064999
  0
VERTEX
  5
303
  8
Layer_1
  10
287.35443
  20
35.942249
  0
VERTEX
  5
304
  8
Layer_1
  10
287.35471
  20
34.200001
  0
VERTEX
  5
305
  8
Layer_1
  10
287.89468
  20
34.200001
  0
VERTEX
  5
306
  8
Layer_1
  10
287.89468
  20
35.970001
  0
VERTEX
  5
307
  8
Layer_1
  10
287.89319
  20
36.039749
  0
VERTEX
  5
308
  8
Layer_1
  10
287.88763
  20
36.151409
  0
VERTEX
  5
309
  8
Layer_1
  10
287.8812
  20
36.220749
  0
VERTEX
  5
30a
  8
Layer_1
  10
287.8667
  20
36.30975
  0
VERTEX
  5
30b
  8
Layer_1
  10
287.84619
  20
36.392502
  0
VERTEX
  5
30c
  8
Layer_1
  10
287.82645
  20
36.451752
  0
VERTEX
  5
30d
  8
Layer_1
  10
287.81744
  20
36.472
  0
VERTEX
  5
30e
  8
Layer_1
  10
287.78445
  20
36.535
  0
VERTEX
  5
30f
  8
Layer_1
  10
287.7587
  20
36.572998
  0
VERTEX
  5
310
  8
Layer_1
  10
287.73569
  20
36.599998
  0
VERTEX
  5
311
  8
Layer_1
  10
287.71069
  20
36.625
  0
VERTEX
  5
312
  8
Layer_1
  10
287.68369
  20
36.646999
  0
VERTEX
  5
313
  8
Layer_1
  10
287.6557
  20
36.667
  0
VERTEX
  5
314
  8
Layer_1
  10
287.62469
  20
36.685001
  0
VERTEX
  5
315
  8
Layer_1
  10
287.59271
  20
36.701
  0
VERTEX
  5
316
  8
Layer_1
  10
287.53168
  20
36.723
  0
VERTEX
  5
317
  8
Layer_1
  10
287.45093
  20
36.741749
  0
VERTEX
  5
318
  8
Layer_1
  10
287.38422
  20
36.751999
  0
VERTEX
  5
319
  8
Layer_1
  10
287.31268
  20
36.758999
  0
VERTEX
  5
31a
  8
Layer_1
  10
287.22571
  20
36.762001
  0
VERTEX
  5
31b
  8
Layer_1
  10
285.74969
  20
36.762001
  0
VERTEX
  5
31c
  8
Layer_1
  10
285.74969
  20
34.200001
  0
VERTEX
  5
31d
  8
Layer_1
  10
286.3107
  20
34.200001
  0
VERTEX
  5
31e
  8
Layer_1
  10
286.3107
  20
36.357002
  0
VERTEX
  5
31f
  8
Layer_1
  10
286.59271
  20
36.357002
  0
VERTEX
  5
320
  8
Layer_1
  10
286.59271
  20
34.200001
  0
VERTEX
  5
321
  8
Layer_1
  10
287.0127
  20
34.200001
  0
VERTEX
  5
322
  8
Layer_1
  10
287.0127
  20
36.357002
  0
VERTEX
  5
323
  8
Layer_1
  10
287.11621
  20
36.357002
  0
VERTEX
  5
324
  8
Layer_1
  10
287.15619
  20
36.353752
  0
VERTEX
  5
325
  8
Layer_1
  10
287.18893
  20
36.3465
  0
VERTEX
  5
326
  8
Layer_1
  10
287.24469
  20
36.325001
  0
VERTEX
  5
327
  8
Layer_1
  10
287.27594
  20
36.2995
  0
VERTEX
  5
328
  8
Layer_1
  10
287.29871
  20
36.272999
  0
VERTEX
  5
329
  8
Layer_1
  10
287.31421
  20
36.24025
  0
SEQEND
  0
POLYLINE
  5
32b
  8
Layer_1
  62
5
  70
1
  66
1
  10
0
  20
0
  30
0
  0
VERTEX
  5
32b
  8
Layer_1
  10
278.68518
  20
34.599998
  0
VERTEX
  5
32c
  8
Layer_1
  10
278.64944
  20
34.609249
  0
VERTEX
  5
32d
  8
Layer_1
  10
278.6232
  20
34.621002
  0
VERTEX
  5
32e
  8
Layer_1
  10
278.60471
  20
34.633999
  0
VERTEX
  5
32f
  8
Layer_1
  10
278.58868
  20
34.649002
  0
VERTEX
  5
330
  8
Layer_1
  10
278.57669
  20
34.665001
  0
VERTEX
  5
331
  8
Layer_1
  10
278.56171
  20
34.693001
  0
VERTEX
  5
332
  8
Layer_1
  10
278.54495
  20
34.743
  0
VERTEX
  5
333
  8
Layer_1
  10
278.53268
  20
34.813499
  0
VERTEX
  5
334
  8
Layer_1
  10
278.52719
  20
34.868
  0
VERTEX
  5
335
  8
Layer_1
  10
278.52194
  20
35.012249
  0
VERTEX
  5
336
  8
Layer_1
  10
278.5217
  20
36.762001
  0
VERTEX
  5
337
  8
Layer_1
  10
277.90668
  20
36.762001
  0
VERTEX
  5
338
  8
Layer_1
  10
277.90668
  20
34.978001
  0
VERTEX
  5
339
  8
Layer_1
  10
277.90918
  20
34.876251
  0
VERTEX
  5
33a
  8
Layer_1
  10
277.91745
  20
34.7635
  0
VERTEX
  5
33b
  8
Layer_1
  10
277.93069
  20
34.661999
  0
VERTEX
  5
33c
  8
Layer_1
  10
277.95093
  20
34.573502
  0
VERTEX
  5
33d
  8
Layer_1
  10
277.96945
  20
34.516998
  0
VERTEX
  5
33e
  8
Layer_1
  10
277.99768
  20
34.450752
  0
VERTEX
  5
33f
  8
Layer_1
  10
278.0397
  20
34.385002
  0
VERTEX
  5
340
  8
Layer_1
  10
278.0867
  20
34.334
  0
VERTEX
  5
341
  8
Layer_1
  10
278.1127
  20
34.312
  0
VERTEX
  5
342
  8
Layer_1
  10
278.16769
  20
34.275002
  0
VERTEX
  5
343
  8
Layer_1
  10
278.23419
  20
34.244251
  0
VERTEX
  5
344
  8
Layer_1
  10
278.30243
  20
34.22525
  0
VERTEX
  5
345
  8
Layer_1
  10
278.40393
  20
34.2085
  0
VERTEX
  5
346
  8
Layer_1
  10
278.54794
  20
34.200001
  0
VERTEX
  5
347
  8
Layer_1
  10
280.00671
  20
34.200001
  0
VERTEX
  5
348
  8
Layer_1
  10
280.00671
  20
36.762001
  0
VERTEX
  5
349
  8
Layer_1
  10
279.38568
  20
36.762001
  0
VERTEX
  5
34a
  8
Layer_1
  10
279.38568
  20
34.593002
  0
VERTEX
  5
34b
  8
Layer_1
  10
278.76471
  20
34.593002
  0
VERTEX
  5
34c
  8
Layer_1
  10
278.68518
  20
34.599998
  0
SEQEND
  0
POLYLINE
  5
34e
  8
Layer_1
  62
5
  70
1
  66
1
  10
0
  20
0
  30
0
  0
VERTEX
  5
34e
  8
Layer_1
  10
276.38596
  20
36.347748
  0
VERTEX
  5
34f
  8
Layer_1
  10
276.45169
  20
36.3535
  0
VERTEX
  5
350
  8
Layer_1
  10
276.5307
  20
36.35675
  0
VERTEX
  5
351
  8
Layer_1
  10
277.48071
  20
36.357002
  0
VERTEX
  5
352
  8
Layer_1
  10
277.48071
  20
36.762001
  0
VERTEX
  5
353
  8
Layer_1
  10
276.36993
  20
36.76125
  0
VERTEX
  5
354
  8
Layer_1
  10
276.25394
  20
36.75425
  0
VERTEX
  5
355
  8
Layer_1
  10
276.1467
  20
36.74025
  0
VERTEX
  5
356
  8
Layer_1
  10
276.04495
  20
36.717251
  0
VERTEX
  5
357
  8
Layer_1
  10
275.95844
  20
36.688999
  0
VERTEX
  5
358
  8
Layer_1
  10
275.90668
  20
36.667
  0
VERTEX
  5
359
  8
Layer_1
  10
275.86768
  20
36.646999
  0
VERTEX
  5
35a
  8
Layer_1
  10
275.83069
  20
36.625
  0
VERTEX
  5
35b
  8
Layer_1
  10
275.79669
  20
36.600998
  0
VERTEX
  5
35c
  8
Layer_1
  10
275.76471
  20
36.576
  0
VERTEX
  5
35d
  8
Layer_1
  10
275.73468
  20
36.548
  0
VERTEX
  5
35e
  8
Layer_1
  10
275.7077
  20
36.519001
  0
VERTEX
  5
35f
  8
Layer_1
  10
275.6817
  20
36.487
  0
VERTEX
  5
360
  8
Layer_1
  10
275.65869
  20
36.452
  0
VERTEX
  5
361
  8
Layer_1
  10
275.6377
  20
36.416
  0
VERTEX
  5
362
  8
Layer_1
  10
275.6077
  20
36.347351
  0
VERTEX
  5
363
  8
Layer_1
  10
275.58868
  20
36.292
  0
VERTEX
  5
364
  8
Layer_1
  10
275.57669
  20
36.246002
  0
VERTEX
  5
365
  8
Layer_1
  10
275.56671
  20
36.197998
  0
VERTEX
  5
366
  8
Layer_1
  10
275.55719
  20
36.133751
  0
VERTEX
  5
367
  8
Layer_1
  10
275.55045
  20
36.05275
  0
VERTEX
  5
368
  8
Layer_1
  10
275.54871
  20
34.200001
  0
VERTEX
  5
369
  8
Layer_1
  10
276.16669
  20
34.200001
  0
VERTEX
  5
36a
  8
Layer_1
  10
276.16669
  20
35.93475
  0
VERTEX
  5
36b
  8
Layer_1
  10
276.16968
  20
36.027748
  0
VERTEX
  5
36c
  8
Layer_1
  10
276.17844
  20
36.116749
  0
VERTEX
  5
36d
  8
Layer_1
  10
276.19171
  20
36.186501
  0
VERTEX
  5
36e
  8
Layer_1
  10
276.20718
  20
36.23225
  0
VERTEX
  5
36f
  8
Layer_1
  10
276.22693
  20
36.26675
  0
VERTEX
  5
370
  8
Layer_1
  10
276.25143
  20
36.293999
  0
VERTEX
  5
371
  8
Layer_1
  10
276.27994
  20
36.315498
  0
VERTEX
  5
372
  8
Layer_1
  10
276.30069
  20
36.326
  0
VERTEX
  5
373
  8
Layer_1
  10
276.33771
  20
36.339001
  0
VERTEX
  5
374
  8
Layer_1
  10
276.38596
  20
36.347748
  0
SEQEND
  0
POLYLINE
  5
376
  8
Layer_1
  62
5
  70
1
  66
1
  10
0
  20
0
  30
0
  0
VERTEX
  5
376
  8
Layer_1
  10
273.6467
  20
36.762001
  0
VERTEX
  5
377
  8
Layer_1
  10
273.6467
  20
37.577999
  0
VERTEX
  5
378
  8
Layer_1
  10
273.02271
  20
37.577999
  0
VERTEX
  5
379
  8
Layer_1
  10
273.02271
  20
34.200001
  0
VERTEX
  5
37a
  8
Layer_1
  10
273.6467
  20
34.200001
  0
VERTEX
  5
37b
  8
Layer_1
  10
273.6467
  20
36.357002
  0
VERTEX
  5
37c
  8
Layer_1
  10
274.26169
  20
36.357002
  0
VERTEX
  5
37d
  8
Layer_1
  10
274.3027
  20
36.354
  0
VERTEX
  5
37e
  8
Layer_1
  10
274.35321
  20
36.343498
  0
VERTEX
  5
37f
  8
Layer_1
  10
274.38171
  20
36.333252
  0
VERTEX
  5
380
  8
Layer_1
  10
274.4032
  20
36.319252
  0
VERTEX
  5
381
  8
Layer_1
  10
274.42371
  20
36.302002
  0
VERTEX
  5
382
  8
Layer_1
  10
274.44769
  20
36.269249
  0
VERTEX
  5
383
  8
Layer_1
  10
274.4707
  20
36.216999
  0
VERTEX
  5
384
  8
Layer_1
  10
274.48544
  20
36.1605
  0
VERTEX
  5
385
  8
Layer_1
  10
274.49646
  20
36.057251
  0
VERTEX
  5
386
  8
Layer_1
  10
274.50143
  20
35.938
  0
VERTEX
  5
387
  8
Layer_1
  10
274.50171
  20
34.200001
  0
VERTEX
  5
388
  8
Layer_1
  10
275.12268
  20
34.200001
  0
VERTEX
  5
389
  8
Layer_1
  10
275.12268
  20
35.993999
  0
VERTEX
  5
38a
  8
Layer_1
  10
275.12048
  20
36.06123
  0
VERTEX
  5
38b
  8
Layer_1
  10
275.11218
  20
36.180748
  0
VERTEX
  5
38c
  8
Layer_1
  10
275.10245
  20
36.268501
  0
VERTEX
  5
38d
  8
Layer_1
  10
275.0957
  20
36.304703
  0
VERTEX
  5
38e
  8
Layer_1
  10
275.0777
  20
36.382
  0
VERTEX
  5
38f
  8
Layer_1
  10
275.0517
  20
36.457249
  0
VERTEX
  5
390
  8
Layer_1
  10
275.02496
  20
36.512749
  0
VERTEX
  5
391
  8
Layer_1
  10
274.99194
  20
36.565498
  0
VERTEX
  5
392
  8
Layer_1
  10
274.96893
  20
36.594749
  0
VERTEX
  5
393
  8
Layer_1
  10
274.94196
  20
36.622749
  0
VERTEX
  5
394
  8
Layer_1
  10
274.91943
  20
36.641502
  0
VERTEX
  5
395
  8
Layer_1
  10
274.86694
  20
36.678501
  0
VERTEX
  5
396
  8
Layer_1
  10
274.80145
  20
36.709499
  0
VERTEX
  5
397
  8
Layer_1
  10
274.73944
  20
36.729
  0
VERTEX
  5
398
  8
Layer_1
  10
274.6492
  20
36.747749
  0
VERTEX
  5
399
  8
Layer_1
  10
274.61578
  20
36.751999
  0
VERTEX
  5
39a
  8
Layer_1
  10
274.51593
  20
36.76025
  0
VERTEX
  5
39b
  8
Layer_1
  10
273.6467
  20
36.762001
  0
SEQEND
  0
POLYLINE
  5
39d
  8
Layer_1
  62
5
  70
1
  66
1
  10
0
  20
0
  30
0
  0
VERTEX
  5
39d
  8
Layer_1
  10
271.8407
  20
36.357002
  0
VERTEX
  5
39e
  8
Layer_1
  10
272.64468
  20
36.357002
  0
VERTEX
  5
39f
  8
Layer_1
  10
272.64468
  20
36.762001
  0
VERTEX
  5
3a0
  8
Layer_1
  10
271.8407
  20
36.762001
  0
VERTEX
  5
3a1
  8
Layer_1
  10
271.8407
  20
37.431
  0
VERTEX
  5
3a2
  8
Layer_1
  10
271.21069
  20
37.431
  0
VERTEX
  5
3a3
  8
Layer_1
  10
271.21069
  20
36.762001
  0
VERTEX
  5
3a4
  8
Layer_1
  10
270.6167
  20
36.762001
  0
VERTEX
  5
3a5
  8
Layer_1
  10
270.6167
  20
36.357002
  0
VERTEX
  5
3a6
  8
Layer_1
  10
271.21069
  20
36.357002
  0
VERTEX
  5
3a7
  8
Layer_1
  10
271.21069
  20
34.877998
  0
VERTEX
  5
3a8
  8
Layer_1
  10
271.21671
  20
34.708252
  0
VERTEX
  5
3a9
  8
Layer_1
  10
271.2272
  20
34.611748
  0
VERTEX
  5
3aa
  8
Layer_1
  10
271.25195
  20
34.496002
  0
VERTEX
  5
3ab
  8
Layer_1
  10
271.27496
  20
34.433998
  0
VERTEX
  5
3ac
  8
Layer_1
  10
271.29248
  20
34.402206
  0
VERTEX
  5
3ad
  8
Layer_1
  10
271.32721
  20
34.354
  0
VERTEX
  5
3ae
  8
Layer_1
  10
271.3717
  20
34.311501
  0
VERTEX
  5
3af
  8
Layer_1
  10
271.42245
  20
34.277
  0
VERTEX
  5
3b0
  8
Layer_1
  10
271.4577
  20
34.258999
  0
VERTEX
  5
3b1
  8
Layer_1
  10
271.52969
  20
34.234501
  0
VERTEX
  5
3b2
  8
Layer_1
  10
271.59021
  20
34.2215
  0
VERTEX
  5
3b3
  8
Layer_1
  10
271.69318
  20
34.2075
  0
VERTEX
  5
3b4
  8
Layer_1
  10
271.83044
  20
34.2005
  0
VERTEX
  5
3b5
  8
Layer_1
  10
272.29669
  20
34.200001
  0
VERTEX
  5
3b6
  8
Layer_1
  10
272.29669
  20
34.593002
  0
VERTEX
  5
3b7
  8
Layer_1
  10
272.13068
  20
34.597
  0
VERTEX
  5
3b8
  8
Layer_1
  10
272.02271
  20
34.604
  0
VERTEX
  5
3b9
  8
Layer_1
  10
271.97943
  20
34.612499
  0
VERTEX
  5
3ba
  8
Layer_1
  10
271.9277
  20
34.632
  0
VERTEX
  5
3bb
  8
Layer_1
  10
271.90149
  20
34.649162
  0
VERTEX
  5
3bc
  8
Layer_1
  10
271.88043
  20
34.671501
  0
VERTEX
  5
3bd
  8
Layer_1
  10
271.85895
  20
34.715
  0
VERTEX
  5
3be
  8
Layer_1
  10
271.84445
  20
34.818249
  0
VERTEX
  5
3bf
  8
Layer_1
  10
271.8407
  20
34.94825
  0
VERTEX
  5
3c0
  8
Layer_1
  10
271.8407
  20
36.357002
  0
SEQEND
  0
POLYLINE
  5
3c2
  8
Layer_1
  62
5
  70
1
  66
1
  10
0
  20
0
  30
0
  0
VERTEX
  5
3c2
  8
Layer_1
  10
264.71869
  20
36.762001
  0
VERTEX
  5
3c3
  8
Layer_1
  10
263.94171
  20
36.762001
  0
VERTEX
  5
3c4
  8
Layer_1
  10
263.86771
  20
36.760002
  0
VERTEX
  5
3c5
  8
Layer_1
  10
263.79996
  20
36.752499
  0
VERTEX
  5
3c6
  8
Layer_1
  10
263.71695
  20
36.7365
  0
VERTEX
  5
3c7
  8
Layer_1
  10
263.66074
  20
36.71981
  0
VERTEX
  5
3c8
  8
Layer_1
  10
263.59619
  20
36.694
  0
VERTEX
  5
3c9
  8
Layer_1
  10
263.55969
  20
36.673
  0
VERTEX
  5
3ca
  8
Layer_1
  10
263.5137
  20
36.641998
  0
VERTEX
  5
3cb
  8
Layer_1
  10
263.47913
  20
36.611725
  0
VERTEX
  5
3cc
  8
Layer_1
  10
263.4437
  20
36.573502
  0
VERTEX
  5
3cd
  8
Layer_1
  10
263.40421
  20
36.51825
  0
VERTEX
  5
3ce
  8
Layer_1
  10
263.37921
  20
36.474251
  0
VERTEX
  5
3cf
  8
Layer_1
  10
263.3472
  20
36.402252
  0
VERTEX
  5
3d0
  8
Layer_1
  10
263.32294
  20
36.32325
  0
VERTEX
  5
3d1
  8
Layer_1
  10
263.30423
  20
36.239998
  0
VERTEX
  5
3d2
  8
Layer_1
  10
263.28769
  20
36.137249
  0
VERTEX
  5
3d3
  8
Layer_1
  10
263.27942
  20
36.05125
  0
VERTEX
  5
3d4
  8
Layer_1
  10
263.27295
  20
35.88575
  0
VERTEX
  5
3d5
  8
Layer_1
  10
263.27271
  20
35.068501
  0
VERTEX
  5
3d6
  8
Layer_1
  10
263.27594
  20
34.961998
  0
VERTEX
  5
3d7
  8
Layer_1
  10
263.28519
  20
34.842251
  0
VERTEX
  5
3d8
  8
Layer_1
  10
263.29468
  20
34.774002
  0
VERTEX
  5
3d9
  8
Layer_1
  10
263.31894
  20
34.650249
  0
VERTEX
  5
3da
  8
Layer_1
  10
263.34796
  20
34.556751
  0
VERTEX
  5
3db
  8
Layer_1
  10
263.38019
  20
34.484749
  0
VERTEX
  5
3dc
  8
Layer_1
  10
263.41071
  20
34.432499
  0
VERTEX
  5
3dd
  8
Layer_1
  10
263.43469
  20
34.399002
  0
VERTEX
  5
3de
  8
Layer_1
  10
263.46194
  20
34.366501
  0
VERTEX
  5
3df
  8
Layer_1
  10
263.5032
  20
34.328251
  0
VERTEX
  5
3e0
  8
Layer_1
  10
263.54895
  20
34.293499
  0
VERTEX
  5
3e1
  8
Layer_1
  10
263.58368
  20
34.272499
  0
VERTEX
  5
3e2
  8
Layer_1
  10
263.62671
  20
34.251999
  0
VERTEX
  5
3e3
  8
Layer_1
  10
263.6637
  20
34.237999
  0
VERTEX
  5
3e4
  8
Layer_1
  10
263.70169
  20
34.227001
  0
VERTEX
  5
3e5
  8
Layer_1
  10
263.75244
  20
34.215248
  0
VERTEX
  5
3e6
  8
Layer_1
  10
263.81845
  20
34.206249
  0
VERTEX
  5
3e7
  8
Layer_1
  10
263.87671
  20
34.201752
  0
VERTEX
  5
3e8
  8
Layer_1
  10
265.3367
  20
34.200001
  0
VERTEX
  5
3e9
  8
Layer_1
  10
265.3367
  20
37.577999
  0
VERTEX
  5
3ea
  8
Layer_1
  10
264.71869
  20
37.577999
  0
VERTEX
  5
3eb
  8
Layer_1
  10
264.71869
  20
36.762001
  0
SEQEND
  0
POLYLINE
  5
3ed
  8
Layer_1
  62
5
  70
1
  66
1
  10
0
  20
0
  30
0
  0
VERTEX
  5
3ed
  8
Layer_1
  10
266.4407
  20
36.357002
  0
VERTEX
  5
3ee
  8
Layer_1
  10
266.4407
  20
34.593002
  0
VERTEX
  5
3ef
  8
Layer_1
  10
265.7327
  20
34.593002
  0
VERTEX
  5
3f0
  8
Layer_1
  10
265.7327
  20
34.200001
  0
VERTEX
  5
3f1
  8
Layer_1
  10
267.7547
  20
34.200001
  0
VERTEX
  5
3f2
  8
Layer_1
  10
267.7547
  20
34.593002
  0
VERTEX
  5
3f3
  8
Layer_1
  10
267.05869
  20
34.593002
  0
VERTEX
  5
3f4
  8
Layer_1
  10
267.05869
  20
36.762001
  0
VERTEX
  5
3f5
  8
Layer_1
  10
265.7327
  20
36.762001
  0
VERTEX
  5
3f6
  8
Layer_1
  10
265.7327
  20
36.357002
  0
VERTEX
  5
3f7
  8
Layer_1
  10
266.4407
  20
36.357002
  0
SEQEND
  0
POLYLINE
  5
3f9
  8
Layer_1
  62
5
  70
1
  66
1
  10
0
  20
0
  30
0
  0
VERTEX
  5
3f9
  8
Layer_1
  10
261.5567
  20
36.357002
  0
VERTEX
  5
3fa
  8
Layer_1
  10
261.5567
  20
34.593002
  0
VERTEX
  5
3fb
  8
Layer_1
  10
260.84869
  20
34.593002
  0
VERTEX
  5
3fc
  8
Layer_1
  10
260.84869
  20
34.200001
  0
VERTEX
  5
3fd
  8
Layer_1
  10
262.8707
  20
34.200001
  0
VERTEX
  5
3fe
  8
Layer_1
  10
262.8707
  20
34.593002
  0
VERTEX
  5
3ff
  8
Layer_1
  10
262.17468
  20
34.593002
  0
VERTEX
  5
400
  8
Layer_1
  10
262.17468
  20
36.762001
  0
VERTEX
  5
401
  8
Layer_1
  10
260.84869
  20
36.762001
  0
VERTEX
  5
402
  8
Layer_1
  10
260.84869
  20
36.357002
  0
VERTEX
  5
403
  8
Layer_1
  10
261.5567
  20
36.357002
  0
SEQEND
  0
POLYLINE
  5
405
  8
Layer_1
  62
5
  70
1
  66
1
  10
0
  20
0
  30
0
  0
VERTEX
  5
405
  8
Layer_1
  10
260.44119
  20
36.4095
  0
VERTEX
  5
406
  8
Layer_1
  10
260.43695
  20
36.423248
  0
VERTEX
  5
407
  8
Layer_1
  10
260.40469
  20
36.498249
  0
VERTEX
  5
408
  8
Layer_1
  10
260.38446
  20
36.535
  0
VERTEX
  5
409
  8
Layer_1
  10
260.3587
  20
36.572998
  0
VERTEX
  5
40a
  8
Layer_1
  10
260.33569
  20
36.599998
  0
VERTEX
  5
40b
  8
Layer_1
  10
260.3107
  20
36.625
  0
VERTEX
  5
40c
  8
Layer_1
  10
260.28369
  20
36.646999
  0
VERTEX
  5
40d
  8
Layer_1
  10
260.25571
  20
36.667
  0
VERTEX
  5
40e
  8
Layer_1
  10
260.19269
  20
36.701
  0
VERTEX
  5
40f
  8
Layer_1
  10
260.15869
  20
36.714001
  0
VERTEX
  5
410
  8
Layer_1
  10
260.09421
  20
36.73275
  0
VERTEX
  5
411
  8
Layer_1
  10
260.03696
  20
36.744251
  0
VERTEX
  5
412
  8
Layer_1
  10
259.9841
  20
36.751999
  0
VERTEX
  5
413
  8
Layer_1
  10
259.8877
  20
36.76025
  0
VERTEX
  5
414
  8
Layer_1
  10
258.3497
  20
36.762001
  0
VERTEX
  5
415
  8
Layer_1
  10
258.3497
  20
34.200001
  0
VERTEX
  5
416
  8
Layer_1
  10
258.91071
  20
34.200001
  0
VERTEX
  5
417
  8
Layer_1
  10
258.91071
  20
36.357002
  0
VERTEX
  5
418
  8
Layer_1
  10
259.19269
  20
36.357002
  0
VERTEX
  5
419
  8
Layer_1
  10
259.19269
  20
34.200001
  0
VERTEX
  5
41a
  8
Layer_1
  10
259.6127
  20
34.200001
  0
VERTEX
  5
41b
  8
Layer_1
  10
259.6127
  20
36.357002
  0
VERTEX
  5
41c
  8
Layer_1
  10
259.71619
  20
36.357002
  0
VERTEX
  5
41d
  8
Layer_1
  10
259.7562
  20
36.353752
  0
VERTEX
  5
41e
  8
Layer_1
  10
259.78894
  20
36.3465
  0
VERTEX
  5
41f
  8
Layer_1
  10
259.8447
  20
36.325001
  0
VERTEX
  5
420
  8
Layer_1
  10
259.87595
  20
36.2995
  0
VERTEX
  5
421
  8
Layer_1
  10
259.89868
  20
36.272999
  0
VERTEX
  5
422
  8
Layer_1
  10
259.91431
  20
36.239998
  0
VERTEX
  5
423
  8
Layer_1
  10
259.93494
  20
36.17625
  0
VERTEX
  5
424
  8
Layer_1
  10
259.94394
  20
36.125252
  0
VERTEX
  5
425
  8
Layer_1
  10
259.94894
  20
36.0695
  0
VERTEX
  5
426
  8
Layer_1
  10
259.95444
  20
35.942249
  0
VERTEX
  5
427
  8
Layer_1
  10
259.95471
  20
34.200001
  0
VERTEX
  5
428
  8
Layer_1
  10
260.49469
  20
34.200001
  0
VERTEX
  5
429
  8
Layer_1
  10
260.49469
  20
35.970001
  0
VERTEX
  5
42a
  8
Layer_1
  10
260.49121
  20
36.099751
  0
VERTEX
  5
42b
  8
Layer_1
  10
260.48294
  20
36.203499
  0
VERTEX
  5
42c
  8
Layer_1
  10
260.46521
  20
36.317249
  0
VERTEX
  5
42d
  8
Layer_1
  10
260.44119
  20
36.4095
  0
SEQEND
  0
POLYLINE
  5
42f
  8
Layer_1
  62
5
  70
1
  66
1
  10
0
  20
0
  30
0
  0
VERTEX
  5
42f
  8
Layer_1
  10
253.2372
  20
36.357002
  0
VERTEX
  5
430
  8
Layer_1
  10
253.2372
  20
34.877998
  0
VERTEX
  5
431
  8
Layer_1
  10
253.24144
  20
34.727749
  0
VERTEX
  5
432
  8
Layer_1
  10
253.2462
  20
34.667
  0
VERTEX
  5
433
  8
Layer_1
  10
253.26469
  20
34.554001
  0
VERTEX
  5
434
  8
Layer_1
  10
253.27596
  20
34.505249
  0
VERTEX
  5
435
  8
Layer_1
  10
253.30144
  20
34.433998
  0
VERTEX
  5
436
  8
Layer_1
  10
253.32146
  20
34.397751
  0
VERTEX
  5
437
  8
Layer_1
  10
253.35335
  20
34.354851
  0
VERTEX
  5
438
  8
Layer_1
  10
253.39821
  20
34.311501
  0
VERTEX
  5
439
  8
Layer_1
  10
253.45421
  20
34.274002
  0
VERTEX
  5
43a
  8
Layer_1
  10
253.48421
  20
34.258999
  0
VERTEX
  5
43b
  8
Layer_1
  10
253.51619
  20
34.247002
  0
VERTEX
  5
43c
  8
Layer_1
  10
253.55894
  20
34.234001
  0
VERTEX
  5
43d
  8
Layer_1
  10
253.66521
  20
34.213001
  0
VERTEX
  5
43e
  8
Layer_1
  10
253.70796
  20
34.2085
  0
VERTEX
  5
43f
  8
Layer_1
  10
253.80696
  20
34.201752
  0
VERTEX
  5
440
  8
Layer_1
  10
254.3232
  20
34.200001
  0
VERTEX
  5
441
  8
Layer_1
  10
254.3232
  20
34.593002
  0
VERTEX
  5
442
  8
Layer_1
  10
254.18568
  20
34.594749
  0
VERTEX
  5
443
  8
Layer_1
  10
254.07021
  20
34.601749
  0
VERTEX
  5
444
  8
Layer_1
  10
254.00594
  20
34.612499
  0
VERTEX
  5
445
  8
Layer_1
  10
253.97169
  20
34.624001
  0
VERTEX
  5
446
  8
Layer_1
  10
253.94221
  20
34.638748
  0
VERTEX
  5
447
  8
Layer_1
  10
253.91521
  20
34.662498
  0
VERTEX
  5
448
  8
Layer_1
  10
253.89845
  20
34.684502
  0
VERTEX
  5
449
  8
Layer_1
  10
253.88545
  20
34.713749
  0
VERTEX
  5
44a
  8
Layer_1
  10
253.87596
  20
34.759499
  0
VERTEX
  5
44b
  8
Layer_1
  10
253.86894
  20
34.851501
  0
VERTEX
  5
44c
  8
Layer_1
  10
253.8672
  20
36.357002
  0
VERTEX
  5
44d
  8
Layer_1
  10
254.67119
  20
36.357002
  0
VERTEX
  5
44e
  8
Layer_1
  10
254.67119
  20
36.762001
  0
VERTEX
  5
44f
  8
Layer_1
  10
253.8672
  20
36.762001
  0
VERTEX
  5
450
  8
Layer_1
  10
253.8672
  20
37.431
  0
VERTEX
  5
451
  8
Layer_1
  10
253.2372
  20
37.431
  0
VERTEX
  5
452
  8
Layer_1
  10
253.2372
  20
36.762001
  0
VERTEX
  5
453
  8
Layer_1
  10
252.6432
  20
36.762001
  0
VERTEX
  5
454
  8
Layer_1
  10
252.6432
  20
36.357002
  0
VERTEX
  5
455
  8
Layer_1
  10
253.2372
  20
36.357002
  0
SEQEND
  0
POLYLINE
  5
457
  8
Layer_1
  62
5
  70
1
  66
1
  10
0
  20
0
  30
0
  0
VERTEX
  5
457
  8
Layer_1
  10
248.2047
  20
36.753998
  0
VERTEX
  5
458
  8
Layer_1
  10
248.17094
  20
36.7495
  0
VERTEX
  5
459
  8
Layer_1
  10
248.0927
  20
36.733749
  0
VERTEX
  5
45a
  8
Layer_1
  10
248.01118
  20
36.707001
  0
VERTEX
  5
45b
  8
Layer_1
  10
247.97621
  20
36.692001
  0
VERTEX
  5
45c
  8
Layer_1
  10
247.91319
  20
36.654999
  0
VERTEX
  5
45d
  8
Layer_1
  10
247.88521
  20
36.632999
  0
VERTEX
  5
45e
  8
Layer_1
  10
247.8582
  20
36.609001
  0
VERTEX
  5
45f
  8
Layer_1
  10
247.83418
  20
36.583
  0
VERTEX
  5
460
  8
Layer_1
  10
247.8112
  20
36.554001
  0
VERTEX
  5
461
  8
Layer_1
  10
247.79219
  20
36.524532
  0
VERTEX
  5
462
  8
Layer_1
  10
247.77345
  20
36.491001
  0
VERTEX
  5
463
  8
Layer_1
  10
247.74446
  20
36.421501
  0
VERTEX
  5
464
  8
Layer_1
  10
247.71693
  20
36.329002
  0
VERTEX
  5
465
  8
Layer_1
  10
247.69951
  20
36.239998
  0
VERTEX
  5
466
  8
Layer_1
  10
247.68645
  20
36.125252
  0
VERTEX
  5
467
  8
Layer_1
  10
247.6787
  20
35.97575
  0
VERTEX
  5
468
  8
Layer_1
  10
247.67894
  20
34.98225
  0
VERTEX
  5
469
  8
Layer_1
  10
247.6837
  20
34.87225
  0
VERTEX
  5
46a
  8
Layer_1
  10
247.69069
  20
34.785999
  0
VERTEX
  5
46b
  8
Layer_1
  10
247.70793
  20
34.671711
  0
VERTEX
  5
46c
  8
Layer_1
  10
247.72371
  20
34.601501
  0
VERTEX
  5
46d
  8
Layer_1
  10
247.7437
  20
34.53775
  0
VERTEX
  5
46e
  8
Layer_1
  10
247.75945
  20
34.498749
  0
VERTEX
  5
46f
  8
Layer_1
  10
247.77895
  20
34.456501
  0
VERTEX
  5
470
  8
Layer_1
  10
247.8037
  20
34.416252
  0
VERTEX
  5
471
  8
Layer_1
  10
247.84319
  20
34.366249
  0
VERTEX
  5
472
  8
Layer_1
  10
247.89571
  20
34.317749
  0
VERTEX
  5
473
  8
Layer_1
  10
247.95619
  20
34.278252
  0
VERTEX
  5
474
  8
Layer_1
  10
248.06145
  20
34.234501
  0
VERTEX
  5
475
  8
Layer_1
  10
248.11018
  20
34.222
  0
VERTEX
  5
476
  8
Layer_1
  10
248.17397
  20
34.210751
  0
VERTEX
  5
477
  8
Layer_1
  10
248.2422
  20
34.203751
  0
VERTEX
  5
478
  8
Layer_1
  10
249.2032
  20
34.200001
  0
VERTEX
  5
479
  8
Layer_1
  10
249.2907
  20
34.202499
  0
VERTEX
  5
47a
  8
Layer_1
  10
249.37544
  20
34.21175
  0
VERTEX
  5
47b
  8
Layer_1
  10
249.41371
  20
34.21925
  0
VERTEX
  5
47c
  8
Layer_1
  10
249.47169
  20
34.23325
  0
VERTEX
  5
47d
  8
Layer_1
  10
249.52769
  20
34.25325
  0
VERTEX
  5
47e
  8
Layer_1
  10
249.57521
  20
34.276001
  0
VERTEX
  5
47f
  8
Layer_1
  10
249.60619
  20
34.293999
  0
VERTEX
  5
480
  8
Layer_1
  10
249.66319
  20
34.336998
  0
VERTEX
  5
481
  8
Layer_1
  10
249.7122
  20
34.389999
  0
VERTEX
  5
482
  8
Layer_1
  10
249.74544
  20
34.438
  0
VERTEX
  5
483
  8
Layer_1
  10
249.76695
  20
34.475998
  0
VERTEX
  5
484
  8
Layer_1
  10
249.7932
  20
34.53175
  0
VERTEX
  5
485
  8
Layer_1
  10
249.82344
  20
34.62825
  0
VERTEX
  5
486
  8
Layer_1
  10
249.84569
  20
34.7495
  0
VERTEX
  5
487
  8
Layer_1
  10
249.8517
  20
34.798248
  0
VERTEX
  5
488
  8
Layer_1
  10
249.86195
  20
34.915001
  0
VERTEX
  5
489
  8
Layer_1
  10
249.86519
  20
35.036999
  0
VERTEX
  5
48a
  8
Layer_1
  10
249.86421
  20
36.006001
  0
VERTEX
  5
48b
  8
Layer_1
  10
249.85744
  20
36.1105
  0
VERTEX
  5
48c
  8
Layer_1
  10
249.84419
  20
36.220001
  0
VERTEX
  5
48d
  8
Layer_1
  10
249.8232
  20
36.329002
  0
VERTEX
  5
48e
  8
Layer_1
  10
249.79219
  20
36.420502
  0
VERTEX
  5
48f
  8
Layer_1
  10
249.75868
  20
36.493248
  0
VERTEX
  5
490
  8
Layer_1
  10
249.72295
  20
36.550251
  0
VERTEX
  5
491
  8
Layer_1
  10
249.68221
  20
36.598999
  0
VERTEX
  5
492
  8
Layer_1
  10
249.63921
  20
36.6385
  0
VERTEX
  5
493
  8
Layer_1
  10
249.59193
  20
36.671749
  0
VERTEX
  5
494
  8
Layer_1
  10
249.52669
  20
36.705002
  0
VERTEX
  5
495
  8
Layer_1
  10
249.46394
  20
36.727501
  0
VERTEX
  5
496
  8
Layer_1
  10
249.34807
  20
36.751999
  0
VERTEX
  5
497
  8
Layer_1
  10
249.25594
  20
36.76075
  0
VERTEX
  5
498
  8
Layer_1
  10
248.32219
  20
36.762001
  0
VERTEX
  5
499
  8
Layer_1
  10
248.2722
  20
36.760002
  0
VERTEX
  5
49a
  8
Layer_1
  10
248.2047
  20
36.753998
  0
SEQEND
  0
POLYLINE
  5
49c
  8
Layer_1
  62
5
  70
1
  66
1
  10
0
  20
0
  30
0
  0
VERTEX
  5
49c
  8
Layer_1
  10
251.64421
  20
34.593002
  0
VERTEX
  5
49d
  8
Layer_1
  10
251.03221
  20
34.593002
  0
VERTEX
  5
49e
  8
Layer_1
  10
250.98146
  20
34.594749
  0
VERTEX
  5
49f
  8
Layer_1
  10
250.92296
  20
34.604752
  0
VERTEX
  5
4a0
  8
Layer_1
  10
250.89119
  20
34.616001
  0
VERTEX
  5
4a1
  8
Layer_1
  10
250.86745
  20
34.631001
  0
VERTEX
  5
4a2
  8
Layer_1
  10
250.84419
  20
34.6535
  0
VERTEX
  5
4a3
  8
Layer_1
  10
250.81871
  20
34.696499
  0
VERTEX
  5
4a4
  8
Layer_1
  10
250.7997
  20
34.762501
  0
VERTEX
  5
4a5
  8
Layer_1
  10
250.78621
  20
34.862999
  0
VERTEX
  5
4a6
  8
Layer_1
  10
250.78044
  20
35.012249
  0
VERTEX
  5
4a7
  8
Layer_1
  10
250.7802
  20
36.762001
  0
VERTEX
  5
4a8
  8
Layer_1
  10
250.16521
  20
36.762001
  0
VERTEX
  5
4a9
  8
Layer_1
  10
250.16521
  20
34.986
  0
VERTEX
  5
4aa
  8
Layer_1
  10
250.16743
  20
34.87225
  0
VERTEX
  5
4ab
  8
Layer_1
  10
250.17397
  20
34.780251
  0
VERTEX
  5
4ac
  8
Layer_1
  10
250.18694
  20
34.677498
  0
VERTEX
  5
4ad
  8
Layer_1
  10
250.20595
  20
34.586502
  0
VERTEX
  5
4ae
  8
Layer_1
  10
250.23094
  20
34.507751
  0
VERTEX
  5
4af
  8
Layer_1
  10
250.26295
  20
34.438999
  0
VERTEX
  5
4b0
  8
Layer_1
  10
250.30971
  20
34.37175
  0
VERTEX
  5
4b1
  8
Layer_1
  10
250.35194
  20
34.328751
  0
VERTEX
  5
4b2
  8
Layer_1
  10
250.41319
  20
34.281998
  0
VERTEX
  5
4b3
  8
Layer_1
  10
250.44319
  20
34.265999
  0
VERTEX
  5
4b4
  8
Layer_1
  10
250.49495
  20
34.2435
  0
VERTEX
  5
4b5
  8
Layer_1
  10
250.58171
  20
34.2215
  0
VERTEX
  5
4b6
  8
Layer_1
  10
250.69221
  20
34.206001
  0
VERTEX
  5
4b7
  8
Layer_1
  10
250.80971
  20
34.200249
  0
VERTEX
  5
4b8
  8
Layer_1
  10
252.26521
  20
34.200001
  0
VERTEX
  5
4b9
  8
Layer_1
  10
252.26521
  20
36.762001
  0
VERTEX
  5
4ba
  8
Layer_1
  10
251.64421
  20
36.762001
  0
VERTEX
  5
4bb
  8
Layer_1
  10
251.64421
  20
34.593002
  0
SEQEND
  0
POLYLINE
  5
4bd
  8
Layer_1
  62
5
  70
1
  66
1
  10
0
  20
0
  30
0
  0
VERTEX
  5
4bd
  8
Layer_1
  10
244.6862
  20
36.68375
  0
VERTEX
  5
4be
  8
Layer_1
  10
244.61946
  20
36.714249
  0
VERTEX
  5
4bf
  8
Layer_1
  10
244.5392
  20
36.737999
  0
VERTEX
  5
4c0
  8
Layer_1
  10
244.46046
  20
36.75325
  0
VERTEX
  5
4c1
  8
Layer_1
  10
244.37746
  20
36.76025
  0
VERTEX
  5
4c2
  8
Layer_1
  10
243.4257
  20
36.76125
  0
VERTEX
  5
4c3
  8
Layer_1
  10
243.33046
  20
36.755249
  0
VERTEX
  5
4c4
  8
Layer_1
  10
243.2412
  20
36.741001
  0
VERTEX
  5
4c5
  8
Layer_1
  10
243.15746
  20
36.718002
  0
VERTEX
  5
4c6
  8
Layer_1
  10
243.10493
  20
36.69725
  0
VERTEX
  5
4c7
  8
Layer_1
  10
243.04045
  20
36.662498
  0
VERTEX
  5
4c8
  8
Layer_1
  10
242.98744
  20
36.62175
  0
VERTEX
  5
4c9
  8
Layer_1
  10
242.94121
  20
36.572502
  0
VERTEX
  5
4ca
  8
Layer_1
  10
242.91594
  20
36.536999
  0
VERTEX
  5
4cb
  8
Layer_1
  10
242.88869
  20
36.488499
  0
VERTEX
  5
4cc
  8
Layer_1
  10
242.86394
  20
36.430252
  0
VERTEX
  5
4cd
  8
Layer_1
  10
242.84569
  20
36.377251
  0
VERTEX
  5
4ce
  8
Layer_1
  10
242.81844
  20
36.257999
  0
VERTEX
  5
4cf
  8
Layer_1
  10
242.80818
  20
36.18375
  0
VERTEX
  5
4d0
  8
Layer_1
  10
242.79845
  20
36.070751
  0
VERTEX
  5
4d1
  8
Layer_1
  10
242.79469
  20
35.952999
  0
VERTEX
  5
4d2
  8
Layer_1
  10
242.7942
  20
35.036999
  0
VERTEX
  5
4d3
  8
Layer_1
  10
242.79671
  20
34.92075
  0
VERTEX
  5
4d4
  8
Layer_1
  10
242.80196
  20
34.839249
  0
VERTEX
  5
4d5
  8
Layer_1
  10
242.81395
  20
34.730251
  0
VERTEX
  5
4d6
  8
Layer_1
  10
242.83794
  20
34.610252
  0
VERTEX
  5
4d7
  8
Layer_1
  10
242.86369
  20
34.527252
  0
VERTEX
  5
4d8
  8
Layer_1
  10
242.88771
  20
34.471001
  0
VERTEX
  5
4d9
  8
Layer_1
  10
242.90846
  20
34.433998
  0
VERTEX
  5
4da
  8
Layer_1
  10
242.94319
  20
34.385002
  0
VERTEX
  5
4db
  8
Layer_1
  10
242.98647
  20
34.339249
  0
VERTEX
  5
4dc
  8
Layer_1
  10
243.07118
  20
34.2785
  0
VERTEX
  5
4dd
  8
Layer_1
  10
243.16194
  20
34.240501
  0
VERTEX
  5
4de
  8
Layer_1
  10
243.2137
  20
34.224751
  0
VERTEX
  5
4df
  8
Layer_1
  10
243.2762
  20
34.213001
  0
VERTEX
  5
4e0
  8
Layer_1
  10
243.33794
  20
34.205498
  0
VERTEX
  5
4e1
  8
Layer_1
  10
243.39119
  20
34.2015
  0
VERTEX
  5
4e2
  8
Layer_1
  10
244.31819
  20
34.200001
  0
VERTEX
  5
4e3
  8
Layer_1
  10
244.38646
  20
34.201752
  0
VERTEX
  5
4e4
  8
Layer_1
  10
244.44795
  20
34.206249
  0
VERTEX
  5
4e5
  8
Layer_1
  10
244.50343
  20
34.213749
  0
VERTEX
  5
4e6
  8
Layer_1
  10
244.59019
  20
34.234001
  0
VERTEX
  5
4e7
  8
Layer_1
  10
244.6692
  20
34.264
  0
VERTEX
  5
4e8
  8
Layer_1
  10
244.69319
  20
34.276749
  0
VERTEX
  5
4e9
  8
Layer_1
  10
244.7372
  20
34.304001
  0
VERTEX
  5
4ea
  8
Layer_1
  10
244.76521
  20
34.326
  0
VERTEX
  5
4eb
  8
Layer_1
  10
244.80269
  20
34.361
  0
VERTEX
  5
4ec
  8
Layer_1
  10
244.82893
  20
34.39175
  0
VERTEX
  5
4ed
  8
Layer_1
  10
244.85493
  20
34.428249
  0
VERTEX
  5
4ee
  8
Layer_1
  10
244.8817
  20
34.473
  0
VERTEX
  5
4ef
  8
Layer_1
  10
244.90221
  20
34.514999
  0
VERTEX
  5
4f0
  8
Layer_1
  10
244.93568
  20
34.612499
  0
VERTEX
  5
4f1
  8
Layer_1
  10
244.95094
  20
34.682999
  0
VERTEX
  5
4f2
  8
Layer_1
  10
244.96495
  20
34.776501
  0
VERTEX
  5
4f3
  8
Layer_1
  10
244.97594
  20
34.87875
  0
VERTEX
  5
4f4
  8
Layer_1
  10
244.98045
  20
34.988251
  0
VERTEX
  5
4f5
  8
Layer_1
  10
244.98021
  20
36.006001
  0
VERTEX
  5
4f6
  8
Layer_1
  10
244.97795
  20
36.05175
  0
VERTEX
  5
4f7
  8
Layer_1
  10
244.96419
  20
36.194
  0
VERTEX
  5
4f8
  8
Layer_1
  10
244.93919
  20
36.329002
  0
VERTEX
  5
4f9
  8
Layer_1
  10
244.91493
  20
36.402748
  0
VERTEX
  5
4fa
  8
Layer_1
  10
244.8817
  20
36.479752
  0
VERTEX
  5
4fb
  8
Layer_1
  10
244.85719
  20
36.522999
  0
VERTEX
  5
4fc
  8
Layer_1
  10
244.8362
  20
36.554001
  0
VERTEX
  5
4fd
  8
Layer_1
  10
244.79219
  20
36.605751
  0
VERTEX
  5
4fe
  8
Layer_1
  10
244.76219
  20
36.632999
  0
VERTEX
  5
4ff
  8
Layer_1
  10
244.7267
  20
36.659752
  0
VERTEX
  5
500
  8
Layer_1
  10
244.6862
  20
36.68375
  0
SEQEND
  0
POLYLINE
  5
502
  8
Layer_1
  62
5
  70
1
  66
1
  10
0
  20
0
  30
0
  0
VERTEX
  5
502
  8
Layer_1
  10
241.14119
  20
36.357002
  0
VERTEX
  5
503
  8
Layer_1
  10
241.14119
  20
34.593002
  0
VERTEX
  5
504
  8
Layer_1
  10
240.4332
  20
34.593002
  0
VERTEX
  5
505
  8
Layer_1
  10
240.4332
  20
34.200001
  0
VERTEX
  5
506
  8
Layer_1
  10
242.45522
  20
34.200001
  0
VERTEX
  5
507
  8
Layer_1
  10
242.45522
  20
34.593002
  0
VERTEX
  5
508
  8
Layer_1
  10
241.7592
  20
34.593002
  0
VERTEX
  5
509
  8
Layer_1
  10
241.7592
  20
36.762001
  0
VERTEX
  5
50a
  8
Layer_1
  10
240.4332
  20
36.762001
  0
VERTEX
  5
50b
  8
Layer_1
  10
240.4332
  20
36.357002
  0
VERTEX
  5
50c
  8
Layer_1
  10
241.14119
  20
36.357002
  0
SEQEND
  0
POLYLINE
  5
50e
  8
Layer_1
  62
5
  70
1
  66
1
  10
0
  20
0
  30
0
  0
VERTEX
  5
50e
  8
Layer_1
  10
239.4192
  20
36.762001
  0
VERTEX
  5
50f
  8
Layer_1
  10
238.6422
  20
36.762001
  0
VERTEX
  5
510
  8
Layer_1
  10
238.56819
  20
36.760002
  0
VERTEX
  5
511
  8
Layer_1
  10
238.50995
  20
36.75425
  0
VERTEX
  5
512
  8
Layer_1
  10
238.39044
  20
36.729248
  0
VERTEX
  5
513
  8
Layer_1
  10
238.31219
  20
36.701
  0
VERTEX
  5
514
  8
Layer_1
  10
238.2782
  20
36.683998
  0
VERTEX
  5
515
  8
Layer_1
  10
238.2462
  20
36.665249
  0
VERTEX
  5
516
  8
Layer_1
  10
238.21675
  20
36.643867
  0
VERTEX
  5
517
  8
Layer_1
  10
238.16495
  20
36.597
  0
VERTEX
  5
518
  8
Layer_1
  10
238.1382
  20
36.566498
  0
VERTEX
  5
519
  8
Layer_1
  10
238.09518
  20
36.503262
  0
VERTEX
  5
51a
  8
Layer_1
  10
238.07021
  20
36.45525
  0
VERTEX
  5
51b
  8
Layer_1
  10
238.0462
  20
36.394501
  0
VERTEX
  5
51c
  8
Layer_1
  10
238.02969
  20
36.346001
  0
VERTEX
  5
51d
  8
Layer_1
  10
238.00545
  20
36.244499
  0
VERTEX
  5
51e
  8
Layer_1
  10
237.9912
  20
36.158249
  0
VERTEX
  5
51f
  8
Layer_1
  10
237.98195
  20
36.079498
  0
VERTEX
  5
520
  8
Layer_1
  10
237.97444
  20
35.956001
  0
VERTEX
  5
521
  8
Layer_1
  10
237.97319
  20
35.094002
  0
VERTEX
  5
522
  8
Layer_1
  10
237.97969
  20
34.908249
  0
VERTEX
  5
523
  8
Layer_1
  10
237.98869
  20
34.821251
  0
VERTEX
  5
524
  8
Layer_1
  10
238.00569
  20
34.715248
  0
VERTEX
  5
525
  8
Layer_1
  10
238.02495
  20
34.632
  0
VERTEX
  5
526
  8
Layer_1
  10
238.04546
  20
34.564251
  0
VERTEX
  5
527
  8
Layer_1
  10
238.06619
  20
34.515251
  0
VERTEX
  5
528
  8
Layer_1
  10
238.09944
  20
34.4515
  0
VERTEX
  5
529
  8
Layer_1
  10
238.1442
  20
34.3885
  0
VERTEX
  5
52a
  8
Layer_1
  10
238.18996
  20
34.340752
  0
VERTEX
  5
52b
  8
Layer_1
  10
238.23219
  20
34.305832
  0
VERTEX
  5
52c
  8
Layer_1
  10
238.28619
  20
34.271248
  0
VERTEX
  5
52d
  8
Layer_1
  10
238.32069
  20
34.254749
  0
VERTEX
  5
52e
  8
Layer_1
  10
238.3812
  20
34.233498
  0
VERTEX
  5
52f
  8
Layer_1
  10
238.4637
  20
34.213749
  0
VERTEX
  5
530
  8
Layer_1
  10
238.5262
  20
34.205002
  0
VERTEX
  5
531
  8
Layer_1
  10
238.62669
  20
34.200249
  0
VERTEX
  5
532
  8
Layer_1
  10
240.0372
  20
34.200001
  0
VERTEX
  5
533
  8
Layer_1
  10
240.0372
  20
37.577999
  0
VERTEX
  5
534
  8
Layer_1
  10
239.4192
  20
37.577999
  0
VERTEX
  5
535
  8
Layer_1
  10
239.4192
  20
36.762001
  0
SEQEND
  0
POLYLINE
  5
537
  8
Layer_1
  62
5
  70
1
  66
1
  10
0
  20
0
  30
0
  0
VERTEX
  5
537
  8
Layer_1
  10
236.9922
  20
34.593002
  0
VERTEX
  5
538
  8
Layer_1
  10
236.3712
  20
34.593002
  0
VERTEX
  5
539
  8
Layer_1
  10
236.32269
  20
34.595501
  0
VERTEX
  5
53a
  8
Layer_1
  10
236.26144
  20
34.60775
  0
VERTEX
  5
53b
  8
Layer_1
  10
236.23094
  20
34.620499
  0
VERTEX
  5
53c
  8
Layer_1
  10
236.1942
  20
34.650249
  0
VERTEX
  5
53d
  8
Layer_1
  10
236.1687
  20
34.692001
  0
VERTEX
  5
53e
  8
Layer_1
  10
236.15295
  20
34.73875
  0
VERTEX
  5
53f
  8
Layer_1
  10
236.13945
  20
34.812
  0
VERTEX
  5
540
  8
Layer_1
  10
236.1337
  20
34.868
  0
VERTEX
  5
541
  8
Layer_1
  10
236.12845
  20
35.012249
  0
VERTEX
  5
542
  8
Layer_1
  10
236.1282
  20
36.762001
  0
VERTEX
  5
543
  8
Layer_1
  10
235.5132
  20
36.762001
  0
VERTEX
  5
544
  8
Layer_1
  10
235.5132
  20
34.986
  0
VERTEX
  5
545
  8
Layer_1
  10
235.5152
  20
34.888252
  0
VERTEX
  5
546
  8
Layer_1
  10
235.52269
  20
34.780251
  0
VERTEX
  5
547
  8
Layer_1
  10
235.53569
  20
34.677498
  0
VERTEX
  5
548
  8
Layer_1
  10
235.5502
  20
34.602249
  0
VERTEX
  5
549
  8
Layer_1
  10
235.57794
  20
34.509499
  0
VERTEX
  5
54a
  8
Layer_1
  10
235.60519
  20
34.44825
  0
VERTEX
  5
54b
  8
Layer_1
  10
235.6312
  20
34.406502
  0
VERTEX
  5
54c
  8
Layer_1
  10
235.66844
  20
34.360001
  0
VERTEX
  5
54d
  8
Layer_1
  10
235.70619
  20
34.322998
  0
VERTEX
  5
54e
  8
Layer_1
  10
235.7612
  20
34.281998
  0
VERTEX
  5
54f
  8
Layer_1
  10
235.81795
  20
34.25375
  0
VERTEX
  5
550
  8
Layer_1
  10
235.8882
  20
34.230751
  0
VERTEX
  5
551
  8
Layer_1
  10
235.9747
  20
34.213501
  0
VERTEX
  5
552
  8
Layer_1
  10
236.06154
  20
34.204216
  0
VERTEX
  5
553
  8
Layer_1
  10
236.16069
  20
34.200249
  0
VERTEX
  5
554
  8
Layer_1
  10
237.6132
  20
34.200001
  0
VERTEX
  5
555
  8
Layer_1
  10
237.6132
  20
36.762001
  0
VERTEX
  5
556
  8
Layer_1
  10
236.9922
  20
36.762001
  0
VERTEX
  5
557
  8
Layer_1
  10
236.9922
  20
34.593002
  0
SEQEND
  0
POLYLINE
  5
559
  8
Layer_1
  62
5
  70
1
  66
1
  10
0
  20
0
  30
0
  0
VERTEX
  5
559
  8
Layer_1
  10
234.5432
  20
36.24025
  0
VERTEX
  5
55a
  8
Layer_1
  10
234.5537
  20
36.202751
  0
VERTEX
  5
55b
  8
Layer_1
  10
234.5672
  20
36.120499
  0
VERTEX
  5
55c
  8
Layer_1
  10
234.5712
  20
36.028
  0
VERTEX
  5
55d
  8
Layer_1
  10
234.5712
  20
35.802002
  0
VERTEX
  5
55e
  8
Layer_1
  10
233.6292
  20
35.802002
  0
VERTEX
  5
55f
  8
Layer_1
  10
233.56094
  20
35.796501
  0
VERTEX
  5
560
  8
Layer_1
  10
233.50545
  20
35.7855
  0
VERTEX
  5
561
  8
Layer_1
  10
233.4572
  20
35.769249
  0
VERTEX
  5
562
  8
Layer_1
  10
233.40746
  20
35.745499
  0
VERTEX
  5
563
  8
Layer_1
  10
233.34869
  20
35.708748
  0
VERTEX
  5
564
  8
Layer_1
  10
233.30569
  20
35.673752
  0
VERTEX
  5
565
  8
Layer_1
  10
233.26895
  20
35.637749
  0
VERTEX
  5
566
  8
Layer_1
  10
233.2222
  20
35.581501
  0
VERTEX
  5
567
  8
Layer_1
  10
233.1967
  20
35.54525
  0
VERTEX
  5
568
  8
Layer_1
  10
233.16495
  20
35.491749
  0
VERTEX
  5
569
  8
Layer_1
  10
233.1362
  20
35.432751
  0
VERTEX
  5
56a
  8
Layer_1
  10
233.11569
  20
35.380501
  0
VERTEX
  5
56b
  8
Layer_1
  10
233.08321
  20
35.277748
  0
VERTEX
  5
56c
  8
Layer_1
  10
233.06169
  20
35.17075
  0
VERTEX
  5
56d
  8
Layer_1
  10
233.05644
  20
35.125748
  0
VERTEX
  5
56e
  8
Layer_1
  10
233.0502
  20
34.970001
  0
VERTEX
  5
56f
  8
Layer_1
  10
233.05319
  20
34.896999
  0
VERTEX
  5
570
  8
Layer_1
  10
233.05721
  20
34.849998
  0
VERTEX
  5
571
  8
Layer_1
  10
233.06845
  20
34.772499
  0
VERTEX
  5
572
  8
Layer_1
  10
233.08418
  20
34.704002
  0
VERTEX
  5
573
  8
Layer_1
  10
233.11244
  20
34.6115
  0
VERTEX
  5
574
  8
Layer_1
  10
233.14095
  20
34.542
  0
VERTEX
  5
575
  8
Layer_1
  10
233.17445
  20
34.4785
  0
VERTEX
  5
576
  8
Layer_1
  10
233.21794
  20
34.414501
  0
VERTEX
  5
577
  8
Layer_1
  10
233.2567
  20
34.366501
  0
VERTEX
  5
578
  8
Layer_1
  10
233.29495
  20
34.328751
  0
VERTEX
  5
579
  8
Layer_1
  10
233.3432
  20
34.289001
  0
VERTEX
  5
57a
  8
Layer_1
  10
233.4202
  20
34.244251
  0
VERTEX
  5
57b
  8
Layer_1
  10
233.50345
  20
34.215
  0
VERTEX
  5
57c
  8
Layer_1
  10
233.54469
  20
34.206749
  0
VERTEX
  5
57d
  8
Layer_1
  10
233.62019
  20
34.200249
  0
VERTEX
  5
57e
  8
Layer_1
  10
235.18919
  20
34.200001
  0
VERTEX
  5
57f
  8
Layer_1
  10
235.18919
  20
35.970001
  0
VERTEX
  5
580
  8
Layer_1
  10
235.18745
  20
36.05225
  0
VERTEX
  5
581
  8
Layer_1
  10
235.17795
  20
36.197502
  0
VERTEX
  5
582
  8
Layer_1
  10
235.15221
  20
36.35675
  0
VERTEX
  5
583
  8
Layer_1
  10
235.13594
  20
36.415749
  0
VERTEX
  5
584
  8
Layer_1
  10
235.1217
  20
36.455498
  0
VERTEX
  5
585
  8
Layer_1
  10
235.08321
  20
36.535
  0
VERTEX
  5
586
  8
Layer_1
  10
235.0632
  20
36.566002
  0
VERTEX
  5
587
  8
Layer_1
  10
235.04219
  20
36.593002
  0
VERTEX
  5
588
  8
Layer_1
  10
235.0182
  20
36.618999
  0
VERTEX
  5
589
  8
Layer_1
  10
234.99495
  20
36.640499
  0
VERTEX
  5
58a
  8
Layer_1
  10
234.9382
  20
36.681
  0
VERTEX
  5
58b
  8
Layer_1
  10
234.9082
  20
36.696999
  0
VERTEX
  5
58c
  8
Layer_1
  10
234.8497
  20
36.720001
  0
VERTEX
  5
58d
  8
Layer_1
  10
234.77269
  20
36.740501
  0
VERTEX
  5
58e
  8
Layer_1
  10
234.69553
  20
36.751999
  0
VERTEX
  5
58f
  8
Layer_1
  10
234.5952
  20
36.760498
  0
VERTEX
  5
590
  8
Layer_1
  10
233.37419
  20
36.762001
  0
VERTEX
  5
591
  8
Layer_1
  10
233.37419
  20
36.357002
  0
VERTEX
  5
592
  8
Layer_1
  10
234.35445
  20
36.356251
  0
VERTEX
  5
593
  8
Layer_1
  10
234.3992
  20
36.35125
  0
VERTEX
  5
594
  8
Layer_1
  10
234.4397
  20
36.340752
  0
VERTEX
  5
595
  8
Layer_1
  10
234.48245
  20
36.319748
  0
VERTEX
  5
596
  8
Layer_1
  10
234.5162
  20
36.289249
  0
VERTEX
  5
597
  8
Layer_1
  10
234.5387
  20
36.250999
  0
VERTEX
  5
598
  8
Layer_1
  10
234.5432
  20
36.24025
  0
SEQEND
  0
POLYLINE
  5
59a
  8
Layer_1
  62
5
  70
1
  66
1
  10
0
  20
0
  30
0
  0
VERTEX
  5
59a
  8
Layer_1
  10
209.70399
  20
37.265503
  0
VERTEX
  5
59b
  8
Layer_1
  10
209.87399
  20
37.261765
  0
VERTEX
  5
59c
  8
Layer_1
  10
209.87399
  20
36.869003
  0
VERTEX
  5
59d
  8
Layer_1
  10
209.4395
  20
36.869003
  0
VERTEX
  5
59e
  8
Layer_1
  10
209.27899
  20
36.875504
  0
VERTEX
  5
59f
  8
Layer_1
  10
209.19025
  20
36.886253
  0
VERTEX
  5
5a0
  8
Layer_1
  10
209.09
  20
36.908501
  0
VERTEX
  5
5a1
  8
Layer_1
  10
209.03975
  20
36.926502
  0
VERTEX
  5
5a2
  8
Layer_1
  10
208.97475
  20
36.96225
  0
VERTEX
  5
5a3
  8
Layer_1
  10
208.93178
  20
36.996452
  0
VERTEX
  5
5a4
  8
Layer_1
  10
208.8905
  20
37.041
  0
VERTEX
  5
5a5
  8
Layer_1
  10
208.8685
  20
37.075001
  0
VERTEX
  5
5a6
  8
Layer_1
  10
208.84575
  20
37.121002
  0
VERTEX
  5
5a7
  8
Layer_1
  10
208.82925
  20
37.168751
  0
VERTEX
  5
5a8
  8
Layer_1
  10
208.8105
  20
37.247749
  0
VERTEX
  5
5a9
  8
Layer_1
  10
208.79774
  20
37.3395
  0
VERTEX
  5
5aa
  8
Layer_1
  10
208.7905
  20
37.439003
  0
VERTEX
  5
5ab
  8
Layer_1
  10
208.78799
  20
37.547001
  0
VERTEX
  5
5ac
  8
Layer_1
  10
208.78799
  20
39.026001
  0
VERTEX
  5
5ad
  8
Layer_1
  10
208.19501
  20
39.026001
  0
VERTEX
  5
5ae
  8
Layer_1
  10
208.19501
  20
39.431
  0
VERTEX
  5
5af
  8
Layer_1
  10
208.78799
  20
39.431
  0
VERTEX
  5
5b0
  8
Layer_1
  10
208.78799
  20
40.100002
  0
VERTEX
  5
5b1
  8
Layer_1
  10
209.41901
  20
40.100002
  0
VERTEX
  5
5b2
  8
Layer_1
  10
209.41901
  20
39.431
  0
VERTEX
  5
5b3
  8
Layer_1
  10
210.22299
  20
39.431
  0
VERTEX
  5
5b4
  8
Layer_1
  10
210.22299
  20
39.026001
  0
VERTEX
  5
5b5
  8
Layer_1
  10
209.41901
  20
39.026001
  0
VERTEX
  5
5b6
  8
Layer_1
  10
209.41901
  20
37.571003
  0
VERTEX
  5
5b7
  8
Layer_1
  10
209.42226
  20
37.491501
  0
VERTEX
  5
5b8
  8
Layer_1
  10
209.42924
  20
37.414001
  0
VERTEX
  5
5b9
  8
Layer_1
  10
209.439
  20
37.376251
  0
VERTEX
  5
5ba
  8
Layer_1
  10
209.45399
  20
37.346504
  0
VERTEX
  5
5bb
  8
Layer_1
  10
209.47549
  20
37.321503
  0
VERTEX
  5
5bc
  8
Layer_1
  10
209.505
  20
37.301003
  0
VERTEX
  5
5bd
  8
Layer_1
  10
209.53372
  20
37.289154
  0
VERTEX
  5
5be
  8
Layer_1
  10
209.56525
  20
37.280003
  0
VERTEX
  5
5bf
  8
Layer_1
  10
209.67975
  20
37.266754
  0
VERTEX
  5
5c0
  8
Layer_1
  10
209.70399
  20
37.265503
  0
SEQEND
  0
POLYLINE
  5
5c2
  8
Layer_1
  62
5
  70
1
  66
1
  10
0
  20
0
  30
0
  0
VERTEX
  5
5c2
  8
Layer_1
  10
207.19501
  20
37.262001
  0
VERTEX
  5
5c3
  8
Layer_1
  10
207.19501
  20
39.431
  0
VERTEX
  5
5c4
  8
Layer_1
  10
207.81599
  20
39.431
  0
VERTEX
  5
5c5
  8
Layer_1
  10
207.81599
  20
36.869003
  0
VERTEX
  5
5c6
  8
Layer_1
  10
206.351
  20
36.869003
  0
VERTEX
  5
5c7
  8
Layer_1
  10
206.278
  20
36.872002
  0
VERTEX
  5
5c8
  8
Layer_1
  10
206.23199
  20
36.875999
  0
VERTEX
  5
5c9
  8
Layer_1
  10
206.147
  20
36.887001
  0
VERTEX
  5
5ca
  8
Layer_1
  10
206.04649
  20
36.912502
  0
VERTEX
  5
5cb
  8
Layer_1
  10
205.97775
  20
36.944
  0
VERTEX
  5
5cc
  8
Layer_1
  10
205.94275
  20
36.966251
  0
VERTEX
  5
5cd
  8
Layer_1
  10
205.91125
  20
36.99025
  0
VERTEX
  5
5ce
  8
Layer_1
  10
205.8745
  20
37.026253
  0
VERTEX
  5
5cf
  8
Layer_1
  10
205.838
  20
37.069752
  0
VERTEX
  5
5d0
  8
Layer_1
  10
205.81476
  20
37.107002
  0
VERTEX
  5
5d1
  8
Layer_1
  10
205.78674
  20
37.165001
  0
VERTEX
  5
5d2
  8
Layer_1
  10
205.77451
  20
37.197002
  0
VERTEX
  5
5d3
  8
Layer_1
  10
205.75125
  20
37.284004
  0
VERTEX
  5
5d4
  8
Layer_1
  10
205.73125
  20
37.396252
  0
VERTEX
  5
5d5
  8
Layer_1
  10
205.7215
  20
37.496002
  0
VERTEX
  5
5d6
  8
Layer_1
  10
205.716
  20
37.655003
  0
VERTEX
  5
5d7
  8
Layer_1
  10
205.716
  20
39.431
  0
VERTEX
  5
5d8
  8
Layer_1
  10
206.33099
  20
39.431
  0
VERTEX
  5
5d9
  8
Layer_1
  10
206.33099
  20
37.700001
  0
VERTEX
  5
5da
  8
Layer_1
  10
206.33499
  20
37.564251
  0
VERTEX
  5
5db
  8
Layer_1
  10
206.3461
  20
37.457546
  0
VERTEX
  5
5dc
  8
Layer_1
  10
206.367
  20
37.372253
  0
VERTEX
  5
5dd
  8
Layer_1
  10
206.383
  20
37.341003
  0
VERTEX
  5
5de
  8
Layer_1
  10
206.40276
  20
37.314251
  0
VERTEX
  5
5df
  8
Layer_1
  10
206.41725
  20
37.301254
  0
VERTEX
  5
5e0
  8
Layer_1
  10
206.44
  20
37.286503
  0
VERTEX
  5
5e1
  8
Layer_1
  10
206.48775
  20
37.270252
  0
VERTEX
  5
5e2
  8
Layer_1
  10
206.51649
  20
37.265503
  0
VERTEX
  5
5e3
  8
Layer_1
  10
206.56551
  20
37.262253
  0
VERTEX
  5
5e4
  8
Layer_1
  10
207.19501
  20
37.262001
  0
SEQEND
  0
POLYLINE
  5
5e6
  8
Layer_1
  62
5
  70
1
  66
1
  10
0
  20
0
  30
0
  0
VERTEX
  5
5e6
  8
Layer_1
  10
205.002
  20
36.896751
  0
VERTEX
  5
5e7
  8
Layer_1
  10
204.95999
  20
36.886253
  0
VERTEX
  5
5e8
  8
Layer_1
  10
204.892
  20
36.875999
  0
VERTEX
  5
5e9
  8
Layer_1
  10
204.84799
  20
36.872002
  0
VERTEX
  5
5ea
  8
Layer_1
  10
203.873
  20
36.869003
  0
VERTEX
  5
5eb
  8
Layer_1
  10
203.75301
  20
36.875999
  0
VERTEX
  5
5ec
  8
Layer_1
  10
203.687
  20
36.885002
  0
VERTEX
  5
5ed
  8
Layer_1
  10
203.6295
  20
36.898502
  0
VERTEX
  5
5ee
  8
Layer_1
  10
203.54475
  20
36.928501
  0
VERTEX
  5
5ef
  8
Layer_1
  10
203.49374
  20
36.954502
  0
VERTEX
  5
5f0
  8
Layer_1
  10
203.45551
  20
36.9795
  0
VERTEX
  5
5f1
  8
Layer_1
  10
203.4055
  20
37.023502
  0
VERTEX
  5
5f2
  8
Layer_1
  10
203.35851
  20
37.079254
  0
VERTEX
  5
5f3
  8
Layer_1
  10
203.33376
  20
37.119499
  0
VERTEX
  5
5f4
  8
Layer_1
  10
203.30051
  20
37.191254
  0
VERTEX
  5
5f5
  8
Layer_1
  10
203.28101
  20
37.252003
  0
VERTEX
  5
5f6
  8
Layer_1
  10
203.26276
  20
37.325253
  0
VERTEX
  5
5f7
  8
Layer_1
  10
203.2485
  20
37.405003
  0
VERTEX
  5
5f8
  8
Layer_1
  10
203.23801
  20
37.50325
  0
VERTEX
  5
5f9
  8
Layer_1
  10
203.2305
  20
37.637253
  0
VERTEX
  5
5fa
  8
Layer_1
  10
203.229
  20
38.594002
  0
VERTEX
  5
5fb
  8
Layer_1
  10
203.23524
  20
38.769001
  0
VERTEX
  5
5fc
  8
Layer_1
  10
203.24356
  20
38.857758
  0
VERTEX
  5
5fd
  8
Layer_1
  10
203.2565
  20
38.942001
  0
VERTEX
  5
5fe
  8
Layer_1
  10
203.28674
  20
39.065002
  0
VERTEX
  5
5ff
  8
Layer_1
  10
203.31674
  20
39.142002
  0
VERTEX
  5
600
  8
Layer_1
  10
203.33826
  20
39.185249
  0
VERTEX
  5
601
  8
Layer_1
  10
203.35326
  20
39.209251
  0
VERTEX
  5
602
  8
Layer_1
  10
203.39925
  20
39.267002
  0
VERTEX
  5
603
  8
Layer_1
  10
203.43275
  20
39.299004
  0
VERTEX
  5
604
  8
Layer_1
  10
203.466
  20
39.324501
  0
VERTEX
  5
605
  8
Layer_1
  10
203.52776
  20
39.360752
  0
VERTEX
  5
606
  8
Layer_1
  10
203.59924
  20
39.388752
  0
VERTEX
  5
607
  8
Layer_1
  10
203.657
  20
39.405502
  0
VERTEX
  5
608
  8
Layer_1
  10
203.71925
  20
39.417999
  0
VERTEX
  5
609
  8
Layer_1
  10
203.78751
  20
39.426003
  0
VERTEX
  5
60a
  8
Layer_1
  10
203.8605
  20
39.430504
  0
VERTEX
  5
60b
  8
Layer_1
  10
204.78925
  20
39.430252
  0
VERTEX
  5
60c
  8
Layer_1
  10
204.90125
  20
39.421249
  0
VERTEX
  5
60d
  8
Layer_1
  10
204.96201
  20
39.410004
  0
VERTEX
  5
60e
  8
Layer_1
  10
205.01974
  20
39.394753
  0
VERTEX
  5
60f
  8
Layer_1
  10
205.0705
  20
39.377003
  0
VERTEX
  5
610
  8
Layer_1
  10
205.155
  20
39.334
  0
VERTEX
  5
611
  8
Layer_1
  10
205.1915
  20
39.306999
  0
VERTEX
  5
612
  8
Layer_1
  10
205.22975
  20
39.2715
  0
VERTEX
  5
613
  8
Layer_1
  10
205.26825
  20
39.226753
  0
VERTEX
  5
614
  8
Layer_1
  10
205.30975
  20
39.162254
  0
VERTEX
  5
615
  8
Layer_1
  10
205.34399
  20
39.0895
  0
VERTEX
  5
616
  8
Layer_1
  10
205.371
  20
39.008751
  0
VERTEX
  5
617
  8
Layer_1
  10
205.39175
  20
38.914253
  0
VERTEX
  5
618
  8
Layer_1
  10
205.4055
  20
38.808002
  0
VERTEX
  5
619
  8
Layer_1
  10
205.412
  20
38.736
  0
VERTEX
  5
61a
  8
Layer_1
  10
205.41675
  20
38.610252
  0
VERTEX
  5
61b
  8
Layer_1
  10
205.41699
  20
37.706001
  0
VERTEX
  5
61c
  8
Layer_1
  10
205.41524
  20
37.634537
  0
VERTEX
  5
61d
  8
Layer_1
  10
205.41125
  20
37.562004
  0
VERTEX
  5
61e
  8
Layer_1
  10
205.39725
  20
37.417999
  0
VERTEX
  5
61f
  8
Layer_1
  10
205.3835
  20
37.337002
  0
VERTEX
  5
620
  8
Layer_1
  10
205.35825
  20
37.238754
  0
VERTEX
  5
621
  8
Layer_1
  10
205.33301
  20
37.1745
  0
VERTEX
  5
622
  8
Layer_1
  10
205.30701
  20
37.123001
  0
VERTEX
  5
623
  8
Layer_1
  10
205.26849
  20
37.066502
  0
VERTEX
  5
624
  8
Layer_1
  10
205.222
  20
37.014
  0
VERTEX
  5
625
  8
Layer_1
  10
205.187
  20
36.984001
  0
VERTEX
  5
626
  8
Layer_1
  10
205.14626
  20
36.956753
  0
VERTEX
  5
627
  8
Layer_1
  10
205.08325
  20
36.923752
  0
VERTEX
  5
628
  8
Layer_1
  10
205.002
  20
36.896751
  0
SEQEND
  0
POLYLINE
  5
62a
  8
Layer_1
  62
5
  70
1
  66
1
  10
0
  20
0
  30
0
  0
VERTEX
  5
62a
  8
Layer_1
  10
198.821
  20
36.882751
  0
VERTEX
  5
62b
  8
Layer_1
  10
198.8045
  20
36.885002
  0
VERTEX
  5
62c
  8
Layer_1
  10
198.73975
  20
36.900253
  0
VERTEX
  5
62d
  8
Layer_1
  10
198.65201
  20
36.931999
  0
VERTEX
  5
62e
  8
Layer_1
  10
198.62726
  20
36.944752
  0
VERTEX
  5
62f
  8
Layer_1
  10
198.58624
  20
36.969254
  0
VERTEX
  5
630
  8
Layer_1
  10
198.5645
  20
36.985001
  0
VERTEX
  5
631
  8
Layer_1
  10
198.50549
  20
37.039753
  0
VERTEX
  5
632
  8
Layer_1
  10
198.48825
  20
37.060753
  0
VERTEX
  5
633
  8
Layer_1
  10
198.467
  20
37.091251
  0
VERTEX
  5
634
  8
Layer_1
  10
198.44025
  20
37.138504
  0
VERTEX
  5
635
  8
Layer_1
  10
198.40851
  20
37.213249
  0
VERTEX
  5
636
  8
Layer_1
  10
198.38326
  20
37.303253
  0
VERTEX
  5
637
  8
Layer_1
  10
198.366
  20
37.398502
  0
VERTEX
  5
638
  8
Layer_1
  10
198.35326
  20
37.507751
  0
VERTEX
  5
639
  8
Layer_1
  10
198.3455
  20
37.681751
  0
VERTEX
  5
63a
  8
Layer_1
  10
198.345
  20
38.594002
  0
VERTEX
  5
63b
  8
Layer_1
  10
198.3485
  20
38.720753
  0
VERTEX
  5
63c
  8
Layer_1
  10
198.3575
  20
38.836002
  0
VERTEX
  5
63d
  8
Layer_1
  10
198.37151
  20
38.935501
  0
VERTEX
  5
63e
  8
Layer_1
  10
198.39
  20
39.0215
  0
VERTEX
  5
63f
  8
Layer_1
  10
198.41025
  20
39.08725
  0
VERTEX
  5
640
  8
Layer_1
  10
198.43375
  20
39.144501
  0
VERTEX
  5
641
  8
Layer_1
  10
198.468
  20
39.208
  0
VERTEX
  5
642
  8
Layer_1
  10
198.4845
  20
39.230499
  0
VERTEX
  5
643
  8
Layer_1
  10
198.51625
  20
39.26825
  0
VERTEX
  5
644
  8
Layer_1
  10
198.556
  20
39.304253
  0
VERTEX
  5
645
  8
Layer_1
  10
198.595
  20
39.333252
  0
VERTEX
  5
646
  8
Layer_1
  10
198.627
  20
39.352001
  0
VERTEX
  5
647
  8
Layer_1
  10
198.661
  20
39.368004
  0
VERTEX
  5
648
  8
Layer_1
  10
198.715
  20
39.389
  0
VERTEX
  5
649
  8
Layer_1
  10
198.76601
  20
39.403252
  0
VERTEX
  5
64a
  8
Layer_1
  10
198.84425
  20
39.4189
  0
VERTEX
  5
64b
  8
Layer_1
  10
198.95474
  20
39.429504
  0
VERTEX
  5
64c
  8
Layer_1
  10
199.905
  20
39.430252
  0
VERTEX
  5
64d
  8
Layer_1
  10
199.97675
  20
39.425751
  0
VERTEX
  5
64e
  8
Layer_1
  10
200.02025
  20
39.420502
  0
VERTEX
  5
64f
  8
Layer_1
  10
200.10976
  20
39.402752
  0
VERTEX
  5
650
  8
Layer_1
  10
200.17426
  20
39.3815
  0
VERTEX
  5
651
  8
Layer_1
  10
200.213
  20
39.364754
  0
VERTEX
  5
652
  8
Layer_1
  10
200.255
  20
39.343002
  0
VERTEX
  5
653
  8
Layer_1
  10
200.286
  20
39.324001
  0
VERTEX
  5
654
  8
Layer_1
  10
200.314
  20
39.302002
  0
VERTEX
  5
655
  8
Layer_1
  10
200.34
  20
39.278
  0
VERTEX
  5
656
  8
Layer_1
  10
200.36501
  20
39.252003
  0
VERTEX
  5
657
  8
Layer_1
  10
200.39975
  20
39.20575
  0
VERTEX
  5
658
  8
Layer_1
  10
200.43175
  20
39.151253
  0
VERTEX
  5
659
  8
Layer_1
  10
200.46175
  20
39.084999
  0
VERTEX
  5
65a
  8
Layer_1
  10
200.483
  20
39.023502
  0
VERTEX
  5
65b
  8
Layer_1
  10
200.49976
  20
38.953251
  0
VERTEX
  5
65c
  8
Layer_1
  10
200.51575
  20
38.859753
  0
VERTEX
  5
65d
  8
Layer_1
  10
200.52325
  20
38.790752
  0
VERTEX
  5
65e
  8
Layer_1
  10
200.5285
  20
38.713501
  0
VERTEX
  5
65f
  8
Layer_1
  10
200.53275
  20
38.606251
  0
VERTEX
  5
660
  8
Layer_1
  10
200.533
  20
37.706001
  0
VERTEX
  5
661
  8
Layer_1
  10
200.52975
  20
37.597752
  0
VERTEX
  5
662
  8
Layer_1
  10
200.52225
  20
37.497002
  0
VERTEX
  5
663
  8
Layer_1
  10
200.50275
  20
37.355251
  0
VERTEX
  5
664
  8
Layer_1
  10
200.481
  20
37.261749
  0
VERTEX
  5
665
  8
Layer_1
  10
200.45399
  20
37.187004
  0
VERTEX
  5
666
  8
Layer_1
  10
200.418
  20
37.115501
  0
VERTEX
  5
667
  8
Layer_1
  10
200.37601
  20
37.055367
  0
VERTEX
  5
668
  8
Layer_1
  10
200.317
  20
36.995003
  0
VERTEX
  5
669
  8
Layer_1
  10
200.28
  20
36.967751
  0
VERTEX
  5
66a
  8
Layer_1
  10
200.23599
  20
36.941254
  0
VERTEX
  5
66b
  8
Layer_1
  10
200.20151
  20
36.924751
  0
VERTEX
  5
66c
  8
Layer_1
  10
200.13675
  20
36.901253
  0
VERTEX
  5
66d
  8
Layer_1
  10
200.0735
  20
36.88575
  0
VERTEX
  5
66e
  8
Layer_1
  10
200.008
  20
36.875999
  0
VERTEX
  5
66f
  8
Layer_1
  10
199.964
  20
36.872002
  0
VERTEX
  5
670
  8
Layer_1
  10
198.9955
  20
36.869003
  0
VERTEX
  5
671
  8
Layer_1
  10
198.86624
  20
36.876251
  0
VERTEX
  5
672
  8
Layer_1
  10
198.821
  20
36.882751
  0
SEQEND
  0
POLYLINE
  5
674
  8
Layer_1
  62
5
  70
1
  66
1
  10
0
  20
0
  30
0
  0
VERTEX
  5
674
  8
Layer_1
  10
197.0545
  20
36.877003
  0
VERTEX
  5
675
  8
Layer_1
  10
196.89551
  20
36.903999
  0
VERTEX
  5
676
  8
Layer_1
  10
196.82974
  20
36.926502
  0
VERTEX
  5
677
  8
Layer_1
  10
196.79974
  20
36.941002
  0
VERTEX
  5
678
  8
Layer_1
  10
196.746
  20
36.975754
  0
VERTEX
  5
679
  8
Layer_1
  10
196.7005
  20
37.01725
  0
VERTEX
  5
67a
  8
Layer_1
  10
196.6805
  20
37.041
  0
VERTEX
  5
67b
  8
Layer_1
  10
196.647
  20
37.095501
  0
VERTEX
  5
67c
  8
Layer_1
  10
196.63275
  20
37.127003
  0
VERTEX
  5
67d
  8
Layer_1
  10
196.62125
  20
37.160751
  0
VERTEX
  5
67e
  8
Layer_1
  10
196.603
  20
37.235252
  0
VERTEX
  5
67f
  8
Layer_1
  10
196.58975
  20
37.319504
  0
VERTEX
  5
680
  8
Layer_1
  10
196.5815
  20
37.415752
  0
VERTEX
  5
681
  8
Layer_1
  10
196.57825
  20
37.532753
  0
VERTEX
  5
682
  8
Layer_1
  10
196.578
  20
39.026001
  0
VERTEX
  5
683
  8
Layer_1
  10
195.98399
  20
39.026001
  0
VERTEX
  5
684
  8
Layer_1
  10
195.98399
  20
39.431
  0
VERTEX
  5
685
  8
Layer_1
  10
196.578
  20
39.431
  0
VERTEX
  5
686
  8
Layer_1
  10
196.578
  20
40.100002
  0
VERTEX
  5
687
  8
Layer_1
  10
197.209
  20
40.100002
  0
VERTEX
  5
688
  8
Layer_1
  10
197.209
  20
39.431
  0
VERTEX
  5
689
  8
Layer_1
  10
198.013
  20
39.431
  0
VERTEX
  5
68a
  8
Layer_1
  10
198.013
  20
39.026001
  0
VERTEX
  5
68b
  8
Layer_1
  10
197.209
  20
39.026001
  0
VERTEX
  5
68c
  8
Layer_1
  10
197.209
  20
37.631004
  0
VERTEX
  5
68d
  8
Layer_1
  10
197.21451
  20
37.453003
  0
VERTEX
  5
68e
  8
Layer_1
  10
197.2225
  20
37.397503
  0
VERTEX
  5
68f
  8
Layer_1
  10
197.23151
  20
37.371254
  0
VERTEX
  5
690
  8
Layer_1
  10
197.25424
  20
37.333252
  0
VERTEX
  5
691
  8
Layer_1
  10
197.27174
  20
37.316502
  0
VERTEX
  5
692
  8
Layer_1
  10
197.30475
  20
37.296501
  0
VERTEX
  5
693
  8
Layer_1
  10
197.34924
  20
37.281754
  0
VERTEX
  5
694
  8
Layer_1
  10
197.3985
  20
37.272503
  0
VERTEX
  5
695
  8
Layer_1
  10
197.498
  20
37.265503
  0
VERTEX
  5
696
  8
Layer_1
  10
197.664
  20
37.261078
  0
VERTEX
  5
697
  8
Layer_1
  10
197.664
  20
36.869003
  0
VERTEX
  5
698
  8
Layer_1
  10
197.164
  20
36.870003
  0
VERTEX
  5
699
  8
Layer_1
  10
197.0545
  20
36.877003
  0
SEQEND
  0
POLYLINE
  5
69b
  8
Layer_1
  62
5
  70
1
  66
1
  10
0
  20
0
  30
0
  0
VERTEX
  5
69b
  8
Layer_1
  10
81.453995
  20
38.767998
  0
VERTEX
  5
69c
  8
Layer_1
  10
81.421005
  20
38.767998
  0
VERTEX
  5
69d
  8
Layer_1
  10
81.421005
  20
37.694
  0
VERTEX
  5
69e
  8
Layer_1
  10
80.794006
  20
37.694
  0
VERTEX
  5
69f
  8
Layer_1
  10
80.794006
  20
41.071999
  0
VERTEX
  5
6a0
  8
Layer_1
  10
81.421005
  20
41.071999
  0
VERTEX
  5
6a1
  8
Layer_1
  10
81.421005
  20
39.367996
  0
VERTEX
  5
6a2
  8
Layer_1
  10
81.462997
  20
39.367996
  0
VERTEX
  5
6a3
  8
Layer_1
  10
82.242996
  20
40.255997
  0
VERTEX
  5
6a4
  8
Layer_1
  10
82.891006
  20
40.255997
  0
VERTEX
  5
6a5
  8
Layer_1
  10
81.882996
  20
39.079998
  0
VERTEX
  5
6a6
  8
Layer_1
  10
82.987
  20
37.694
  0
VERTEX
  5
6a7
  8
Layer_1
  10
82.266998
  20
37.694
  0
VERTEX
  5
6a8
  8
Layer_1
  10
81.453995
  20
38.767998
  0
SEQEND
  0
POLYLINE
  5
6aa
  8
Layer_1
  62
5
  70
1
  66
1
  10
0
  20
0
  30
0
  0
VERTEX
  5
6aa
  8
Layer_1
  10
79.250244
  20
38.100998
  0
VERTEX
  5
6ab
  8
Layer_1
  10
79.347748
  20
38.090248
  0
VERTEX
  5
6ac
  8
Layer_1
  10
79.425751
  20
38.086498
  0
VERTEX
  5
6ad
  8
Layer_1
  10
80.455002
  20
38.08625
  0
VERTEX
  5
6ae
  8
Layer_1
  10
80.455002
  20
37.694
  0
VERTEX
  5
6af
  8
Layer_1
  10
79.046997
  20
37.694748
  0
VERTEX
  5
6b0
  8
Layer_1
  10
78.980286
  20
37.699852
  0
VERTEX
  5
6b1
  8
Layer_1
  10
78.876877
  20
37.714622
  0
VERTEX
  5
6b2
  8
Layer_1
  10
78.801498
  20
37.736
  0
VERTEX
  5
6b3
  8
Layer_1
  10
78.716995
  20
37.773499
  0
VERTEX
  5
6b4
  8
Layer_1
  10
78.668243
  20
37.805
  0
VERTEX
  5
6b5
  8
Layer_1
  10
78.614746
  20
37.851997
  0
VERTEX
  5
6b6
  8
Layer_1
  10
78.569
  20
37.908249
  0
VERTEX
  5
6b7
  8
Layer_1
  10
78.53775
  20
37.957497
  0
VERTEX
  5
6b8
  8
Layer_1
  10
78.505005
  20
38.0285
  0
VERTEX
  5
6b9
  8
Layer_1
  10
78.487
  20
38.078999
  0
VERTEX
  5
6ba
  8
Layer_1
  10
78.467499
  20
38.159248
  0
VERTEX
  5
6bb
  8
Layer_1
  10
78.450745
  20
38.259998
  0
VERTEX
  5
6bc
  8
Layer_1
  10
78.440994
  20
38.373249
  0
VERTEX
  5
6bd
  8
Layer_1
  10
78.436249
  20
38.51075
  0
VERTEX
  5
6be
  8
Layer_1
  10
78.436005
  20
39.418999
  0
VERTEX
  5
6bf
  8
Layer_1
  10
78.438004
  20
39.530998
  0
VERTEX
  5
6c0
  8
Layer_1
  10
78.452744
  20
39.699249
  0
VERTEX
  5
6c1
  8
Layer_1
  10
78.475494
  20
39.825748
  0
VERTEX
  5
6c2
  8
Layer_1
  10
78.491257
  20
39.87925
  0
VERTEX
  5
6c3
  8
Layer_1
  10
78.51825
  20
39.949249
  0
VERTEX
  5
6c4
  8
Layer_1
  10
78.546494
  20
40.003746
  0
VERTEX
  5
6c5
  8
Layer_1
  10
78.569748
  20
40.040249
  0
VERTEX
  5
6c6
  8
Layer_1
  10
78.598007
  20
40.077
  0
VERTEX
  5
6c7
  8
Layer_1
  10
78.640747
  20
40.119499
  0
VERTEX
  5
6c8
  8
Layer_1
  10
78.677002
  20
40.148998
  0
VERTEX
  5
6c9
  8
Layer_1
  10
78.738998
  20
40.185997
  0
VERTEX
  5
6ca
  8
Layer_1
  10
78.799255
  20
40.210747
  0
VERTEX
  5
6cb
  8
Layer_1
  10
78.882156
  20
40.234001
  0
VERTEX
  5
6cc
  8
Layer_1
  10
78.943756
  20
40.245499
  0
VERTEX
  5
6cd
  8
Layer_1
  10
79.009003
  20
40.252499
  0
VERTEX
  5
6ce
  8
Layer_1
  10
79.098999
  20
40.255997
  0
VERTEX
  5
6cf
  8
Layer_1
  10
80.455002
  20
40.255997
  0
VERTEX
  5
6d0
  8
Layer_1
  10
80.455002
  20
39.850998
  0
VERTEX
  5
6d1
  8
Layer_1
  10
79.309006
  20
39.850998
  0
VERTEX
  5
6d2
  8
Layer_1
  10
79.267242
  20
39.848251
  0
VERTEX
  5
6d3
  8
Layer_1
  10
79.208755
  20
39.836498
  0
VERTEX
  5
6d4
  8
Layer_1
  10
79.160004
  20
39.814999
  0
VERTEX
  5
6d5
  8
Layer_1
  10
79.140747
  20
39.7985
  0
VERTEX
  5
6d6
  8
Layer_1
  10
79.115494
  20
39.766251
  0
VERTEX
  5
6d7
  8
Layer_1
  10
79.101501
  20
39.737
  0
VERTEX
  5
6d8
  8
Layer_1
  10
79.086243
  20
39.690998
  0
VERTEX
  5
6d9
  8
Layer_1
  10
79.069244
  20
39.575748
  0
VERTEX
  5
6da
  8
Layer_1
  10
79.063248
  20
39.453751
  0
VERTEX
  5
6db
  8
Layer_1
  10
79.063004
  20
38.488998
  0
VERTEX
  5
6dc
  8
Layer_1
  10
79.066254
  20
38.409248
  0
VERTEX
  5
6dd
  8
Layer_1
  10
79.072006
  20
38.340748
  0
VERTEX
  5
6de
  8
Layer_1
  10
79.085007
  20
38.276497
  0
VERTEX
  5
6df
  8
Layer_1
  10
79.102493
  20
38.222248
  0
VERTEX
  5
6e0
  8
Layer_1
  10
79.126007
  20
38.177998
  0
VERTEX
  5
6e1
  8
Layer_1
  10
79.143997
  20
38.154999
  0
VERTEX
  5
6e2
  8
Layer_1
  10
79.158997
  20
38.139999
  0
VERTEX
  5
6e3
  8
Layer_1
  10
79.175995
  20
38.126999
  0
VERTEX
  5
6e4
  8
Layer_1
  10
79.201508
  20
38.11425
  0
VERTEX
  5
6e5
  8
Layer_1
  10
79.215744
  20
38.109001
  0
VERTEX
  5
6e6
  8
Layer_1
  10
79.250244
  20
38.100998
  0
SEQEND
  0
POLYLINE
  5
6e8
  8
Layer_1
  62
5
  70
1
  66
1
  10
0
  20
0
  30
0
  0
VERTEX
  5
6e8
  8
Layer_1
  10
76.365005
  20
37.711498
  0
VERTEX
  5
6e9
  8
Layer_1
  10
76.305252
  20
37.724998
  0
VERTEX
  5
6ea
  8
Layer_1
  10
76.246002
  20
37.744999
  0
VERTEX
  5
6eb
  8
Layer_1
  10
76.176498
  20
37.7785
  0
VERTEX
  5
6ec
  8
Layer_1
  10
76.122253
  20
37.81575
  0
VERTEX
  5
6ed
  8
Layer_1
  10
76.091751
  20
37.842247
  0
VERTEX
  5
6ee
  8
Layer_1
  10
76.065994
  20
37.869999
  0
VERTEX
  5
6ef
  8
Layer_1
  10
76.048752
  20
37.891747
  0
VERTEX
  5
6f0
  8
Layer_1
  10
76.023346
  20
37.93
  0
VERTEX
  5
6f1
  8
Layer_1
  10
76.001007
  20
37.970001
  0
VERTEX
  5
6f2
  8
Layer_1
  10
75.981247
  20
38.016251
  0
VERTEX
  5
6f3
  8
Layer_1
  10
75.952744
  20
38.10675
  0
VERTEX
  5
6f4
  8
Layer_1
  10
75.937744
  20
38.17725
  0
VERTEX
  5
6f5
  8
Layer_1
  10
75.919495
  20
38.307999
  0
VERTEX
  5
6f6
  8
Layer_1
  10
75.911743
  20
38.446499
  0
VERTEX
  5
6f7
  8
Layer_1
  10
75.910004
  20
39.418999
  0
VERTEX
  5
6f8
  8
Layer_1
  10
75.911499
  20
39.491749
  0
VERTEX
  5
6f9
  8
Layer_1
  10
75.918091
  20
39.620941
  0
VERTEX
  5
6fa
  8
Layer_1
  10
75.929611
  20
39.722
  0
VERTEX
  5
6fb
  8
Layer_1
  10
75.949249
  20
39.8255
  0
VERTEX
  5
6fc
  8
Layer_1
  10
75.974243
  20
39.9095
  0
VERTEX
  5
6fd
  8
Layer_1
  10
75.992996
  20
39.958248
  0
VERTEX
  5
6fe
  8
Layer_1
  10
76.028244
  20
40.025249
  0
VERTEX
  5
6ff
  8
Layer_1
  10
76.051743
  20
40.059498
  0
VERTEX
  5
700
  8
Layer_1
  10
76.089996
  20
40.102997
  0
VERTEX
  5
701
  8
Layer_1
  10
76.117004
  20
40.126999
  0
VERTEX
  5
702
  8
Layer_1
  10
76.145004
  20
40.148998
  0
VERTEX
  5
703
  8
Layer_1
  10
76.207993
  20
40.185997
  0
VERTEX
  5
704
  8
Layer_1
  10
76.234253
  20
40.19725
  0
VERTEX
  5
705
  8
Layer_1
  10
76.320251
  20
40.226749
  0
VERTEX
  5
706
  8
Layer_1
  10
76.391998
  20
40.241501
  0
VERTEX
  5
707
  8
Layer_1
  10
76.472
  20
40.251179
  0
VERTEX
  5
708
  8
Layer_1
  10
76.560257
  20
40.255501
  0
VERTEX
  5
709
  8
Layer_1
  10
77.434006
  20
40.255997
  0
VERTEX
  5
70a
  8
Layer_1
  10
77.546249
  20
40.250248
  0
VERTEX
  5
70b
  8
Layer_1
  10
77.637756
  20
40.236
  0
VERTEX
  5
70c
  8
Layer_1
  10
77.746994
  20
40.201748
  0
VERTEX
  5
70d
  8
Layer_1
  10
77.813995
  20
40.171249
  0
VERTEX
  5
70e
  8
Layer_1
  10
77.858749
  20
40.141998
  0
VERTEX
  5
70f
  8
Layer_1
  10
77.891998
  20
40.115997
  0
VERTEX
  5
710
  8
Layer_1
  10
77.940994
  20
40.063
  0
VERTEX
  5
711
  8
Layer_1
  10
77.962997
  20
40.032997
  0
VERTEX
  5
712
  8
Layer_1
  10
77.997253
  20
39.973747
  0
VERTEX
  5
713
  8
Layer_1
  10
78.031006
  20
39.896999
  0
VERTEX
  5
714
  8
Layer_1
  10
78.048996
  20
39.845001
  0
VERTEX
  5
715
  8
Layer_1
  10
78.072006
  20
39.73925
  0
VERTEX
  5
716
  8
Layer_1
  10
78.089752
  20
39.594498
  0
VERTEX
  5
717
  8
Layer_1
  10
78.094757
  20
39.502998
  0
VERTEX
  5
718
  8
Layer_1
  10
78.097
  20
39.418999
  0
VERTEX
  5
719
  8
Layer_1
  10
78.097
  20
38.532249
  0
VERTEX
  5
71a
  8
Layer_1
  10
78.092499
  20
38.390499
  0
VERTEX
  5
71b
  8
Layer_1
  10
78.0755
  20
38.232246
  0
VERTEX
  5
71c
  8
Layer_1
  10
78.056244
  20
38.130501
  0
VERTEX
  5
71d
  8
Layer_1
  10
78.031754
  20
38.04575
  0
VERTEX
  5
71e
  8
Layer_1
  10
78.014755
  20
38.00325
  0
VERTEX
  5
71f
  8
Layer_1
  10
77.979752
  20
37.936249
  0
VERTEX
  5
720
  8
Layer_1
  10
77.936249
  20
37.875248
  0
VERTEX
  5
721
  8
Layer_1
  10
77.889252
  20
37.827499
  0
VERTEX
  5
722
  8
Layer_1
  10
77.828751
  20
37.782501
  0
VERTEX
  5
723
  8
Layer_1
  10
77.771255
  20
37.752499
  0
VERTEX
  5
724
  8
Layer_1
  10
77.711151
  20
37.730164
  0
VERTEX
  5
725
  8
Layer_1
  10
77.632507
  20
37.710499
  0
VERTEX
  5
726
  8
Layer_1
  10
77.517242
  20
37.69725
  0
VERTEX
  5
727
  8
Layer_1
  10
77.464005
  20
37.694248
  0
VERTEX
  5
728
  8
Layer_1
  10
76.554001
  20
37.694
  0
VERTEX
  5
729
  8
Layer_1
  10
76.479996
  20
37.696999
  0
VERTEX
  5
72a
  8
Layer_1
  10
76.365005
  20
37.711498
  0
SEQEND
  0
POLYLINE
  5
72c
  8
Layer_1
  62
5
  70
1
  66
1
  10
0
  20
0
  30
0
  0
VERTEX
  5
72c
  8
Layer_1
  10
74.863007
  20
38.086998
  0
VERTEX
  5
72d
  8
Layer_1
  10
75.576996
  20
38.086998
  0
VERTEX
  5
72e
  8
Layer_1
  10
75.576996
  20
37.694
  0
VERTEX
  5
72f
  8
Layer_1
  10
73.548996
  20
37.694
  0
VERTEX
  5
730
  8
Layer_1
  10
73.548996
  20
38.086998
  0
VERTEX
  5
731
  8
Layer_1
  10
74.244995
  20
38.086998
  0
VERTEX
  5
732
  8
Layer_1
  10
74.244995
  20
40.667
  0
VERTEX
  5
733
  8
Layer_1
  10
73.548996
  20
40.667
  0
VERTEX
  5
734
  8
Layer_1
  10
73.548996
  20
41.071999
  0
VERTEX
  5
735
  8
Layer_1
  10
74.863007
  20
41.071999
  0
VERTEX
  5
736
  8
Layer_1
  10
74.863007
  20
38.086998
  0
SEQEND
  0
POLYLINE
  5
738
  8
Layer_1
  62
5
  70
1
  66
1
  10
0
  20
0
  30
0
  0
VERTEX
  5
738
  8
Layer_1
  10
72.562256
  20
38.084999
  0
VERTEX
  5
739
  8
Layer_1
  10
73.128998
  20
38.08625
  0
VERTEX
  5
73a
  8
Layer_1
  10
73.128998
  20
37.694
  0
VERTEX
  5
73b
  8
Layer_1
  10
71.748001
  20
37.694
  0
VERTEX
  5
73c
  8
Layer_1
  10
71.632004
  20
37.700996
  0
VERTEX
  5
73d
  8
Layer_1
  10
71.536499
  20
37.717499
  0
VERTEX
  5
73e
  8
Layer_1
  10
71.470749
  20
37.736748
  0
VERTEX
  5
73f
  8
Layer_1
  10
71.404999
  20
37.765999
  0
VERTEX
  5
740
  8
Layer_1
  10
71.365997
  20
37.787998
  0
VERTEX
  5
741
  8
Layer_1
  10
71.309006
  20
37.831001
  0
VERTEX
  5
742
  8
Layer_1
  10
71.259995
  20
37.883999
  0
VERTEX
  5
743
  8
Layer_1
  10
71.238007
  20
37.913998
  0
VERTEX
  5
744
  8
Layer_1
  10
71.218002
  20
37.945999
  0
VERTEX
  5
745
  8
Layer_1
  10
71.199005
  20
37.980999
  0
VERTEX
  5
746
  8
Layer_1
  10
71.182007
  20
38.018997
  0
VERTEX
  5
747
  8
Layer_1
  10
71.167007
  20
38.057999
  0
VERTEX
  5
748
  8
Layer_1
  10
71.154007
  20
38.100998
  0
VERTEX
  5
749
  8
Layer_1
  10
71.136505
  20
38.182999
  0
VERTEX
  5
74a
  8
Layer_1
  10
71.12175
  20
38.287498
  0
VERTEX
  5
74b
  8
Layer_1
  10
71.113007
  20
38.403748
  0
VERTEX
  5
74c
  8
Layer_1
  10
71.110001
  20
38.530998
  0
VERTEX
  5
74d
  8
Layer_1
  10
71.110001
  20
39.431248
  0
VERTEX
  5
74e
  8
Layer_1
  10
71.115494
  20
39.585251
  0
VERTEX
  5
74f
  8
Layer_1
  10
71.126251
  20
39.695999
  0
VERTEX
  5
750
  8
Layer_1
  10
71.141998
  20
39.791
  0
VERTEX
  5
751
  8
Layer_1
  10
71.153
  20
39.841
  0
VERTEX
  5
752
  8
Layer_1
  10
71.167007
  20
39.887001
  0
VERTEX
  5
753
  8
Layer_1
  10
71.182007
  20
39.926998
  0
VERTEX
  5
754
  8
Layer_1
  10
71.199005
  20
39.964996
  0
VERTEX
  5
755
  8
Layer_1
  10
71.238007
  20
40.032997
  0
VERTEX
  5
756
  8
Layer_1
  10
71.259995
  20
40.063
  0
VERTEX
  5
757
  8
Layer_1
  10
71.303497
  20
40.110497
  0
VERTEX
  5
758
  8
Layer_1
  10
71.365005
  20
40.158249
  0
VERTEX
  5
759
  8
Layer_1
  10
71.414993
  20
40.186749
  0
VERTEX
  5
75a
  8
Layer_1
  10
71.462494
  20
40.207249
  0
VERTEX
  5
75b
  8
Layer_1
  10
71.533005
  20
40.229248
  0
VERTEX
  5
75c
  8
Layer_1
  10
71.599243
  20
40.242748
  0
VERTEX
  5
75d
  8
Layer_1
  10
71.646255
  20
40.249249
  0
VERTEX
  5
75e
  8
Layer_1
  10
71.715256
  20
40.254501
  0
VERTEX
  5
75f
  8
Layer_1
  10
73.128998
  20
40.255997
  0
VERTEX
  5
760
  8
Layer_1
  10
73.128998
  20
39.850998
  0
VERTEX
  5
761
  8
Layer_1
  10
71.983002
  20
39.850998
  0
VERTEX
  5
762
  8
Layer_1
  10
71.897995
  20
39.8405
  0
VERTEX
  5
763
  8
Layer_1
  10
71.850998
  20
39.824249
  0
VERTEX
  5
764
  8
Layer_1
  10
71.819748
  20
39.803497
  0
VERTEX
  5
765
  8
Layer_1
  10
71.790497
  20
39.766998
  0
VERTEX
  5
766
  8
Layer_1
  10
71.770493
  20
39.724251
  0
VERTEX
  5
767
  8
Layer_1
  10
71.753998
  20
39.665249
  0
VERTEX
  5
768
  8
Layer_1
  10
71.743744
  20
39.592751
  0
VERTEX
  5
769
  8
Layer_1
  10
71.739243
  20
39.529999
  0
VERTEX
  5
76a
  8
Layer_1
  10
71.737
  20
38.488998
  0
VERTEX
  5
76b
  8
Layer_1
  10
71.740005
  20
38.404999
  0
VERTEX
  5
76c
  8
Layer_1
  10
71.746994
  20
38.332001
  0
VERTEX
  5
76d
  8
Layer_1
  10
71.753006
  20
38.299
  0
VERTEX
  5
76e
  8
Layer_1
  10
71.768997
  20
38.240997
  0
VERTEX
  5
76f
  8
Layer_1
  10
71.779007
  20
38.216
  0
VERTEX
  5
770
  8
Layer_1
  10
71.802994
  20
38.172997
  0
VERTEX
  5
771
  8
Layer_1
  10
71.817993
  20
38.154999
  0
VERTEX
  5
772
  8
Layer_1
  10
71.832993
  20
38.139999
  0
VERTEX
  5
773
  8
Layer_1
  10
71.850006
  20
38.126999
  0
VERTEX
  5
774
  8
Layer_1
  10
71.893005
  20
38.107998
  0
VERTEX
  5
775
  8
Layer_1
  10
71.928757
  20
38.10025
  0
VERTEX
  5
776
  8
Layer_1
  10
72.05275
  20
38.088501
  0
VERTEX
  5
777
  8
Layer_1
  10
72.562256
  20
38.084999
  0
SEQEND
  0
POLYLINE
  5
779
  8
Layer_1
  62
5
  70
1
  66
1
  10
0
  20
0
  30
0
  0
VERTEX
  5
779
  8
Layer_1
  10
66.816498
  20
37.750999
  0
VERTEX
  5
77a
  8
Layer_1
  10
66.753998
  20
37.784748
  0
VERTEX
  5
77b
  8
Layer_1
  10
66.705246
  20
37.820499
  0
VERTEX
  5
77c
  8
Layer_1
  10
66.671997
  20
37.849998
  0
VERTEX
  5
77d
  8
Layer_1
  10
66.623001
  20
37.908997
  0
VERTEX
  5
77e
  8
Layer_1
  10
66.595749
  20
37.952499
  0
VERTEX
  5
77f
  8
Layer_1
  10
66.568497
  20
38.004498
  0
VERTEX
  5
780
  8
Layer_1
  10
66.535507
  20
38.087997
  0
VERTEX
  5
781
  8
Layer_1
  10
66.511002
  20
38.18
  0
VERTEX
  5
782
  8
Layer_1
  10
66.492493
  20
38.283749
  0
VERTEX
  5
783
  8
Layer_1
  10
66.480499
  20
38.390747
  0
VERTEX
  5
784
  8
Layer_1
  10
66.476257
  20
38.451748
  0
VERTEX
  5
785
  8
Layer_1
  10
66.473251
  20
38.566998
  0
VERTEX
  5
786
  8
Layer_1
  10
66.473007
  20
39.359001
  0
VERTEX
  5
787
  8
Layer_1
  10
66.477249
  20
39.502251
  0
VERTEX
  5
788
  8
Layer_1
  10
66.483749
  20
39.595497
  0
VERTEX
  5
789
  8
Layer_1
  10
66.496506
  20
39.689751
  0
VERTEX
  5
78a
  8
Layer_1
  10
66.516495
  20
39.791
  0
VERTEX
  5
78b
  8
Layer_1
  10
66.542252
  20
39.881248
  0
VERTEX
  5
78c
  8
Layer_1
  10
66.569
  20
39.94725
  0
VERTEX
  5
78d
  8
Layer_1
  10
66.597504
  20
40.001999
  0
VERTEX
  5
78e
  8
Layer_1
  10
66.633499
  20
40.054497
  0
VERTEX
  5
78f
  8
Layer_1
  10
66.68425
  20
40.110497
  0
VERTEX
  5
790
  8
Layer_1
  10
66.715744
  20
40.137497
  0
VERTEX
  5
791
  8
Layer_1
  10
66.748001
  20
40.160248
  0
VERTEX
  5
792
  8
Layer_1
  10
66.813004
  20
40.195499
  0
VERTEX
  5
793
  8
Layer_1
  10
66.865997
  20
40.2155
  0
VERTEX
  5
794
  8
Layer_1
  10
66.932266
  20
40.234001
  0
VERTEX
  5
795
  8
Layer_1
  10
67.029755
  20
40.2505
  0
VERTEX
  5
796
  8
Layer_1
  10
67.126495
  20
40.255749
  0
VERTEX
  5
797
  8
Layer_1
  10
67.919006
  20
40.255997
  0
VERTEX
  5
798
  8
Layer_1
  10
67.919006
  20
41.071999
  0
VERTEX
  5
799
  8
Layer_1
  10
68.537003
  20
41.071999
  0
VERTEX
  5
79a
  8
Layer_1
  10
68.537003
  20
37.694
  0
VERTEX
  5
79b
  8
Layer_1
  10
67.124878
  20
37.694
  0
VERTEX
  5
79c
  8
Layer_1
  10
67.080002
  20
37.695747
  0
VERTEX
  5
79d
  8
Layer_1
  10
66.949997
  20
37.709747
  0
VERTEX
  5
79e
  8
Layer_1
  10
66.876007
  20
37.7285
  0
VERTEX
  5
79f
  8
Layer_1
  10
66.816498
  20
37.750999
  0
SEQEND
  0
POLYLINE
  5
7a1
  8
Layer_1
  62
5
  70
1
  66
1
  10
0
  20
0
  30
0
  0
VERTEX
  5
7a1
  8
Layer_1
  10
65.735504
  20
37.720249
  0
VERTEX
  5
7a2
  8
Layer_1
  10
65.677994
  20
37.707748
  0
VERTEX
  5
7a3
  8
Layer_1
  10
65.585999
  20
37.696999
  0
VERTEX
  5
7a4
  8
Layer_1
  10
65.539993
  20
37.695
  0
VERTEX
  5
7a5
  8
Layer_1
  10
64.612
  20
37.694
  0
VERTEX
  5
7a6
  8
Layer_1
  10
64.537994
  20
37.696999
  0
VERTEX
  5
7a7
  8
Layer_1
  10
64.425995
  20
37.709999
  0
VERTEX
  5
7a8
  8
Layer_1
  10
64.359497
  20
37.726498
  0
VERTEX
  5
7a9
  8
Layer_1
  10
64.274597
  20
37.757339
  0
VERTEX
  5
7aa
  8
Layer_1
  10
64.214752
  20
37.791
  0
VERTEX
  5
7ab
  8
Layer_1
  10
64.168747
  20
37.826248
  0
VERTEX
  5
7ac
  8
Layer_1
  10
64.126999
  20
37.866749
  0
VERTEX
  5
7ad
  8
Layer_1
  10
64.101746
  20
37.897999
  0
VERTEX
  5
7ae
  8
Layer_1
  10
64.080994
  20
37.93
  0
VERTEX
  5
7af
  8
Layer_1
  10
64.061996
  20
37.963997
  0
VERTEX
  5
7b0
  8
Layer_1
  10
64.046005
  20
38
  0
VERTEX
  5
7b1
  8
Layer_1
  10
64.021255
  20
38.068748
  0
VERTEX
  5
7b2
  8
Layer_1
  10
63.999496
  20
38.159248
  0
VERTEX
  5
7b3
  8
Layer_1
  10
63.982758
  20
38.259998
  0
VERTEX
  5
7b4
  8
Layer_1
  10
63.973007
  20
38.373249
  0
VERTEX
  5
7b5
  8
Layer_1
  10
63.968246
  20
38.51075
  0
VERTEX
  5
7b6
  8
Layer_1
  10
63.968002
  20
39.431248
  0
VERTEX
  5
7b7
  8
Layer_1
  10
63.969498
  20
39.503998
  0
VERTEX
  5
7b8
  8
Layer_1
  10
63.974747
  20
39.601498
  0
VERTEX
  5
7b9
  8
Layer_1
  10
63.985748
  20
39.710747
  0
VERTEX
  5
7ba
  8
Layer_1
  10
63.999756
  20
39.791748
  0
VERTEX
  5
7bb
  8
Layer_1
  10
64.012756
  20
39.847248
  0
VERTEX
  5
7bc
  8
Layer_1
  10
64.044998
  20
39.944
  0
VERTEX
  5
7bd
  8
Layer_1
  10
64.077255
  20
40.009998
  0
VERTEX
  5
7be
  8
Layer_1
  10
64.092255
  20
40.033997
  0
VERTEX
  5
7bf
  8
Layer_1
  10
64.124252
  20
40.077
  0
VERTEX
  5
7c0
  8
Layer_1
  10
64.163498
  20
40.116997
  0
VERTEX
  5
7c1
  8
Layer_1
  10
64.199493
  20
40.146248
  0
VERTEX
  5
7c2
  8
Layer_1
  10
64.231995
  20
40.167248
  0
VERTEX
  5
7c3
  8
Layer_1
  10
64.268753
  20
40.186749
  0
VERTEX
  5
7c4
  8
Layer_1
  10
64.339249
  20
40.214748
  0
VERTEX
  5
7c5
  8
Layer_1
  10
64.404755
  20
40.23275
  0
VERTEX
  5
7c6
  8
Layer_1
  10
64.474503
  20
40.24575
  0
VERTEX
  5
7c7
  8
Layer_1
  10
64.599503
  20
40.255501
  0
VERTEX
  5
7c8
  8
Layer_1
  10
65.507996
  20
40.255997
  0
VERTEX
  5
7c9
  8
Layer_1
  10
65.620743
  20
40.248749
  0
VERTEX
  5
7ca
  8
Layer_1
  10
65.703506
  20
40.234497
  0
VERTEX
  5
7cb
  8
Layer_1
  10
65.785995
  20
40.210999
  0
VERTEX
  5
7cc
  8
Layer_1
  10
65.837997
  20
40.188999
  0
VERTEX
  5
7cd
  8
Layer_1
  10
65.893005
  20
40.158997
  0
VERTEX
  5
7ce
  8
Layer_1
  10
65.949997
  20
40.115997
  0
VERTEX
  5
7cf
  8
Layer_1
  10
65.975006
  20
40.089996
  0
VERTEX
  5
7d0
  8
Layer_1
  10
66.010254
  20
40.047249
  0
VERTEX
  5
7d1
  8
Layer_1
  10
66.047256
  20
39.98925
  0
VERTEX
  5
7d2
  8
Layer_1
  10
66.082001
  20
39.914497
  0
VERTEX
  5
7d3
  8
Layer_1
  10
66.110748
  20
39.831249
  0
VERTEX
  5
7d4
  8
Layer_1
  10
66.131744
  20
39.727249
  0
VERTEX
  5
7d5
  8
Layer_1
  10
66.148254
  20
39.59375
  0
VERTEX
  5
7d6
  8
Layer_1
  10
66.153549
  20
39.504467
  0
VERTEX
  5
7d7
  8
Layer_1
  10
66.154999
  20
38.530998
  0
VERTEX
  5
7d8
  8
Layer_1
  10
66.152252
  20
38.42675
  0
VERTEX
  5
7d9
  8
Layer_1
  10
66.145996
  20
38.336998
  0
VERTEX
  5
7da
  8
Layer_1
  10
66.130493
  20
38.21125
  0
VERTEX
  5
7db
  8
Layer_1
  10
66.110001
  20
38.109497
  0
VERTEX
  5
7dc
  8
Layer_1
  10
66.089752
  20
38.046501
  0
VERTEX
  5
7dd
  8
Layer_1
  10
66.049744
  20
37.957001
  0
VERTEX
  5
7de
  8
Layer_1
  10
66.016998
  20
37.904747
  0
VERTEX
  5
7df
  8
Layer_1
  10
65.972748
  20
37.852249
  0
VERTEX
  5
7e0
  8
Layer_1
  10
65.922745
  20
37.806999
  0
VERTEX
  5
7e1
  8
Layer_1
  10
65.845993
  20
37.760498
  0
VERTEX
  5
7e2
  8
Layer_1
  10
65.789749
  20
37.737
  0
VERTEX
  5
7e3
  8
Layer_1
  10
65.735504
  20
37.720249
  0
SEQEND
  0
POLYLINE
  5
7e5
  8
Layer_1
  62
5
  70
1
  66
1
  10
0
  20
0
  30
0
  0
VERTEX
  5
7e5
  8
Layer_1
  10
63.245499
  20
40.236748
  0
VERTEX
  5
7e6
  8
Layer_1
  10
63.350494
  20
40.211498
  0
VERTEX
  5
7e7
  8
Layer_1
  10
63.390244
  20
40.195999
  0
VERTEX
  5
7e8
  8
Layer_1
  10
63.455994
  20
40.160999
  0
VERTEX
  5
7e9
  8
Layer_1
  10
63.504257
  20
40.124496
  0
VERTEX
  5
7ea
  8
Layer_1
  10
63.533005
  20
40.097248
  0
VERTEX
  5
7eb
  8
Layer_1
  10
63.550247
  20
40.077
  0
VERTEX
  5
7ec
  8
Layer_1
  10
63.579742
  20
40.036999
  0
VERTEX
  5
7ed
  8
Layer_1
  10
63.610748
  20
39.981998
  0
VERTEX
  5
7ee
  8
Layer_1
  10
63.630493
  20
39.935997
  0
VERTEX
  5
7ef
  8
Layer_1
  10
63.648499
  20
39.880501
  0
VERTEX
  5
7f0
  8
Layer_1
  10
63.665756
  20
39.80975
  0
VERTEX
  5
7f1
  8
Layer_1
  10
63.680038
  20
39.722
  0
VERTEX
  5
7f2
  8
Layer_1
  10
63.691498
  20
39.600998
  0
VERTEX
  5
7f3
  8
Layer_1
  10
63.694748
  20
39.513
  0
VERTEX
  5
7f4
  8
Layer_1
  10
63.695007
  20
37.694
  0
VERTEX
  5
7f5
  8
Layer_1
  10
63.154999
  20
37.694
  0
VERTEX
  5
7f6
  8
Layer_1
  10
63.154999
  20
39.42775
  0
VERTEX
  5
7f7
  8
Layer_1
  10
63.152496
  20
39.515999
  0
VERTEX
  5
7f8
  8
Layer_1
  10
63.141006
  20
39.64325
  0
VERTEX
  5
7f9
  8
Layer_1
  10
63.126755
  20
39.700996
  0
VERTEX
  5
7fa
  8
Layer_1
  10
63.102997
  20
39.759998
  0
VERTEX
  5
7fb
  8
Layer_1
  10
63.069
  20
39.799999
  0
VERTEX
  5
7fc
  8
Layer_1
  10
63.042755
  20
39.819748
  0
VERTEX
  5
7fd
  8
Layer_1
  10
63.007248
  20
39.835499
  0
VERTEX
  5
7fe
  8
Layer_1
  10
62.96225
  20
39.846497
  0
VERTEX
  5
7ff
  8
Layer_1
  10
62.913757
  20
39.850746
  0
VERTEX
  5
800
  8
Layer_1
  10
62.813004
  20
39.850998
  0
VERTEX
  5
801
  8
Layer_1
  10
62.813004
  20
37.694
  0
VERTEX
  5
802
  8
Layer_1
  10
62.393005
  20
37.694
  0
VERTEX
  5
803
  8
Layer_1
  10
62.393005
  20
39.850998
  0
VERTEX
  5
804
  8
Layer_1
  10
62.110992
  20
39.850998
  0
VERTEX
  5
805
  8
Layer_1
  10
62.110992
  20
37.694
  0
VERTEX
  5
806
  8
Layer_1
  10
61.550003
  20
37.694
  0
VERTEX
  5
807
  8
Layer_1
  10
61.550003
  20
40.255997
  0
VERTEX
  5
808
  8
Layer_1
  10
63.028
  20
40.255997
  0
VERTEX
  5
809
  8
Layer_1
  10
63.141998
  20
40.251251
  0
VERTEX
  5
80a
  8
Layer_1
  10
63.245499
  20
40.236748
  0
SEQEND
  0
POLYLINE
  5
80c
  8
Layer_1
  62
5
  70
1
  66
1
  10
0
  20
0
  30
0
  0
VERTEX
  5
80c
  8
Layer_1
  10
55.276993
  20
38.088501
  0
VERTEX
  5
80d
  8
Layer_1
  10
56.274994
  20
38.086998
  0
VERTEX
  5
80e
  8
Layer_1
  10
56.274994
  20
37.694
  0
VERTEX
  5
80f
  8
Layer_1
  10
55.035004
  20
37.694
  0
VERTEX
  5
810
  8
Layer_1
  10
54.917007
  20
37.700996
  0
VERTEX
  5
811
  8
Layer_1
  10
54.839005
  20
37.713749
  0
VERTEX
  5
812
  8
Layer_1
  10
54.782745
  20
37.728996
  0
VERTEX
  5
813
  8
Layer_1
  10
54.720657
  20
37.751801
  0
VERTEX
  5
814
  8
Layer_1
  10
54.684753
  20
37.769749
  0
VERTEX
  5
815
  8
Layer_1
  10
54.654495
  20
37.78775
  0
VERTEX
  5
816
  8
Layer_1
  10
54.602249
  20
37.828247
  0
VERTEX
  5
817
  8
Layer_1
  10
54.550003
  20
37.883999
  0
VERTEX
  5
818
  8
Layer_1
  10
54.528
  20
37.913998
  0
VERTEX
  5
819
  8
Layer_1
  10
54.488998
  20
37.980999
  0
VERTEX
  5
81a
  8
Layer_1
  10
54.472
  20
38.018997
  0
VERTEX
  5
81b
  8
Layer_1
  10
54.455994
  20
38.064735
  0
VERTEX
  5
81c
  8
Layer_1
  10
54.435745
  20
38.138248
  0
VERTEX
  5
81d
  8
Layer_1
  10
54.417496
  20
38.241749
  0
VERTEX
  5
81e
  8
Layer_1
  10
54.409256
  20
38.314999
  0
VERTEX
  5
81f
  8
Layer_1
  10
54.400497
  20
38.506748
  0
VERTEX
  5
820
  8
Layer_1
  10
54.399994
  20
39.418999
  0
VERTEX
  5
821
  8
Layer_1
  10
54.404999
  20
39.57225
  0
VERTEX
  5
822
  8
Layer_1
  10
54.4095
  20
39.639999
  0
VERTEX
  5
823
  8
Layer_1
  10
54.419815
  20
39.722
  0
VERTEX
  5
824
  8
Layer_1
  10
54.440506
  20
39.831249
  0
VERTEX
  5
825
  8
Layer_1
  10
54.46225
  20
39.899498
  0
VERTEX
  5
826
  8
Layer_1
  10
54.49025
  20
39.966248
  0
VERTEX
  5
827
  8
Layer_1
  10
54.511749
  20
40.005997
  0
VERTEX
  5
828
  8
Layer_1
  10
54.550003
  20
40.063
  0
VERTEX
  5
829
  8
Layer_1
  10
54.593506
  20
40.110497
  0
VERTEX
  5
82a
  8
Layer_1
  10
54.643494
  20
40.151001
  0
VERTEX
  5
82b
  8
Layer_1
  10
54.680252
  20
40.174751
  0
VERTEX
  5
82c
  8
Layer_1
  10
54.760956
  20
40.210815
  0
VERTEX
  5
82d
  8
Layer_1
  10
54.808746
  20
40.226749
  0
VERTEX
  5
82e
  8
Layer_1
  10
54.841049
  20
40.234001
  0
VERTEX
  5
82f
  8
Layer_1
  10
54.942001
  20
40.250248
  0
VERTEX
  5
830
  8
Layer_1
  10
55.022507
  20
40.255249
  0
VERTEX
  5
831
  8
Layer_1
  10
55.947998
  20
40.255997
  0
VERTEX
  5
832
  8
Layer_1
  10
55.991745
  20
40.25425
  0
VERTEX
  5
833
  8
Layer_1
  10
56.102753
  20
40.235001
  0
VERTEX
  5
834
  8
Layer_1
  10
56.155243
  20
40.217499
  0
VERTEX
  5
835
  8
Layer_1
  10
56.197495
  20
40.196747
  0
VERTEX
  5
836
  8
Layer_1
  10
56.240997
  20
40.170998
  0
VERTEX
  5
837
  8
Layer_1
  10
56.287994
  20
40.134499
  0
VERTEX
  5
838
  8
Layer_1
  10
56.335999
  20
40.084999
  0
VERTEX
  5
839
  8
Layer_1
  10
56.374496
  20
40.0355
  0
VERTEX
  5
83a
  8
Layer_1
  10
56.383743
  20
40.0205
  0
VERTEX
  5
83b
  8
Layer_1
  10
56.421249
  20
39.947746
  0
VERTEX
  5
83c
  8
Layer_1
  10
56.446243
  20
39.883751
  0
VERTEX
  5
83d
  8
Layer_1
  10
56.466507
  20
39.807499
  0
VERTEX
  5
83e
  8
Layer_1
  10
56.482452
  20
39.722
  0
VERTEX
  5
83f
  8
Layer_1
  10
56.492249
  20
39.624748
  0
VERTEX
  5
840
  8
Layer_1
  10
56.496246
  20
39.53125
  0
VERTEX
  5
841
  8
Layer_1
  10
56.496246
  20
39.44875
  0
VERTEX
  5
842
  8
Layer_1
  10
56.4935
  20
39.381748
  0
VERTEX
  5
843
  8
Layer_1
  10
56.486755
  20
39.306747
  0
VERTEX
  5
844
  8
Layer_1
  10
56.473083
  20
39.209999
  0
VERTEX
  5
845
  8
Layer_1
  10
56.453751
  20
39.125999
  0
VERTEX
  5
846
  8
Layer_1
  10
56.435257
  20
39.07
  0
VERTEX
  5
847
  8
Layer_1
  10
56.414749
  20
39.019249
  0
VERTEX
  5
848
  8
Layer_1
  10
56.395004
  20
38.980999
  0
VERTEX
  5
849
  8
Layer_1
  10
56.363754
  20
38.933498
  0
VERTEX
  5
84a
  8
Layer_1
  10
56.324997
  20
38.891037
  0
VERTEX
  5
84b
  8
Layer_1
  10
56.232254
  20
38.820999
  0
VERTEX
  5
84c
  8
Layer_1
  10
56.174744
  20
38.794498
  0
VERTEX
  5
84d
  8
Layer_1
  10
56.10025
  20
38.771999
  0
VERTEX
  5
84e
  8
Layer_1
  10
56.03775
  20
38.761749
  0
VERTEX
  5
84f
  8
Layer_1
  10
55.957504
  20
38.756248
  0
VERTEX
  5
850
  8
Layer_1
  10
55.024002
  20
38.755997
  0
VERTEX
  5
851
  8
Layer_1
  10
55.024002
  20
38.468998
  0
VERTEX
  5
852
  8
Layer_1
  10
55.028824
  20
38.360775
  0
VERTEX
  5
853
  8
Layer_1
  10
55.042755
  20
38.257999
  0
VERTEX
  5
854
  8
Layer_1
  10
55.054749
  20
38.222
  0
VERTEX
  5
855
  8
Layer_1
  10
55.065994
  20
38.195
  0
VERTEX
  5
856
  8
Layer_1
  10
55.088257
  20
38.1605
  0
VERTEX
  5
857
  8
Layer_1
  10
55.114502
  20
38.134998
  0
VERTEX
  5
858
  8
Layer_1
  10
55.139496
  20
38.118748
  0
VERTEX
  5
859
  8
Layer_1
  10
55.164993
  20
38.10825
  0
VERTEX
  5
85a
  8
Layer_1
  10
55.210251
  20
38.095749
  0
VERTEX
  5
85b
  8
Layer_1
  10
55.276993
  20
38.088501
  0
SEQEND
  0
POLYLINE
  5
85d
  8
Layer_1
  62
5
  70
1
  66
1
  10
0
  20
0
  30
0
  0
VERTEX
  5
85d
  8
Layer_1
  10
57.451996
  20
38.728996
  0
VERTEX
  5
85e
  8
Layer_1
  10
57.451004
  20
38.086998
  0
VERTEX
  5
85f
  8
Layer_1
  10
58.938995
  20
38.086998
  0
VERTEX
  5
860
  8
Layer_1
  10
58.938995
  20
37.694
  0
VERTEX
  5
861
  8
Layer_1
  10
56.841995
  20
37.694
  0
VERTEX
  5
862
  8
Layer_1
  10
56.841995
  20
38.662998
  0
VERTEX
  5
863
  8
Layer_1
  10
56.845245
  20
38.765499
  0
VERTEX
  5
864
  8
Layer_1
  10
56.853745
  20
38.86425
  0
VERTEX
  5
865
  8
Layer_1
  10
56.871994
  20
38.972496
  0
VERTEX
  5
866
  8
Layer_1
  10
56.904755
  20
39.095749
  0
VERTEX
  5
867
  8
Layer_1
  10
56.932007
  20
39.166748
  0
VERTEX
  5
868
  8
Layer_1
  10
56.959503
  20
39.224998
  0
VERTEX
  5
869
  8
Layer_1
  10
56.990997
  20
39.277748
  0
VERTEX
  5
86a
  8
Layer_1
  10
57.032257
  20
39.335999
  0
VERTEX
  5
86b
  8
Layer_1
  10
57.080246
  20
39.39225
  0
VERTEX
  5
86c
  8
Layer_1
  10
57.141754
  20
39.44725
  0
VERTEX
  5
86d
  8
Layer_1
  10
57.182007
  20
39.475498
  0
VERTEX
  5
86e
  8
Layer_1
  10
57.220993
  20
39.497749
  0
VERTEX
  5
86f
  8
Layer_1
  10
57.261002
  20
39.515999
  0
VERTEX
  5
870
  8
Layer_1
  10
57.296005
  20
39.528
  0
VERTEX
  5
871
  8
Layer_1
  10
57.350998
  20
39.540749
  0
VERTEX
  5
872
  8
Layer_1
  10
57.391998
  20
39.545998
  0
VERTEX
  5
873
  8
Layer_1
  10
57.442001
  20
39.547997
  0
VERTEX
  5
874
  8
Layer_1
  10
58.039993
  20
39.547997
  0
VERTEX
  5
875
  8
Layer_1
  10
58.083252
  20
39.551247
  0
VERTEX
  5
876
  8
Layer_1
  10
58.116745
  20
39.559998
  0
VERTEX
  5
877
  8
Layer_1
  10
58.153
  20
39.576748
  0
VERTEX
  5
878
  8
Layer_1
  10
58.182251
  20
39.597496
  0
VERTEX
  5
879
  8
Layer_1
  10
58.210251
  20
39.623249
  0
VERTEX
  5
87a
  8
Layer_1
  10
58.240005
  20
39.662498
  0
VERTEX
  5
87b
  8
Layer_1
  10
58.263245
  20
39.700996
  0
VERTEX
  5
87c
  8
Layer_1
  10
58.290756
  20
39.7645
  0
VERTEX
  5
87d
  8
Layer_1
  10
58.311493
  20
39.834747
  0
VERTEX
  5
87e
  8
Layer_1
  10
58.325256
  20
39.911247
  0
VERTEX
  5
87f
  8
Layer_1
  10
58.332504
  20
39.994751
  0
VERTEX
  5
880
  8
Layer_1
  10
58.331497
  20
40.071499
  0
VERTEX
  5
881
  8
Layer_1
  10
58.324493
  20
40.157501
  0
VERTEX
  5
882
  8
Layer_1
  10
58.316757
  20
40.203247
  0
VERTEX
  5
883
  8
Layer_1
  10
58.294006
  20
40.290249
  0
VERTEX
  5
884
  8
Layer_1
  10
58.279999
  20
40.327
  0
VERTEX
  5
885
  8
Layer_1
  10
58.256256
  20
40.376499
  0
VERTEX
  5
886
  8
Layer_1
  10
58.232498
  20
40.41375
  0
VERTEX
  5
887
  8
Layer_1
  10
58.206757
  20
40.445999
  0
VERTEX
  5
888
  8
Layer_1
  10
58.180496
  20
40.470749
  0
VERTEX
  5
889
  8
Layer_1
  10
58.150757
  20
40.491501
  0
VERTEX
  5
88a
  8
Layer_1
  10
58.126999
  20
40.50325
  0
VERTEX
  5
88b
  8
Layer_1
  10
58.102249
  20
40.511749
  0
VERTEX
  5
88c
  8
Layer_1
  10
58.065247
  20
40.518749
  0
VERTEX
  5
88d
  8
Layer_1
  10
57.141998
  20
40.519997
  0
VERTEX
  5
88e
  8
Layer_1
  10
57.141998
  20
40.924999
  0
VERTEX
  5
88f
  8
Layer_1
  10
58.309006
  20
40.924999
  0
VERTEX
  5
890
  8
Layer_1
  10
58.373245
  20
40.92025
  0
VERTEX
  5
891
  8
Layer_1
  10
58.441254
  20
40.905998
  0
VERTEX
  5
892
  8
Layer_1
  10
58.483994
  20
40.891998
  0
VERTEX
  5
893
  8
Layer_1
  10
58.518997
  20
40.875999
  0
VERTEX
  5
894
  8
Layer_1
  10
58.562744
  20
40.851749
  0
VERTEX
  5
895
  8
Layer_1
  10
58.622498
  20
40.807999
  0
VERTEX
  5
896
  8
Layer_1
  10
58.679993
  20
40.754997
  0
VERTEX
  5
897
  8
Layer_1
  10
58.712997
  20
40.716999
  0
VERTEX
  5
898
  8
Layer_1
  10
58.755997
  20
40.657749
  0
VERTEX
  5
899
  8
Layer_1
  10
58.798996
  20
40.582748
  0
VERTEX
  5
89a
  8
Layer_1
  10
58.836502
  20
40.502251
  0
VERTEX
  5
89b
  8
Layer_1
  10
58.871994
  20
40.403999
  0
VERTEX
  5
89c
  8
Layer_1
  10
58.897003
  20
40.310997
  0
VERTEX
  5
89d
  8
Layer_1
  10
58.914001
  20
40.213997
  0
VERTEX
  5
89e
  8
Layer_1
  10
58.923996
  20
40.112
  0
VERTEX
  5
89f
  8
Layer_1
  10
58.925995
  20
40.058998
  0
VERTEX
  5
8a0
  8
Layer_1
  10
58.925995
  20
39.959499
  0
VERTEX
  5
8a1
  8
Layer_1
  10
58.917007
  20
39.850998
  0
VERTEX
  5
8a2
  8
Layer_1
  10
58.901993
  20
39.752998
  0
VERTEX
  5
8a3
  8
Layer_1
  10
58.879501
  20
39.662247
  0
VERTEX
  5
8a4
  8
Layer_1
  10
58.850998
  20
39.577248
  0
VERTEX
  5
8a5
  8
Layer_1
  10
58.816254
  20
39.49575
  0
VERTEX
  5
8a6
  8
Layer_1
  10
58.775757
  20
39.422249
  0
VERTEX
  5
8a7
  8
Layer_1
  10
58.729004
  20
39.355999
  0
VERTEX
  5
8a8
  8
Layer_1
  10
58.681503
  20
39.300999
  0
VERTEX
  5
8a9
  8
Layer_1
  10
58.652252
  20
39.272751
  0
VERTEX
  5
8aa
  8
Layer_1
  10
58.620499
  20
39.246998
  0
VERTEX
  5
8ab
  8
Layer_1
  10
58.574005
  20
39.214996
  0
VERTEX
  5
8ac
  8
Layer_1
  10
58.524506
  20
39.188751
  0
VERTEX
  5
8ad
  8
Layer_1
  10
58.479996
  20
39.170998
  0
VERTEX
  5
8ae
  8
Layer_1
  10
58.432999
  20
39.157249
  0
VERTEX
  5
8af
  8
Layer_1
  10
58.393997
  20
39.149246
  0
VERTEX
  5
8b0
  8
Layer_1
  10
58.355255
  20
39.144749
  0
VERTEX
  5
8b1
  8
Layer_1
  10
57.697006
  20
39.142998
  0
VERTEX
  5
8b2
  8
Layer_1
  10
57.662994
  20
39.140999
  0
VERTEX
  5
8b3
  8
Layer_1
  10
57.630997
  20
39.132999
  0
VERTEX
  5
8b4
  8
Layer_1
  10
57.602005
  20
39.120998
  0
VERTEX
  5
8b5
  8
Layer_1
  10
57.576004
  20
39.102997
  0
VERTEX
  5
8b6
  8
Layer_1
  10
57.552002
  20
39.081001
  0
VERTEX
  5
8b7
  8
Layer_1
  10
57.531006
  20
39.054001
  0
VERTEX
  5
8b8
  8
Layer_1
  10
57.511993
  20
39.021999
  0
VERTEX
  5
8b9
  8
Layer_1
  10
57.496002
  20
38.985001
  0
VERTEX
  5
8ba
  8
Layer_1
  10
57.481995
  20
38.944
  0
VERTEX
  5
8bb
  8
Layer_1
  10
57.470993
  20
38.896999
  0
VERTEX
  5
8bc
  8
Layer_1
  10
57.462006
  20
38.846001
  0
VERTEX
  5
8bd
  8
Layer_1
  10
57.455994
  20
38.790001
  0
VERTEX
  5
8be
  8
Layer_1
  10
57.451996
  20
38.728996
  0
SEQEND
  0
POLYLINE
  5
8c0
  8
Layer_1
  62
5
  70
1
  66
1
  10
0
  20
0
  30
0
  0
VERTEX
  5
8c0
  8
Layer_1
  10
53.481995
  20
38.091499
  0
VERTEX
  5
8c1
  8
Layer_1
  10
53.671005
  20
38.086998
  0
VERTEX
  5
8c2
  8
Layer_1
  10
53.671005
  20
37.694
  0
VERTEX
  5
8c3
  8
Layer_1
  10
53.171005
  20
37.695
  0
VERTEX
  5
8c4
  8
Layer_1
  10
53.046997
  20
37.702999
  0
VERTEX
  5
8c5
  8
Layer_1
  10
52.940247
  20
37.720497
  0
VERTEX
  5
8c6
  8
Layer_1
  10
52.868256
  20
37.739498
  0
VERTEX
  5
8c7
  8
Layer_1
  10
52.807755
  20
37.765251
  0
VERTEX
  5
8c8
  8
Layer_1
  10
52.772751
  20
37.786499
  0
VERTEX
  5
8c9
  8
Layer_1
  10
52.740005
  20
37.810501
  0
VERTEX
  5
8ca
  8
Layer_1
  10
52.694
  20
37.856998
  0
VERTEX
  5
8cb
  8
Layer_1
  10
52.659424
  20
37.910103
  0
VERTEX
  5
8cc
  8
Layer_1
  10
52.648499
  20
37.93
  0
VERTEX
  5
8cd
  8
Layer_1
  10
52.623001
  20
38.007248
  0
VERTEX
  5
8ce
  8
Layer_1
  10
52.602493
  20
38.098248
  0
VERTEX
  5
8cf
  8
Layer_1
  10
52.591751
  20
38.188
  0
VERTEX
  5
8d0
  8
Layer_1
  10
52.586243
  20
38.290749
  0
VERTEX
  5
8d1
  8
Layer_1
  10
52.585007
  20
39.850998
  0
VERTEX
  5
8d2
  8
Layer_1
  10
51.990997
  20
39.850998
  0
VERTEX
  5
8d3
  8
Layer_1
  10
51.990997
  20
40.255997
  0
VERTEX
  5
8d4
  8
Layer_1
  10
52.585007
  20
40.255997
  0
VERTEX
  5
8d5
  8
Layer_1
  10
52.585007
  20
40.924999
  0
VERTEX
  5
8d6
  8
Layer_1
  10
53.214996
  20
40.924999
  0
VERTEX
  5
8d7
  8
Layer_1
  10
53.214996
  20
40.255997
  0
VERTEX
  5
8d8
  8
Layer_1
  10
54.018997
  20
40.255997
  0
VERTEX
  5
8d9
  8
Layer_1
  10
54.018997
  20
39.850998
  0
VERTEX
  5
8da
  8
Layer_1
  10
53.214996
  20
39.850998
  0
VERTEX
  5
8db
  8
Layer_1
  10
53.214996
  20
38.456001
  0
VERTEX
  5
8dc
  8
Layer_1
  10
53.219254
  20
38.306499
  0
VERTEX
  5
8dd
  8
Layer_1
  10
53.231003
  20
38.214996
  0
VERTEX
  5
8de
  8
Layer_1
  10
53.254501
  20
38.166248
  0
VERTEX
  5
8df
  8
Layer_1
  10
53.279495
  20
38.1395
  0
VERTEX
  5
8e0
  8
Layer_1
  10
53.317505
  20
38.118999
  0
VERTEX
  5
8e1
  8
Layer_1
  10
53.348495
  20
38.10775
  0
VERTEX
  5
8e2
  8
Layer_1
  10
53.365005
  20
38.103996
  0
VERTEX
  5
8e3
  8
Layer_1
  10
53.428757
  20
38.094498
  0
VERTEX
  5
8e4
  8
Layer_1
  10
53.481995
  20
38.091499
  0
SEQEND
  0
POLYLINE
  5
8e6
  8
Layer_1
  62
5
  70
1
  66
1
  10
0
  20
0
  30
0
  0
VERTEX
  5
8e6
  8
Layer_1
  10
49.504745
  20
38.304249
  0
VERTEX
  5
8e7
  8
Layer_1
  10
49.499496
  20
38.337997
  0
VERTEX
  5
8e8
  8
Layer_1
  10
49.492004
  20
38.476997
  0
VERTEX
  5
8e9
  8
Layer_1
  10
49.4935
  20
38.55925
  0
VERTEX
  5
8ea
  8
Layer_1
  10
49.5
  20
38.636497
  0
VERTEX
  5
8eb
  8
Layer_1
  10
49.505157
  20
38.673218
  0
VERTEX
  5
8ec
  8
Layer_1
  10
49.523743
  20
38.766499
  0
VERTEX
  5
8ed
  8
Layer_1
  10
49.546951
  20
38.845673
  0
VERTEX
  5
8ee
  8
Layer_1
  10
49.565994
  20
38.89875
  0
VERTEX
  5
8ef
  8
Layer_1
  10
49.601746
  20
38.976997
  0
VERTEX
  5
8f0
  8
Layer_1
  10
49.631744
  20
39.028748
  0
VERTEX
  5
8f1
  8
Layer_1
  10
49.677994
  20
39.09375
  0
VERTEX
  5
8f2
  8
Layer_1
  10
49.701508
  20
39.12175
  0
VERTEX
  5
8f3
  8
Layer_1
  10
49.751251
  20
39.17025
  0
VERTEX
  5
8f4
  8
Layer_1
  10
49.806747
  20
39.213997
  0
VERTEX
  5
8f5
  8
Layer_1
  10
49.873993
  20
39.252251
  0
VERTEX
  5
8f6
  8
Layer_1
  10
49.940994
  20
39.278
  0
VERTEX
  5
8f7
  8
Layer_1
  10
49.987747
  20
39.28775
  0
VERTEX
  5
8f8
  8
Layer_1
  10
50.061996
  20
39.29575
  0
VERTEX
  5
8f9
  8
Layer_1
  10
51.013
  20
39.295998
  0
VERTEX
  5
8fa
  8
Layer_1
  10
51.013
  20
39.521999
  0
VERTEX
  5
8fb
  8
Layer_1
  10
51.011505
  20
39.581249
  0
VERTEX
  5
8fc
  8
Layer_1
  10
51.003754
  20
39.655746
  0
VERTEX
  5
8fd
  8
Layer_1
  10
50.992004
  20
39.712749
  0
VERTEX
  5
8fe
  8
Layer_1
  10
50.979996
  20
39.746998
  0
VERTEX
  5
8ff
  8
Layer_1
  10
50.966003
  20
39.771999
  0
VERTEX
  5
900
  8
Layer_1
  10
50.955002
  20
39.786999
  0
VERTEX
  5
901
  8
Layer_1
  10
50.936996
  20
39.804001
  0
VERTEX
  5
902
  8
Layer_1
  10
50.916
  20
39.819
  0
VERTEX
  5
903
  8
Layer_1
  10
50.891998
  20
39.831001
  0
VERTEX
  5
904
  8
Layer_1
  10
50.860504
  20
39.841
  0
VERTEX
  5
905
  8
Layer_1
  10
50.813507
  20
39.849251
  0
VERTEX
  5
906
  8
Layer_1
  10
49.815994
  20
39.850998
  0
VERTEX
  5
907
  8
Layer_1
  10
49.815994
  20
40.255997
  0
VERTEX
  5
908
  8
Layer_1
  10
50.964996
  20
40.255997
  0
VERTEX
  5
909
  8
Layer_1
  10
51.096252
  20
40.250248
  0
VERTEX
  5
90a
  8
Layer_1
  10
51.156601
  20
40.243874
  0
VERTEX
  5
90b
  8
Layer_1
  10
51.231995
  20
40.230999
  0
VERTEX
  5
90c
  8
Layer_1
  10
51.287506
  20
40.216248
  0
VERTEX
  5
90d
  8
Layer_1
  10
51.33725
  20
40.196999
  0
VERTEX
  5
90e
  8
Layer_1
  10
51.384003
  20
40.171875
  0
VERTEX
  5
90f
  8
Layer_1
  10
51.444748
  20
40.126999
  0
VERTEX
  5
910
  8
Layer_1
  10
51.494995
  20
40.073997
  0
VERTEX
  5
911
  8
Layer_1
  10
51.516006
  20
40.044998
  0
VERTEX
  5
912
  8
Layer_1
  10
51.548752
  20
39.983749
  0
VERTEX
  5
913
  8
Layer_1
  10
51.579498
  20
39.904747
  0
VERTEX
  5
914
  8
Layer_1
  10
51.611755
  20
39.7565
  0
VERTEX
  5
915
  8
Layer_1
  10
51.623505
  20
39.655499
  0
VERTEX
  5
916
  8
Layer_1
  10
51.629501
  20
39.543251
  0
VERTEX
  5
917
  8
Layer_1
  10
51.630997
  20
37.694
  0
VERTEX
  5
918
  8
Layer_1
  10
50.057495
  20
37.694
  0
VERTEX
  5
919
  8
Layer_1
  10
49.983505
  20
37.7015
  0
VERTEX
  5
91a
  8
Layer_1
  10
49.914505
  20
37.71875
  0
VERTEX
  5
91b
  8
Layer_1
  10
49.878006
  20
37.731247
  0
VERTEX
  5
91c
  8
Layer_1
  10
49.818253
  20
37.761749
  0
VERTEX
  5
91d
  8
Layer_1
  10
49.761246
  20
37.801498
  0
VERTEX
  5
91e
  8
Layer_1
  10
49.727997
  20
37.83025
  0
VERTEX
  5
91f
  8
Layer_1
  10
49.679245
  20
37.882748
  0
VERTEX
  5
920
  8
Layer_1
  10
49.634506
  20
37.944
  0
VERTEX
  5
921
  8
Layer_1
  10
49.594757
  20
38.010498
  0
VERTEX
  5
922
  8
Layer_1
  10
49.562256
  20
38.083748
  0
VERTEX
  5
923
  8
Layer_1
  10
49.535507
  20
38.163246
  0
VERTEX
  5
924
  8
Layer_1
  10
49.514008
  20
38.247498
  0
VERTEX
  5
925
  8
Layer_1
  10
49.504745
  20
38.304249
  0
SEQEND
  0
POLYLINE
  5
927
  8
Layer_1
  62
5
  70
1
  66
1
  10
0
  20
0
  30
0
  0
VERTEX
  5
927
  8
Layer_1
  10
48.403748
  20
37.161751
  0
VERTEX
  5
928
  8
Layer_1
  10
48.439743
  20
37.181248
  0
VERTEX
  5
929
  8
Layer_1
  10
48.460999
  20
37.198997
  0
VERTEX
  5
92a
  8
Layer_1
  10
48.479004
  20
37.218998
  0
VERTEX
  5
92b
  8
Layer_1
  10
48.497498
  20
37.247749
  0
VERTEX
  5
92c
  8
Layer_1
  10
48.512756
  20
37.282249
  0
VERTEX
  5
92d
  8
Layer_1
  10
48.525497
  20
37.33625
  0
VERTEX
  5
92e
  8
Layer_1
  10
48.535248
  20
37.407501
  0
VERTEX
  5
92f
  8
Layer_1
  10
48.540756
  20
37.499496
  0
VERTEX
  5
930
  8
Layer_1
  10
48.541
  20
37.694
  0
VERTEX
  5
931
  8
Layer_1
  10
47.746002
  20
37.694
  0
VERTEX
  5
932
  8
Layer_1
  10
47.620743
  20
37.699249
  0
VERTEX
  5
933
  8
Layer_1
  10
47.543503
  20
37.709248
  0
VERTEX
  5
934
  8
Layer_1
  10
47.479004
  20
37.722748
  0
VERTEX
  5
935
  8
Layer_1
  10
47.427994
  20
37.73975
  0
VERTEX
  5
936
  8
Layer_1
  10
47.354996
  20
37.773499
  0
VERTEX
  5
937
  8
Layer_1
  10
47.295746
  20
37.813248
  0
VERTEX
  5
938
  8
Layer_1
  10
47.240494
  20
37.864998
  0
VERTEX
  5
939
  8
Layer_1
  10
47.195999
  20
37.924
  0
VERTEX
  5
93a
  8
Layer_1
  10
47.159256
  20
37.992996
  0
VERTEX
  5
93b
  8
Layer_1
  10
47.133499
  20
38.058746
  0
VERTEX
  5
93c
  8
Layer_1
  10
47.108994
  20
38.15625
  0
VERTEX
  5
93d
  8
Layer_1
  10
47.091248
  20
38.264999
  0
VERTEX
  5
93e
  8
Layer_1
  10
47.084747
  20
38.333248
  0
VERTEX
  5
93f
  8
Layer_1
  10
47.078751
  20
38.446499
  0
VERTEX
  5
940
  8
Layer_1
  10
47.076996
  20
39.416
  0
VERTEX
  5
941
  8
Layer_1
  10
47.078751
  20
39.505249
  0
VERTEX
  5
942
  8
Layer_1
  10
47.082748
  20
39.585999
  0
VERTEX
  5
943
  8
Layer_1
  10
47.095993
  20
39.716
  0
VERTEX
  5
944
  8
Layer_1
  10
47.116257
  20
39.815247
  0
VERTEX
  5
945
  8
Layer_1
  10
47.154007
  20
39.931248
  0
VERTEX
  5
946
  8
Layer_1
  10
47.180496
  20
39.988499
  0
VERTEX
  5
947
  8
Layer_1
  10
47.203506
  20
40.0285
  0
VERTEX
  5
948
  8
Layer_1
  10
47.227753
  20
40.0625
  0
VERTEX
  5
949
  8
Layer_1
  10
47.274246
  20
40.11425
  0
VERTEX
  5
94a
  8
Layer_1
  10
47.335999
  20
40.161999
  0
VERTEX
  5
94b
  8
Layer_1
  10
47.367004
  20
40.18
  0
VERTEX
  5
94c
  8
Layer_1
  10
47.434006
  20
40.210999
  0
VERTEX
  5
94d
  8
Layer_1
  10
47.509003
  20
40.231998
  0
VERTEX
  5
94e
  8
Layer_1
  10
47.563004
  20
40.241749
  0
VERTEX
  5
94f
  8
Layer_1
  10
47.669006
  20
40.253746
  0
VERTEX
  5
950
  8
Layer_1
  10
49.158997
  20
40.255997
  0
VERTEX
  5
951
  8
Layer_1
  10
49.158997
  20
37.536499
  0
VERTEX
  5
952
  8
Layer_1
  10
49.154999
  20
37.421501
  0
VERTEX
  5
953
  8
Layer_1
  10
49.148132
  20
37.329079
  0
VERTEX
  5
954
  8
Layer_1
  10
49.134995
  20
37.223747
  0
VERTEX
  5
955
  8
Layer_1
  10
49.108994
  20
37.106998
  0
VERTEX
  5
956
  8
Layer_1
  10
49.080002
  20
37.028
  0
VERTEX
  5
957
  8
Layer_1
  10
49.047501
  20
36.964249
  0
VERTEX
  5
958
  8
Layer_1
  10
49.026993
  20
36.932747
  0
VERTEX
  5
959
  8
Layer_1
  10
48.975998
  20
36.871998
  0
VERTEX
  5
95a
  8
Layer_1
  10
48.949005
  20
36.848
  0
VERTEX
  5
95b
  8
Layer_1
  10
48.921005
  20
36.825996
  0
VERTEX
  5
95c
  8
Layer_1
  10
48.891998
  20
36.806999
  0
VERTEX
  5
95d
  8
Layer_1
  10
48.860001
  20
36.788998
  0
VERTEX
  5
95e
  8
Layer_1
  10
48.828003
  20
36.773998
  0
VERTEX
  5
95f
  8
Layer_1
  10
48.795258
  20
36.761749
  0
VERTEX
  5
960
  8
Layer_1
  10
48.757507
  20
36.751499
  0
VERTEX
  5
961
  8
Layer_1
  10
48.690247
  20
36.737
  0
VERTEX
  5
962
  8
Layer_1
  10
48.572998
  20
36.723999
  0
VERTEX
  5
963
  8
Layer_1
  10
47.494003
  20
36.722
  0
VERTEX
  5
964
  8
Layer_1
  10
47.494003
  20
37.120998
  0
VERTEX
  5
965
  8
Layer_1
  10
48.123505
  20
37.121998
  0
VERTEX
  5
966
  8
Layer_1
  10
48.309006
  20
37.134998
  0
VERTEX
  5
967
  8
Layer_1
  10
48.360001
  20
37.146248
  0
VERTEX
  5
968
  8
Layer_1
  10
48.403748
  20
37.161751
  0
SEQEND
  0
POLYLINE
  5
96a
  8
Layer_1
  62
5
  70
1
  66
1
  10
0
  20
0
  30
0
  0
VERTEX
  5
96a
  8
Layer_1
  10
42.966995
  20
38.086998
  0
VERTEX
  5
96b
  8
Layer_1
  10
44.455002
  20
38.086998
  0
VERTEX
  5
96c
  8
Layer_1
  10
44.455002
  20
37.694
  0
VERTEX
  5
96d
  8
Layer_1
  10
42.358002
  20
37.694
  0
VERTEX
  5
96e
  8
Layer_1
  10
42.358002
  20
38.662998
  0
VERTEX
  5
96f
  8
Layer_1
  10
42.363251
  20
38.797749
  0
VERTEX
  5
970
  8
Layer_1
  10
42.373749
  20
38.891499
  0
VERTEX
  5
971
  8
Layer_1
  10
42.389496
  20
38.980499
  0
VERTEX
  5
972
  8
Layer_1
  10
42.407501
  20
39.053497
  0
VERTEX
  5
973
  8
Layer_1
  10
42.453247
  20
39.179749
  0
VERTEX
  5
974
  8
Layer_1
  10
42.467499
  20
39.208248
  0
VERTEX
  5
975
  8
Layer_1
  10
42.505753
  20
39.276001
  0
VERTEX
  5
976
  8
Layer_1
  10
42.561752
  20
39.3545
  0
VERTEX
  5
977
  8
Layer_1
  10
42.591751
  20
39.387497
  0
VERTEX
  5
978
  8
Layer_1
  10
42.645493
  20
39.4375
  0
VERTEX
  5
979
  8
Layer_1
  10
42.690247
  20
39.470249
  0
VERTEX
  5
97a
  8
Layer_1
  10
42.753754
  20
39.505249
  0
VERTEX
  5
97b
  8
Layer_1
  10
42.824005
  20
39.530251
  0
VERTEX
  5
97c
  8
Layer_1
  10
42.880753
  20
39.542
  0
VERTEX
  5
97d
  8
Layer_1
  10
42.947754
  20
39.547749
  0
VERTEX
  5
97e
  8
Layer_1
  10
43.561005
  20
39.547997
  0
VERTEX
  5
97f
  8
Layer_1
  10
43.605255
  20
39.55275
  0
VERTEX
  5
980
  8
Layer_1
  10
43.634995
  20
39.560749
  0
VERTEX
  5
981
  8
Layer_1
  10
43.669006
  20
39.576748
  0
VERTEX
  5
982
  8
Layer_1
  10
43.702438
  20
39.601654
  0
VERTEX
  5
983
  8
Layer_1
  10
43.739243
  20
39.639
  0
VERTEX
  5
984
  8
Layer_1
  10
43.759003
  20
39.667
  0
VERTEX
  5
985
  8
Layer_1
  10
43.780746
  20
39.70475
  0
VERTEX
  5
986
  8
Layer_1
  10
43.809006
  20
39.772751
  0
VERTEX
  5
987
  8
Layer_1
  10
43.829742
  20
39.84375
  0
VERTEX
  5
988
  8
Layer_1
  10
43.845001
  20
39.94875
  0
VERTEX
  5
989
  8
Layer_1
  10
43.847504
  20
40.069248
  0
VERTEX
  5
98a
  8
Layer_1
  10
43.841995
  20
40.146999
  0
VERTEX
  5
98b
  8
Layer_1
  10
43.832504
  20
40.206001
  0
VERTEX
  5
98c
  8
Layer_1
  10
43.814743
  20
40.272999
  0
VERTEX
  5
98d
  8
Layer_1
  10
43.789505
  20
40.339996
  0
VERTEX
  5
98e
  8
Layer_1
  10
43.769257
  20
40.3815
  0
VERTEX
  5
98f
  8
Layer_1
  10
43.745499
  20
40.4175
  0
VERTEX
  5
990
  8
Layer_1
  10
43.705246
  20
40.46225
  0
VERTEX
  5
991
  8
Layer_1
  10
43.676498
  20
40.485249
  0
VERTEX
  5
992
  8
Layer_1
  10
43.645004
  20
40.502251
  0
VERTEX
  5
993
  8
Layer_1
  10
43.620255
  20
40.510998
  0
VERTEX
  5
994
  8
Layer_1
  10
43.592499
  20
40.51725
  0
VERTEX
  5
995
  8
Layer_1
  10
43.565506
  20
40.519749
  0
VERTEX
  5
996
  8
Layer_1
  10
42.658005
  20
40.519997
  0
VERTEX
  5
997
  8
Layer_1
  10
42.658005
  20
40.924999
  0
VERTEX
  5
998
  8
Layer_1
  10
43.824997
  20
40.924999
  0
VERTEX
  5
999
  8
Layer_1
  10
43.870499
  20
40.923248
  0
VERTEX
  5
99a
  8
Layer_1
  10
43.948257
  20
40.908501
  0
VERTEX
  5
99b
  8
Layer_1
  10
44.006744
  20
40.889
  0
VERTEX
  5
99c
  8
Layer_1
  10
44.060501
  20
40.862499
  0
VERTEX
  5
99d
  8
Layer_1
  10
44.085251
  20
40.846748
  0
VERTEX
  5
99e
  8
Layer_1
  10
44.132248
  20
40.813248
  0
VERTEX
  5
99f
  8
Layer_1
  10
44.19075
  20
40.760246
  0
VERTEX
  5
9a0
  8
Layer_1
  10
44.241745
  20
40.700996
  0
VERTEX
  5
9a1
  8
Layer_1
  10
44.284744
  20
40.637749
  0
VERTEX
  5
9a2
  8
Layer_1
  10
44.326248
  20
40.560501
  0
VERTEX
  5
9a3
  8
Layer_1
  10
44.362
  20
40.477997
  0
VERTEX
  5
9a4
  8
Layer_1
  10
44.392242
  20
40.389748
  0
VERTEX
  5
9a5
  8
Layer_1
  10
44.416
  20
40.295998
  0
VERTEX
  5
9a6
  8
Layer_1
  10
44.431747
  20
40.19825
  0
VERTEX
  5
9a7
  8
Layer_1
  10
44.441254
  20
40.095749
  0
VERTEX
  5
9a8
  8
Layer_1
  10
44.442245
  20
39.982246
  0
VERTEX
  5
9a9
  8
Layer_1
  10
44.436752
  20
39.885498
  0
VERTEX
  5
9aa
  8
Layer_1
  10
44.430496
  20
39.828999
  0
VERTEX
  5
9ab
  8
Layer_1
  10
44.415253
  20
39.740997
  0
VERTEX
  5
9ac
  8
Layer_1
  10
44.391251
  20
39.648499
  0
VERTEX
  5
9ad
  8
Layer_1
  10
44.360992
  20
39.561501
  0
VERTEX
  5
9ae
  8
Layer_1
  10
44.324753
  20
39.481499
  0
VERTEX
  5
9af
  8
Layer_1
  10
44.283493
  20
39.408749
  0
VERTEX
  5
9b0
  8
Layer_1
  10
44.223495
  20
39.328751
  0
VERTEX
  5
9b1
  8
Layer_1
  10
44.183746
  20
39.287498
  0
VERTEX
  5
9b2
  8
Layer_1
  10
44.143005
  20
39.251499
  0
VERTEX
  5
9b3
  8
Layer_1
  10
44.108994
  20
39.227749
  0
VERTEX
  5
9b4
  8
Layer_1
  10
44.061249
  20
39.198498
  0
VERTEX
  5
9b5
  8
Layer_1
  10
44.022247
  20
39.180748
  0
VERTEX
  5
9b6
  8
Layer_1
  10
43.973755
  20
39.163998
  0
VERTEX
  5
9b7
  8
Layer_1
  10
43.919006
  20
39.151249
  0
VERTEX
  5
9b8
  8
Layer_1
  10
43.873993
  20
39.144997
  0
VERTEX
  5
9b9
  8
Layer_1
  10
43.824997
  20
39.142998
  0
VERTEX
  5
9ba
  8
Layer_1
  10
43.212997
  20
39.142998
  0
VERTEX
  5
9bb
  8
Layer_1
  10
43.179001
  20
39.140999
  0
VERTEX
  5
9bc
  8
Layer_1
  10
43.147003
  20
39.132999
  0
VERTEX
  5
9bd
  8
Layer_1
  10
43.117996
  20
39.120998
  0
VERTEX
  5
9be
  8
Layer_1
  10
43.091995
  20
39.102997
  0
VERTEX
  5
9bf
  8
Layer_1
  10
43.067993
  20
39.081001
  0
VERTEX
  5
9c0
  8
Layer_1
  10
43.046997
  20
39.054001
  0
VERTEX
  5
9c1
  8
Layer_1
  10
43.028
  20
39.021999
  0
VERTEX
  5
9c2
  8
Layer_1
  10
43.011993
  20
38.985001
  0
VERTEX
  5
9c3
  8
Layer_1
  10
42.998001
  20
38.944
  0
VERTEX
  5
9c4
  8
Layer_1
  10
42.987
  20
38.896999
  0
VERTEX
  5
9c5
  8
Layer_1
  10
42.977997
  20
38.846001
  0
VERTEX
  5
9c6
  8
Layer_1
  10
42.972
  20
38.790001
  0
VERTEX
  5
9c7
  8
Layer_1
  10
42.968002
  20
38.728996
  0
VERTEX
  5
9c8
  8
Layer_1
  10
42.966995
  20
38.086998
  0
SEQEND
  0
POLYLINE
  5
9ca
  8
Layer_1
  62
5
  70
1
  66
1
  10
0
  20
0
  30
0
  0
VERTEX
  5
9ca
  8
Layer_1
  10
38.932999
  20
38.084747
  0
VERTEX
  5
9cb
  8
Layer_1
  10
39.085999
  20
38.086998
  0
VERTEX
  5
9cc
  8
Layer_1
  10
39.529007
  20
38.086998
  0
VERTEX
  5
9cd
  8
Layer_1
  10
39.529007
  20
37.694
  0
VERTEX
  5
9ce
  8
Layer_1
  10
38.147995
  20
37.694
  0
VERTEX
  5
9cf
  8
Layer_1
  10
38.076996
  20
37.696999
  0
VERTEX
  5
9d0
  8
Layer_1
  10
37.969757
  20
37.709999
  0
VERTEX
  5
9d1
  8
Layer_1
  10
37.907745
  20
37.724747
  0
VERTEX
  5
9d2
  8
Layer_1
  10
37.844498
  20
37.74725
  0
VERTEX
  5
9d3
  8
Layer_1
  10
37.78331
  20
37.777458
  0
VERTEX
  5
9d4
  8
Layer_1
  10
37.714249
  20
37.8265
  0
VERTEX
  5
9d5
  8
Layer_1
  10
37.694748
  20
37.845249
  0
VERTEX
  5
9d6
  8
Layer_1
  10
37.65625
  20
37.889248
  0
VERTEX
  5
9d7
  8
Layer_1
  10
37.614243
  20
37.952751
  0
VERTEX
  5
9d8
  8
Layer_1
  10
37.585007
  20
38.011497
  0
VERTEX
  5
9d9
  8
Layer_1
  10
37.556244
  20
38.092751
  0
VERTEX
  5
9da
  8
Layer_1
  10
37.535507
  20
38.185997
  0
VERTEX
  5
9db
  8
Layer_1
  10
37.519928
  20
38.313423
  0
VERTEX
  5
9dc
  8
Layer_1
  10
37.512253
  20
38.42675
  0
VERTEX
  5
9dd
  8
Layer_1
  10
37.509995
  20
38.522751
  0
VERTEX
  5
9de
  8
Layer_1
  10
37.509995
  20
39.418999
  0
VERTEX
  5
9df
  8
Layer_1
  10
37.516006
  20
39.590248
  0
VERTEX
  5
9e0
  8
Layer_1
  10
37.525757
  20
39.690998
  0
VERTEX
  5
9e1
  8
Layer_1
  10
37.541
  20
39.784996
  0
VERTEX
  5
9e2
  8
Layer_1
  10
37.563004
  20
39.873749
  0
VERTEX
  5
9e3
  8
Layer_1
  10
37.59375
  20
39.952999
  0
VERTEX
  5
9e4
  8
Layer_1
  10
37.636749
  20
40.030998
  0
VERTEX
  5
9e5
  8
Layer_1
  10
37.676743
  20
40.081497
  0
VERTEX
  5
9e6
  8
Layer_1
  10
37.718002
  20
40.122749
  0
VERTEX
  5
9e7
  8
Layer_1
  10
37.772247
  20
40.162998
  0
VERTEX
  5
9e8
  8
Layer_1
  10
37.817001
  20
40.187748
  0
VERTEX
  5
9e9
  8
Layer_1
  10
37.8685
  20
40.209251
  0
VERTEX
  5
9ea
  8
Layer_1
  10
37.924255
  20
40.226749
  0
VERTEX
  5
9eb
  8
Layer_1
  10
37.984756
  20
40.239998
  0
VERTEX
  5
9ec
  8
Layer_1
  10
38.048492
  20
40.249496
  0
VERTEX
  5
9ed
  8
Layer_1
  10
38.117996
  20
40.254749
  0
VERTEX
  5
9ee
  8
Layer_1
  10
39.529007
  20
40.255997
  0
VERTEX
  5
9ef
  8
Layer_1
  10
39.529007
  20
39.850998
  0
VERTEX
  5
9f0
  8
Layer_1
  10
38.382996
  20
39.850998
  0
VERTEX
  5
9f1
  8
Layer_1
  10
38.308243
  20
39.842999
  0
VERTEX
  5
9f2
  8
Layer_1
  10
38.244507
  20
39.821251
  0
VERTEX
  5
9f3
  8
Layer_1
  10
38.227249
  20
39.80925
  0
VERTEX
  5
9f4
  8
Layer_1
  10
38.203995
  20
39.786499
  0
VERTEX
  5
9f5
  8
Layer_1
  10
38.190002
  20
39.766998
  0
VERTEX
  5
9f6
  8
Layer_1
  10
38.177505
  20
39.741749
  0
VERTEX
  5
9f7
  8
Layer_1
  10
38.157745
  20
39.682251
  0
VERTEX
  5
9f8
  8
Layer_1
  10
38.146683
  20
39.618671
  0
VERTEX
  5
9f9
  8
Layer_1
  10
38.140503
  20
39.5425
  0
VERTEX
  5
9fa
  8
Layer_1
  10
38.136993
  20
39.431999
  0
VERTEX
  5
9fb
  8
Layer_1
  10
38.136993
  20
38.488998
  0
VERTEX
  5
9fc
  8
Layer_1
  10
38.140244
  20
38.409248
  0
VERTEX
  5
9fd
  8
Layer_1
  10
38.145996
  20
38.340748
  0
VERTEX
  5
9fe
  8
Layer_1
  10
38.158997
  20
38.276497
  0
VERTEX
  5
9ff
  8
Layer_1
  10
38.176498
  20
38.222248
  0
VERTEX
  5
a00
  8
Layer_1
  10
38.199997
  20
38.177998
  0
VERTEX
  5
a01
  8
Layer_1
  10
38.218002
  20
38.154999
  0
VERTEX
  5
a02
  8
Layer_1
  10
38.233002
  20
38.139999
  0
VERTEX
  5
a03
  8
Layer_1
  10
38.25
  20
38.126999
  0
VERTEX
  5
a04
  8
Layer_1
  10
38.275497
  20
38.11425
  0
VERTEX
  5
a05
  8
Layer_1
  10
38.289749
  20
38.109001
  0
VERTEX
  5
a06
  8
Layer_1
  10
38.319107
  20
38.102142
  0
VERTEX
  5
a07
  8
Layer_1
  10
38.421753
  20
38.090248
  0
VERTEX
  5
a08
  8
Layer_1
  10
38.530502
  20
38.085747
  0
VERTEX
  5
a09
  8
Layer_1
  10
38.932999
  20
38.084747
  0
SEQEND
  0
POLYLINE
  5
a0b
  8
Layer_1
  62
5
  70
1
  66
1
  10
0
  20
0
  30
0
  0
VERTEX
  5
a0b
  8
Layer_1
  10
40.972
  20
38.311996
  0
VERTEX
  5
a0c
  8
Layer_1
  10
41.466995
  20
40.255997
  0
VERTEX
  5
a0d
  8
Layer_1
  10
42.102997
  20
40.255997
  0
VERTEX
  5
a0e
  8
Layer_1
  10
41.358994
  20
37.694
  0
VERTEX
  5
a0f
  8
Layer_1
  10
40.572998
  20
37.694
  0
VERTEX
  5
a10
  8
Layer_1
  10
39.826004
  20
40.255997
  0
VERTEX
  5
a11
  8
Layer_1
  10
40.455994
  20
40.255997
  0
VERTEX
  5
a12
  8
Layer_1
  10
40.951004
  20
38.311996
  0
VERTEX
  5
a13
  8
Layer_1
  10
40.972
  20
38.311996
  0
SEQEND
  0
POLYLINE
  5
a15
  8
Layer_1
  62
5
  70
1
  66
1
  10
0
  20
0
  30
0
  0
VERTEX
  5
a15
  8
Layer_1
  10
34.222
  20
38.086998
  0
VERTEX
  5
a16
  8
Layer_1
  10
34.906006
  20
38.086998
  0
VERTEX
  5
a17
  8
Layer_1
  10
34.906006
  20
37.694
  0
VERTEX
  5
a18
  8
Layer_1
  10
32.865997
  20
37.694
  0
VERTEX
  5
a19
  8
Layer_1
  10
32.865997
  20
38.086998
  0
VERTEX
  5
a1a
  8
Layer_1
  10
33.606995
  20
38.086998
  0
VERTEX
  5
a1b
  8
Layer_1
  10
33.606995
  20
40.510998
  0
VERTEX
  5
a1c
  8
Layer_1
  10
33.130005
  20
40.510998
  0
VERTEX
  5
a1d
  8
Layer_1
  10
33.130005
  20
40.924999
  0
VERTEX
  5
a1e
  8
Layer_1
  10
34.222
  20
40.924999
  0
VERTEX
  5
a1f
  8
Layer_1
  10
34.222
  20
38.086998
  0
SEQEND
  0
POLYLINE
  5
a21
  8
Layer_1
  62
5
  70
1
  66
1
  10
0
  20
0
  30
0
  0
VERTEX
  5
a21
  8
Layer_1
  10
31.276749
  20
38.088997
  0
VERTEX
  5
a22
  8
Layer_1
  10
31.339005
  20
38.086998
  0
VERTEX
  5
a23
  8
Layer_1
  10
32.274994
  20
38.086998
  0
VERTEX
  5
a24
  8
Layer_1
  10
32.274994
  20
37.694
  0
VERTEX
  5
a25
  8
Layer_1
  10
31.035004
  20
37.694
  0
VERTEX
  5
a26
  8
Layer_1
  10
30.962006
  20
37.696999
  0
VERTEX
  5
a27
  8
Layer_1
  10
30.922501
  20
37.7005
  0
VERTEX
  5
a28
  8
Layer_1
  10
30.8125
  20
37.719749
  0
VERTEX
  5
a29
  8
Layer_1
  10
30.762253
  20
37.735249
  0
VERTEX
  5
a2a
  8
Layer_1
  10
30.698257
  20
37.763
  0
VERTEX
  5
a2b
  8
Layer_1
  10
30.654007
  20
37.787998
  0
VERTEX
  5
a2c
  8
Layer_1
  10
30.600494
  20
37.829998
  0
VERTEX
  5
a2d
  8
Layer_1
  10
30.569504
  20
37.8615
  0
VERTEX
  5
a2e
  8
Layer_1
  10
30.540756
  20
37.896748
  0
VERTEX
  5
a2f
  8
Layer_1
  10
30.518066
  20
37.93
  0
VERTEX
  5
a30
  8
Layer_1
  10
30.479248
  20
38.001999
  0
VERTEX
  5
a31
  8
Layer_1
  10
30.459
  20
38.055
  0
VERTEX
  5
a32
  8
Layer_1
  10
30.442749
  20
38.110249
  0
VERTEX
  5
a33
  8
Layer_1
  10
30.430756
  20
38.16375
  0
VERTEX
  5
a34
  8
Layer_1
  10
30.414246
  20
38.263
  0
VERTEX
  5
a35
  8
Layer_1
  10
30.403244
  20
38.4035
  0
VERTEX
  5
a36
  8
Layer_1
  10
30.400253
  20
38.51075
  0
VERTEX
  5
a37
  8
Layer_1
  10
30.399994
  20
39.431248
  0
VERTEX
  5
a38
  8
Layer_1
  10
30.403
  20
39.53775
  0
VERTEX
  5
a39
  8
Layer_1
  10
30.418243
  20
39.713997
  0
VERTEX
  5
a3a
  8
Layer_1
  10
30.436493
  20
39.811249
  0
VERTEX
  5
a3b
  8
Layer_1
  10
30.450577
  20
39.864464
  0
VERTEX
  5
a3c
  8
Layer_1
  10
30.466858
  20
39.913322
  0
VERTEX
  5
a3d
  8
Layer_1
  10
30.491257
  20
39.969498
  0
VERTEX
  5
a3e
  8
Layer_1
  10
30.527496
  20
40.03175
  0
VERTEX
  5
a3f
  8
Layer_1
  10
30.552994
  20
40.066498
  0
VERTEX
  5
a40
  8
Layer_1
  10
30.595749
  20
40.112747
  0
VERTEX
  5
a41
  8
Layer_1
  10
30.632996
  20
40.143501
  0
VERTEX
  5
a42
  8
Layer_1
  10
30.688004
  20
40.179249
  0
VERTEX
  5
a43
  8
Layer_1
  10
30.782501
  20
40.218498
  0
VERTEX
  5
a44
  8
Layer_1
  10
30.882248
  20
40.2425
  0
VERTEX
  5
a45
  8
Layer_1
  10
30.950745
  20
40.250999
  0
VERTEX
  5
a46
  8
Layer_1
  10
31.047501
  20
40.255749
  0
VERTEX
  5
a47
  8
Layer_1
  10
31.947998
  20
40.255997
  0
VERTEX
  5
a48
  8
Layer_1
  10
32.009247
  20
40.252747
  0
VERTEX
  5
a49
  8
Layer_1
  10
32.087006
  20
40.238747
  0
VERTEX
  5
a4a
  8
Layer_1
  10
32.155243
  20
40.217499
  0
VERTEX
  5
a4b
  8
Layer_1
  10
32.166885
  20
40.211983
  0
VERTEX
  5
a4c
  8
Layer_1
  10
32.263
  20
40.154499
  0
VERTEX
  5
a4d
  8
Layer_1
  10
32.311249
  20
40.112
  0
VERTEX
  5
a4e
  8
Layer_1
  10
32.354507
  20
40.063248
  0
VERTEX
  5
a4f
  8
Layer_1
  10
32.392746
  20
40.005749
  0
VERTEX
  5
a50
  8
Layer_1
  10
32.431244
  20
39.925999
  0
VERTEX
  5
a51
  8
Layer_1
  10
32.456253
  20
39.848999
  0
VERTEX
  5
a52
  8
Layer_1
  10
32.475006
  20
39.765747
  0
VERTEX
  5
a53
  8
Layer_1
  10
32.489243
  20
39.662998
  0
VERTEX
  5
a54
  8
Layer_1
  10
32.492249
  20
39.624748
  0
VERTEX
  5
a55
  8
Layer_1
  10
32.49675
  20
39.51075
  0
VERTEX
  5
a56
  8
Layer_1
  10
32.494507
  20
39.401497
  0
VERTEX
  5
a57
  8
Layer_1
  10
32.486252
  20
39.300247
  0
VERTEX
  5
a58
  8
Layer_1
  10
32.473007
  20
39.209
  0
VERTEX
  5
a59
  8
Layer_1
  10
32.453751
  20
39.125999
  0
VERTEX
  5
a5a
  8
Layer_1
  10
32.429245
  20
39.05275
  0
VERTEX
  5
a5b
  8
Layer_1
  10
32.399002
  20
38.988499
  0
VERTEX
  5
a5c
  8
Layer_1
  10
32.363754
  20
38.933498
  0
VERTEX
  5
a5d
  8
Layer_1
  10
32.321503
  20
38.887249
  0
VERTEX
  5
a5e
  8
Layer_1
  10
32.287003
  20
38.856998
  0
VERTEX
  5
a5f
  8
Layer_1
  10
32.248505
  20
38.831001
  0
VERTEX
  5
a60
  8
Layer_1
  10
32.193253
  20
38.802246
  0
VERTEX
  5
a61
  8
Layer_1
  10
32.136505
  20
38.78175
  0
VERTEX
  5
a62
  8
Layer_1
  10
32.095993
  20
38.771
  0
VERTEX
  5
a63
  8
Layer_1
  10
32.031754
  20
38.760246
  0
VERTEX
  5
a64
  8
Layer_1
  10
31.957504
  20
38.756248
  0
VERTEX
  5
a65
  8
Layer_1
  10
31.024002
  20
38.755997
  0
VERTEX
  5
a66
  8
Layer_1
  10
31.024002
  20
38.495499
  0
VERTEX
  5
a67
  8
Layer_1
  10
31.026505
  20
38.408749
  0
VERTEX
  5
a68
  8
Layer_1
  10
31.033005
  20
38.31575
  0
VERTEX
  5
a69
  8
Layer_1
  10
31.042999
  20
38.261749
  0
VERTEX
  5
a6a
  8
Layer_1
  10
31.051743
  20
38.229748
  0
VERTEX
  5
a6b
  8
Layer_1
  10
31.063248
  20
38.200996
  0
VERTEX
  5
a6c
  8
Layer_1
  10
31.086243
  20
38.163498
  0
VERTEX
  5
a6d
  8
Layer_1
  10
31.106995
  20
38.140999
  0
VERTEX
  5
a6e
  8
Layer_1
  10
31.137253
  20
38.119999
  0
VERTEX
  5
a6f
  8
Layer_1
  10
31.16275
  20
38.108749
  0
VERTEX
  5
a70
  8
Layer_1
  10
31.205994
  20
38.096748
  0
VERTEX
  5
a71
  8
Layer_1
  10
31.276749
  20
38.088997
  0
SEQEND
  0
POLYLINE
  5
a73
  8
Layer_1
  62
5
  70
1
  66
1
  10
0
  20
0
  30
0
  0
VERTEX
  5
a73
  8
Layer_1
  10
29.426498
  20
38.094749
  0
VERTEX
  5
a74
  8
Layer_1
  10
29.476746
  20
38.091751
  0
VERTEX
  5
a75
  8
Layer_1
  10
29.671005
  20
38.086998
  0
VERTEX
  5
a76
  8
Layer_1
  10
29.671005
  20
37.694
  0
VERTEX
  5
a77
  8
Layer_1
  10
29.228745
  20
37.694
  0
VERTEX
  5
a78
  8
Layer_1
  10
29.100494
  20
37.69875
  0
VERTEX
  5
a79
  8
Layer_1
  10
28.984497
  20
37.711498
  0
VERTEX
  5
a7a
  8
Layer_1
  10
28.880997
  20
37.735001
  0
VERTEX
  5
a7b
  8
Layer_1
  10
28.824753
  20
37.756748
  0
VERTEX
  5
a7c
  8
Layer_1
  10
28.797394
  20
37.770763
  0
VERTEX
  5
a7d
  8
Layer_1
  10
28.740005
  20
37.810501
  0
VERTEX
  5
a7e
  8
Layer_1
  10
28.694
  20
37.856998
  0
VERTEX
  5
a7f
  8
Layer_1
  10
28.675995
  20
37.881996
  0
VERTEX
  5
a80
  8
Layer_1
  10
28.658997
  20
37.91
  0
VERTEX
  5
a81
  8
Layer_1
  10
28.643997
  20
37.939999
  0
VERTEX
  5
a82
  8
Layer_1
  10
28.626755
  20
37.988747
  0
VERTEX
  5
a83
  8
Layer_1
  10
28.610001
  20
38.060249
  0
VERTEX
  5
a84
  8
Layer_1
  10
28.598999
  20
38.1255
  0
VERTEX
  5
a85
  8
Layer_1
  10
28.589752
  20
38.221748
  0
VERTEX
  5
a86
  8
Layer_1
  10
28.585251
  20
38.35775
  0
VERTEX
  5
a87
  8
Layer_1
  10
28.585007
  20
39.850998
  0
VERTEX
  5
a88
  8
Layer_1
  10
27.990997
  20
39.850998
  0
VERTEX
  5
a89
  8
Layer_1
  10
27.990997
  20
40.255997
  0
VERTEX
  5
a8a
  8
Layer_1
  10
28.585007
  20
40.255997
  0
VERTEX
  5
a8b
  8
Layer_1
  10
28.585007
  20
40.924999
  0
VERTEX
  5
a8c
  8
Layer_1
  10
29.214996
  20
40.924999
  0
VERTEX
  5
a8d
  8
Layer_1
  10
29.214996
  20
40.255997
  0
VERTEX
  5
a8e
  8
Layer_1
  10
30.018997
  20
40.255997
  0
VERTEX
  5
a8f
  8
Layer_1
  10
30.018997
  20
39.850998
  0
VERTEX
  5
a90
  8
Layer_1
  10
29.214996
  20
39.850998
  0
VERTEX
  5
a91
  8
Layer_1
  10
29.214996
  20
38.456001
  0
VERTEX
  5
a92
  8
Layer_1
  10
29.219498
  20
38.300999
  0
VERTEX
  5
a93
  8
Layer_1
  10
29.226257
  20
38.241749
  0
VERTEX
  5
a94
  8
Layer_1
  10
29.235504
  20
38.202248
  0
VERTEX
  5
a95
  8
Layer_1
  10
29.254501
  20
38.166248
  0
VERTEX
  5
a96
  8
Layer_1
  10
29.278
  20
38.140747
  0
VERTEX
  5
a97
  8
Layer_1
  10
29.309998
  20
38.121998
  0
VERTEX
  5
a98
  8
Layer_1
  10
29.348495
  20
38.10775
  0
VERTEX
  5
a99
  8
Layer_1
  10
29.426498
  20
38.094749
  0
SEQEND
  0
POLYLINE
  5
a9b
  8
Layer_1
  62
5
  70
1
  66
1
  10
0
  20
0
  30
0
  0
VERTEX
  5
a9b
  8
Layer_1
  10
24.540253
  20
37.485249
  0
VERTEX
  5
a9c
  8
Layer_1
  10
24.541
  20
37.694
  0
VERTEX
  5
a9d
  8
Layer_1
  10
23.738998
  20
37.694
  0
VERTEX
  5
a9e
  8
Layer_1
  10
23.611496
  20
37.699997
  0
VERTEX
  5
a9f
  8
Layer_1
  10
23.545746
  20
37.7085
  0
VERTEX
  5
aa0
  8
Layer_1
  10
23.479004
  20
37.722748
  0
VERTEX
  5
aa1
  8
Layer_1
  10
23.397995
  20
37.751747
  0
VERTEX
  5
aa2
  8
Layer_1
  10
23.363007
  20
37.769249
  0
VERTEX
  5
aa3
  8
Layer_1
  10
23.315002
  20
37.797997
  0
VERTEX
  5
aa4
  8
Layer_1
  10
23.287003
  20
37.82
  0
VERTEX
  5
aa5
  8
Layer_1
  10
23.259995
  20
37.843998
  0
VERTEX
  5
aa6
  8
Layer_1
  10
23.237503
  20
37.868748
  0
VERTEX
  5
aa7
  8
Layer_1
  10
23.201004
  20
37.916248
  0
VERTEX
  5
aa8
  8
Layer_1
  10
23.163254
  20
37.983498
  0
VERTEX
  5
aa9
  8
Layer_1
  10
23.147003
  20
38.021
  0
VERTEX
  5
aaa
  8
Layer_1
  10
23.129257
  20
38.071499
  0
VERTEX
  5
aab
  8
Layer_1
  10
23.104004
  20
38.18
  0
VERTEX
  5
aac
  8
Layer_1
  10
23.089005
  20
38.283997
  0
VERTEX
  5
aad
  8
Layer_1
  10
23.081253
  20
38.386749
  0
VERTEX
  5
aae
  8
Layer_1
  10
23.077499
  20
38.504749
  0
VERTEX
  5
aaf
  8
Layer_1
  10
23.076996
  20
39.416
  0
VERTEX
  5
ab0
  8
Layer_1
  10
23.082993
  20
39.589748
  0
VERTEX
  5
ab1
  8
Layer_1
  10
23.094254
  20
39.702499
  0
VERTEX
  5
ab2
  8
Layer_1
  10
23.108246
  20
39.78175
  0
VERTEX
  5
ab3
  8
Layer_1
  10
23.125
  20
39.848999
  0
VERTEX
  5
ab4
  8
Layer_1
  10
23.135498
  20
39.881248
  0
VERTEX
  5
ab5
  8
Layer_1
  10
23.170746
  20
39.970001
  0
VERTEX
  5
ab6
  8
Layer_1
  10
23.191254
  20
40.007999
  0
VERTEX
  5
ab7
  8
Layer_1
  10
23.222
  20
40.054497
  0
VERTEX
  5
ab8
  8
Layer_1
  10
23.272751
  20
40.112499
  0
VERTEX
  5
ab9
  8
Layer_1
  10
23.289505
  20
40.127251
  0
VERTEX
  5
aba
  8
Layer_1
  10
23.3293
  20
40.157364
  0
VERTEX
  5
abb
  8
Layer_1
  10
23.371002
  20
40.182251
  0
VERTEX
  5
abc
  8
Layer_1
  10
23.434006
  20
40.210747
  0
VERTEX
  5
abd
  8
Layer_1
  10
23.527756
  20
40.235497
  0
VERTEX
  5
abe
  8
Layer_1
  10
23.586746
  20
40.245998
  0
VERTEX
  5
abf
  8
Layer_1
  10
23.677994
  20
40.254501
  0
VERTEX
  5
ac0
  8
Layer_1
  10
25.158997
  20
40.255997
  0
VERTEX
  5
ac1
  8
Layer_1
  10
25.158997
  20
37.515999
  0
VERTEX
  5
ac2
  8
Layer_1
  10
25.154007
  20
37.402248
  0
VERTEX
  5
ac3
  8
Layer_1
  10
25.145752
  20
37.305496
  0
VERTEX
  5
ac4
  8
Layer_1
  10
25.136993
  20
37.237747
  0
VERTEX
  5
ac5
  8
Layer_1
  10
25.123245
  20
37.166248
  0
VERTEX
  5
ac6
  8
Layer_1
  10
25.089005
  20
37.049248
  0
VERTEX
  5
ac7
  8
Layer_1
  10
25.065506
  20
36.998497
  0
VERTEX
  5
ac8
  8
Layer_1
  10
25.037003
  20
36.947998
  0
VERTEX
  5
ac9
  8
Layer_1
  10
25.011993
  20
36.911999
  0
VERTEX
  5
aca
  8
Layer_1
  10
24.962997
  20
36.859001
  0
VERTEX
  5
acb
  8
Layer_1
  10
24.936005
  20
36.836998
  0
VERTEX
  5
acc
  8
Layer_1
  10
24.906998
  20
36.815998
  0
VERTEX
  5
acd
  8
Layer_1
  10
24.832001
  20
36.776001
  0
VERTEX
  5
ace
  8
Layer_1
  10
24.790756
  20
36.760246
  0
VERTEX
  5
acf
  8
Layer_1
  10
24.687744
  20
36.7365
  0
VERTEX
  5
ad0
  8
Layer_1
  10
24.572998
  20
36.723999
  0
VERTEX
  5
ad1
  8
Layer_1
  10
23.494003
  20
36.722
  0
VERTEX
  5
ad2
  8
Layer_1
  10
23.494003
  20
37.120998
  0
VERTEX
  5
ad3
  8
Layer_1
  10
24.053757
  20
37.120998
  0
VERTEX
  5
ad4
  8
Layer_1
  10
24.181503
  20
37.125
  0
VERTEX
  5
ad5
  8
Layer_1
  10
24.314255
  20
37.13575
  0
VERTEX
  5
ad6
  8
Layer_1
  10
24.363754
  20
37.147751
  0
VERTEX
  5
ad7
  8
Layer_1
  10
24.404327
  20
37.161999
  0
VERTEX
  5
ad8
  8
Layer_1
  10
24.439743
  20
37.181248
  0
VERTEX
  5
ad9
  8
Layer_1
  10
24.460999
  20
37.198997
  0
VERTEX
  5
ada
  8
Layer_1
  10
24.487244
  20
37.230999
  0
VERTEX
  5
adb
  8
Layer_1
  10
24.510757
  20
37.276001
  0
VERTEX
  5
adc
  8
Layer_1
  10
24.522751
  20
37.320999
  0
VERTEX
  5
add
  8
Layer_1
  10
24.533997
  20
37.39275
  0
VERTEX
  5
ade
  8
Layer_1
  10
24.540253
  20
37.485249
  0
SEQEND
  0
POLYLINE
  5
ae0
  8
Layer_1
  62
5
  70
1
  66
1
  10
0
  20
0
  30
0
  0
VERTEX
  5
ae0
  8
Layer_1
  10
25.526993
  20
38.194748
  0
VERTEX
  5
ae1
  8
Layer_1
  10
25.514999
  20
38.241997
  0
VERTEX
  5
ae2
  8
Layer_1
  10
25.5
  20
38.332001
  0
VERTEX
  5
ae3
  8
Layer_1
  10
25.492996
  20
38.426998
  0
VERTEX
  5
ae4
  8
Layer_1
  10
25.492004
  20
38.476997
  0
VERTEX
  5
ae5
  8
Layer_1
  10
25.494507
  20
38.571251
  0
VERTEX
  5
ae6
  8
Layer_1
  10
25.501007
  20
38.640251
  0
VERTEX
  5
ae7
  8
Layer_1
  10
25.515503
  20
38.73175
  0
VERTEX
  5
ae8
  8
Layer_1
  10
25.53775
  20
38.816246
  0
VERTEX
  5
ae9
  8
Layer_1
  10
25.565247
  20
38.895748
  0
VERTEX
  5
aea
  8
Layer_1
  10
25.598495
  20
38.970249
  0
VERTEX
  5
aeb
  8
Layer_1
  10
25.631744
  20
39.028748
  0
VERTEX
  5
aec
  8
Layer_1
  10
25.661255
  20
39.071499
  0
VERTEX
  5
aed
  8
Layer_1
  10
25.71225
  20
39.133499
  0
VERTEX
  5
aee
  8
Layer_1
  10
25.751251
  20
39.17025
  0
VERTEX
  5
aef
  8
Layer_1
  10
25.801544
  20
39.209999
  0
VERTEX
  5
af0
  8
Layer_1
  10
25.873993
  20
39.252251
  0
VERTEX
  5
af1
  8
Layer_1
  10
25.940994
  20
39.278
  0
VERTEX
  5
af2
  8
Layer_1
  10
25.987747
  20
39.28775
  0
VERTEX
  5
af3
  8
Layer_1
  10
26.061996
  20
39.29575
  0
VERTEX
  5
af4
  8
Layer_1
  10
27.013
  20
39.295998
  0
VERTEX
  5
af5
  8
Layer_1
  10
27.013
  20
39.521999
  0
VERTEX
  5
af6
  8
Layer_1
  10
27.011505
  20
39.581249
  0
VERTEX
  5
af7
  8
Layer_1
  10
27.003754
  20
39.655746
  0
VERTEX
  5
af8
  8
Layer_1
  10
26.992004
  20
39.712749
  0
VERTEX
  5
af9
  8
Layer_1
  10
26.979996
  20
39.746998
  0
VERTEX
  5
afa
  8
Layer_1
  10
26.966003
  20
39.771999
  0
VERTEX
  5
afb
  8
Layer_1
  10
26.955002
  20
39.786999
  0
VERTEX
  5
afc
  8
Layer_1
  10
26.936996
  20
39.804001
  0
VERTEX
  5
afd
  8
Layer_1
  10
26.916
  20
39.819
  0
VERTEX
  5
afe
  8
Layer_1
  10
26.891998
  20
39.831001
  0
VERTEX
  5
aff
  8
Layer_1
  10
26.860504
  20
39.841
  0
VERTEX
  5
b00
  8
Layer_1
  10
26.813507
  20
39.849251
  0
VERTEX
  5
b01
  8
Layer_1
  10
25.815994
  20
39.850998
  0
VERTEX
  5
b02
  8
Layer_1
  10
25.815994
  20
40.255997
  0
VERTEX
  5
b03
  8
Layer_1
  10
26.960495
  20
40.255997
  0
VERTEX
  5
b04
  8
Layer_1
  10
27.047501
  20
40.253998
  0
VERTEX
  5
b05
  8
Layer_1
  10
27.123001
  20
40.248249
  0
VERTEX
  5
b06
  8
Layer_1
  10
27.209244
  20
40.235249
  0
VERTEX
  5
b07
  8
Layer_1
  10
27.298004
  20
40.212749
  0
VERTEX
  5
b08
  8
Layer_1
  10
27.320007
  20
40.204338
  0
VERTEX
  5
b09
  8
Layer_1
  10
27.361252
  20
40.184998
  0
VERTEX
  5
b0a
  8
Layer_1
  10
27.401001
  20
40.160751
  0
VERTEX
  5
b0b
  8
Layer_1
  10
27.444748
  20
40.126999
  0
VERTEX
  5
b0c
  8
Layer_1
  10
27.492249
  20
40.077248
  0
VERTEX
  5
b0d
  8
Layer_1
  10
27.527756
  20
40.024998
  0
VERTEX
  5
b0e
  8
Layer_1
  10
27.565247
  20
39.94175
  0
VERTEX
  5
b0f
  8
Layer_1
  10
27.595245
  20
39.845249
  0
VERTEX
  5
b10
  8
Layer_1
  10
27.612747
  20
39.7505
  0
VERTEX
  5
b11
  8
Layer_1
  10
27.622757
  20
39.660751
  0
VERTEX
  5
b12
  8
Layer_1
  10
27.629501
  20
39.543251
  0
VERTEX
  5
b13
  8
Layer_1
  10
27.630997
  20
37.694
  0
VERTEX
  5
b14
  8
Layer_1
  10
26.070999
  20
37.694
  0
VERTEX
  5
b15
  8
Layer_1
  10
26.026993
  20
37.695999
  0
VERTEX
  5
b16
  8
Layer_1
  10
25.981247
  20
37.701748
  0
VERTEX
  5
b17
  8
Layer_1
  10
25.929001
  20
37.713749
  0
VERTEX
  5
b18
  8
Layer_1
  10
25.891998
  20
37.725998
  0
VERTEX
  5
b19
  8
Layer_1
  10
25.836502
  20
37.751999
  0
VERTEX
  5
b1a
  8
Layer_1
  10
25.790497
  20
37.779499
  0
VERTEX
  5
b1b
  8
Layer_1
  10
25.724747
  20
37.833248
  0
VERTEX
  5
b1c
  8
Layer_1
  10
25.676498
  20
37.88625
  0
VERTEX
  5
b1d
  8
Layer_1
  10
25.624252
  20
37.959999
  0
VERTEX
  5
b1e
  8
Layer_1
  10
25.590256
  20
38.019501
  0
VERTEX
  5
b1f
  8
Layer_1
  10
25.558746
  20
38.093246
  0
VERTEX
  5
b20
  8
Layer_1
  10
25.526993
  20
38.194748
  0
SEQEND
  0
POLYLINE
  5
b22
  8
Layer_1
  62
5
  70
1
  66
1
  10
0
  20
0
  30
0
  0
VERTEX
  5
b22
  8
Layer_1
  10
19.173004
  20
38.086998
  0
VERTEX
  5
b23
  8
Layer_1
  10
19.173004
  20
40.510998
  0
VERTEX
  5
b24
  8
Layer_1
  10
18.695999
  20
40.510998
  0
VERTEX
  5
b25
  8
Layer_1
  10
18.695999
  20
40.924999
  0
VERTEX
  5
b26
  8
Layer_1
  10
19.787994
  20
40.924999
  0
VERTEX
  5
b27
  8
Layer_1
  10
19.787994
  20
38.086998
  0
VERTEX
  5
b28
  8
Layer_1
  10
20.472
  20
38.086998
  0
VERTEX
  5
b29
  8
Layer_1
  10
20.472
  20
37.694
  0
VERTEX
  5
b2a
  8
Layer_1
  10
18.432007
  20
37.694
  0
VERTEX
  5
b2b
  8
Layer_1
  10
18.432007
  20
38.086998
  0
VERTEX
  5
b2c
  8
Layer_1
  10
19.173004
  20
38.086998
  0
SEQEND
  0
POLYLINE
  5
b2e
  8
Layer_1
  62
5
  70
1
  66
1
  10
0
  20
0
  30
0
  0
VERTEX
  5
b2e
  8
Layer_1
  10
17.001007
  20
38.311996
  0
VERTEX
  5
b2f
  8
Layer_1
  10
17.022003
  20
38.311996
  0
VERTEX
  5
b30
  8
Layer_1
  10
17.516998
  20
40.255997
  0
VERTEX
  5
b31
  8
Layer_1
  10
18.153
  20
40.255997
  0
VERTEX
  5
b32
  8
Layer_1
  10
17.408997
  20
37.694
  0
VERTEX
  5
b33
  8
Layer_1
  10
16.623001
  20
37.694
  0
VERTEX
  5
b34
  8
Layer_1
  10
15.876007
  20
40.255997
  0
VERTEX
  5
b35
  8
Layer_1
  10
16.505997
  20
40.255997
  0
VERTEX
  5
b36
  8
Layer_1
  10
17.001007
  20
38.311996
  0
SEQEND
  0
POLYLINE
  5
b38
  8
Layer_1
  62
5
  70
1
  66
1
  10
0
  20
0
  30
0
  0
VERTEX
  5
b38
  8
Layer_1
  10
14.983002
  20
38.084747
  0
VERTEX
  5
b39
  8
Layer_1
  10
15.136002
  20
38.086998
  0
VERTEX
  5
b3a
  8
Layer_1
  10
15.578995
  20
38.086998
  0
VERTEX
  5
b3b
  8
Layer_1
  10
15.578995
  20
37.694
  0
VERTEX
  5
b3c
  8
Layer_1
  10
14.197998
  20
37.694
  0
VERTEX
  5
b3d
  8
Layer_1
  10
14.126999
  20
37.696999
  0
VERTEX
  5
b3e
  8
Layer_1
  10
14.024246
  20
37.709248
  0
VERTEX
  5
b3f
  8
Layer_1
  10
13.962494
  20
37.723499
  0
VERTEX
  5
b40
  8
Layer_1
  10
13.863007
  20
37.760998
  0
VERTEX
  5
b41
  8
Layer_1
  10
13.800995
  20
37.797997
  0
VERTEX
  5
b42
  8
Layer_1
  10
13.772995
  20
37.82
  0
VERTEX
  5
b43
  8
Layer_1
  10
13.746002
  20
37.843998
  0
VERTEX
  5
b44
  8
Layer_1
  10
13.709244
  20
37.88575
  0
VERTEX
  5
b45
  8
Layer_1
  10
13.661743
  20
37.957249
  0
VERTEX
  5
b46
  8
Layer_1
  10
13.627716
  20
38.029404
  0
VERTEX
  5
b47
  8
Layer_1
  10
13.600998
  20
38.112
  0
VERTEX
  5
b48
  8
Layer_1
  10
13.585999
  20
38.182999
  0
VERTEX
  5
b49
  8
Layer_1
  10
13.578003
  20
38.232998
  0
VERTEX
  5
b4a
  8
Layer_1
  10
13.565002
  20
38.373001
  0
VERTEX
  5
b4b
  8
Layer_1
  10
13.559998
  20
38.498001
  0
VERTEX
  5
b4c
  8
Layer_1
  10
13.559998
  20
39.452
  0
VERTEX
  5
b4d
  8
Layer_1
  10
13.561996
  20
39.515999
  0
VERTEX
  5
b4e
  8
Layer_1
  10
13.569
  20
39.633999
  0
VERTEX
  5
b4f
  8
Layer_1
  10
13.578003
  20
39.713997
  0
VERTEX
  5
b50
  8
Layer_1
  10
13.598495
  20
39.822746
  0
VERTEX
  5
b51
  8
Layer_1
  10
13.614502
  20
39.87925
  0
VERTEX
  5
b52
  8
Layer_1
  10
13.6315
  20
39.925751
  0
VERTEX
  5
b53
  8
Layer_1
  10
13.65625
  20
39.976997
  0
VERTEX
  5
b54
  8
Layer_1
  10
13.69725
  20
40.04525
  0
VERTEX
  5
b55
  8
Layer_1
  10
13.736252
  20
40.092499
  0
VERTEX
  5
b56
  8
Layer_1
  10
13.790497
  20
40.140747
  0
VERTEX
  5
b57
  8
Layer_1
  10
13.850998
  20
40.179001
  0
VERTEX
  5
b58
  8
Layer_1
  10
13.890503
  20
40.19825
  0
VERTEX
  5
b59
  8
Layer_1
  10
13.962753
  20
40.223
  0
VERTEX
  5
b5a
  8
Layer_1
  10
14.046249
  20
40.242249
  0
VERTEX
  5
b5b
  8
Layer_1
  10
14.204742
  20
40.255501
  0
VERTEX
  5
b5c
  8
Layer_1
  10
15.578995
  20
40.255997
  0
VERTEX
  5
b5d
  8
Layer_1
  10
15.578995
  20
39.850998
  0
VERTEX
  5
b5e
  8
Layer_1
  10
14.432999
  20
39.850998
  0
VERTEX
  5
b5f
  8
Layer_1
  10
14.358246
  20
39.842999
  0
VERTEX
  5
b60
  8
Layer_1
  10
14.294495
  20
39.821251
  0
VERTEX
  5
b61
  8
Layer_1
  10
14.277252
  20
39.80925
  0
VERTEX
  5
b62
  8
Layer_1
  10
14.253998
  20
39.786499
  0
VERTEX
  5
b63
  8
Layer_1
  10
14.240005
  20
39.766998
  0
VERTEX
  5
b64
  8
Layer_1
  10
14.227493
  20
39.741749
  0
VERTEX
  5
b65
  8
Layer_1
  10
14.207748
  20
39.682251
  0
VERTEX
  5
b66
  8
Layer_1
  10
14.197006
  20
39.615997
  0
VERTEX
  5
b67
  8
Layer_1
  10
14.190506
  20
39.5425
  0
VERTEX
  5
b68
  8
Layer_1
  10
14.186996
  20
39.431999
  0
VERTEX
  5
b69
  8
Layer_1
  10
14.186996
  20
38.488998
  0
VERTEX
  5
b6a
  8
Layer_1
  10
14.190247
  20
38.409248
  0
VERTEX
  5
b6b
  8
Layer_1
  10
14.195999
  20
38.340748
  0
VERTEX
  5
b6c
  8
Layer_1
  10
14.209
  20
38.276497
  0
VERTEX
  5
b6d
  8
Layer_1
  10
14.226501
  20
38.222248
  0
VERTEX
  5
b6e
  8
Layer_1
  10
14.25
  20
38.177998
  0
VERTEX
  5
b6f
  8
Layer_1
  10
14.268005
  20
38.154999
  0
VERTEX
  5
b70
  8
Layer_1
  10
14.283005
  20
38.139999
  0
VERTEX
  5
b71
  8
Layer_1
  10
14.300003
  20
38.126999
  0
VERTEX
  5
b72
  8
Layer_1
  10
14.3255
  20
38.11425
  0
VERTEX
  5
b73
  8
Layer_1
  10
14.339752
  20
38.109001
  0
VERTEX
  5
b74
  8
Layer_1
  10
14.374252
  20
38.100998
  0
VERTEX
  5
b75
  8
Layer_1
  10
14.471756
  20
38.090248
  0
VERTEX
  5
b76
  8
Layer_1
  10
14.580505
  20
38.085747
  0
VERTEX
  5
b77
  8
Layer_1
  10
14.983002
  20
38.084747
  0
SEQEND
  0
POLYLINE
  5
b79
  8
Layer_0
  62
1
  70
1
  66
1
  10
0
  20
0
  30
0
  0
VERTEX
  5
b79
  8
Layer_0
  10
335.45111
  20
17.807999
  0
VERTEX
  5
b7a
  8
Layer_0
  10
335.4238
  20
17.91
  0
VERTEX
  5
b7b
  8
Layer_0
  10
335.3688
  20
18.076
  0
VERTEX
  5
b7c
  8
Layer_0
  10
335.30478
  20
18.237999
  0
VERTEX
  5
b7d
  8
Layer_0
  10
335.2308
  20
18.396
  0
VERTEX
  5
b7e
  8
Layer_0
  10
335.1478
  20
18.549999
  0
VERTEX
  5
b7f
  8
Layer_0
  10
335.05579
  20
18.698999
  0
VERTEX
  5
b80
  8
Layer_0
  10
334.95578
  20
18.841
  0
VERTEX
  5
b81
  8
Layer_0
  10
334.84781
  20
18.978001
  0
VERTEX
  5
b82
  8
Layer_0
  10
334.73178
  20
19.109001
  0
VERTEX
  5
b83
  8
Layer_0
  10
334.6088
  20
19.232
  0
VERTEX
  5
b84
  8
Layer_0
  10
334.47778
  20
19.348
  0
VERTEX
  5
b85
  8
Layer_0
  10
334.34079
  20
19.455999
  0
VERTEX
  5
b86
  8
Layer_0
  10
334.19879
  20
19.556
  0
VERTEX
  5
b87
  8
Layer_0
  10
334.04977
  20
19.647999
  0
VERTEX
  5
b88
  8
Layer_0
  10
333.89578
  20
19.730999
  0
VERTEX
  5
b89
  8
Layer_0
  10
333.73779
  20
19.805
  0
VERTEX
  5
b8a
  8
Layer_0
  10
333.57578
  20
19.868999
  0
VERTEX
  5
b8b
  8
Layer_0
  10
333.40979
  20
19.924
  0
VERTEX
  5
b8c
  8
Layer_0
  10
333.24179
  20
19.969
  0
VERTEX
  5
b8d
  8
Layer_0
  10
333.07077
  20
20.004
  0
VERTEX
  5
b8e
  8
Layer_0
  10
332.8978
  20
20.030001
  0
VERTEX
  5
b8f
  8
Layer_0
  10
332.72379
  20
20.045
  0
VERTEX
  5
b90
  8
Layer_0
  10
332.54977
  20
20.049999
  0
VERTEX
  5
b91
  8
Layer_0
  10
332.37579
  20
20.045
  0
VERTEX
  5
b92
  8
Layer_0
  10
332.20178
  20
20.030001
  0
VERTEX
  5
b93
  8
Layer_0
  10
332.02878
  20
20.004
  0
VERTEX
  5
b94
  8
Layer_0
  10
331.85779
  20
19.969
  0
VERTEX
  5
b95
  8
Layer_0
  10
331.68979
  20
19.924
  0
VERTEX
  5
b96
  8
Layer_0
  10
331.52377
  20
19.868999
  0
VERTEX
  5
b97
  8
Layer_0
  10
331.36179
  20
19.805
  0
VERTEX
  5
b98
  8
Layer_0
  10
331.2038
  20
19.730999
  0
VERTEX
  5
b99
  8
Layer_0
  10
331.04977
  20
19.647999
  0
VERTEX
  5
b9a
  8
Layer_0
  10
330.90079
  20
19.556
  0
VERTEX
  5
b9b
  8
Layer_0
  10
330.75879
  20
19.455999
  0
VERTEX
  5
b9c
  8
Layer_0
  10
330.6218
  20
19.348
  0
VERTEX
  5
b9d
  8
Layer_0
  10
330.49078
  20
19.232
  0
VERTEX
  5
b9e
  8
Layer_0
  10
330.36777
  20
19.109001
  0
VERTEX
  5
b9f
  8
Layer_0
  10
330.2518
  20
18.978001
  0
VERTEX
  5
ba0
  8
Layer_0
  10
330.14377
  20
18.841
  0
VERTEX
  5
ba1
  8
Layer_0
  10
330.04379
  20
18.698999
  0
VERTEX
  5
ba2
  8
Layer_0
  10
329.95178
  20
18.549999
  0
VERTEX
  5
ba3
  8
Layer_0
  10
329.8688
  20
18.396
  0
VERTEX
  5
ba4
  8
Layer_0
  10
329.79477
  20
18.237999
  0
VERTEX
  5
ba5
  8
Layer_0
  10
329.7308
  20
18.076
  0
VERTEX
  5
ba6
  8
Layer_0
  10
329.67578
  20
17.91
  0
VERTEX
  5
ba7
  8
Layer_0
  10
329.63077
  20
17.742001
  0
VERTEX
  5
ba8
  8
Layer_0
  10
329.59579
  20
17.570999
  0
VERTEX
  5
ba9
  8
Layer_0
  10
329.56979
  20
17.397999
  0
VERTEX
  5
baa
  8
Layer_0
  10
329.55478
  20
17.223999
  0
VERTEX
  5
bab
  8
Layer_0
  10
329.54977
  20
17.049999
  0
VERTEX
  5
bac
  8
Layer_0
  10
329.55478
  20
16.875999
  0
VERTEX
  5
bad
  8
Layer_0
  10
329.56979
  20
16.702
  0
VERTEX
  5
bae
  8
Layer_0
  10
329.59579
  20
16.528999
  0
VERTEX
  5
baf
  8
Layer_0
  10
329.63077
  20
16.358
  0
VERTEX
  5
bb0
  8
Layer_0
  10
329.67578
  20
16.189999
  0
VERTEX
  5
bb1
  8
Layer_0
  10
329.7308
  20
16.024
  0
VERTEX
  5
bb2
  8
Layer_0
  10
329.79477
  20
15.862
  0
VERTEX
  5
bb3
  8
Layer_0
  10
329.8688
  20
15.704
  0
VERTEX
  5
bb4
  8
Layer_0
  10
329.95178
  20
15.55
  0
VERTEX
  5
bb5
  8
Layer_0
  10
330.04379
  20
15.401
  0
VERTEX
  5
bb6
  8
Layer_0
  10
330.14377
  20
15.259
  0
VERTEX
  5
bb7
  8
Layer_0
  10
330.2518
  20
15.122
  0
VERTEX
  5
bb8
  8
Layer_0
  10
330.36777
  20
14.991
  0
VERTEX
  5
bb9
  8
Layer_0
  10
330.49078
  20
14.868
  0
VERTEX
  5
bba
  8
Layer_0
  10
330.6218
  20
14.752
  0
VERTEX
  5
bbb
  8
Layer_0
  10
330.75879
  20
14.644
  0
VERTEX
  5
bbc
  8
Layer_0
  10
330.90079
  20
14.544
  0
VERTEX
  5
bbd
  8
Layer_0
  10
331.04977
  20
14.452
  0
VERTEX
  5
bbe
  8
Layer_0
  10
331.2038
  20
14.369
  0
VERTEX
  5
bbf
  8
Layer_0
  10
331.36179
  20
14.295
  0
VERTEX
  5
bc0
  8
Layer_0
  10
331.52377
  20
14.231
  0
VERTEX
  5
bc1
  8
Layer_0
  10
331.68979
  20
14.176
  0
VERTEX
  5
bc2
  8
Layer_0
  10
331.85779
  20
14.131
  0
VERTEX
  5
bc3
  8
Layer_0
  10
332.02878
  20
14.096
  0
VERTEX
  5
bc4
  8
Layer_0
  10
332.20178
  20
14.07
  0
VERTEX
  5
bc5
  8
Layer_0
  10
332.37579
  20
14.055
  0
VERTEX
  5
bc6
  8
Layer_0
  10
332.54977
  20
14.05
  0
VERTEX
  5
bc7
  8
Layer_0
  10
332.72379
  20
14.055
  0
VERTEX
  5
bc8
  8
Layer_0
  10
332.8978
  20
14.07
  0
VERTEX
  5
bc9
  8
Layer_0
  10
333.07077
  20
14.096
  0
VERTEX
  5
bca
  8
Layer_0
  10
333.24179
  20
14.131
  0
VERTEX
  5
bcb
  8
Layer_0
  10
333.40979
  20
14.176
  0
VERTEX
  5
bcc
  8
Layer_0
  10
333.57578
  20
14.231
  0
VERTEX
  5
bcd
  8
Layer_0
  10
333.73779
  20
14.295
  0
VERTEX
  5
bce
  8
Layer_0
  10
333.89578
  20
14.369
  0
VERTEX
  5
bcf
  8
Layer_0
  10
334.04977
  20
14.452
  0
VERTEX
  5
bd0
  8
Layer_0
  10
334.19879
  20
14.544
  0
VERTEX
  5
bd1
  8
Layer_0
  10
334.34079
  20
14.644
  0
VERTEX
  5
bd2
  8
Layer_0
  10
334.47778
  20
14.752
  0
VERTEX
  5
bd3
  8
Layer_0
  10
334.6088
  20
14.868
  0
VERTEX
  5
bd4
  8
Layer_0
  10
334.73178
  20
14.991
  0
VERTEX
  5
bd5
  8
Layer_0
  10
334.84781
  20
15.122
  0
VERTEX
  5
bd6
  8
Layer_0
  10
334.95578
  20
15.259
  0
VERTEX
  5
bd7
  8
Layer_0
  10
335.05579
  20
15.401
  0
VERTEX
  5
bd8
  8
Layer_0
  10
335.1478
  20
15.55
  0
VERTEX
  5
bd9
  8
Layer_0
  10
335.2308
  20
15.704
  0
VERTEX
  5
bda
  8
Layer_0
  10
335.30478
  20
15.862
  0
VERTEX
  5
bdb
  8
Layer_0
  10
335.3688
  20
16.024
  0
VERTEX
  5
bdc
  8
Layer_0
  10
335.4238
  20
16.189999
  0
VERTEX
  5
bdd
  8
Layer_0
  10
335.46878
  20
16.358
  0
VERTEX
  5
bde
  8
Layer_0
  10
335.50378
  20
16.528999
  0
VERTEX
  5
bdf
  8
Layer_0
  10
335.52979
  20
16.702
  0
VERTEX
  5
be0
  8
Layer_0
  10
335.54477
  20
16.875999
  0
VERTEX
  5
be1
  8
Layer_0
  10
335.54977
  20
17.049999
  0
VERTEX
  5
be2
  8
Layer_0
  10
335.54477
  20
17.223999
  0
VERTEX
  5
be3
  8
Layer_0
  10
335.52979
  20
17.397999
  0
VERTEX
  5
be4
  8
Layer_0
  10
335.50378
  20
17.570999
  0
VERTEX
  5
be5
  8
Layer_0
  10
335.46878
  20
17.742001
  0
VERTEX
  5
be6
  8
Layer_0
  10
335.45111
  20
17.807999
  0
SEQEND
  0
POLYLINE
  5
be8
  8
Layer_0
  62
1
  70
1
  66
1
  10
0
  20
0
  30
0
  0
VERTEX
  5
be8
  8
Layer_0
  10
322.49979
  20
22.700001
  0
VERTEX
  5
be9
  8
Layer_0
  10
310.49979
  20
22.700001
  0
VERTEX
  5
bea
  8
Layer_0
  10
310.49979
  20
10.7
  0
VERTEX
  5
beb
  8
Layer_0
  10
322.49979
  20
10.7
  0
VERTEX
  5
bec
  8
Layer_0
  10
322.49979
  20
22.700001
  0
SEQEND
  0
POLYLINE
  5
bee
  8
Layer_1
  62
5
  70
1
  66
1
  10
0
  20
0
  30
0
  0
VERTEX
  5
bee
  8
Layer_1
  10
298.7247
  20
36.357002
  0
VERTEX
  5
bef
  8
Layer_1
  10
298.7247
  20
34.593002
  0
VERTEX
  5
bf0
  8
Layer_1
  10
298.01669
  20
34.593002
  0
VERTEX
  5
bf1
  8
Layer_1
  10
298.01669
  20
34.200001
  0
VERTEX
  5
bf2
  8
Layer_1
  10
300.0387
  20
34.200001
  0
VERTEX
  5
bf3
  8
Layer_1
  10
300.0387
  20
34.593002
  0
VERTEX
  5
bf4
  8
Layer_1
  10
299.34271
  20
34.593002
  0
VERTEX
  5
bf5
  8
Layer_1
  10
299.34271
  20
36.762001
  0
VERTEX
  5
bf6
  8
Layer_1
  10
298.01669
  20
36.762001
  0
VERTEX
  5
bf7
  8
Layer_1
  10
298.01669
  20
36.357002
  0
VERTEX
  5
bf8
  8
Layer_1
  10
298.7247
  20
36.357002
  0
SEQEND
  0
POLYLINE
  5
bfa
  8
Layer_1
  62
5
  70
1
  66
1
  10
0
  20
0
  30
0
  0
VERTEX
  5
bfa
  8
Layer_1
  10
294.45868
  20
34.593002
  0
VERTEX
  5
bfb
  8
Layer_1
  10
294.45868
  20
36.762001
  0
VERTEX
  5
bfc
  8
Layer_1
  10
293.13269
  20
36.762001
  0
VERTEX
  5
bfd
  8
Layer_1
  10
293.13269
  20
36.357002
  0
VERTEX
  5
bfe
  8
Layer_1
  10
293.8407
  20
36.357002
  0
VERTEX
  5
bff
  8
Layer_1
  10
293.8407
  20
34.593002
  0
VERTEX
  5
c00
  8
Layer_1
  10
293.13269
  20
34.593002
  0
VERTEX
  5
c01
  8
Layer_1
  10
293.13269
  20
34.200001
  0
VERTEX
  5
c02
  8
Layer_1
  10
295.15469
  20
34.200001
  0
VERTEX
  5
c03
  8
Layer_1
  10
295.15469
  20
34.593002
  0
VERTEX
  5
c04
  8
Layer_1
  10
294.45868
  20
34.593002
  0
SEQEND
  0
POLYLINE
  5
c06
  8
Layer_1
  62
5
  70
1
  66
1
  10
0
  20
0
  30
0
  0
VERTEX
  5
c06
  8
Layer_1
  10
289.63171
  20
37.577999
  0
VERTEX
  5
c07
  8
Layer_1
  10
288.89969
  20
37.577999
  0
VERTEX
  5
c08
  8
Layer_1
  10
288.89969
  20
37.083
  0
VERTEX
  5
c09
  8
Layer_1
  10
289.63171
  20
37.083
  0
VERTEX
  5
c0a
  8
Layer_1
  10
289.63171
  20
37.577999
  0
SEQEND
  0
POLYLINE
  5
c0c
  8
Layer_0
  62
1
  70
1
  66
1
  10
0
  20
0
  30
0
  0
VERTEX
  5
c0c
  8
Layer_0
  10
297.11169
  20
30.012112
  0
VERTEX
  5
c0d
  8
Layer_0
  10
296.7807
  20
30.122
  0
VERTEX
  5
c0e
  8
Layer_0
  10
296.2757
  20
30.257
  0
VERTEX
  5
c0f
  8
Layer_0
  10
295.7627
  20
30.362999
  0
VERTEX
  5
c10
  8
Layer_0
  10
295.24469
  20
30.438999
  0
VERTEX
  5
c11
  8
Layer_0
  10
294.72269
  20
30.485001
  0
VERTEX
  5
c12
  8
Layer_0
  10
294.19971
  20
30.5
  0
VERTEX
  5
c13
  8
Layer_0
  10
293.6767
  20
30.485001
  0
VERTEX
  5
c14
  8
Layer_0
  10
293.15469
  20
30.438999
  0
VERTEX
  5
c15
  8
Layer_0
  10
292.63669
  20
30.362999
  0
VERTEX
  5
c16
  8
Layer_0
  10
292.12369
  20
30.257
  0
VERTEX
  5
c17
  8
Layer_0
  10
291.61871
  20
30.122
  0
VERTEX
  5
c18
  8
Layer_0
  10
291.1217
  20
29.957001
  0
VERTEX
  5
c19
  8
Layer_0
  10
290.6347
  20
29.764
  0
VERTEX
  5
c1a
  8
Layer_0
  10
290.16071
  20
29.542999
  0
VERTEX
  5
c1b
  8
Layer_0
  10
289.69971
  20
29.294001
  0
VERTEX
  5
c1c
  8
Layer_0
  10
289.25369
  20
29.019001
  0
VERTEX
  5
c1d
  8
Layer_0
  10
288.82568
  20
28.719
  0
VERTEX
  5
c1e
  8
Layer_0
  10
288.4147
  20
28.394001
  0
VERTEX
  5
c1f
  8
Layer_0
  10
288.02368
  20
28.046
  0
VERTEX
  5
c20
  8
Layer_0
  10
287.65369
  20
27.676001
  0
VERTEX
  5
c21
  8
Layer_0
  10
287.30569
  20
27.285
  0
VERTEX
  5
c22
  8
Layer_0
  10
286.98071
  20
26.874001
  0
VERTEX
  5
c23
  8
Layer_0
  10
286.68069
  20
26.445999
  0
VERTEX
  5
c24
  8
Layer_0
  10
286.4057
  20
26
  0
VERTEX
  5
c25
  8
Layer_0
  10
286.15668
  20
25.539
  0
VERTEX
  5
c26
  8
Layer_0
  10
285.9357
  20
25.065001
  0
VERTEX
  5
c27
  8
Layer_0
  10
285.74268
  20
24.577999
  0
VERTEX
  5
c28
  8
Layer_0
  10
285.5777
  20
24.080999
  0
VERTEX
  5
c29
  8
Layer_0
  10
285.44269
  20
23.576
  0
VERTEX
  5
c2a
  8
Layer_0
  10
285.3367
  20
23.063
  0
VERTEX
  5
c2b
  8
Layer_0
  10
285.26068
  20
22.545
  0
VERTEX
  5
c2c
  8
Layer_0
  10
285.21469
  20
22.023001
  0
VERTEX
  5
c2d
  8
Layer_0
  10
285.19971
  20
21.5
  0
VERTEX
  5
c2e
  8
Layer_0
  10
285.21469
  20
20.977001
  0
VERTEX
  5
c2f
  8
Layer_0
  10
285.26068
  20
20.455
  0
VERTEX
  5
c30
  8
Layer_0
  10
285.3367
  20
19.937
  0
VERTEX
  5
c31
  8
Layer_0
  10
285.44269
  20
19.424
  0
VERTEX
  5
c32
  8
Layer_0
  10
285.5777
  20
18.919001
  0
VERTEX
  5
c33
  8
Layer_0
  10
285.74268
  20
18.422001
  0
VERTEX
  5
c34
  8
Layer_0
  10
285.9357
  20
17.935001
  0
VERTEX
  5
c35
  8
Layer_0
  10
286.15668
  20
17.461
  0
VERTEX
  5
c36
  8
Layer_0
  10
286.4057
  20
17
  0
VERTEX
  5
c37
  8
Layer_0
  10
286.68069
  20
16.554001
  0
VERTEX
  5
c38
  8
Layer_0
  10
286.98071
  20
16.125999
  0
VERTEX
  5
c39
  8
Layer_0
  10
287.30569
  20
15.715
  0
VERTEX
  5
c3a
  8
Layer_0
  10
287.65369
  20
15.324
  0
VERTEX
  5
c3b
  8
Layer_0
  10
288.02368
  20
14.954
  0
VERTEX
  5
c3c
  8
Layer_0
  10
288.4147
  20
14.606
  0
VERTEX
  5
c3d
  8
Layer_0
  10
288.82568
  20
14.281
  0
VERTEX
  5
c3e
  8
Layer_0
  10
289.25369
  20
13.981
  0
VERTEX
  5
c3f
  8
Layer_0
  10
289.68997
  20
13.712
  0
VERTEX
  5
c40
  8
Layer_0
  10
290.16071
  20
13.457
  0
VERTEX
  5
c41
  8
Layer_0
  10
290.6347
  20
13.236
  0
VERTEX
  5
c42
  8
Layer_0
  10
291.1217
  20
13.043
  0
VERTEX
  5
c43
  8
Layer_0
  10
291.61871
  20
12.878
  0
VERTEX
  5
c44
  8
Layer_0
  10
292.12369
  20
12.743
  0
VERTEX
  5
c45
  8
Layer_0
  10
292.63669
  20
12.637
  0
VERTEX
  5
c46
  8
Layer_0
  10
293.15469
  20
12.561
  0
VERTEX
  5
c47
  8
Layer_0
  10
293.6767
  20
12.515
  0
VERTEX
  5
c48
  8
Layer_0
  10
294.19971
  20
12.5
  0
VERTEX
  5
c49
  8
Layer_0
  10
294.72269
  20
12.515
  0
VERTEX
  5
c4a
  8
Layer_0
  10
295.24469
  20
12.561
  0
VERTEX
  5
c4b
  8
Layer_0
  10
295.7627
  20
12.637
  0
VERTEX
  5
c4c
  8
Layer_0
  10
296.2757
  20
12.743
  0
VERTEX
  5
c4d
  8
Layer_0
  10
296.7807
  20
12.878
  0
VERTEX
  5
c4e
  8
Layer_0
  10
297.27771
  20
13.043
  0
VERTEX
  5
c4f
  8
Layer_0
  10
297.76471
  20
13.236
  0
VERTEX
  5
c50
  8
Layer_0
  10
298.23871
  20
13.457
  0
VERTEX
  5
c51
  8
Layer_0
  10
298.69971
  20
13.706
  0
VERTEX
  5
c52
  8
Layer_0
  10
299.14569
  20
13.981
  0
VERTEX
  5
c53
  8
Layer_0
  10
299.5737
  20
14.281
  0
VERTEX
  5
c54
  8
Layer_0
  10
299.98468
  20
14.606
  0
VERTEX
  5
c55
  8
Layer_0
  10
300.3757
  20
14.954
  0
VERTEX
  5
c56
  8
Layer_0
  10
300.7457
  20
15.324
  0
VERTEX
  5
c57
  8
Layer_0
  10
301.09369
  20
15.715
  0
VERTEX
  5
c58
  8
Layer_0
  10
301.4187
  20
16.125999
  0
VERTEX
  5
c59
  8
Layer_0
  10
301.71869
  20
16.554001
  0
VERTEX
  5
c5a
  8
Layer_0
  10
301.99371
  20
17
  0
VERTEX
  5
c5b
  8
Layer_0
  10
302.24268
  20
17.461
  0
VERTEX
  5
c5c
  8
Layer_0
  10
302.46368
  20
17.935001
  0
VERTEX
  5
c5d
  8
Layer_0
  10
302.65668
  20
18.422001
  0
VERTEX
  5
c5e
  8
Layer_0
  10
302.82169
  20
18.919001
  0
VERTEX
  5
c5f
  8
Layer_0
  10
302.9567
  20
19.424
  0
VERTEX
  5
c60
  8
Layer_0
  10
303.06268
  20
19.937
  0
VERTEX
  5
c61
  8
Layer_0
  10
303.1387
  20
20.455
  0
VERTEX
  5
c62
  8
Layer_0
  10
303.18469
  20
20.977001
  0
VERTEX
  5
c63
  8
Layer_0
  10
303.19971
  20
21.5
  0
VERTEX
  5
c64
  8
Layer_0
  10
303.18469
  20
22.023001
  0
VERTEX
  5
c65
  8
Layer_0
  10
303.1387
  20
22.545
  0
VERTEX
  5
c66
  8
Layer_0
  10
303.06268
  20
23.063
  0
VERTEX
  5
c67
  8
Layer_0
  10
302.9567
  20
23.576
  0
VERTEX
  5
c68
  8
Layer_0
  10
302.82169
  20
24.080999
  0
VERTEX
  5
c69
  8
Layer_0
  10
302.65668
  20
24.577999
  0
VERTEX
  5
c6a
  8
Layer_0
  10
302.46368
  20
25.065001
  0
VERTEX
  5
c6b
  8
Layer_0
  10
302.24268
  20
25.539
  0
VERTEX
  5
c6c
  8
Layer_0
  10
301.99371
  20
26
  0
VERTEX
  5
c6d
  8
Layer_0
  10
301.71869
  20
26.445999
  0
VERTEX
  5
c6e
  8
Layer_0
  10
301.4187
  20
26.874001
  0
VERTEX
  5
c6f
  8
Layer_0
  10
301.09369
  20
27.285
  0
VERTEX
  5
c70
  8
Layer_0
  10
300.7457
  20
27.676001
  0
VERTEX
  5
c71
  8
Layer_0
  10
300.3757
  20
28.046
  0
VERTEX
  5
c72
  8
Layer_0
  10
299.98468
  20
28.394001
  0
VERTEX
  5
c73
  8
Layer_0
  10
299.5737
  20
28.719
  0
VERTEX
  5
c74
  8
Layer_0
  10
299.14569
  20
29.019001
  0
VERTEX
  5
c75
  8
Layer_0
  10
298.69971
  20
29.294001
  0
VERTEX
  5
c76
  8
Layer_0
  10
298.23871
  20
29.542999
  0
VERTEX
  5
c77
  8
Layer_0
  10
297.76471
  20
29.764
  0
VERTEX
  5
c78
  8
Layer_0
  10
297.27771
  20
29.957001
  0
VERTEX
  5
c79
  8
Layer_0
  10
297.11169
  20
30.012112
  0
SEQEND
  0
POLYLINE
  5
c7b
  8
Layer_0
  62
1
  70
1
  66
1
  10
0
  20
0
  30
0
  0
VERTEX
  5
c7b
  8
Layer_0
  10
276.21869
  20
26.874001
  0
VERTEX
  5
c7c
  8
Layer_0
  10
275.89368
  20
27.285
  0
VERTEX
  5
c7d
  8
Layer_0
  10
275.54568
  20
27.676001
  0
VERTEX
  5
c7e
  8
Layer_0
  10
275.17569
  20
28.046
  0
VERTEX
  5
c7f
  8
Layer_0
  10
274.7847
  20
28.394001
  0
VERTEX
  5
c80
  8
Layer_0
  10
274.37369
  20
28.719
  0
VERTEX
  5
c81
  8
Layer_0
  10
273.94568
  20
29.019001
  0
VERTEX
  5
c82
  8
Layer_0
  10
273.49969
  20
29.294001
  0
VERTEX
  5
c83
  8
Layer_0
  10
273.0387
  20
29.542999
  0
VERTEX
  5
c84
  8
Layer_0
  10
272.5647
  20
29.764
  0
VERTEX
  5
c85
  8
Layer_0
  10
272.0777
  20
29.957001
  0
VERTEX
  5
c86
  8
Layer_0
  10
271.58069
  20
30.122
  0
VERTEX
  5
c87
  8
Layer_0
  10
271.07568
  20
30.257
  0
VERTEX
  5
c88
  8
Layer_0
  10
270.56268
  20
30.362999
  0
VERTEX
  5
c89
  8
Layer_0
  10
270.04468
  20
30.438999
  0
VERTEX
  5
c8a
  8
Layer_0
  10
269.52271
  20
30.485001
  0
VERTEX
  5
c8b
  8
Layer_0
  10
268.99969
  20
30.5
  0
VERTEX
  5
c8c
  8
Layer_0
  10
268.47668
  20
30.485001
  0
VERTEX
  5
c8d
  8
Layer_0
  10
267.95471
  20
30.438999
  0
VERTEX
  5
c8e
  8
Layer_0
  10
267.43671
  20
30.362999
  0
VERTEX
  5
c8f
  8
Layer_0
  10
266.92371
  20
30.257
  0
VERTEX
  5
c90
  8
Layer_0
  10
266.4187
  20
30.122
  0
VERTEX
  5
c91
  8
Layer_0
  10
265.92169
  20
29.957001
  0
VERTEX
  5
c92
  8
Layer_0
  10
265.43469
  20
29.764
  0
VERTEX
  5
c93
  8
Layer_0
  10
264.96069
  20
29.542999
  0
VERTEX
  5
c94
  8
Layer_0
  10
264.49969
  20
29.294001
  0
VERTEX
  5
c95
  8
Layer_0
  10
264.05371
  20
29.019001
  0
VERTEX
  5
c96
  8
Layer_0
  10
263.6257
  20
28.719
  0
VERTEX
  5
c97
  8
Layer_0
  10
263.21469
  20
28.394001
  0
VERTEX
  5
c98
  8
Layer_0
  10
262.8237
  20
28.046
  0
VERTEX
  5
c99
  8
Layer_0
  10
262.4537
  20
27.676001
  0
VERTEX
  5
c9a
  8
Layer_0
  10
262.10568
  20
27.285
  0
VERTEX
  5
c9b
  8
Layer_0
  10
261.7807
  20
26.874001
  0
VERTEX
  5
c9c
  8
Layer_0
  10
261.48068
  20
26.445999
  0
VERTEX
  5
c9d
  8
Layer_0
  10
261.20569
  20
26
  0
VERTEX
  5
c9e
  8
Layer_0
  10
260.9567
  20
25.539
  0
VERTEX
  5
c9f
  8
Layer_0
  10
260.73569
  20
25.065001
  0
VERTEX
  5
ca0
  8
Layer_0
  10
260.54269
  20
24.577999
  0
VERTEX
  5
ca1
  8
Layer_0
  10
260.37769
  20
24.080999
  0
VERTEX
  5
ca2
  8
Layer_0
  10
260.24271
  20
23.576
  0
VERTEX
  5
ca3
  8
Layer_0
  10
260.13669
  20
23.063
  0
VERTEX
  5
ca4
  8
Layer_0
  10
260.0607
  20
22.545
  0
VERTEX
  5
ca5
  8
Layer_0
  10
260.01471
  20
22.023001
  0
VERTEX
  5
ca6
  8
Layer_0
  10
259.99969
  20
21.5
  0
VERTEX
  5
ca7
  8
Layer_0
  10
260.01471
  20
20.977001
  0
VERTEX
  5
ca8
  8
Layer_0
  10
260.0607
  20
20.455
  0
VERTEX
  5
ca9
  8
Layer_0
  10
260.13669
  20
19.937
  0
VERTEX
  5
caa
  8
Layer_0
  10
260.24271
  20
19.424
  0
VERTEX
  5
cab
  8
Layer_0
  10
260.37769
  20
18.919001
  0
VERTEX
  5
cac
  8
Layer_0
  10
260.54269
  20
18.422001
  0
VERTEX
  5
cad
  8
Layer_0
  10
260.73569
  20
17.935001
  0
VERTEX
  5
cae
  8
Layer_0
  10
260.9567
  20
17.461
  0
VERTEX
  5
caf
  8
Layer_0
  10
261.20569
  20
17
  0
VERTEX
  5
cb0
  8
Layer_0
  10
261.48068
  20
16.554001
  0
VERTEX
  5
cb1
  8
Layer_0
  10
261.7807
  20
16.125999
  0
VERTEX
  5
cb2
  8
Layer_0
  10
262.10568
  20
15.715
  0
VERTEX
  5
cb3
  8
Layer_0
  10
262.4537
  20
15.324
  0
VERTEX
  5
cb4
  8
Layer_0
  10
262.8237
  20
14.954
  0
VERTEX
  5
cb5
  8
Layer_0
  10
263.21469
  20
14.606
  0
VERTEX
  5
cb6
  8
Layer_0
  10
263.6257
  20
14.281
  0
VERTEX
  5
cb7
  8
Layer_0
  10
264.05371
  20
13.981
  0
VERTEX
  5
cb8
  8
Layer_0
  10
264.48996
  20
13.712
  0
VERTEX
  5
cb9
  8
Layer_0
  10
264.96069
  20
13.457
  0
VERTEX
  5
cba
  8
Layer_0
  10
265.43469
  20
13.236
  0
VERTEX
  5
cbb
  8
Layer_0
  10
265.92169
  20
13.043
  0
VERTEX
  5
cbc
  8
Layer_0
  10
266.4187
  20
12.878
  0
VERTEX
  5
cbd
  8
Layer_0
  10
266.92371
  20
12.743
  0
VERTEX
  5
cbe
  8
Layer_0
  10
267.43671
  20
12.637
  0
VERTEX
  5
cbf
  8
Layer_0
  10
267.95471
  20
12.561
  0
VERTEX
  5
cc0
  8
Layer_0
  10
268.47668
  20
12.515
  0
VERTEX
  5
cc1
  8
Layer_0
  10
268.99969
  20
12.5
  0
VERTEX
  5
cc2
  8
Layer_0
  10
269.52271
  20
12.515
  0
VERTEX
  5
cc3
  8
Layer_0
  10
270.04468
  20
12.561
  0
VERTEX
  5
cc4
  8
Layer_0
  10
270.56268
  20
12.637
  0
VERTEX
  5
cc5
  8
Layer_0
  10
271.07568
  20
12.743
  0
VERTEX
  5
cc6
  8
Layer_0
  10
271.58069
  20
12.878
  0
VERTEX
  5
cc7
  8
Layer_0
  10
272.0777
  20
13.043
  0
VERTEX
  5
cc8
  8
Layer_0
  10
272.5647
  20
13.236
  0
VERTEX
  5
cc9
  8
Layer_0
  10
273.0387
  20
13.457
  0
VERTEX
  5
cca
  8
Layer_0
  10
273.49969
  20
13.706
  0
VERTEX
  5
ccb
  8
Layer_0
  10
273.94568
  20
13.981
  0
VERTEX
  5
ccc
  8
Layer_0
  10
274.37369
  20
14.281
  0
VERTEX
  5
ccd
  8
Layer_0
  10
274.7847
  20
14.606
  0
VERTEX
  5
cce
  8
Layer_0
  10
275.17569
  20
14.954
  0
VERTEX
  5
ccf
  8
Layer_0
  10
275.54568
  20
15.324
  0
VERTEX
  5
cd0
  8
Layer_0
  10
275.89368
  20
15.715
  0
VERTEX
  5
cd1
  8
Layer_0
  10
276.21869
  20
16.125999
  0
VERTEX
  5
cd2
  8
Layer_0
  10
276.51868
  20
16.554001
  0
VERTEX
  5
cd3
  8
Layer_0
  10
276.7937
  20
17
  0
VERTEX
  5
cd4
  8
Layer_0
  10
277.04269
  20
17.461
  0
VERTEX
  5
cd5
  8
Layer_0
  10
277.2637
  20
17.935001
  0
VERTEX
  5
cd6
  8
Layer_0
  10
277.4567
  20
18.422001
  0
VERTEX
  5
cd7
  8
Layer_0
  10
277.6217
  20
18.919001
  0
VERTEX
  5
cd8
  8
Layer_0
  10
277.75671
  20
19.424
  0
VERTEX
  5
cd9
  8
Layer_0
  10
277.8627
  20
19.937
  0
VERTEX
  5
cda
  8
Layer_0
  10
277.93869
  20
20.455
  0
VERTEX
  5
cdb
  8
Layer_0
  10
277.98468
  20
20.977001
  0
VERTEX
  5
cdc
  8
Layer_0
  10
277.99969
  20
21.5
  0
VERTEX
  5
cdd
  8
Layer_0
  10
277.98468
  20
22.023001
  0
VERTEX
  5
cde
  8
Layer_0
  10
277.93869
  20
22.545
  0
VERTEX
  5
cdf
  8
Layer_0
  10
277.8627
  20
23.063
  0
VERTEX
  5
ce0
  8
Layer_0
  10
277.75671
  20
23.576
  0
VERTEX
  5
ce1
  8
Layer_0
  10
277.6217
  20
24.080999
  0
VERTEX
  5
ce2
  8
Layer_0
  10
277.4567
  20
24.577999
  0
VERTEX
  5
ce3
  8
Layer_0
  10
277.2637
  20
25.065001
  0
VERTEX
  5
ce4
  8
Layer_0
  10
277.04269
  20
25.539
  0
VERTEX
  5
ce5
  8
Layer_0
  10
276.7937
  20
26
  0
VERTEX
  5
ce6
  8
Layer_0
  10
276.51868
  20
26.445999
  0
VERTEX
  5
ce7
  8
Layer_0
  10
276.21869
  20
26.874001
  0
SEQEND
  0
POLYLINE
  5
ce9
  8
Layer_1
  62
5
  70
1
  66
1
  10
0
  20
0
  30
0
  0
VERTEX
  5
ce9
  8
Layer_1
  10
262.23169
  20
37.083
  0
VERTEX
  5
cea
  8
Layer_1
  10
262.23169
  20
37.577999
  0
VERTEX
  5
ceb
  8
Layer_1
  10
261.49969
  20
37.577999
  0
VERTEX
  5
cec
  8
Layer_1
  10
261.49969
  20
37.083
  0
VERTEX
  5
ced
  8
Layer_1
  10
262.23169
  20
37.083
  0
SEQEND
  0
POLYLINE
  5
cef
  8
Layer_0
  62
1
  70
1
  66
1
  10
0
  20
0
  30
0
  0
VERTEX
  5
cef
  8
Layer_0
  10
251.4007
  20
23.174101
  0
VERTEX
  5
cf0
  8
Layer_0
  10
251.1741
  20
23.400702
  0
VERTEX
  5
cf1
  8
Layer_0
  10
250.93542
  20
23.613001
  0
VERTEX
  5
cf2
  8
Layer_0
  10
250.6846
  20
23.812099
  0
VERTEX
  5
cf3
  8
Layer_0
  10
250.42282
  20
23.994701
  0
VERTEX
  5
cf4
  8
Layer_0
  10
250.14999
  20
24.163
  0
VERTEX
  5
cf5
  8
Layer_0
  10
249.86844
  20
24.3148
  0
VERTEX
  5
cf6
  8
Layer_0
  10
249.578
  20
24.4501
  0
VERTEX
  5
cf7
  8
Layer_0
  10
249.28101
  20
24.567801
  0
VERTEX
  5
cf8
  8
Layer_0
  10
248.97739
  20
24.669003
  0
VERTEX
  5
cf9
  8
Layer_0
  10
248.66833
  20
24.751501
  0
VERTEX
  5
cfa
  8
Layer_0
  10
248.35483
  20
24.816401
  0
VERTEX
  5
cfb
  8
Layer_0
  10
248.03802
  20
24.8626
  0
VERTEX
  5
cfc
  8
Layer_0
  10
247.72012
  20
24.891201
  0
VERTEX
  5
cfd
  8
Layer_0
  10
247.39999
  20
24.900002
  0
VERTEX
  5
cfe
  8
Layer_0
  10
247.07993
  20
24.891201
  0
VERTEX
  5
cff
  8
Layer_0
  10
246.76202
  20
24.8626
  0
VERTEX
  5
d00
  8
Layer_0
  10
246.44522
  20
24.816401
  0
VERTEX
  5
d01
  8
Layer_0
  10
246.13171
  20
24.751501
  0
VERTEX
  5
d02
  8
Layer_0
  10
245.8226
  20
24.669003
  0
VERTEX
  5
d03
  8
Layer_0
  10
245.51901
  20
24.567801
  0
VERTEX
  5
d04
  8
Layer_0
  10
245.22198
  20
24.4501
  0
VERTEX
  5
d05
  8
Layer_0
  10
244.93161
  20
24.3148
  0
VERTEX
  5
d06
  8
Layer_0
  10
244.64999
  20
24.163
  0
VERTEX
  5
d07
  8
Layer_0
  10
244.37723
  20
23.994701
  0
VERTEX
  5
d08
  8
Layer_0
  10
244.11542
  20
23.812099
  0
VERTEX
  5
d09
  8
Layer_0
  10
243.86462
  20
23.613001
  0
VERTEX
  5
d0a
  8
Layer_0
  10
243.62592
  20
23.400702
  0
VERTEX
  5
d0b
  8
Layer_0
  10
243.39932
  20
23.174101
  0
VERTEX
  5
d0c
  8
Layer_0
  10
243.18701
  20
22.935402
  0
VERTEX
  5
d0d
  8
Layer_0
  10
242.98792
  20
22.684601
  0
VERTEX
  5
d0e
  8
Layer_0
  10
242.8053
  20
22.422802
  0
VERTEX
  5
d0f
  8
Layer_0
  10
242.63971
  20
22.1544
  0
VERTEX
  5
d10
  8
Layer_0
  10
242.48523
  20
21.868402
  0
VERTEX
  5
d11
  8
Layer_0
  10
242.34988
  20
21.578003
  0
VERTEX
  5
d12
  8
Layer_0
  10
242.23221
  20
21.281002
  0
VERTEX
  5
d13
  8
Layer_0
  10
242.13101
  20
20.9774
  0
VERTEX
  5
d14
  8
Layer_0
  10
242.04852
  20
20.668301
  0
VERTEX
  5
d15
  8
Layer_0
  10
241.98361
  20
20.354801
  0
VERTEX
  5
d16
  8
Layer_0
  10
241.93741
  20
20.038
  0
VERTEX
  5
d17
  8
Layer_0
  10
241.90881
  20
19.7201
  0
VERTEX
  5
d18
  8
Layer_0
  10
241.89999
  20
19.400002
  0
VERTEX
  5
d19
  8
Layer_0
  10
241.90881
  20
19.079903
  0
VERTEX
  5
d1a
  8
Layer_0
  10
241.93741
  20
18.762001
  0
VERTEX
  5
d1b
  8
Layer_0
  10
241.98361
  20
18.4452
  0
VERTEX
  5
d1c
  8
Layer_0
  10
242.04852
  20
18.131701
  0
VERTEX
  5
d1d
  8
Layer_0
  10
242.13101
  20
17.822601
  0
VERTEX
  5
d1e
  8
Layer_0
  10
242.23221
  20
17.519001
  0
VERTEX
  5
d1f
  8
Layer_0
  10
242.34988
  20
17.222
  0
VERTEX
  5
d20
  8
Layer_0
  10
242.48523
  20
16.931601
  0
VERTEX
  5
d21
  8
Layer_0
  10
242.63702
  20
16.65
  0
VERTEX
  5
d22
  8
Layer_0
  10
242.8053
  20
16.377201
  0
VERTEX
  5
d23
  8
Layer_0
  10
242.98792
  20
16.1154
  0
VERTEX
  5
d24
  8
Layer_0
  10
243.18701
  20
15.8646
  0
VERTEX
  5
d25
  8
Layer_0
  10
243.39932
  20
15.6259
  0
VERTEX
  5
d26
  8
Layer_0
  10
243.62592
  20
15.3993
  0
VERTEX
  5
d27
  8
Layer_0
  10
243.86462
  20
15.186999
  0
VERTEX
  5
d28
  8
Layer_0
  10
244.11542
  20
14.9879
  0
VERTEX
  5
d29
  8
Layer_0
  10
244.37723
  20
14.8053
  0
VERTEX
  5
d2a
  8
Layer_0
  10
244.64999
  20
14.637
  0
VERTEX
  5
d2b
  8
Layer_0
  10
244.93161
  20
14.4852
  0
VERTEX
  5
d2c
  8
Layer_0
  10
245.22198
  20
14.3499
  0
VERTEX
  5
d2d
  8
Layer_0
  10
245.51901
  20
14.2322
  0
VERTEX
  5
d2e
  8
Layer_0
  10
245.8226
  20
14.131
  0
VERTEX
  5
d2f
  8
Layer_0
  10
246.13171
  20
14.0485
  0
VERTEX
  5
d30
  8
Layer_0
  10
246.44522
  20
13.9836
  0
VERTEX
  5
d31
  8
Layer_0
  10
246.76202
  20
13.9374
  0
VERTEX
  5
d32
  8
Layer_0
  10
247.07993
  20
13.9088
  0
VERTEX
  5
d33
  8
Layer_0
  10
247.39999
  20
13.9
  0
VERTEX
  5
d34
  8
Layer_0
  10
247.72012
  20
13.9088
  0
VERTEX
  5
d35
  8
Layer_0
  10
248.03802
  20
13.9374
  0
VERTEX
  5
d36
  8
Layer_0
  10
248.35483
  20
13.9836
  0
VERTEX
  5
d37
  8
Layer_0
  10
248.66833
  20
14.0485
  0
VERTEX
  5
d38
  8
Layer_0
  10
248.97739
  20
14.131
  0
VERTEX
  5
d39
  8
Layer_0
  10
249.28101
  20
14.2322
  0
VERTEX
  5
d3a
  8
Layer_0
  10
249.578
  20
14.3499
  0
VERTEX
  5
d3b
  8
Layer_0
  10
249.86844
  20
14.4852
  0
VERTEX
  5
d3c
  8
Layer_0
  10
250.14999
  20
14.637
  0
VERTEX
  5
d3d
  8
Layer_0
  10
250.42282
  20
14.8053
  0
VERTEX
  5
d3e
  8
Layer_0
  10
250.6846
  20
14.9879
  0
VERTEX
  5
d3f
  8
Layer_0
  10
250.93542
  20
15.186999
  0
VERTEX
  5
d40
  8
Layer_0
  10
251.1741
  20
15.3993
  0
VERTEX
  5
d41
  8
Layer_0
  10
251.4007
  20
15.6259
  0
VERTEX
  5
d42
  8
Layer_0
  10
251.61304
  20
15.8646
  0
VERTEX
  5
d43
  8
Layer_0
  10
251.81213
  20
16.1154
  0
VERTEX
  5
d44
  8
Layer_0
  10
251.99472
  20
16.377201
  0
VERTEX
  5
d45
  8
Layer_0
  10
252.16302
  20
16.65
  0
VERTEX
  5
d46
  8
Layer_0
  10
252.31482
  20
16.931601
  0
VERTEX
  5
d47
  8
Layer_0
  10
252.4501
  20
17.222
  0
VERTEX
  5
d48
  8
Layer_0
  10
252.56781
  20
17.519001
  0
VERTEX
  5
d49
  8
Layer_0
  10
252.66901
  20
17.822601
  0
VERTEX
  5
d4a
  8
Layer_0
  10
252.75153
  20
18.131701
  0
VERTEX
  5
d4b
  8
Layer_0
  10
252.81641
  20
18.4452
  0
VERTEX
  5
d4c
  8
Layer_0
  10
252.86261
  20
18.762001
  0
VERTEX
  5
d4d
  8
Layer_0
  10
252.8912
  20
19.079903
  0
VERTEX
  5
d4e
  8
Layer_0
  10
252.89999
  20
19.400002
  0
VERTEX
  5
d4f
  8
Layer_0
  10
252.8912
  20
19.7201
  0
VERTEX
  5
d50
  8
Layer_0
  10
252.86261
  20
20.038
  0
VERTEX
  5
d51
  8
Layer_0
  10
252.81641
  20
20.354801
  0
VERTEX
  5
d52
  8
Layer_0
  10
252.75153
  20
20.668301
  0
VERTEX
  5
d53
  8
Layer_0
  10
252.66901
  20
20.9774
  0
VERTEX
  5
d54
  8
Layer_0
  10
252.56781
  20
21.281002
  0
VERTEX
  5
d55
  8
Layer_0
  10
252.4501
  20
21.578003
  0
VERTEX
  5
d56
  8
Layer_0
  10
252.31482
  20
21.868402
  0
VERTEX
  5
d57
  8
Layer_0
  10
252.16302
  20
22.150002
  0
VERTEX
  5
d58
  8
Layer_0
  10
251.99472
  20
22.422802
  0
VERTEX
  5
d59
  8
Layer_0
  10
251.81213
  20
22.684601
  0
VERTEX
  5
d5a
  8
Layer_0
  10
251.61304
  20
22.935402
  0
VERTEX
  5
d5b
  8
Layer_0
  10
251.4007
  20
23.174101
  0
SEQEND
  0
POLYLINE
  5
d5d
  8
Layer_0
  62
1
  70
1
  66
1
  10
0
  20
0
  30
0
  0
VERTEX
  5
d5d
  8
Layer_0
  10
211.02522
  20
33.513569
  0
VERTEX
  5
d5e
  8
Layer_0
  10
210.57553
  20
33.827484
  0
VERTEX
  5
d5f
  8
Layer_0
  10
210.07805
  20
34.059933
  0
VERTEX
  5
d60
  8
Layer_0
  10
209.54797
  20
34.202225
  0
VERTEX
  5
d61
  8
Layer_0
  10
209.00052
  20
34.250019
  0
VERTEX
  5
d62
  8
Layer_0
  10
208.45308
  20
34.202225
  0
VERTEX
  5
d63
  8
Layer_0
  10
207.923
  20
34.059933
  0
VERTEX
  5
d64
  8
Layer_0
  10
207.42552
  20
33.827484
  0
VERTEX
  5
d65
  8
Layer_0
  10
206.97583
  20
33.513569
  0
VERTEX
  5
d66
  8
Layer_0
  10
206.58696
  20
33.124706
  0
VERTEX
  5
d67
  8
Layer_0
  10
206.27306
  20
32.675014
  0
VERTEX
  5
d68
  8
Layer_0
  10
206.0406
  20
32.177532
  0
VERTEX
  5
d69
  8
Layer_0
  10
205.8983
  20
31.647461
  0
VERTEX
  5
d6a
  8
Layer_0
  10
205.85052
  20
31.100014
  0
VERTEX
  5
d6b
  8
Layer_0
  10
205.8983
  20
30.552563
  0
VERTEX
  5
d6c
  8
Layer_0
  10
206.0406
  20
30.022491
  0
VERTEX
  5
d6d
  8
Layer_0
  10
206.27306
  20
29.525005
  0
VERTEX
  5
d6e
  8
Layer_0
  10
206.58696
  20
29.075317
  0
VERTEX
  5
d6f
  8
Layer_0
  10
206.97583
  20
28.686455
  0
VERTEX
  5
d70
  8
Layer_0
  10
207.42552
  20
28.37254
  0
VERTEX
  5
d71
  8
Layer_0
  10
207.923
  20
28.140091
  0
VERTEX
  5
d72
  8
Layer_0
  10
208.45308
  20
27.997795
  0
VERTEX
  5
d73
  8
Layer_0
  10
209.00052
  20
27.950005
  0
VERTEX
  5
d74
  8
Layer_0
  10
209.54797
  20
27.997795
  0
VERTEX
  5
d75
  8
Layer_0
  10
210.07805
  20
28.140091
  0
VERTEX
  5
d76
  8
Layer_0
  10
210.57553
  20
28.37254
  0
VERTEX
  5
d77
  8
Layer_0
  10
211.02522
  20
28.686455
  0
VERTEX
  5
d78
  8
Layer_0
  10
211.41408
  20
29.075317
  0
VERTEX
  5
d79
  8
Layer_0
  10
211.728
  20
29.525005
  0
VERTEX
  5
d7a
  8
Layer_0
  10
211.96045
  20
30.022491
  0
VERTEX
  5
d7b
  8
Layer_0
  10
212.10274
  20
30.552563
  0
VERTEX
  5
d7c
  8
Layer_0
  10
212.15053
  20
31.100014
  0
VERTEX
  5
d7d
  8
Layer_0
  10
212.10274
  20
31.647461
  0
VERTEX
  5
d7e
  8
Layer_0
  10
211.96045
  20
32.177532
  0
VERTEX
  5
d7f
  8
Layer_0
  10
211.728
  20
32.675014
  0
VERTEX
  5
d80
  8
Layer_0
  10
211.41408
  20
33.124706
  0
VERTEX
  5
d81
  8
Layer_0
  10
211.02522
  20
33.513569
  0
SEQEND
  0
POLYLINE
  5
d83
  8
Layer_0
  62
1
  70
1
  66
1
  10
0
  20
0
  30
0
  0
VERTEX
  5
d83
  8
Layer_0
  10
199.02519
  20
33.513569
  0
VERTEX
  5
d84
  8
Layer_0
  10
198.5755
  20
33.827484
  0
VERTEX
  5
d85
  8
Layer_0
  10
198.07803
  20
34.059933
  0
VERTEX
  5
d86
  8
Layer_0
  10
197.54796
  20
34.202225
  0
VERTEX
  5
d87
  8
Layer_0
  10
197.0005
  20
34.250019
  0
VERTEX
  5
d88
  8
Layer_0
  10
196.45306
  20
34.202225
  0
VERTEX
  5
d89
  8
Layer_0
  10
195.92297
  20
34.059933
  0
VERTEX
  5
d8a
  8
Layer_0
  10
195.42551
  20
33.827484
  0
VERTEX
  5
d8b
  8
Layer_0
  10
194.97581
  20
33.513569
  0
VERTEX
  5
d8c
  8
Layer_0
  10
194.58694
  20
33.124706
  0
VERTEX
  5
d8d
  8
Layer_0
  10
194.27303
  20
32.675014
  0
VERTEX
  5
d8e
  8
Layer_0
  10
194.04057
  20
32.177532
  0
VERTEX
  5
d8f
  8
Layer_0
  10
193.89828
  20
31.647461
  0
VERTEX
  5
d90
  8
Layer_0
  10
193.85051
  20
31.100014
  0
VERTEX
  5
d91
  8
Layer_0
  10
193.89828
  20
30.552563
  0
VERTEX
  5
d92
  8
Layer_0
  10
194.04057
  20
30.022491
  0
VERTEX
  5
d93
  8
Layer_0
  10
194.27303
  20
29.525005
  0
VERTEX
  5
d94
  8
Layer_0
  10
194.58694
  20
29.075317
  0
VERTEX
  5
d95
  8
Layer_0
  10
194.97581
  20
28.686455
  0
VERTEX
  5
d96
  8
Layer_0
  10
195.42551
  20
28.37254
  0
VERTEX
  5
d97
  8
Layer_0
  10
195.92297
  20
28.140091
  0
VERTEX
  5
d98
  8
Layer_0
  10
196.45306
  20
27.997795
  0
VERTEX
  5
d99
  8
Layer_0
  10
197.0005
  20
27.950005
  0
VERTEX
  5
d9a
  8
Layer_0
  10
197.54796
  20
27.997795
  0
VERTEX
  5
d9b
  8
Layer_0
  10
198.07803
  20
28.140091
  0
VERTEX
  5
d9c
  8
Layer_0
  10
198.5755
  20
28.37254
  0
VERTEX
  5
d9d
  8
Layer_0
  10
199.02519
  20
28.686455
  0
VERTEX
  5
d9e
  8
Layer_0
  10
199.41406
  20
29.075317
  0
VERTEX
  5
d9f
  8
Layer_0
  10
199.72798
  20
29.525005
  0
VERTEX
  5
da0
  8
Layer_0
  10
199.96043
  20
30.022491
  0
VERTEX
  5
da1
  8
Layer_0
  10
200.10272
  20
30.552563
  0
VERTEX
  5
da2
  8
Layer_0
  10
200.15051
  20
31.100014
  0
VERTEX
  5
da3
  8
Layer_0
  10
200.10272
  20
31.647461
  0
VERTEX
  5
da4
  8
Layer_0
  10
199.96043
  20
32.177532
  0
VERTEX
  5
da5
  8
Layer_0
  10
199.72798
  20
32.675014
  0
VERTEX
  5
da6
  8
Layer_0
  10
199.41406
  20
33.124706
  0
VERTEX
  5
da7
  8
Layer_0
  10
199.02519
  20
33.513569
  0
SEQEND
  0
POLYLINE
  5
da9
  8
Layer_0
  62
1
  70
1
  66
1
  10
0
  20
0
  30
0
  0
VERTEX
  5
da9
  8
Layer_0
  10
79.96003
  20
32.177532
  0
VERTEX
  5
daa
  8
Layer_0
  10
79.727577
  20
32.675014
  0
VERTEX
  5
dab
  8
Layer_0
  10
79.413658
  20
33.124706
  0
VERTEX
  5
dac
  8
Layer_0
  10
79.024796
  20
33.513569
  0
VERTEX
  5
dad
  8
Layer_0
  10
78.575104
  20
33.827484
  0
VERTEX
  5
dae
  8
Layer_0
  10
78.077621
  20
34.059933
  0
VERTEX
  5
daf
  8
Layer_0
  10
77.547546
  20
34.202225
  0
VERTEX
  5
db0
  8
Layer_0
  10
77.000099
  20
34.250019
  0
VERTEX
  5
db1
  8
Layer_0
  10
76.452652
  20
34.202225
  0
VERTEX
  5
db2
  8
Layer_0
  10
75.922577
  20
34.059933
  0
VERTEX
  5
db3
  8
Layer_0
  10
75.425095
  20
33.827484
  0
VERTEX
  5
db4
  8
Layer_0
  10
74.975403
  20
33.513569
  0
VERTEX
  5
db5
  8
Layer_0
  10
74.58654
  20
33.124706
  0
VERTEX
  5
db6
  8
Layer_0
  10
74.272621
  20
32.675014
  0
VERTEX
  5
db7
  8
Layer_0
  10
74.040169
  20
32.177532
  0
VERTEX
  5
db8
  8
Layer_0
  10
73.897881
  20
31.647461
  0
VERTEX
  5
db9
  8
Layer_0
  10
73.850098
  20
31.100014
  0
VERTEX
  5
dba
  8
Layer_0
  10
73.897881
  20
30.552563
  0
VERTEX
  5
dbb
  8
Layer_0
  10
74.040169
  20
30.022491
  0
VERTEX
  5
dbc
  8
Layer_0
  10
74.272621
  20
29.525005
  0
VERTEX
  5
dbd
  8
Layer_0
  10
74.58654
  20
29.075317
  0
VERTEX
  5
dbe
  8
Layer_0
  10
74.975403
  20
28.686455
  0
VERTEX
  5
dbf
  8
Layer_0
  10
75.425095
  20
28.37254
  0
VERTEX
  5
dc0
  8
Layer_0
  10
75.922577
  20
28.140091
  0
VERTEX
  5
dc1
  8
Layer_0
  10
76.452652
  20
27.997795
  0
VERTEX
  5
dc2
  8
Layer_0
  10
77.000099
  20
27.950005
  0
VERTEX
  5
dc3
  8
Layer_0
  10
77.547546
  20
27.997795
  0
VERTEX
  5
dc4
  8
Layer_0
  10
78.077621
  20
28.140091
  0
VERTEX
  5
dc5
  8
Layer_0
  10
78.575104
  20
28.37254
  0
VERTEX
  5
dc6
  8
Layer_0
  10
79.024796
  20
28.686455
  0
VERTEX
  5
dc7
  8
Layer_0
  10
79.413658
  20
29.075317
  0
VERTEX
  5
dc8
  8
Layer_0
  10
79.727577
  20
29.525005
  0
VERTEX
  5
dc9
  8
Layer_0
  10
79.96003
  20
30.022491
  0
VERTEX
  5
dca
  8
Layer_0
  10
80.102318
  20
30.552563
  0
VERTEX
  5
dcb
  8
Layer_0
  10
80.150101
  20
31.100014
  0
VERTEX
  5
dcc
  8
Layer_0
  10
80.102318
  20
31.647461
  0
VERTEX
  5
dcd
  8
Layer_0
  10
79.96003
  20
32.177532
  0
SEQEND
  0
POLYLINE
  5
dcf
  8
Layer_0
  62
1
  70
1
  66
1
  10
0
  20
0
  30
0
  0
VERTEX
  5
dcf
  8
Layer_0
  10
63.425079
  20
33.827484
  0
VERTEX
  5
dd0
  8
Layer_0
  10
62.975384
  20
33.513569
  0
VERTEX
  5
dd1
  8
Layer_0
  10
62.586521
  20
33.124706
  0
VERTEX
  5
dd2
  8
Layer_0
  10
62.272606
  20
32.675014
  0
VERTEX
  5
dd3
  8
Layer_0
  10
62.04015
  20
32.177532
  0
VERTEX
  5
dd4
  8
Layer_0
  10
61.897861
  20
31.647461
  0
VERTEX
  5
dd5
  8
Layer_0
  10
61.850079
  20
31.100014
  0
VERTEX
  5
dd6
  8
Layer_0
  10
61.897861
  20
30.552563
  0
VERTEX
  5
dd7
  8
Layer_0
  10
62.04015
  20
30.022491
  0
VERTEX
  5
dd8
  8
Layer_0
  10
62.272606
  20
29.525005
  0
VERTEX
  5
dd9
  8
Layer_0
  10
62.586521
  20
29.075317
  0
VERTEX
  5
dda
  8
Layer_0
  10
62.975384
  20
28.686455
  0
VERTEX
  5
ddb
  8
Layer_0
  10
63.425079
  20
28.37254
  0
VERTEX
  5
ddc
  8
Layer_0
  10
63.922554
  20
28.140091
  0
VERTEX
  5
ddd
  8
Layer_0
  10
64.452637
  20
27.997795
  0
VERTEX
  5
dde
  8
Layer_0
  10
65.000076
  20
27.950005
  0
VERTEX
  5
ddf
  8
Layer_0
  10
65.547523
  20
27.997795
  0
VERTEX
  5
de0
  8
Layer_0
  10
66.077606
  20
28.140091
  0
VERTEX
  5
de1
  8
Layer_0
  10
66.575081
  20
28.37254
  0
VERTEX
  5
de2
  8
Layer_0
  10
67.024773
  20
28.686455
  0
VERTEX
  5
de3
  8
Layer_0
  10
67.413635
  20
29.075317
  0
VERTEX
  5
de4
  8
Layer_0
  10
67.727554
  20
29.525005
  0
VERTEX
  5
de5
  8
Layer_0
  10
67.960007
  20
30.022491
  0
VERTEX
  5
de6
  8
Layer_0
  10
68.102295
  20
30.552563
  0
VERTEX
  5
de7
  8
Layer_0
  10
68.150085
  20
31.100014
  0
VERTEX
  5
de8
  8
Layer_0
  10
68.102295
  20
31.647461
  0
VERTEX
  5
de9
  8
Layer_0
  10
67.960007
  20
32.177532
  0
VERTEX
  5
dea
  8
Layer_0
  10
67.727554
  20
32.675014
  0
VERTEX
  5
deb
  8
Layer_0
  10
67.413635
  20
33.124706
  0
VERTEX
  5
dec
  8
Layer_0
  10
67.024773
  20
33.513569
  0
VERTEX
  5
ded
  8
Layer_0
  10
66.575081
  20
33.827484
  0
VERTEX
  5
dee
  8
Layer_0
  10
66.077606
  20
34.059933
  0
VERTEX
  5
def
  8
Layer_0
  10
65.547523
  20
34.202225
  0
VERTEX
  5
df0
  8
Layer_0
  10
65.000076
  20
34.250019
  0
VERTEX
  5
df1
  8
Layer_0
  10
64.452637
  20
34.202225
  0
VERTEX
  5
df2
  8
Layer_0
  10
63.922554
  20
34.059933
  0
VERTEX
  5
df3
  8
Layer_0
  10
63.425079
  20
33.827484
  0
SEQEND
  0
POLYLINE
  5
df5
  8
Layer_0
  62
1
  70
1
  66
1
  10
0
  20
0
  30
0
  0
VERTEX
  5
df5
  8
Layer_0
  10
55.413601
  20
33.124706
  0
VERTEX
  5
df6
  8
Layer_0
  10
55.024734
  20
33.513569
  0
VERTEX
  5
df7
  8
Layer_0
  10
54.575043
  20
33.827484
  0
VERTEX
  5
df8
  8
Layer_0
  10
54.077564
  20
34.059933
  0
VERTEX
  5
df9
  8
Layer_0
  10
53.547489
  20
34.202225
  0
VERTEX
  5
dfa
  8
Layer_0
  10
53.000042
  20
34.250019
  0
VERTEX
  5
dfb
  8
Layer_0
  10
52.452591
  20
34.202225
  0
VERTEX
  5
dfc
  8
Layer_0
  10
51.922516
  20
34.059933
  0
VERTEX
  5
dfd
  8
Layer_0
  10
51.425037
  20
33.827484
  0
VERTEX
  5
dfe
  8
Layer_0
  10
50.975346
  20
33.513569
  0
VERTEX
  5
dff
  8
Layer_0
  10
50.586483
  20
33.124706
  0
VERTEX
  5
e00
  8
Layer_0
  10
50.272564
  20
32.675014
  0
VERTEX
  5
e01
  8
Layer_0
  10
50.040112
  20
32.177532
  0
VERTEX
  5
e02
  8
Layer_0
  10
49.897823
  20
31.647461
  0
VERTEX
  5
e03
  8
Layer_0
  10
49.850037
  20
31.100014
  0
VERTEX
  5
e04
  8
Layer_0
  10
49.897823
  20
30.552563
  0
VERTEX
  5
e05
  8
Layer_0
  10
50.040112
  20
30.022491
  0
VERTEX
  5
e06
  8
Layer_0
  10
50.272564
  20
29.525005
  0
VERTEX
  5
e07
  8
Layer_0
  10
50.586483
  20
29.075317
  0
VERTEX
  5
e08
  8
Layer_0
  10
50.975346
  20
28.686455
  0
VERTEX
  5
e09
  8
Layer_0
  10
51.425037
  20
28.37254
  0
VERTEX
  5
e0a
  8
Layer_0
  10
51.922516
  20
28.140091
  0
VERTEX
  5
e0b
  8
Layer_0
  10
52.452591
  20
27.997795
  0
VERTEX
  5
e0c
  8
Layer_0
  10
53.000042
  20
27.950005
  0
VERTEX
  5
e0d
  8
Layer_0
  10
53.547489
  20
27.997795
  0
VERTEX
  5
e0e
  8
Layer_0
  10
54.077564
  20
28.140091
  0
VERTEX
  5
e0f
  8
Layer_0
  10
54.575043
  20
28.37254
  0
VERTEX
  5
e10
  8
Layer_0
  10
55.024734
  20
28.686455
  0
VERTEX
  5
e11
  8
Layer_0
  10
55.413601
  20
29.075317
  0
VERTEX
  5
e12
  8
Layer_0
  10
55.727516
  20
29.525005
  0
VERTEX
  5
e13
  8
Layer_0
  10
55.959969
  20
30.022491
  0
VERTEX
  5
e14
  8
Layer_0
  10
56.102261
  20
30.552563
  0
VERTEX
  5
e15
  8
Layer_0
  10
56.150043
  20
31.100014
  0
VERTEX
  5
e16
  8
Layer_0
  10
56.102261
  20
31.647461
  0
VERTEX
  5
e17
  8
Layer_0
  10
55.959969
  20
32.177532
  0
VERTEX
  5
e18
  8
Layer_0
  10
55.727516
  20
32.675014
  0
VERTEX
  5
e19
  8
Layer_0
  10
55.413601
  20
33.124706
  0
SEQEND
  0
POLYLINE
  5
e1b
  8
Layer_0
  62
1
  70
1
  66
1
  10
0
  20
0
  30
0
  0
VERTEX
  5
e1b
  8
Layer_0
  10
38.586472
  20
33.124706
  0
VERTEX
  5
e1c
  8
Layer_0
  10
38.272556
  20
32.675014
  0
VERTEX
  5
e1d
  8
Layer_0
  10
38.040104
  20
32.177532
  0
VERTEX
  5
e1e
  8
Layer_0
  10
37.897812
  20
31.647461
  0
VERTEX
  5
e1f
  8
Layer_0
  10
37.850029
  20
31.100014
  0
VERTEX
  5
e20
  8
Layer_0
  10
37.897812
  20
30.552563
  0
VERTEX
  5
e21
  8
Layer_0
  10
38.040104
  20
30.022491
  0
VERTEX
  5
e22
  8
Layer_0
  10
38.272556
  20
29.525005
  0
VERTEX
  5
e23
  8
Layer_0
  10
38.586472
  20
29.075317
  0
VERTEX
  5
e24
  8
Layer_0
  10
38.975338
  20
28.686455
  0
VERTEX
  5
e25
  8
Layer_0
  10
39.42503
  20
28.37254
  0
VERTEX
  5
e26
  8
Layer_0
  10
39.922508
  20
28.140091
  0
VERTEX
  5
e27
  8
Layer_0
  10
40.452583
  20
27.997795
  0
VERTEX
  5
e28
  8
Layer_0
  10
41.000031
  20
27.950005
  0
VERTEX
  5
e29
  8
Layer_0
  10
41.547478
  20
27.997795
  0
VERTEX
  5
e2a
  8
Layer_0
  10
42.077557
  20
28.140091
  0
VERTEX
  5
e2b
  8
Layer_0
  10
42.575031
  20
28.37254
  0
VERTEX
  5
e2c
  8
Layer_0
  10
43.024727
  20
28.686455
  0
VERTEX
  5
e2d
  8
Layer_0
  10
43.413589
  20
29.075317
  0
VERTEX
  5
e2e
  8
Layer_0
  10
43.727509
  20
29.525005
  0
VERTEX
  5
e2f
  8
Layer_0
  10
43.959961
  20
30.022491
  0
VERTEX
  5
e30
  8
Layer_0
  10
44.102249
  20
30.552563
  0
VERTEX
  5
e31
  8
Layer_0
  10
44.150036
  20
31.100014
  0
VERTEX
  5
e32
  8
Layer_0
  10
44.102249
  20
31.647461
  0
VERTEX
  5
e33
  8
Layer_0
  10
43.959961
  20
32.177532
  0
VERTEX
  5
e34
  8
Layer_0
  10
43.727509
  20
32.675014
  0
VERTEX
  5
e35
  8
Layer_0
  10
43.413589
  20
33.124706
  0
VERTEX
  5
e36
  8
Layer_0
  10
43.024727
  20
33.513569
  0
VERTEX
  5
e37
  8
Layer_0
  10
42.575031
  20
33.827484
  0
VERTEX
  5
e38
  8
Layer_0
  10
42.077557
  20
34.059933
  0
VERTEX
  5
e39
  8
Layer_0
  10
41.547478
  20
34.202225
  0
VERTEX
  5
e3a
  8
Layer_0
  10
41.000031
  20
34.250019
  0
VERTEX
  5
e3b
  8
Layer_0
  10
40.452583
  20
34.202225
  0
VERTEX
  5
e3c
  8
Layer_0
  10
39.922508
  20
34.059933
  0
VERTEX
  5
e3d
  8
Layer_0
  10
39.42503
  20
33.827484
  0
VERTEX
  5
e3e
  8
Layer_0
  10
38.975338
  20
33.513569
  0
VERTEX
  5
e3f
  8
Layer_0
  10
38.586472
  20
33.124706
  0
SEQEND
  0
POLYLINE
  5
e41
  8
Layer_0
  62
1
  70
1
  66
1
  10
0
  20
0
  30
0
  0
VERTEX
  5
e41
  8
Layer_0
  10
30.57501
  20
33.827484
  0
VERTEX
  5
e42
  8
Layer_0
  10
30.077536
  20
34.059933
  0
VERTEX
  5
e43
  8
Layer_0
  10
29.547457
  20
34.202225
  0
VERTEX
  5
e44
  8
Layer_0
  10
29.00001
  20
34.250019
  0
VERTEX
  5
e45
  8
Layer_0
  10
28.452562
  20
34.202225
  0
VERTEX
  5
e46
  8
Layer_0
  10
27.922485
  20
34.059933
  0
VERTEX
  5
e47
  8
Layer_0
  10
27.425009
  20
33.827484
  0
VERTEX
  5
e48
  8
Layer_0
  10
26.975315
  20
33.513569
  0
VERTEX
  5
e49
  8
Layer_0
  10
26.586451
  20
33.124706
  0
VERTEX
  5
e4a
  8
Layer_0
  10
26.272535
  20
32.675014
  0
VERTEX
  5
e4b
  8
Layer_0
  10
26.040081
  20
32.177532
  0
VERTEX
  5
e4c
  8
Layer_0
  10
25.897791
  20
31.647461
  0
VERTEX
  5
e4d
  8
Layer_0
  10
25.850008
  20
31.100014
  0
VERTEX
  5
e4e
  8
Layer_0
  10
25.897791
  20
30.552563
  0
VERTEX
  5
e4f
  8
Layer_0
  10
26.040081
  20
30.022491
  0
VERTEX
  5
e50
  8
Layer_0
  10
26.272535
  20
29.525005
  0
VERTEX
  5
e51
  8
Layer_0
  10
26.586451
  20
29.075317
  0
VERTEX
  5
e52
  8
Layer_0
  10
26.975315
  20
28.686455
  0
VERTEX
  5
e53
  8
Layer_0
  10
27.425009
  20
28.37254
  0
VERTEX
  5
e54
  8
Layer_0
  10
27.922485
  20
28.140091
  0
VERTEX
  5
e55
  8
Layer_0
  10
28.452562
  20
27.997795
  0
VERTEX
  5
e56
  8
Layer_0
  10
29.00001
  20
27.950005
  0
VERTEX
  5
e57
  8
Layer_0
  10
29.547457
  20
27.997795
  0
VERTEX
  5
e58
  8
Layer_0
  10
30.077536
  20
28.140091
  0
VERTEX
  5
e59
  8
Layer_0
  10
30.57501
  20
28.37254
  0
VERTEX
  5
e5a
  8
Layer_0
  10
31.024704
  20
28.686455
  0
VERTEX
  5
e5b
  8
Layer_0
  10
31.413568
  20
29.075317
  0
VERTEX
  5
e5c
  8
Layer_0
  10
31.727486
  20
29.525005
  0
VERTEX
  5
e5d
  8
Layer_0
  10
31.959938
  20
30.022491
  0
VERTEX
  5
e5e
  8
Layer_0
  10
32.10223
  20
30.552563
  0
VERTEX
  5
e5f
  8
Layer_0
  10
32.150013
  20
31.100014
  0
VERTEX
  5
e60
  8
Layer_0
  10
32.10223
  20
31.647461
  0
VERTEX
  5
e61
  8
Layer_0
  10
31.959938
  20
32.177532
  0
VERTEX
  5
e62
  8
Layer_0
  10
31.727486
  20
32.675014
  0
VERTEX
  5
e63
  8
Layer_0
  10
31.413568
  20
33.124706
  0
VERTEX
  5
e64
  8
Layer_0
  10
31.024704
  20
33.513569
  0
VERTEX
  5
e65
  8
Layer_0
  10
30.57501
  20
33.827484
  0
SEQEND
  0
POLYLINE
  5
e67
  8
Layer_0
  62
1
  70
1
  66
1
  10
0
  20
0
  30
0
  0
VERTEX
  5
e67
  8
Layer_0
  10
14.586451
  20
33.124706
  0
VERTEX
  5
e68
  8
Layer_0
  10
14.272535
  20
32.675014
  0
VERTEX
  5
e69
  8
Layer_0
  10
14.040081
  20
32.177532
  0
VERTEX
  5
e6a
  8
Layer_0
  10
13.897791
  20
31.647461
  0
VERTEX
  5
e6b
  8
Layer_0
  10
13.850008
  20
31.100014
  0
VERTEX
  5
e6c
  8
Layer_0
  10
13.897791
  20
30.552563
  0
VERTEX
  5
e6d
  8
Layer_0
  10
14.040081
  20
30.022491
  0
VERTEX
  5
e6e
  8
Layer_0
  10
14.272535
  20
29.525005
  0
VERTEX
  5
e6f
  8
Layer_0
  10
14.586451
  20
29.075317
  0
VERTEX
  5
e70
  8
Layer_0
  10
14.975317
  20
28.686455
  0
VERTEX
  5
e71
  8
Layer_0
  10
15.425009
  20
28.37254
  0
VERTEX
  5
e72
  8
Layer_0
  10
15.922485
  20
28.140091
  0
VERTEX
  5
e73
  8
Layer_0
  10
16.452562
  20
27.997795
  0
VERTEX
  5
e74
  8
Layer_0
  10
17.00001
  20
27.950005
  0
VERTEX
  5
e75
  8
Layer_0
  10
17.547459
  20
27.997795
  0
VERTEX
  5
e76
  8
Layer_0
  10
18.077536
  20
28.140091
  0
VERTEX
  5
e77
  8
Layer_0
  10
18.575012
  20
28.37254
  0
VERTEX
  5
e78
  8
Layer_0
  10
19.024704
  20
28.686455
  0
VERTEX
  5
e79
  8
Layer_0
  10
19.413568
  20
29.075317
  0
VERTEX
  5
e7a
  8
Layer_0
  10
19.727486
  20
29.525005
  0
VERTEX
  5
e7b
  8
Layer_0
  10
19.95994
  20
30.022491
  0
VERTEX
  5
e7c
  8
Layer_0
  10
20.102228
  20
30.552563
  0
VERTEX
  5
e7d
  8
Layer_0
  10
20.150013
  20
31.100014
  0
VERTEX
  5
e7e
  8
Layer_0
  10
20.102228
  20
31.647461
  0
VERTEX
  5
e7f
  8
Layer_0
  10
19.95994
  20
32.177532
  0
VERTEX
  5
e80
  8
Layer_0
  10
19.727486
  20
32.675014
  0
VERTEX
  5
e81
  8
Layer_0
  10
19.413568
  20
33.124706
  0
VERTEX
  5
e82
  8
Layer_0
  10
19.024704
  20
33.513569
  0
VERTEX
  5
e83
  8
Layer_0
  10
18.575012
  20
33.827484
  0
VERTEX
  5
e84
  8
Layer_0
  10
18.077536
  20
34.059933
  0
VERTEX
  5
e85
  8
Layer_0
  10
17.547459
  20
34.202225
  0
VERTEX
  5
e86
  8
Layer_0
  10
17.00001
  20
34.250019
  0
VERTEX
  5
e87
  8
Layer_0
  10
16.452562
  20
34.202225
  0
VERTEX
  5
e88
  8
Layer_0
  10
15.922485
  20
34.059933
  0
VERTEX
  5
e89
  8
Layer_0
  10
15.425009
  20
33.827484
  0
VERTEX
  5
e8a
  8
Layer_0
  10
14.975317
  20
33.513569
  0
VERTEX
  5
e8b
  8
Layer_0
  10
14.586451
  20
33.124706
  0
SEQEND
  0
POLYLINE
  5
e8d
  8
Layer_1
  62
5
  70
1
  66
1
  10
0
  20
0
  30
0
  0
VERTEX
  5
e8d
  8
Layer_1
  10
355.84177
  20
37.577999
  0
VERTEX
  5
e8e
  8
Layer_1
  10
355.10977
  20
37.577999
  0
VERTEX
  5
e8f
  8
Layer_1
  10
355.10977
  20
37.083
  0
VERTEX
  5
e90
  8
Layer_1
  10
355.84177
  20
37.083
  0
VERTEX
  5
e91
  8
Layer_1
  10
355.84177
  20
37.577999
  0
SEQEND
  0
POLYLINE
  5
e93
  8
Layer_0
  62
1
  70
1
  66
1
  10
0
  20
0
  30
0
  0
VERTEX
  5
e93
  8
Layer_0
  10
354.39978
  20
22.5
  0
VERTEX
  5
e94
  8
Layer_0
  10
344.39978
  20
22.5
  0
VERTEX
  5
e95
  8
Layer_0
  10
344.39978
  20
10.5
  0
VERTEX
  5
e96
  8
Layer_0
  10
354.39978
  20
10.5
  0
VERTEX
  5
e97
  8
Layer_0
  10
354.39978
  20
22.5
  0
SEQEND
  0
POLYLINE
  5
e99
  8
Layer_1
  62
5
  70
1
  66
1
  10
0
  20
0
  30
0
  0
VERTEX
  5
e99
  8
Layer_1
  10
299.39969
  20
37.577999
  0
VERTEX
  5
e9a
  8
Layer_1
  10
298.66769
  20
37.577999
  0
VERTEX
  5
e9b
  8
Layer_1
  10
298.66769
  20
37.083
  0
VERTEX
  5
e9c
  8
Layer_1
  10
299.39969
  20
37.083
  0
VERTEX
  5
e9d
  8
Layer_1
  10
299.39969
  20
37.577999
  0
SEQEND
  0
POLYLINE
  5
e9f
  8
Layer_1
  62
5
  70
1
  66
1
  10
0
  20
0
  30
0
  0
VERTEX
  5
e9f
  8
Layer_1
  10
294.51569
  20
37.083
  0
VERTEX
  5
ea0
  8
Layer_1
  10
294.51569
  20
37.577999
  0
VERTEX
  5
ea1
  8
Layer_1
  10
293.78369
  20
37.577999
  0
VERTEX
  5
ea2
  8
Layer_1
  10
293.78369
  20
37.083
  0
VERTEX
  5
ea3
  8
Layer_1
  10
294.51569
  20
37.083
  0
SEQEND
  0
POLYLINE
  5
ea5
  8
Layer_1
  62
5
  70
1
  66
1
  10
0
  20
0
  30
0
  0
VERTEX
  5
ea5
  8
Layer_1
  10
266.3837
  20
37.577999
  0
VERTEX
  5
ea6
  8
Layer_1
  10
266.3837
  20
37.083
  0
VERTEX
  5
ea7
  8
Layer_1
  10
267.11569
  20
37.083
  0
VERTEX
  5
ea8
  8
Layer_1
  10
267.11569
  20
37.577999
  0
VERTEX
  5
ea9
  8
Layer_1
  10
266.3837
  20
37.577999
  0
SEQEND
  0
POLYLINE
  5
eab
  8
Layer_1
  62
5
  70
1
  66
1
  10
0
  20
0
  30
0
  0
VERTEX
  5
eab
  8
Layer_1
  10
241.81621
  20
37.577999
  0
VERTEX
  5
eac
  8
Layer_1
  10
241.0842
  20
37.577999
  0
VERTEX
  5
ead
  8
Layer_1
  10
241.0842
  20
37.083
  0
VERTEX
  5
eae
  8
Layer_1
  10
241.81621
  20
37.083
  0
VERTEX
  5
eaf
  8
Layer_1
  10
241.81621
  20
37.577999
  0
SEQEND
  0
CIRCLE
  5
eb1
  8
Layer_0
  62
1
  10
88
  20
31.1
  30
0
  40
2
  0
CIRCLE
  5
eb1
  8
Layer_0
  62
1
  10
361
  20
18
  30
0
  40
2
  0
CIRCLE
  5
eb1
  8
Layer_0
  62
1
  10
6
  20
6
  30
0
  40
2
  0
CIRCLE
  5
eb1
  8
Layer_0
  62
1
  10
427
  20
6
  30
0
  40
2
  0
CIRCLE
  5
eb1
  8
Layer_0
  62
1
  10
427
  20
43
  30
0
  40
2
  0
CIRCLE
  5
eb1
  8
Layer_0
  62
1
  10
6
  20
43
  30
0
  40
2
  0
ENDSEC
  0
EOF
