999
dxflib 3.26.4.0
  0
SECTION
  2
HEADER
  9
$ACADVER
  1
AC1015
  9
$HANDSEED
  5
FFFF
  9
$DIMADEC
 70
0
  9
$DIMASZ
 40
0.18
  9
$DIMATFIT
 70
0
  9
$DIMAUNIT
 70
0
  9
$DIMAZIN
 70
0
  9
$DIMBLK
  1
0
  9
$DIMBLK1
  1
0
  9
$DIMBLK2
  1
0
  9
$DIMDEC
 70
4
  9
$DIMDLI
 40
0.36
  9
$DIMDSEP
 70
0
  9
$DIMEXE
 40
0.18
  9
$DIMEXO
 40
0.0625
  9
$DIMGAP
 40
0.09
  9
$DIMLFAC
 40
0.0
  9
$DIMLUNIT
 70
2
  9
$DIMSCALE
 40
0.0
  9
$DIMTAD
 70
0
  9
$DIMTIH
 70
0
  9
$DIMTSZ
 40
0.0
  9
$DIMTXSTY
  7
STANDARD
  9
$DIMTXT
 40
0.18
  9
$DIMZIN
 70
0
  9
$DWGCODEPAGE
  3
ANSI_1252
  9
$INSUNITS
 70
0
  9
$LTSCALE
 40
1.0
  9
$MAXACTVP
 70
64
  9
$MEASUREMENT
 70
1
  9
$MIRRTEXT
 70
0
  9
$PDMODE
 70
0
  9
$PDSIZE
 40
0.0
  9
$PEXTMAX
 10
50.0
 20
50.0
 30
50.0
  9
$PEXTMIN
 10
0.0
 20
0.0
 30
0.0
  9
$TEXTSTYLE
  7
STANDARD
  0
ENDSEC
  0
SECTION
  2
TABLES
  0
TABLE
  2
VPORT
  5
8
100
AcDbSymbolTable
 70
1
  0
VPORT
  5
30
100
AcDbSymbolTableRecord
100
AcDbViewportTableRecord
  2
*Active
 70
0
 10
0.0
 20
0.0
 11
1.0
 21
1.0
 12
286.3055555555554861
 22
148.5
 13
0.0
 23
0.0
 14
10.0
 24
10.0
 15
10.0
 25
10.0
 16
0.0
 26
0.0
 36
1.0
 17
0.0
 27
0.0
 37
0.0
 40
297.0
 41
1.92798353909465
 42
50.0
 43
0.0
 44
0.0
 50
0.0
 51
0.0
 71
0
 72
100
 73
1
 74
3
 75
1
 76
1
 77
0
 78
0
281
0
 65
1
110
0.0
120
0.0
130
0.0
111
1.0
121
0.0
131
0.0
112
0.0
122
1.0
132
0.0
 79
0
146
0.0
  0
ENDTAB
  0
TABLE
  2
LTYPE
  5
5
100
AcDbSymbolTable
 70
41
  0
LTYPE
  5
16
100
AcDbSymbolTableRecord
100
AcDbLinetypeTableRecord
  2
CONTINUOUS
 70
0
  3
Solid line
 72
65
 73
0
 40
0.0
  0
LTYPE
  5
31
100
AcDbSymbolTableRecord
100
AcDbLinetypeTableRecord
  2
CENTER2
 70
0
  3
Center (.5x) ___ _ ___ _ ___ _ ___ _ ___ _ ___
 72
65
 73
4
 40
28.5750000000000028
 49
19.0500000000000007
 74
0
 49
-3.1749999999999998
 74
0
 49
3.1749999999999998
 74
0
 49
-3.1749999999999998
 74
0
  0
LTYPE
  5
32
100
AcDbSymbolTableRecord
100
AcDbLinetypeTableRecord
  2
DASHED2
 70
0
  3
Dashed (.5x) _ _ _ _ _ _ _ _ _ _ _ _ _ _ _ _ _ 
 72
65
 73
2
 40
9.5249999999999986
 49
6.3499999999999996
 74
0
 49
-3.1749999999999998
 74
0
  0
LTYPE
  5
33
100
AcDbSymbolTableRecord
100
AcDbLinetypeTableRecord
  2
PHANTOM
 70
0
  3
Phantom ______  __  __  ______  __  __  ______ 
 72
65
 73
6
 40
63.5000000000000071
 49
31.75
 74
0
 49
-6.3499999999999996
 74
0
 49
6.3499999999999996
 74
0
 49
-6.3499999999999996
 74
0
 49
6.3499999999999996
 74
0
 49
-6.3499999999999996
 74
0
  0
LTYPE
  5
34
100
AcDbSymbolTableRecord
100
AcDbLinetypeTableRecord
  2
BORDER2
 70
0
  3
Border (.5x) __.__.__.__.__.__.__.__.__.__.__.
 72
65
 73
6
 40
22.2250000000000014
 49
6.3499999999999996
 74
0
 49
-3.1749999999999998
 74
0
 49
6.3499999999999996
 74
0
 49
-3.125
 74
0
 49
0.1
 74
0
 49
-3.125
 74
0
  0
LTYPE
  5
35
100
AcDbSymbolTableRecord
100
AcDbLinetypeTableRecord
  2
ACAD_ISO04W100
 70
0
  3
ISO long-dash dot ____ . ____ . ____ . ____ . _
 72
65
 73
4
 40
30.0
 49
24.0
 74
0
 49
-2.9500000000000002
 74
0
 49
0.1
 74
0
 49
-2.9500000000000002
 74
0
  0
LTYPE
  5
36
100
AcDbSymbolTableRecord
100
AcDbLinetypeTableRecord
  2
DASHEDX2
 70
0
  3
Dashed (2x) ____  ____  ____  ____  ____  ___
 72
65
 73
2
 40
38.0999999999999943
 49
25.3999999999999986
 74
0
 49
-12.6999999999999993
 74
0
  0
LTYPE
  5
37
100
AcDbSymbolTableRecord
100
AcDbLinetypeTableRecord
  2
ACAD_ISO07W100
 70
0
  3
ISO dot . . . . . . . . . . . . . . . . . . . . 
 72
65
 73
2
 40
3.0
 49
0.1
 74
0
 49
-2.8999999999999999
 74
0
  0
LTYPE
  5
38
100
AcDbSymbolTableRecord
100
AcDbLinetypeTableRecord
  2
DOT2
 70
0
  3
Dot (.5x) ........................................
 72
65
 73
2
 40
3.1749999999999998
 49
0.1
 74
0
 49
-3.0749999999999997
 74
0
  0
LTYPE
  5
15
100
AcDbSymbolTableRecord
100
AcDbLinetypeTableRecord
  2
BYLAYER
 70
0
  3

 72
65
 73
0
 40
0.0
  0
LTYPE
  5
39
100
AcDbSymbolTableRecord
100
AcDbLinetypeTableRecord
  2
ACAD_ISO15W100
 70
0
  3
ISO double-dash triple-dot __ __ . . . __ __ . .
 72
65
 73
10
 40
39.0000000000000071
 49
12.0
 74
0
 49
-3.0
 74
0
 49
12.0
 74
0
 49
-2.9500000000000002
 74
0
 49
0.1
 74
0
 49
-2.9000000000000004
 74
0
 49
0.1
 74
0
 49
-2.9000000000000004
 74
0
 49
0.1
 74
0
 49
-2.9500000000000002
 74
0
  0
LTYPE
  5
3A
100
AcDbSymbolTableRecord
100
AcDbLinetypeTableRecord
  2
HIDDEN2
 70
0
  3
Hidden (.5x) _ _ _ _ _ _ _ _ _ _ _ _ _ _ _ _ _ 
 72
65
 73
2
 40
4.7624999999999993
 49
3.1749999999999998
 74
0
 49
-1.5874999999999999
 74
0
  0
LTYPE
  5
3B
100
AcDbSymbolTableRecord
100
AcDbLinetypeTableRecord
  2
ACAD_ISO02W100
 70
0
  3
ISO dash __ __ __ __ __ __ __ __ __ __ __ __ __
 72
65
 73
2
 40
15.0
 49
12.0
 74
0
 49
-3.0
 74
0
  0
LTYPE
  5
3C
100
AcDbSymbolTableRecord
100
AcDbLinetypeTableRecord
  2
DASHDOT
 70
0
  3
Dash dot __ . __ . __ . __ . __ . __ . __ . __
 72
65
 73
4
 40
25.4000000000000021
 49
12.6999999999999993
 74
0
 49
-6.2999999999999998
 74
0
 49
0.1
 74
0
 49
-6.2999999999999998
 74
0
  0
LTYPE
  5
3D
100
AcDbSymbolTableRecord
100
AcDbLinetypeTableRecord
  2
HIDDEN
 70
0
  3
Hidden __ __ __ __ __ __ __ __ __ __ __ __ __ __
 72
65
 73
2
 40
9.5249999999999986
 49
6.3499999999999996
 74
0
 49
-3.1749999999999998
 74
0
  0
LTYPE
  5
3E
100
AcDbSymbolTableRecord
100
AcDbLinetypeTableRecord
  2
PHANTOM2
 70
0
  3
Phantom (.5x) ___ _ _ ___ _ _ ___ _ _ ___ _ _
 72
65
 73
6
 40
31.7500000000000036
 49
15.875
 74
0
 49
-3.1749999999999998
 74
0
 49
3.1749999999999998
 74
0
 49
-3.1749999999999998
 74
0
 49
3.1749999999999998
 74
0
 49
-3.1749999999999998
 74
0
  0
LTYPE
  5
3F
100
AcDbSymbolTableRecord
100
AcDbLinetypeTableRecord
  2
ACAD_ISO11W100
 70
0
  3
ISO double-dash dot __ __ . __ __ . __ __ . __ _
 72
65
 73
6
 40
33.0
 49
12.0
 74
0
 49
-3.0
 74
0
 49
12.0
 74
0
 49
-2.9500000000000002
 74
0
 49
0.1
 74
0
 49
-2.9500000000000002
 74
0
  0
LTYPE
  5
40
100
AcDbSymbolTableRecord
100
AcDbLinetypeTableRecord
  2
ACAD_ISO03W100
 70
0
  3
ISO dash space __    __    __    __    __    __
 72
65
 73
2
 40
30.0
 49
12.0
 74
0
 49
-18.0
 74
0
  0
LTYPE
  5
41
100
AcDbSymbolTableRecord
100
AcDbLinetypeTableRecord
  2
ACAD_ISO12W100
 70
0
  3
ISO dash double-dot __ . . __ . . __ . . __ . . 
 72
65
 73
6
 40
21.0
 49
12.0
 74
0
 49
-2.9500000000000002
 74
0
 49
0.1
 74
0
 49
-2.9000000000000004
 74
0
 49
0.1
 74
0
 49
-2.9500000000000002
 74
0
  0
LTYPE
  5
42
100
AcDbSymbolTableRecord
100
AcDbLinetypeTableRecord
  2
PHANTOMX2
 70
0
  3
Phantom (2x) ____________    ____    ____   _
 72
65
 73
6
 40
127.0000000000000142
 49
63.5
 74
0
 49
-12.6999999999999993
 74
0
 49
12.6999999999999993
 74
0
 49
-12.6999999999999993
 74
0
 49
12.6999999999999993
 74
0
 49
-12.6999999999999993
 74
0
  0
LTYPE
  5
43
100
AcDbSymbolTableRecord
100
AcDbLinetypeTableRecord
  2
BORDERX2
 70
0
  3
Border (2x) ____  ____  .  ____  ____  .  ___
 72
65
 73
6
 40
88.8999999999999773
 49
25.3999999999999986
 74
0
 49
-12.6999999999999993
 74
0
 49
25.3999999999999986
 74
0
 49
-12.6499999999999986
 74
0
 49
0.1
 74
0
 49
-12.6499999999999986
 74
0
  0
LTYPE
  5
44
100
AcDbSymbolTableRecord
100
AcDbLinetypeTableRecord
  2
DIVIDEX2
 70
0
  3
Divide (2x) ________  .  .  ________  .  .  _
 72
65
 73
6
 40
63.5
 49
25.3999999999999986
 74
0
 49
-12.6499999999999986
 74
0
 49
0.1
 74
0
 49
-12.5999999999999979
 74
0
 49
0.1
 74
0
 49
-12.6499999999999986
 74
0
  0
LTYPE
  5
45
100
AcDbSymbolTableRecord
100
AcDbLinetypeTableRecord
  2
ACAD_ISO05W100
 70
0
  3
ISO long-dash double-dot ____ .. ____ .. ____ . 
 72
65
 73
6
 40
33.0000000000000071
 49
24.0
 74
0
 49
-2.9500000000000002
 74
0
 49
0.1
 74
0
 49
-2.9000000000000004
 74
0
 49
0.1
 74
0
 49
-2.9500000000000002
 74
0
  0
LTYPE
  5
46
100
AcDbSymbolTableRecord
100
AcDbLinetypeTableRecord
  2
DASHED
 70
0
  3
Dashed __ __ __ __ __ __ __ __ __ __ __ __ __ _
 72
65
 73
2
 40
19.0499999999999972
 49
12.6999999999999993
 74
0
 49
-6.3499999999999996
 74
0
  0
LTYPE
  5
47
100
AcDbSymbolTableRecord
100
AcDbLinetypeTableRecord
  2
CENTER
 70
0
  3
Center ____ _ ____ _ ____ _ ____ _ ____ _ ____
 72
65
 73
4
 40
50.8000000000000043
 49
31.75
 74
0
 49
-6.3499999999999996
 74
0
 49
6.3499999999999996
 74
0
 49
-6.3499999999999996
 74
0
  0
LTYPE
  5
48
100
AcDbSymbolTableRecord
100
AcDbLinetypeTableRecord
  2
DIVIDE2
 70
0
  3
Divide (.5x) __..__..__..__..__..__..__..__.._
 72
65
 73
6
 40
15.8749999999999982
 49
6.3499999999999996
 74
0
 49
-3.125
 74
0
 49
0.1
 74
0
 49
-3.0750000000000002
 74
0
 49
0.1
 74
0
 49
-3.125
 74
0
  0
LTYPE
  5
49
100
AcDbSymbolTableRecord
100
AcDbLinetypeTableRecord
  2
ACAD_ISO10W100
 70
0
  3
ISO dash dot __ . __ . __ . __ . __ . __ . __ . 
 72
65
 73
4
 40
18.0
 49
12.0
 74
0
 49
-2.9500000000000002
 74
0
 49
0.1
 74
0
 49
-2.9500000000000002
 74
0
  0
LTYPE
  5
4A
100
AcDbSymbolTableRecord
100
AcDbLinetypeTableRecord
  2
ACAD_ISO08W100
 70
0
  3
ISO long-dash short-dash ____ __ ____ __ ____ _
 72
65
 73
4
 40
36.0
 49
24.0
 74
0
 49
-3.0
 74
0
 49
6.0
 74
0
 49
-3.0
 74
0
  0
LTYPE
  5
4B
100
AcDbSymbolTableRecord
100
AcDbLinetypeTableRecord
  2
CENTERX2
 70
0
  3
Center (2x) ________  __  ________  __  _____
 72
65
 73
4
 40
101.6000000000000085
 49
63.5
 74
0
 49
-12.6999999999999993
 74
0
 49
12.6999999999999993
 74
0
 49
-12.6999999999999993
 74
0
  0
LTYPE
  5
4C
100
AcDbSymbolTableRecord
100
AcDbLinetypeTableRecord
  2
HIDDENX2
 70
0
  3
Hidden (2x) ____ ____ ____ ____ ____ ____ ____ 
 72
65
 73
2
 40
19.0499999999999972
 49
12.6999999999999993
 74
0
 49
-6.3499999999999996
 74
0
  0
LTYPE
  5
14
100
AcDbSymbolTableRecord
100
AcDbLinetypeTableRecord
  2
BYBLOCK
 70
0
  3

 72
65
 73
0
 40
0.0
  0
LTYPE
  5
4D
100
AcDbSymbolTableRecord
100
AcDbLinetypeTableRecord
  2
DOTX2
 70
0
  3
Dot (2x) .  .  .  .  .  .  .  .  .  .  .  .  .  .
 72
65
 73
2
 40
12.6999999999999993
 49
0.1
 74
0
 49
-12.5999999999999996
 74
0
  0
LTYPE
  5
4E
100
AcDbSymbolTableRecord
100
AcDbLinetypeTableRecord
  2
DASHDOTX2
 70
0
  3
Dash dot (2x) ____  .  ____  .  ____  .  ___
 72
65
 73
4
 40
50.7999999999999972
 49
25.3999999999999986
 74
0
 49
-12.6499999999999986
 74
0
 49
0.1
 74
0
 49
-12.6499999999999986
 74
0
  0
LTYPE
  5
4F
100
AcDbSymbolTableRecord
100
AcDbLinetypeTableRecord
  2
ACAD_ISO06W100
 70
0
  3
ISO long-dash triple-dot ____ ... ____ ... ____
 72
65
 73
8
 40
36.0000000000000071
 49
24.0
 74
0
 49
-2.9500000000000002
 74
0
 49
0.1
 74
0
 49
-2.9000000000000004
 74
0
 49
0.1
 74
0
 49
-2.9000000000000004
 74
0
 49
0.1
 74
0
 49
-2.9500000000000002
 74
0
  0
LTYPE
  5
50
100
AcDbSymbolTableRecord
100
AcDbLinetypeTableRecord
  2
ACAD_ISO09W100
 70
0
  3
ISO long-dash double-short-dash ____ __ __ ____
 72
65
 73
6
 40
45.0
 49
24.0
 74
0
 49
-3.0
 74
0
 49
6.0
 74
0
 49
-3.0
 74
0
 49
6.0
 74
0
 49
-3.0
 74
0
  0
LTYPE
  5
51
100
AcDbSymbolTableRecord
100
AcDbLinetypeTableRecord
  2
DIVIDE
 70
0
  3
Divide ____ . . ____ . . ____ . . ____ . . ____
 72
65
 73
6
 40
31.7500000000000036
 49
12.6999999999999993
 74
0
 49
-6.2999999999999998
 74
0
 49
0.1
 74
0
 49
-6.25
 74
0
 49
0.1
 74
0
 49
-6.2999999999999998
 74
0
  0
LTYPE
  5
52
100
AcDbSymbolTableRecord
100
AcDbLinetypeTableRecord
  2
ACAD_ISO13W100
 70
0
  3
ISO double-dash double-dot __ __ . . __ __ . . _
 72
65
 73
8
 40
36.0000000000000071
 49
12.0
 74
0
 49
-3.0
 74
0
 49
12.0
 74
0
 49
-2.9500000000000002
 74
0
 49
0.1
 74
0
 49
-2.9000000000000004
 74
0
 49
0.1
 74
0
 49
-2.9500000000000002
 74
0
  0
LTYPE
  5
53
100
AcDbSymbolTableRecord
100
AcDbLinetypeTableRecord
  2
ACAD_ISO14W100
 70
0
  3
ISO dash triple-dot __ . . . __ . . . __ . . . _
 72
65
 73
8
 40
24.0000000000000036
 49
12.0
 74
0
 49
-2.9500000000000002
 74
0
 49
0.1
 74
0
 49
-2.9000000000000004
 74
0
 49
0.1
 74
0
 49
-2.9000000000000004
 74
0
 49
0.1
 74
0
 49
-2.9500000000000002
 74
0
  0
LTYPE
  5
54
100
AcDbSymbolTableRecord
100
AcDbLinetypeTableRecord
  2
DOT
 70
0
  3
Dot . . . . . . . . . . . . . . . . . . . . . . . .
 72
65
 73
2
 40
6.3499999999999996
 49
0.1
 74
0
 49
-6.25
 74
0
  0
LTYPE
  5
55
100
AcDbSymbolTableRecord
100
AcDbLinetypeTableRecord
  2
DASHDOT2
 70
0
  3
Dash dot (.5x) _._._._._._._._._._._._._._._.
 72
65
 73
4
 40
12.6999999999999993
 49
6.3499999999999996
 74
0
 49
-3.125
 74
0
 49
0.1
 74
0
 49
-3.125
 74
0
  0
LTYPE
  5
56
100
AcDbSymbolTableRecord
100
AcDbLinetypeTableRecord
  2
BORDER
 70
0
  3
Border __ __ . __ __ . __ __ . __ __ . __ __ .
 72
65
 73
6
 40
44.4499999999999957
 49
12.6999999999999993
 74
0
 49
-6.3499999999999996
 74
0
 49
12.6999999999999993
 74
0
 49
-6.2999999999999998
 74
0
 49
0.1
 74
0
 49
-6.2999999999999998
 74
0
  0
ENDTAB
  0
TABLE
  2
LAYER
  5
2
100
AcDbSymbolTable
 70
3
  0
LAYER
  5
57
100
AcDbSymbolTableRecord
100
AcDbLayerTableRecord
  2
none
 70
0
 62
7
420
16777215
  6
CONTINUOUS
370
5
390
F
  0
LAYER
  5
10
100
AcDbSymbolTableRecord
100
AcDbLayerTableRecord
  2
0
 70
0
 62
7
420
16777215
  6
CONTINUOUS
370
5
390
F
  0
LAYER
  5
58
100
AcDbSymbolTableRecord
100
AcDbLayerTableRecord
  2
Sketch022
 70
0
 62
7
420
16777215
  6
CONTINUOUS
370
5
390
F
  0
ENDTAB
  0
TABLE
  2
STYLE
  5
3
100
AcDbSymbolTable
 70
1
  0
STYLE
  5
59
100
AcDbSymbolTableRecord
100
AcDbTextStyleTableRecord
  2
Standard
 70
0
 40
0.0
 41
1.0
 50
0.0
 71
0
 42
2.5
  3

  4

1001
ACAD
1000
txt
1071
0
  0
ENDTAB
  0
TABLE
  2
VIEW
  5
6
100
AcDbSymbolTable
 70
0
  0
ENDTAB
  0
TABLE
  2
UCS
  5
7
100
AcDbSymbolTable
 70
0
  0
ENDTAB
  0
TABLE
  2
APPID
  5
9
100
AcDbSymbolTable
 70
1
  0
APPID
  5
12
100
AcDbSymbolTableRecord
100
AcDbRegAppTableRecord
  2
ACAD
 70
0
  0
APPID
  5
5A
100
AcDbSymbolTableRecord
100
AcDbRegAppTableRecord
  2
QCAD
 70
0
  0
ENDTAB
  0
TABLE
  2
DIMSTYLE
  5
A
100
AcDbSymbolTable
 70
1
100
AcDbDimStyleTable
 71
0
  0
DIMSTYLE
105
27
100
AcDbSymbolTableRecord
100
AcDbDimStyleTableRecord
  2
Standard
 41
0.18
 42
0.0625
 43
3.75
 44
0.18
 70
0
 73
0
 74
0
 77
0
 78
8
140
0.18
141
2.5
143
0.03937007874016
147
0.09
171
3
172
1
271
2
272
2
274
3
278
44
283
0
284
8
340
59
  0
ENDTAB
  0
TABLE
  2
BLOCK_RECORD
  5
1
100
AcDbSymbolTable
 70
1
  0
BLOCK_RECORD
  5
1F
100
AcDbSymbolTableRecord
100
AcDbBlockTableRecord
  2
*Model_Space
340
22
  0
BLOCK_RECORD
  5
1B
100
AcDbSymbolTableRecord
100
AcDbBlockTableRecord
  2
*Paper_Space
340
1E
  0
BLOCK_RECORD
  5
23
100
AcDbSymbolTableRecord
100
AcDbBlockTableRecord
  2
*Paper_Space0
340
26
  0
ENDTAB
  0
ENDSEC
  0
SECTION
  2
BLOCKS
  0
BLOCK
  5
20
100
AcDbEntity
  8
0
100
AcDbBlockBegin
  2
*Model_Space
 70
0
 10
0.0
 20
0.0
 30
0.0
  3
*Model_Space
  1

  0
ENDBLK
  5
21
100
AcDbEntity
  8
0
100
AcDbBlockEnd
  0
BLOCK
  5
1C
100
AcDbEntity
 67
1
  8
0
100
AcDbBlockBegin
  2
*Paper_Space
 70
0
 10
0.0
 20
0.0
 30
0.0
  3
*Paper_Space
  1

  0
ENDBLK
  5
1D
100
AcDbEntity
 67
1
  8
0
100
AcDbBlockEnd
  0
BLOCK
  5
24
100
AcDbEntity
  8
0
100
AcDbBlockBegin
  2
*Paper_Space0
 70
0
 10
0.0
 20
0.0
 30
0.0
  3
*Paper_Space0
  1

  0
ENDBLK
  5
25
100
AcDbEntity
  8
0
100
AcDbBlockEnd
  0
ENDSEC
  0
SECTION
  2
ENTITIES
  0
LINE
  5
5B
100
AcDbEntity
  8
Sketch022
 62
256
370
-1
 48
1.0
  6
BYLAYER
100
AcDbLine
 10
-114.0
 20
34.5
 30
0.0
 11
-113.0
 21
34.5
 31
0.0
  0
ARC
  5
5C
100
AcDbEntity
  8
Sketch022
 62
256
370
-1
 48
1.0
  6
BYLAYER
100
AcDbCircle
 10
-113.0
 20
32.5
 30
0.0
 40
2.0
100
AcDbArc
 50
289.4712206344908623
 51
90.0
  0
LINE
  5
5D
100
AcDbEntity
  8
Sketch022
 62
256
370
-1
 48
1.0
  6
BYLAYER
100
AcDbLine
 10
-113.0
 20
29.6715728752538084
 30
0.0
 11
-113.0
 21
19.3284271247461916
 31
0.0
  0
ARC
  5
5E
100
AcDbEntity
  8
Sketch022
 62
256
370
-1
 48
1.0
  6
BYLAYER
100
AcDbCircle
 10
-113.0
 20
16.5
 30
0.0
 40
2.0
100
AcDbArc
 50
270.0
 51
70.5287793655091662
  0
LINE
  5
5F
100
AcDbEntity
  8
Sketch022
 62
256
370
-1
 48
1.0
  6
BYLAYER
100
AcDbLine
 10
-113.0
 20
14.5
 30
0.0
 11
-114.0
 21
14.5
 31
0.0
  0
LINE
  5
60
100
AcDbEntity
  8
Sketch022
 62
256
370
-1
 48
1.0
  6
BYLAYER
100
AcDbLine
 10
-115.0
 20
13.5
 30
0.0
 11
-115.0
 21
-11.5
 31
0.0
  0
LINE
  5
61
100
AcDbEntity
  8
Sketch022
 62
256
370
-1
 48
1.0
  6
BYLAYER
100
AcDbLine
 10
-114.0
 20
-12.5
 30
0.0
 11
3.0
 21
-12.5
 31
0.0
  0
LINE
  5
62
100
AcDbEntity
  8
Sketch022
 62
256
370
-1
 48
1.0
  6
BYLAYER
100
AcDbLine
 10
4.0
 20
-13.5
 30
0.0
 11
4.0
 21
-37.5
 31
0.0
  0
LINE
  5
63
100
AcDbEntity
  8
Sketch022
 62
256
370
-1
 48
1.0
  6
BYLAYER
100
AcDbLine
 10
3.0
 20
-38.5
 30
0.0
 11
-7.0
 21
-38.5
 31
0.0
  0
ARC
  5
64
100
AcDbEntity
  8
Sketch022
 62
256
370
-1
 48
1.0
  6
BYLAYER
100
AcDbCircle
 10
-7.0
 20
-41.5
 30
0.0
 40
3.0
100
AcDbArc
 50
90.0
 51
180.0
  0
LINE
  5
65
100
AcDbEntity
  8
Sketch022
 62
256
370
-1
 48
1.0
  6
BYLAYER
100
AcDbLine
 10
-10.0
 20
-41.5
 30
0.0
 11
-10.0
 21
-55.5
 31
0.0
  0
LINE
  5
66
100
AcDbEntity
  8
Sketch022
 62
256
370
-1
 48
1.0
  6
BYLAYER
100
AcDbLine
 10
-10.0
 20
-61.5
 30
0.0
 11
-10.0
 21
-55.5
 31
0.0
  0
LINE
  5
67
100
AcDbEntity
  8
Sketch022
 62
256
370
-1
 48
1.0
  6
BYLAYER
100
AcDbLine
 10
-9.0
 20
-62.5
 30
0.0
 11
10.0
 21
-62.5
 31
0.0
  0
LINE
  5
68
100
AcDbEntity
  8
Sketch022
 62
256
370
-1
 48
1.0
  6
BYLAYER
100
AcDbLine
 10
11.0
 20
-61.5
 30
0.0
 11
11.0
 21
-60.5
 31
0.0
  0
ARC
  5
69
100
AcDbEntity
  8
Sketch022
 62
256
370
-1
 48
1.0
  6
BYLAYER
100
AcDbCircle
 10
13.0
 20
-60.5
 30
0.0
 40
2.0
100
AcDbArc
 50
19.4712206344906171
 51
180.0
  0
LINE
  5
6A
100
AcDbEntity
  8
Sketch022
 62
256
370
-1
 48
1.0
  6
BYLAYER
100
AcDbLine
 10
15.8284271247461898
 20
-60.5
 30
0.0
 11
26.1715728752538084
 21
-60.5
 31
0.0
  0
ARC
  5
6B
100
AcDbEntity
  8
Sketch022
 62
256
370
-1
 48
1.0
  6
BYLAYER
100
AcDbCircle
 10
29.0
 20
-60.5
 30
0.0
 40
2.0
100
AcDbArc
 50
0.0
 51
160.5287793655093367
  0
LINE
  5
6C
100
AcDbEntity
  8
Sketch022
 62
256
370
-1
 48
1.0
  6
BYLAYER
100
AcDbLine
 10
31.0
 20
-60.5
 30
0.0
 11
31.0
 21
-61.5
 31
0.0
  0
LINE
  5
6D
100
AcDbEntity
  8
Sketch022
 62
256
370
-1
 48
1.0
  6
BYLAYER
100
AcDbLine
 10
32.0
 20
-62.5
 30
0.0
 11
33.0
 21
-62.5
 31
0.0
  0
LINE
  5
6E
100
AcDbEntity
  8
Sketch022
 62
256
370
-1
 48
1.0
  6
BYLAYER
100
AcDbLine
 10
34.0
 20
-61.5
 30
0.0
 11
34.0
 21
-19.0
 31
0.0
  0
LINE
  5
6F
100
AcDbEntity
  8
Sketch022
 62
256
370
-1
 48
1.0
  6
BYLAYER
100
AcDbLine
 10
35.0
 20
-18.0
 30
0.0
 11
114.0
 21
-18.0
 31
0.0
  0
LINE
  5
70
100
AcDbEntity
  8
Sketch022
 62
256
370
-1
 48
1.0
  6
BYLAYER
100
AcDbLine
 10
115.0
 20
-17.0
 30
0.0
 11
115.0
 21
13.5
 31
0.0
  0
LINE
  5
71
100
AcDbEntity
  8
Sketch022
 62
256
370
-1
 48
1.0
  6
BYLAYER
100
AcDbLine
 10
114.0
 20
14.5
 30
0.0
 11
113.0
 21
14.5
 31
0.0
  0
ARC
  5
72
100
AcDbEntity
  8
Sketch022
 62
256
370
-1
 48
1.0
  6
BYLAYER
100
AcDbCircle
 10
113.0
 20
16.5
 30
0.0
 40
2.0
100
AcDbArc
 50
109.4712206344908338
 51
270.0
  0
LINE
  5
73
100
AcDbEntity
  8
Sketch022
 62
256
370
-1
 48
1.0
  6
BYLAYER
100
AcDbLine
 10
113.0
 20
29.6715728752538084
 30
0.0
 11
113.0
 21
19.3284271247461916
 31
0.0
  0
ARC
  5
74
100
AcDbEntity
  8
Sketch022
 62
256
370
-1
 48
1.0
  6
BYLAYER
100
AcDbCircle
 10
113.0
 20
32.5
 30
0.0
 40
2.0
100
AcDbArc
 50
90.0
 51
250.5287793655091377
  0
LINE
  5
75
100
AcDbEntity
  8
Sketch022
 62
256
370
-1
 48
1.0
  6
BYLAYER
100
AcDbLine
 10
113.0
 20
34.5
 30
0.0
 11
114.0
 21
34.5
 31
0.0
  0
LINE
  5
76
100
AcDbEntity
  8
Sketch022
 62
256
370
-1
 48
1.0
  6
BYLAYER
100
AcDbLine
 10
115.0
 20
37.3500000000000014
 30
0.0
 11
115.0
 21
35.5
 31
0.0
  0
LINE
  5
77
100
AcDbEntity
  8
Sketch022
 62
256
370
-1
 48
1.0
  6
BYLAYER
100
AcDbLine
 10
-113.9999999999999858
 20
38.3500000000000014
 30
0.0
 11
114.0000000000000142
 21
38.3500000000000014
 31
0.0
  0
LINE
  5
78
100
AcDbEntity
  8
Sketch022
 62
256
370
-1
 48
1.0
  6
BYLAYER
100
AcDbLine
 10
-115.0
 20
35.5
 30
0.0
 11
-115.0
 21
37.3499999999999943
 31
0.0
  0
CIRCLE
  5
79
100
AcDbEntity
  8
Sketch022
 62
256
370
-1
 48
1.0
  6
BYLAYER
100
AcDbCircle
 10
-106.0
 20
29.5
 30
0.0
 40
1.55
  0
CIRCLE
  5
7A
100
AcDbEntity
  8
Sketch022
 62
256
370
-1
 48
1.0
  6
BYLAYER
100
AcDbCircle
 10
16.0
 20
-53.5
 30
0.0
 40
1.55
  0
CIRCLE
  5
7B
100
AcDbEntity
  8
Sketch022
 62
256
370
-1
 48
1.0
  6
BYLAYER
100
AcDbCircle
 10
106.0
 20
19.5
 30
0.0
 40
1.55
  0
LINE
  5
7C
100
AcDbEntity
  8
Sketch022
 62
256
370
-1
 48
1.0
  6
BYLAYER
100
AcDbLine
 10
-72.0
 20
4.5999999999999996
 30
0.0
 11
-72.0
 21
18.3999999999999986
 31
0.0
  0
LINE
  5
7D
100
AcDbEntity
  8
Sketch022
 62
256
370
-1
 48
1.0
  6
BYLAYER
100
AcDbLine
 10
-71.9000000000000057
 20
18.5
 30
0.0
 11
-58.0999999999999943
 21
18.5
 31
0.0
  0
LINE
  5
7E
100
AcDbEntity
  8
Sketch022
 62
256
370
-1
 48
1.0
  6
BYLAYER
100
AcDbLine
 10
-58.0
 20
18.3999999999999986
 30
0.0
 11
-58.0
 21
4.5999999999999996
 31
0.0
  0
LINE
  5
7F
100
AcDbEntity
  8
Sketch022
 62
256
370
-1
 48
1.0
  6
BYLAYER
100
AcDbLine
 10
-58.1000000000000014
 20
4.5
 30
0.0
 11
-71.9000000000000057
 21
4.5
 31
0.0
  0
LINE
  5
80
100
AcDbEntity
  8
Sketch022
 62
256
370
-1
 48
1.0
  6
BYLAYER
100
AcDbLine
 10
-47.0
 20
4.5999999999999996
 30
0.0
 11
-47.0
 21
18.3999999999999986
 31
0.0
  0
LINE
  5
81
100
AcDbEntity
  8
Sketch022
 62
256
370
-1
 48
1.0
  6
BYLAYER
100
AcDbLine
 10
-46.8999999999999986
 20
18.5
 30
0.0
 11
-33.1000000000000085
 21
18.5
 31
0.0
  0
LINE
  5
82
100
AcDbEntity
  8
Sketch022
 62
256
370
-1
 48
1.0
  6
BYLAYER
100
AcDbLine
 10
-33.0
 20
18.3999999999999986
 30
0.0
 11
-33.0
 21
4.5999999999999996
 31
0.0
  0
LINE
  5
83
100
AcDbEntity
  8
Sketch022
 62
256
370
-1
 48
1.0
  6
BYLAYER
100
AcDbLine
 10
-33.1000000000000014
 20
4.5
 30
0.0
 11
-46.9000000000000057
 21
4.5
 31
0.0
  0
LINE
  5
84
100
AcDbEntity
  8
Sketch022
 62
256
370
-1
 48
1.0
  6
BYLAYER
100
AcDbLine
 10
-22.0
 20
-9.4000000000000004
 30
0.0
 11
-22.0
 21
4.4000000000000004
 31
0.0
  0
LINE
  5
85
100
AcDbEntity
  8
Sketch022
 62
256
370
-1
 48
1.0
  6
BYLAYER
100
AcDbLine
 10
-21.8999999999999986
 20
4.5
 30
0.0
 11
-8.0999999999999996
 21
4.5
 31
0.0
  0
LINE
  5
86
100
AcDbEntity
  8
Sketch022
 62
256
370
-1
 48
1.0
  6
BYLAYER
100
AcDbLine
 10
-8.0
 20
4.4000000000000012
 30
0.0
 11
-8.0
 21
-9.3999999999999986
 31
0.0
  0
LINE
  5
87
100
AcDbEntity
  8
Sketch022
 62
256
370
-1
 48
1.0
  6
BYLAYER
100
AcDbLine
 10
-8.0999999999999996
 20
-9.5
 30
0.0
 11
-21.8999999999999986
 21
-9.5
 31
0.0
  0
LINE
  5
88
100
AcDbEntity
  8
Sketch022
 62
256
370
-1
 48
1.0
  6
BYLAYER
100
AcDbLine
 10
-7.0
 20
-55.3999999999999844
 30
0.0
 11
-7.0
 21
-41.5999999999999943
 31
0.0
  0
LINE
  5
89
100
AcDbEntity
  8
Sketch022
 62
256
370
-1
 48
1.0
  6
BYLAYER
100
AcDbLine
 10
-6.9000000000000004
 20
-41.5
 30
0.0
 11
6.9000000000000004
 21
-41.5
 31
0.0
  0
LINE
  5
8A
100
AcDbEntity
  8
Sketch022
 62
256
370
-1
 48
1.0
  6
BYLAYER
100
AcDbLine
 10
7.0
 20
-41.6000000000000014
 30
0.0
 11
7.0
 21
-55.3999999999999986
 31
0.0
  0
LINE
  5
8B
100
AcDbEntity
  8
Sketch022
 62
256
370
-1
 48
1.0
  6
BYLAYER
100
AcDbLine
 10
6.9000000000000012
 20
-55.5
 30
0.0
 11
-6.8999999999999995
 21
-55.5
 31
0.0
  0
LINE
  5
8C
100
AcDbEntity
  8
Sketch022
 62
256
370
-1
 48
1.0
  6
BYLAYER
100
AcDbLine
 10
7.0
 20
3.1000000000000001
 30
0.0
 11
7.0
 21
16.8999999999999986
 31
0.0
  0
LINE
  5
8D
100
AcDbEntity
  8
Sketch022
 62
256
370
-1
 48
1.0
  6
BYLAYER
100
AcDbLine
 10
7.0999999999999996
 20
17.0
 30
0.0
 11
20.8999999999999986
 21
17.0
 31
0.0
  0
LINE
  5
8E
100
AcDbEntity
  8
Sketch022
 62
256
370
-1
 48
1.0
  6
BYLAYER
100
AcDbLine
 10
21.0
 20
16.8999999999999986
 30
0.0
 11
21.0
 21
3.0999999999999996
 31
0.0
  0
LINE
  5
8F
100
AcDbEntity
  8
Sketch022
 62
256
370
-1
 48
1.0
  6
BYLAYER
100
AcDbLine
 10
20.8999999999999986
 20
3.0
 30
0.0
 11
7.1000000000000014
 21
3.0
 31
0.0
  0
LINE
  5
90
100
AcDbEntity
  8
Sketch022
 62
256
370
-1
 48
1.0
  6
BYLAYER
100
AcDbLine
 10
7.0
 20
-21.8999999999999986
 30
0.0
 11
7.0
 21
-8.0999999999999996
 31
0.0
  0
LINE
  5
91
100
AcDbEntity
  8
Sketch022
 62
256
370
-1
 48
1.0
  6
BYLAYER
100
AcDbLine
 10
7.0999999999999996
 20
-8.0
 30
0.0
 11
20.8999999999999986
 21
-8.0
 31
0.0
  0
LINE
  5
92
100
AcDbEntity
  8
Sketch022
 62
256
370
-1
 48
1.0
  6
BYLAYER
100
AcDbLine
 10
21.0
 20
-8.1000000000000014
 30
0.0
 11
21.0
 21
-21.8999999999999986
 31
0.0
  0
LINE
  5
93
100
AcDbEntity
  8
Sketch022
 62
256
370
-1
 48
1.0
  6
BYLAYER
100
AcDbLine
 10
20.8999999999999986
 20
-22.0
 30
0.0
 11
7.0999999999999996
 21
-22.0
 31
0.0
  0
LINE
  5
94
100
AcDbEntity
  8
Sketch022
 62
256
370
-1
 48
1.0
  6
BYLAYER
100
AcDbLine
 10
32.0
 20
17.1000000000000014
 30
0.0
 11
32.0
 21
30.8999999999999986
 31
0.0
  0
LINE
  5
95
100
AcDbEntity
  8
Sketch022
 62
256
370
-1
 48
1.0
  6
BYLAYER
100
AcDbLine
 10
32.1000000000000014
 20
31.0
 30
0.0
 11
45.9000000000000057
 21
31.0
 31
0.0
  0
LINE
  5
96
100
AcDbEntity
  8
Sketch022
 62
256
370
-1
 48
1.0
  6
BYLAYER
100
AcDbLine
 10
46.0
 20
30.9000000000000021
 30
0.0
 11
46.0
 21
17.1000000000000014
 31
0.0
  0
LINE
  5
97
100
AcDbEntity
  8
Sketch022
 62
256
370
-1
 48
1.0
  6
BYLAYER
100
AcDbLine
 10
45.8999999999999986
 20
17.0
 30
0.0
 11
32.1000000000000014
 21
17.0
 31
0.0
  0
LINE
  5
98
100
AcDbEntity
  8
Sketch022
 62
256
370
-1
 48
1.0
  6
BYLAYER
100
AcDbLine
 10
32.0
 20
-7.9000000000000012
 30
0.0
 11
32.0
 21
5.9000000000000004
 31
0.0
  0
LINE
  5
99
100
AcDbEntity
  8
Sketch022
 62
256
370
-1
 48
1.0
  6
BYLAYER
100
AcDbLine
 10
32.1000000000000014
 20
6.0
 30
0.0
 11
45.9000000000000057
 21
6.0
 31
0.0
  0
LINE
  5
9A
100
AcDbEntity
  8
Sketch022
 62
256
370
-1
 48
1.0
  6
BYLAYER
100
AcDbLine
 10
46.0
 20
5.9000000000000004
 30
0.0
 11
46.0
 21
-7.9000000000000004
 31
0.0
  0
LINE
  5
9B
100
AcDbEntity
  8
Sketch022
 62
256
370
-1
 48
1.0
  6
BYLAYER
100
AcDbLine
 10
45.8999999999999986
 20
-8.0
 30
0.0
 11
32.1000000000000014
 21
-8.0
 31
0.0
  0
LINE
  5
9C
100
AcDbEntity
  8
Sketch022
 62
256
370
-1
 48
1.0
  6
BYLAYER
100
AcDbLine
 10
57.0
 20
17.1000000000000014
 30
0.0
 11
57.0
 21
30.8999999999999986
 31
0.0
  0
LINE
  5
9D
100
AcDbEntity
  8
Sketch022
 62
256
370
-1
 48
1.0
  6
BYLAYER
100
AcDbLine
 10
57.1000000000000085
 20
31.0
 30
0.0
 11
70.9000000000000057
 21
31.0
 31
0.0
  0
LINE
  5
9E
100
AcDbEntity
  8
Sketch022
 62
256
370
-1
 48
1.0
  6
BYLAYER
100
AcDbLine
 10
71.0
 20
30.8999999999999986
 30
0.0
 11
71.0
 21
17.1000000000000014
 31
0.0
  0
LINE
  5
9F
100
AcDbEntity
  8
Sketch022
 62
256
370
-1
 48
1.0
  6
BYLAYER
100
AcDbLine
 10
70.9000000000000199
 20
17.0
 30
0.0
 11
57.1000000000000014
 21
17.0
 31
0.0
  0
LINE
  5
A0
100
AcDbEntity
  8
Sketch022
 62
256
370
-1
 48
1.0
  6
BYLAYER
100
AcDbLine
 10
57.0
 20
-7.8999999999999995
 30
0.0
 11
57.0
 21
5.9000000000000004
 31
0.0
  0
LINE
  5
A1
100
AcDbEntity
  8
Sketch022
 62
256
370
-1
 48
1.0
  6
BYLAYER
100
AcDbLine
 10
57.1000000000000014
 20
6.0
 30
0.0
 11
70.9000000000000199
 21
6.0
 31
0.0
  0
LINE
  5
A2
100
AcDbEntity
  8
Sketch022
 62
256
370
-1
 48
1.0
  6
BYLAYER
100
AcDbLine
 10
71.0
 20
5.9000000000000004
 30
0.0
 11
71.0
 21
-7.9000000000000004
 31
0.0
  0
LINE
  5
A3
100
AcDbEntity
  8
Sketch022
 62
256
370
-1
 48
1.0
  6
BYLAYER
100
AcDbLine
 10
70.9000000000000057
 20
-8.0
 30
0.0
 11
57.0999999999999943
 21
-8.0
 31
0.0
  0
LINE
  5
A4
100
AcDbEntity
  8
Sketch022
 62
256
370
-1
 48
1.0
  6
BYLAYER
100
AcDbLine
 10
82.0
 20
10.0999999999999979
 30
0.0
 11
82.0
 21
23.8999999999999986
 31
0.0
  0
LINE
  5
A5
100
AcDbEntity
  8
Sketch022
 62
256
370
-1
 48
1.0
  6
BYLAYER
100
AcDbLine
 10
82.0999999999999943
 20
24.0
 30
0.0
 11
95.9000000000000199
 21
24.0
 31
0.0
  0
LINE
  5
A6
100
AcDbEntity
  8
Sketch022
 62
256
370
-1
 48
1.0
  6
BYLAYER
100
AcDbLine
 10
96.0
 20
23.8999999999999986
 30
0.0
 11
96.0
 21
10.1000000000000014
 31
0.0
  0
LINE
  5
A7
100
AcDbEntity
  8
Sketch022
 62
256
370
-1
 48
1.0
  6
BYLAYER
100
AcDbLine
 10
95.9000000000000199
 20
10.0
 30
0.0
 11
82.0999999999999943
 21
10.0
 31
0.0
  0
LINE
  5
A8
100
AcDbEntity
  8
Sketch022
 62
256
370
-1
 48
1.0
  6
BYLAYER
100
AcDbLine
 10
82.0
 20
-14.9000000000000004
 30
0.0
 11
82.0
 21
-1.0999999999999996
 31
0.0
  0
LINE
  5
A9
100
AcDbEntity
  8
Sketch022
 62
256
370
-1
 48
1.0
  6
BYLAYER
100
AcDbLine
 10
82.0999999999999943
 20
-1.0
 30
0.0
 11
95.9000000000000199
 21
-1.0
 31
0.0
  0
LINE
  5
AA
100
AcDbEntity
  8
Sketch022
 62
256
370
-1
 48
1.0
  6
BYLAYER
100
AcDbLine
 10
96.0
 20
-1.1000000000000001
 30
0.0
 11
96.0
 21
-14.9000000000000004
 31
0.0
  0
LINE
  5
AB
100
AcDbEntity
  8
Sketch022
 62
256
370
-1
 48
1.0
  6
BYLAYER
100
AcDbLine
 10
95.9000000000000199
 20
-15.0
 30
0.0
 11
82.0999999999999943
 21
-15.0
 31
0.0
  0
CIRCLE
  5
AC
100
AcDbEntity
  8
Sketch022
 62
256
370
-1
 48
1.0
  6
BYLAYER
100
AcDbCircle
 10
-11.6999999999999993
 20
33.7999999999999972
 30
0.0
 40
1.55
  0
CIRCLE
  5
AD
100
AcDbEntity
  8
Sketch022
 62
256
370
-1
 48
1.0
  6
BYLAYER
100
AcDbCircle
 10
11.6999999999999993
 20
24.1999999999999993
 30
0.0
 40
1.55
  0
LINE
  5
AE
100
AcDbEntity
  8
Sketch022
 62
256
370
-1
 48
1.0
  6
BYLAYER
100
AcDbLine
 10
-19.3999999999999986
 20
26.5
 30
0.0
 11
-15.4000000000000004
 21
26.5
 31
0.0
  0
LINE
  5
AF
100
AcDbEntity
  8
Sketch022
 62
256
370
-1
 48
1.0
  6
BYLAYER
100
AcDbLine
 10
-14.9000000000000004
 20
27.0
 30
0.0
 11
-14.9000000000000004
 21
31.0
 31
0.0
  0
LINE
  5
B0
100
AcDbEntity
  8
Sketch022
 62
256
370
-1
 48
1.0
  6
BYLAYER
100
AcDbLine
 10
-15.3999999999999986
 20
31.5
 30
0.0
 11
-19.3999999999999986
 21
31.5
 31
0.0
  0
LINE
  5
B1
100
AcDbEntity
  8
Sketch022
 62
256
370
-1
 48
1.0
  6
BYLAYER
100
AcDbLine
 10
-19.8999999999999986
 20
31.0
 30
0.0
 11
-19.8999999999999986
 21
27.0
 31
0.0
  0
LINE
  5
B2
100
AcDbEntity
  8
Sketch022
 62
256
370
-1
 48
1.0
  6
BYLAYER
100
AcDbLine
 10
-8.3000000000000007
 20
31.0
 30
0.0
 11
-8.3000000000000007
 21
27.0
 31
0.0
  0
LINE
  5
B3
100
AcDbEntity
  8
Sketch022
 62
256
370
-1
 48
1.0
  6
BYLAYER
100
AcDbLine
 10
-7.8000000000000007
 20
26.5
 30
0.0
 11
-3.7999999999999989
 21
26.5
 31
0.0
  0
LINE
  5
B4
100
AcDbEntity
  8
Sketch022
 62
256
370
-1
 48
1.0
  6
BYLAYER
100
AcDbLine
 10
-3.2999999999999998
 20
27.0
 30
0.0
 11
-3.2999999999999998
 21
31.0
 31
0.0
  0
LINE
  5
B5
100
AcDbEntity
  8
Sketch022
 62
256
370
-1
 48
1.0
  6
BYLAYER
100
AcDbLine
 10
-3.7999999999999998
 20
31.5
 30
0.0
 11
-7.7999999999999998
 21
31.5
 31
0.0
  0
LINE
  5
B6
100
AcDbEntity
  8
Sketch022
 62
256
370
-1
 48
1.0
  6
BYLAYER
100
AcDbLine
 10
3.2999999999999998
 20
31.0
 30
0.0
 11
3.2999999999999998
 21
27.0
 31
0.0
  0
LINE
  5
B7
100
AcDbEntity
  8
Sketch022
 62
256
370
-1
 48
1.0
  6
BYLAYER
100
AcDbLine
 10
3.7999999999999994
 20
26.5
 30
0.0
 11
7.7999999999999998
 21
26.5
 31
0.0
  0
LINE
  5
B8
100
AcDbEntity
  8
Sketch022
 62
256
370
-1
 48
1.0
  6
BYLAYER
100
AcDbLine
 10
8.3000000000000007
 20
27.0
 30
0.0
 11
8.3000000000000007
 21
31.0
 31
0.0
  0
LINE
  5
B9
100
AcDbEntity
  8
Sketch022
 62
256
370
-1
 48
1.0
  6
BYLAYER
100
AcDbLine
 10
7.7999999999999998
 20
31.5
 30
0.0
 11
3.8000000000000007
 21
31.5
 31
0.0
  0
LINE
  5
BA
100
AcDbEntity
  8
Sketch022
 62
256
370
-1
 48
1.0
  6
BYLAYER
100
AcDbLine
 10
14.9000000000000004
 20
31.0
 30
0.0
 11
14.9000000000000004
 21
27.0
 31
0.0
  0
LINE
  5
BB
100
AcDbEntity
  8
Sketch022
 62
256
370
-1
 48
1.0
  6
BYLAYER
100
AcDbLine
 10
15.3999999999999986
 20
26.5
 30
0.0
 11
19.3999999999999986
 21
26.5
 31
0.0
  0
LINE
  5
BC
100
AcDbEntity
  8
Sketch022
 62
256
370
-1
 48
1.0
  6
BYLAYER
100
AcDbLine
 10
19.8999999999999986
 20
27.0
 30
0.0
 11
19.8999999999999986
 21
31.0
 31
0.0
  0
LINE
  5
BD
100
AcDbEntity
  8
Sketch022
 62
256
370
-1
 48
1.0
  6
BYLAYER
100
AcDbLine
 10
19.3999999999999986
 20
31.5
 30
0.0
 11
15.4000000000000004
 21
31.5
 31
0.0
  0
ARC
  5
BE
100
AcDbEntity
  8
0
 62
256
370
-1
 48
1.0
  6
BYLAYER
100
AcDbCircle
 10
-71.9000000000000057
 20
18.3999999999999986
 30
0.0
 40
0.1
100
AcDbArc
 50
90.0
 51
180.0
  0
ARC
  5
BF
100
AcDbEntity
  8
0
 62
256
370
-1
 48
1.0
  6
BYLAYER
100
AcDbCircle
 10
-58.0999999999999943
 20
18.3999999999999986
 30
0.0
 40
0.1
100
AcDbArc
 50
0.0
 51
90.0
  0
ARC
  5
C0
100
AcDbEntity
  8
0
 62
256
370
-1
 48
1.0
  6
BYLAYER
100
AcDbCircle
 10
-71.9000000000000057
 20
4.5999999999999996
 30
0.0
 40
0.1
100
AcDbArc
 50
180.0
 51
270.0
  0
ARC
  5
C1
100
AcDbEntity
  8
0
 62
256
370
-1
 48
1.0
  6
BYLAYER
100
AcDbCircle
 10
-58.1000000000000014
 20
4.5999999999999996
 30
0.0
 40
0.1
100
AcDbArc
 50
270.0
 51
0.0
  0
ARC
  5
C2
100
AcDbEntity
  8
0
 62
256
370
-1
 48
1.0
  6
BYLAYER
100
AcDbCircle
 10
-46.8999999999999986
 20
18.3999999999999986
 30
0.0
 40
0.1
100
AcDbArc
 50
90.0
 51
180.0
  0
ARC
  5
C3
100
AcDbEntity
  8
0
 62
256
370
-1
 48
1.0
  6
BYLAYER
100
AcDbCircle
 10
-33.1000000000000085
 20
18.3999999999999986
 30
0.0
 40
0.1
100
AcDbArc
 50
0.0
 51
90.0
  0
ARC
  5
C4
100
AcDbEntity
  8
0
 62
256
370
-1
 48
1.0
  6
BYLAYER
100
AcDbCircle
 10
-33.1000000000000014
 20
4.5999999999999996
 30
0.0
 40
0.1
100
AcDbArc
 50
270.0
 51
0.0
  0
ARC
  5
C5
100
AcDbEntity
  8
0
 62
256
370
-1
 48
1.0
  6
BYLAYER
100
AcDbCircle
 10
-46.9000000000000057
 20
4.5999999999999996
 30
0.0
 40
0.1
100
AcDbArc
 50
180.0
 51
270.0
  0
ARC
  5
C6
100
AcDbEntity
  8
0
 62
256
370
-1
 48
1.0
  6
BYLAYER
100
AcDbCircle
 10
-21.8999999999999986
 20
4.4000000000000004
 30
0.0
 40
0.1
100
AcDbArc
 50
90.0
 51
180.0
  0
ARC
  5
C7
100
AcDbEntity
  8
0
 62
256
370
-1
 48
1.0
  6
BYLAYER
100
AcDbCircle
 10
-8.0999999999999996
 20
4.4000000000000012
 30
0.0
 40
0.1
100
AcDbArc
 50
0.0
 51
90.0
  0
ARC
  5
C8
100
AcDbEntity
  8
0
 62
256
370
-1
 48
1.0
  6
BYLAYER
100
AcDbCircle
 10
-8.0999999999999996
 20
-9.4000000000000004
 30
0.0
 40
0.1
100
AcDbArc
 50
270.0
 51
0.0
  0
ARC
  5
C9
100
AcDbEntity
  8
0
 62
256
370
-1
 48
1.0
  6
BYLAYER
100
AcDbCircle
 10
-21.8999999999999986
 20
-9.4000000000000004
 30
0.0
 40
0.1
100
AcDbArc
 50
180.0
 51
270.0
  0
ARC
  5
CA
100
AcDbEntity
  8
0
 62
256
370
-1
 48
1.0
  6
BYLAYER
100
AcDbCircle
 10
-113.9999999999999858
 20
37.3499999999999943
 30
0.0
 40
1.0
100
AcDbArc
 50
90.0
 51
180.0
  0
ARC
  5
CB
100
AcDbEntity
  8
0
 62
256
370
-1
 48
1.0
  6
BYLAYER
100
AcDbCircle
 10
-114.0
 20
35.5
 30
0.0
 40
1.0
100
AcDbArc
 50
180.0
 51
270.0
  0
ARC
  5
CC
100
AcDbEntity
  8
0
 62
256
370
-1
 48
1.0
  6
BYLAYER
100
AcDbCircle
 10
-112.0
 20
29.6715728752538084
 30
0.0
 40
1.0
100
AcDbArc
 50
109.4712206344903791
 51
180.0
  0
ARC
  5
CD
100
AcDbEntity
  8
0
 62
256
370
-1
 48
1.0
  6
BYLAYER
100
AcDbCircle
 10
-112.0
 20
19.3284271247461916
 30
0.0
 40
1.0
100
AcDbArc
 50
180.0
 51
250.5287793655096209
  0
ARC
  5
CE
100
AcDbEntity
  8
0
 62
256
370
-1
 48
1.0
  6
BYLAYER
100
AcDbCircle
 10
-114.0
 20
13.5
 30
0.0
 40
1.0
100
AcDbArc
 50
90.0
 51
180.0
  0
ARC
  5
CF
100
AcDbEntity
  8
0
 62
256
370
-1
 48
1.0
  6
BYLAYER
100
AcDbCircle
 10
-114.0
 20
-11.5
 30
0.0
 40
1.0
100
AcDbArc
 50
180.0
 51
270.0
  0
ARC
  5
D0
100
AcDbEntity
  8
0
 62
256
370
-1
 48
1.0
  6
BYLAYER
100
AcDbCircle
 10
3.0
 20
-13.5
 30
0.0
 40
1.0
100
AcDbArc
 50
0.0
 51
90.0
  0
ARC
  5
D1
100
AcDbEntity
  8
0
 62
256
370
-1
 48
1.0
  6
BYLAYER
100
AcDbCircle
 10
3.0
 20
-37.5
 30
0.0
 40
1.0
100
AcDbArc
 50
270.0
 51
0.0
  0
ARC
  5
D2
100
AcDbEntity
  8
0
 62
256
370
-1
 48
1.0
  6
BYLAYER
100
AcDbCircle
 10
-9.0
 20
-61.5
 30
0.0
 40
1.0
100
AcDbArc
 50
180.0
 51
270.0
  0
ARC
  5
D3
100
AcDbEntity
  8
0
 62
256
370
-1
 48
1.0
  6
BYLAYER
100
AcDbCircle
 10
10.0
 20
-61.5
 30
0.0
 40
1.0
100
AcDbArc
 50
270.0
 51
0.0
  0
ARC
  5
D4
100
AcDbEntity
  8
0
 62
256
370
-1
 48
1.0
  6
BYLAYER
100
AcDbCircle
 10
15.8284271247461898
 20
-59.5
 30
0.0
 40
1.0
100
AcDbArc
 50
199.4712206344908054
 51
270.0
  0
ARC
  5
D5
100
AcDbEntity
  8
0
 62
256
370
-1
 48
1.0
  6
BYLAYER
100
AcDbCircle
 10
26.1715728752538084
 20
-59.5
 30
0.0
 40
1.0
100
AcDbArc
 50
270.0
 51
340.5287793655092514
  0
ARC
  5
D6
100
AcDbEntity
  8
0
 62
256
370
-1
 48
1.0
  6
BYLAYER
100
AcDbCircle
 10
32.0
 20
-61.5
 30
0.0
 40
1.0
100
AcDbArc
 50
180.0
 51
270.0
  0
ARC
  5
D7
100
AcDbEntity
  8
0
 62
256
370
-1
 48
1.0
  6
BYLAYER
100
AcDbCircle
 10
33.0
 20
-61.5
 30
0.0
 40
1.0
100
AcDbArc
 50
270.0
 51
0.0
  0
ARC
  5
D8
100
AcDbEntity
  8
0
 62
256
370
-1
 48
1.0
  6
BYLAYER
100
AcDbCircle
 10
35.0
 20
-19.0
 30
0.0
 40
1.0
100
AcDbArc
 50
90.0
 51
180.0
  0
ARC
  5
D9
100
AcDbEntity
  8
0
 62
256
370
-1
 48
1.0
  6
BYLAYER
100
AcDbCircle
 10
114.0
 20
-17.0
 30
0.0
 40
1.0
100
AcDbArc
 50
270.0
 51
0.0
  0
ARC
  5
DA
100
AcDbEntity
  8
0
 62
256
370
-1
 48
1.0
  6
BYLAYER
100
AcDbCircle
 10
114.0
 20
13.5
 30
0.0
 40
1.0
100
AcDbArc
 50
0.0
 51
90.0
  0
ARC
  5
DB
100
AcDbEntity
  8
0
 62
256
370
-1
 48
1.0
  6
BYLAYER
100
AcDbCircle
 10
112.0
 20
19.3284271247461916
 30
0.0
 40
1.0
100
AcDbArc
 50
289.4712206344903507
 51
0.0
  0
ARC
  5
DC
100
AcDbEntity
  8
0
 62
256
370
-1
 48
1.0
  6
BYLAYER
100
AcDbCircle
 10
112.0
 20
29.6715728752538084
 30
0.0
 40
1.0
100
AcDbArc
 50
0.0
 51
70.5287793655096209
  0
ARC
  5
DD
100
AcDbEntity
  8
0
 62
256
370
-1
 48
1.0
  6
BYLAYER
100
AcDbCircle
 10
114.0
 20
35.5
 30
0.0
 40
1.0
100
AcDbArc
 50
270.0
 51
0.0
  0
ARC
  5
DE
100
AcDbEntity
  8
0
 62
256
370
-1
 48
1.0
  6
BYLAYER
100
AcDbCircle
 10
114.0
 20
37.3500000000000014
 30
0.0
 40
1.0
100
AcDbArc
 50
0.0
 51
89.99999999999919
  0
ARC
  5
DF
100
AcDbEntity
  8
0
 62
256
370
-1
 48
1.0
  6
BYLAYER
100
AcDbCircle
 10
-6.9000000000000004
 20
-41.5999999999999943
 30
0.0
 40
0.1
100
AcDbArc
 50
90.0
 51
180.0
  0
ARC
  5
E0
100
AcDbEntity
  8
0
 62
256
370
-1
 48
1.0
  6
BYLAYER
100
AcDbCircle
 10
6.9000000000000012
 20
-41.6000000000000014
 30
0.0
 40
0.1
100
AcDbArc
 50
0.0
 51
90.0000000000004974
  0
ARC
  5
E1
100
AcDbEntity
  8
0
 62
256
370
-1
 48
1.0
  6
BYLAYER
100
AcDbCircle
 10
6.9000000000000012
 20
-55.3999999999999986
 30
0.0
 40
0.1
100
AcDbArc
 50
270.0
 51
0.0
  0
ARC
  5
E2
100
AcDbEntity
  8
0
 62
256
370
-1
 48
1.0
  6
BYLAYER
100
AcDbCircle
 10
-6.8999999999999995
 20
-55.3999999999999844
 30
0.0
 40
0.1
100
AcDbArc
 50
180.0
 51
270.0
  0
ARC
  5
E3
100
AcDbEntity
  8
0
 62
256
370
-1
 48
1.0
  6
BYLAYER
100
AcDbCircle
 10
7.0999999999999996
 20
16.8999999999999986
 30
0.0
 40
0.1
100
AcDbArc
 50
90.0
 51
180.0
  0
ARC
  5
E4
100
AcDbEntity
  8
0
 62
256
370
-1
 48
1.0
  6
BYLAYER
100
AcDbCircle
 10
20.8999999999999986
 20
16.8999999999999986
 30
0.0
 40
0.1
100
AcDbArc
 50
0.0
 51
90.0
  0
ARC
  5
E5
100
AcDbEntity
  8
0
 62
256
370
-1
 48
1.0
  6
BYLAYER
100
AcDbCircle
 10
20.8999999999999986
 20
3.1000000000000001
 30
0.0
 40
0.1
100
AcDbArc
 50
270.0
 51
360.0
  0
ARC
  5
E6
100
AcDbEntity
  8
0
 62
256
370
-1
 48
1.0
  6
BYLAYER
100
AcDbCircle
 10
7.1000000000000005
 20
3.1000000000000001
 30
0.0
 40
0.1
100
AcDbArc
 50
180.0
 51
270.0000000000005116
  0
ARC
  5
E7
100
AcDbEntity
  8
0
 62
256
370
-1
 48
1.0
  6
BYLAYER
100
AcDbCircle
 10
7.0999999999999996
 20
-8.0999999999999996
 30
0.0
 40
0.1
100
AcDbArc
 50
90.0
 51
180.0
  0
ARC
  5
E8
100
AcDbEntity
  8
0
 62
256
370
-1
 48
1.0
  6
BYLAYER
100
AcDbCircle
 10
7.0999999999999996
 20
-21.8999999999999986
 30
0.0
 40
0.1
100
AcDbArc
 50
180.0
 51
270.0
  0
ARC
  5
E9
100
AcDbEntity
  8
0
 62
256
370
-1
 48
1.0
  6
BYLAYER
100
AcDbCircle
 10
20.8999999999999986
 20
-21.8999999999999986
 30
0.0
 40
0.1
100
AcDbArc
 50
270.0
 51
0.0
  0
ARC
  5
EA
100
AcDbEntity
  8
0
 62
256
370
-1
 48
1.0
  6
BYLAYER
100
AcDbCircle
 10
20.8999999999999986
 20
-8.1000000000000014
 30
0.0
 40
0.1
100
AcDbArc
 50
0.0
 51
90.0
  0
ARC
  5
EB
100
AcDbEntity
  8
0
 62
256
370
-1
 48
1.0
  6
BYLAYER
100
AcDbCircle
 10
32.1000000000000014
 20
30.8999999999999986
 30
0.0
 40
0.1
100
AcDbArc
 50
90.0
 51
180.0
  0
ARC
  5
EC
100
AcDbEntity
  8
0
 62
256
370
-1
 48
1.0
  6
BYLAYER
100
AcDbCircle
 10
45.9000000000000057
 20
30.9000000000000021
 30
0.0
 40
0.1
100
AcDbArc
 50
0.0
 51
90.0
  0
ARC
  5
ED
100
AcDbEntity
  8
0
 62
256
370
-1
 48
1.0
  6
BYLAYER
100
AcDbCircle
 10
45.8999999999999986
 20
17.1000000000000014
 30
0.0
 40
0.1
100
AcDbArc
 50
270.0
 51
0.0
  0
ARC
  5
EE
100
AcDbEntity
  8
0
 62
256
370
-1
 48
1.0
  6
BYLAYER
100
AcDbCircle
 10
32.1000000000000014
 20
17.1000000000000014
 30
0.0
 40
0.1
100
AcDbArc
 50
180.0
 51
270.0
  0
ARC
  5
EF
100
AcDbEntity
  8
0
 62
256
370
-1
 48
1.0
  6
BYLAYER
100
AcDbCircle
 10
32.1000000000000014
 20
5.9000000000000004
 30
0.0
 40
0.1
100
AcDbArc
 50
90.0
 51
180.0
  0
ARC
  5
F0
100
AcDbEntity
  8
0
 62
256
370
-1
 48
1.0
  6
BYLAYER
100
AcDbCircle
 10
45.9000000000000057
 20
5.9000000000000004
 30
0.0
 40
0.1
100
AcDbArc
 50
0.0
 51
90.0
  0
ARC
  5
F1
100
AcDbEntity
  8
0
 62
256
370
-1
 48
1.0
  6
BYLAYER
100
AcDbCircle
 10
32.1000000000000014
 20
-7.9000000000000012
 30
0.0
 40
0.1
100
AcDbArc
 50
180.0
 51
270.0
  0
ARC
  5
F2
100
AcDbEntity
  8
0
 62
256
370
-1
 48
1.0
  6
BYLAYER
100
AcDbCircle
 10
45.8999999999999986
 20
-7.9000000000000004
 30
0.0
 40
0.1
100
AcDbArc
 50
270.0
 51
0.0
  0
ARC
  5
F3
100
AcDbEntity
  8
0
 62
256
370
-1
 48
1.0
  6
BYLAYER
100
AcDbCircle
 10
57.1000000000000014
 20
17.1000000000000014
 30
0.0
 40
0.1
100
AcDbArc
 50
180.0
 51
270.0
  0
ARC
  5
F4
100
AcDbEntity
  8
0
 62
256
370
-1
 48
1.0
  6
BYLAYER
100
AcDbCircle
 10
70.9000000000000199
 20
17.1000000000000014
 30
0.0
 40
0.1
100
AcDbArc
 50
270.0
 51
0.0
  0
ARC
  5
F5
100
AcDbEntity
  8
0
 62
256
370
-1
 48
1.0
  6
BYLAYER
100
AcDbCircle
 10
57.1000000000000085
 20
30.8999999999999986
 30
0.0
 40
0.1
100
AcDbArc
 50
90.0
 51
180.0
  0
ARC
  5
F6
100
AcDbEntity
  8
0
 62
256
370
-1
 48
1.0
  6
BYLAYER
100
AcDbCircle
 10
70.9000000000000057
 20
30.8999999999999986
 30
0.0
 40
0.1
100
AcDbArc
 50
0.0
 51
90.0
  0
ARC
  5
F7
100
AcDbEntity
  8
0
 62
256
370
-1
 48
1.0
  6
BYLAYER
100
AcDbCircle
 10
57.1000000000000014
 20
5.9000000000000004
 30
0.0
 40
0.1
100
AcDbArc
 50
90.0
 51
180.0
  0
ARC
  5
F8
100
AcDbEntity
  8
0
 62
256
370
-1
 48
1.0
  6
BYLAYER
100
AcDbCircle
 10
70.9000000000000199
 20
5.9000000000000004
 30
0.0
 40
0.1
100
AcDbArc
 50
0.0
 51
90.0
  0
ARC
  5
F9
100
AcDbEntity
  8
0
 62
256
370
-1
 48
1.0
  6
BYLAYER
100
AcDbCircle
 10
70.9000000000000057
 20
-7.9000000000000012
 30
0.0
 40
0.1
100
AcDbArc
 50
270.0
 51
0.0
  0
ARC
  5
FA
100
AcDbEntity
  8
0
 62
256
370
-1
 48
1.0
  6
BYLAYER
100
AcDbCircle
 10
57.0999999999999943
 20
-7.8999999999999995
 30
0.0
 40
0.1
100
AcDbArc
 50
180.0
 51
270.0
  0
ARC
  5
FB
100
AcDbEntity
  8
0
 62
256
370
-1
 48
1.0
  6
BYLAYER
100
AcDbCircle
 10
82.0999999999999943
 20
23.8999999999999986
 30
0.0
 40
0.1
100
AcDbArc
 50
90.0
 51
180.0
  0
ARC
  5
FC
100
AcDbEntity
  8
0
 62
256
370
-1
 48
1.0
  6
BYLAYER
100
AcDbCircle
 10
95.9000000000000199
 20
23.8999999999999986
 30
0.0
 40
0.1
100
AcDbArc
 50
0.0
 51
90.0
  0
ARC
  5
FD
100
AcDbEntity
  8
0
 62
256
370
-1
 48
1.0
  6
BYLAYER
100
AcDbCircle
 10
95.9000000000000199
 20
10.1000000000000014
 30
0.0
 40
0.1
100
AcDbArc
 50
270.0
 51
0.0
  0
ARC
  5
FE
100
AcDbEntity
  8
0
 62
256
370
-1
 48
1.0
  6
BYLAYER
100
AcDbCircle
 10
82.0999999999999943
 20
10.0999999999999979
 30
0.0
 40
0.1
100
AcDbArc
 50
180.0
 51
270.0
  0
ARC
  5
FF
100
AcDbEntity
  8
0
 62
256
370
-1
 48
1.0
  6
BYLAYER
100
AcDbCircle
 10
82.0999999999999943
 20
-1.1000000000000001
 30
0.0
 40
0.1
100
AcDbArc
 50
90.0
 51
180.0
  0
ARC
  5
100
100
AcDbEntity
  8
0
 62
256
370
-1
 48
1.0
  6
BYLAYER
100
AcDbCircle
 10
95.9000000000000199
 20
-1.1000000000000001
 30
0.0
 40
0.1
100
AcDbArc
 50
0.0
 51
90.0
  0
ARC
  5
101
100
AcDbEntity
  8
0
 62
256
370
-1
 48
1.0
  6
BYLAYER
100
AcDbCircle
 10
95.9000000000000199
 20
-14.9000000000000004
 30
0.0
 40
0.1
100
AcDbArc
 50
270.0
 51
0.0
  0
ARC
  5
102
100
AcDbEntity
  8
0
 62
256
370
-1
 48
1.0
  6
BYLAYER
100
AcDbCircle
 10
82.0999999999999943
 20
-14.9000000000000004
 30
0.0
 40
0.1
100
AcDbArc
 50
180.0
 51
270.0
  0
ARC
  5
103
100
AcDbEntity
  8
0
 62
256
370
-1
 48
1.0
  6
BYLAYER
100
AcDbCircle
 10
-19.3999999999999986
 20
31.0
 30
0.0
 40
0.5
100
AcDbArc
 50
90.0
 51
180.0
  0
ARC
  5
104
100
AcDbEntity
  8
0
 62
256
370
-1
 48
1.0
  6
BYLAYER
100
AcDbCircle
 10
-19.3999999999999986
 20
27.0
 30
0.0
 40
0.5
100
AcDbArc
 50
180.0
 51
270.0
  0
ARC
  5
105
100
AcDbEntity
  8
0
 62
256
370
-1
 48
1.0
  6
BYLAYER
100
AcDbCircle
 10
-15.4000000000000004
 20
27.0
 30
0.0
 40
0.5
100
AcDbArc
 50
270.0
 51
0.0
  0
ARC
  5
106
100
AcDbEntity
  8
0
 62
256
370
-1
 48
1.0
  6
BYLAYER
100
AcDbCircle
 10
-15.3999999999999986
 20
31.0
 30
0.0
 40
0.5
100
AcDbArc
 50
0.0
 51
90.0
  0
ARC
  5
107
100
AcDbEntity
  8
0
 62
256
370
-1
 48
1.0
  6
BYLAYER
100
AcDbCircle
 10
-7.7999999999999998
 20
31.0
 30
0.0
 40
0.5
100
AcDbArc
 50
90.0
 51
180.0
  0
ARC
  5
108
100
AcDbEntity
  8
0
 62
256
370
-1
 48
1.0
  6
BYLAYER
100
AcDbCircle
 10
-3.7999999999999998
 20
31.0
 30
0.0
 40
0.5
100
AcDbArc
 50
0.0
 51
90.0
  0
ARC
  5
109
100
AcDbEntity
  8
0
 62
256
370
-1
 48
1.0
  6
BYLAYER
100
AcDbCircle
 10
-3.7999999999999994
 20
27.0
 30
0.0
 40
0.5
100
AcDbArc
 50
270.0000000000000568
 51
0.0
  0
ARC
  5
10A
100
AcDbEntity
  8
0
 62
256
370
-1
 48
1.0
  6
BYLAYER
100
AcDbCircle
 10
-7.8000000000000007
 20
27.0
 30
0.0
 40
0.5
100
AcDbArc
 50
180.0
 51
270.0
  0
ARC
  5
10B
100
AcDbEntity
  8
0
 62
256
370
-1
 48
1.0
  6
BYLAYER
100
AcDbCircle
 10
3.7999999999999998
 20
31.0
 30
0.0
 40
0.5
100
AcDbArc
 50
89.9999999999999005
 51
180.0
  0
ARC
  5
10C
100
AcDbEntity
  8
0
 62
256
370
-1
 48
1.0
  6
BYLAYER
100
AcDbCircle
 10
7.7999999999999998
 20
31.0
 30
0.0
 40
0.5
100
AcDbArc
 50
0.0
 51
90.0
  0
ARC
  5
10D
100
AcDbEntity
  8
0
 62
256
370
-1
 48
1.0
  6
BYLAYER
100
AcDbCircle
 10
7.7999999999999998
 20
27.0
 30
0.0
 40
0.5
100
AcDbArc
 50
270.0
 51
0.0
  0
ARC
  5
10E
100
AcDbEntity
  8
0
 62
256
370
-1
 48
1.0
  6
BYLAYER
100
AcDbCircle
 10
3.7999999999999994
 20
27.0
 30
0.0
 40
0.5
100
AcDbArc
 50
180.0
 51
270.0
  0
ARC
  5
10F
100
AcDbEntity
  8
0
 62
256
370
-1
 48
1.0
  6
BYLAYER
100
AcDbCircle
 10
15.4000000000000004
 20
31.0
 30
0.0
 40
0.5
100
AcDbArc
 50
90.0
 51
180.0
  0
ARC
  5
110
100
AcDbEntity
  8
0
 62
256
370
-1
 48
1.0
  6
BYLAYER
100
AcDbCircle
 10
19.3999999999999986
 20
31.0
 30
0.0
 40
0.5
100
AcDbArc
 50
0.0
 51
90.0
  0
ARC
  5
111
100
AcDbEntity
  8
0
 62
256
370
-1
 48
1.0
  6
BYLAYER
100
AcDbCircle
 10
19.3999999999999986
 20
27.0
 30
0.0
 40
0.5
100
AcDbArc
 50
270.0
 51
0.0
  0
ARC
  5
112
100
AcDbEntity
  8
0
 62
256
370
-1
 48
1.0
  6
BYLAYER
100
AcDbCircle
 10
15.3999999999999986
 20
27.0
 30
0.0
 40
0.5
100
AcDbArc
 50
180.0
 51
270.0
  0
ENDSEC
  0
SECTION
  2
OBJECTS
  0
DICTIONARY
  5
C
100
AcDbDictionary
280
0
281
1
  3
ACAD_GROUP
350
D
  3
ACAD_LAYOUT
350
1A
  3
ACAD_MLINESTYLE
350
17
  3
ACAD_PLOTSETTINGS
350
19
  3
ACAD_PLOTSTYLENAME
350
E
  3
AcDbVariableDictionary
350
113
  3
QCAD_OBJECTS
350
114
  0
DICTIONARY
  5
D
100
AcDbDictionary
280
0
281
1
  0
ACDBDICTIONARYWDFLT
  5
E
100
AcDbDictionary
281
1
  3
Normal
350
F
100
AcDbDictionaryWithDefault
340
F
  0
ACDBPLACEHOLDER
  5
F
  0
DICTIONARY
  5
17
100
AcDbDictionary
280
0
281
1
  3
Standard
350
18
  0
MLINESTYLE
  5
18
100
AcDbMlineStyle
  2
STANDARD
 70
0
  3

 62
256
 51
90.0
 52
90.0
 71
2
 49
0.5
 62
256
  6
BYLAYER
 49
-0.5
 62
256
  6
BYLAYER
  0
DICTIONARY
  5
19
100
AcDbDictionary
280
0
281
1
  0
DICTIONARY
  5
1A
100
AcDbDictionary
281
1
  3
Layout1
350
1E
  3
Layout2
350
26
  3
Model
350
22
  0
LAYOUT
  5
1E
100
AcDbPlotSettings
  1

  2
none_device
  4

  6

 40
0.0
 41
0.0
 42
0.0
 43
0.0
 44
0.0
 45
0.0
 46
0.0
 47
0.0
 48
0.0
 49
0.0
140
0.0
141
0.0
142
1.0
143
1.0
 70
688
 72
0
 73
0
 74
5
  7

 75
16
147
1.0
148
0.0
149
0.0
100
AcDbLayout
  1
Layout1
 70
1
 71
1
 10
0.0
 20
0.0
 11
420.0
 21
297.0
 12
0.0
 22
0.0
 32
0.0
 14
100000000000000000000.0
 24
100000000000000000000.0
 34
100000000000000000000.0
 15
-100000000000000000000.0
 25
-100000000000000000000.0
 35
-100000000000000000000.0
146
0.0
 13
0.0
 23
0.0
 33
0.0
 16
1.0
 26
0.0
 36
0.0
 17
0.0
 27
1.0
 37
0.0
 76
0
330
1B
  0
LAYOUT
  5
22
100
AcDbPlotSettings
  1

  2
none_device
  4

  6

 40
0.0
 41
0.0
 42
0.0
 43
0.0
 44
0.0
 45
0.0
 46
0.0
 47
0.0
 48
0.0
 49
0.0
140
0.0
141
0.0
142
1.0
143
1.0
 70
1712
 72
0
 73
0
 74
0
  7

 75
0
147
1.0
148
0.0
149
0.0
100
AcDbLayout
  1
Model
 70
1
 71
0
 10
0.0
 20
0.0
 11
12.0
 21
9.0
 12
0.0
 22
0.0
 32
0.0
 14
0.0
 24
0.0
 34
0.0
 15
0.0
 25
0.0
 35
0.0
146
0.0
 13
0.0
 23
0.0
 33
0.0
 16
1.0
 26
0.0
 36
0.0
 17
0.0
 27
1.0
 37
0.0
 76
0
330
1F
  0
LAYOUT
  5
26
100
AcDbPlotSettings
  1

  2
none_device
  4

  6

 40
0.0
 41
0.0
 42
0.0
 43
0.0
 44
0.0
 45
0.0
 46
0.0
 47
0.0
 48
0.0
 49
0.0
140
0.0
141
0.0
142
1.0
143
1.0
 70
688
 72
0
 73
0
 74
5
  7

 75
16
147
1.0
148
0.0
149
0.0
100
AcDbLayout
  1
Layout2
 70
1
 71
2
 10
0.0
 20
0.0
 11
12.0
 21
9.0
 12
0.0
 22
0.0
 32
0.0
 14
0.0
 24
0.0
 34
0.0
 15
0.0
 25
0.0
 35
0.0
146
0.0
 13
0.0
 23
0.0
 33
0.0
 16
1.0
 26
0.0
 36
0.0
 17
0.0
 27
1.0
 37
0.0
 76
0
330
23
  0
DICTIONARY
  5
113
100
AcDbDictionary
281
1
  3
DIMASSOC
350
116
  3
HIDETEXT
350
115
  0
DICTIONARYVAR
  5
115
100
DictionaryVariables
280
0
  1
2
  0
DICTIONARYVAR
  5
116
100
DictionaryVariables
280
0
  1
1
  0
DICTIONARY
  5
114
100
AcDbDictionary
281
1
  3
ColorSettings/BackgroundColor
350
117
  3
ColorSettings/ColorMode
350
118
  3
Grid/DisplayGrid00
350
119
  3
Grid/DisplayGrid01
350
11A
  3
Grid/DisplayGrid02
350
11B
  3
Grid/DisplayGrid03
350
11C
  3
Grid/GridSpacingX00
350
11D
  3
Grid/GridSpacingX01
350
11E
  3
Grid/GridSpacingX02
350
11F
  3
Grid/GridSpacingX03
350
120
  3
Grid/GridSpacingY00
350
121
  3
Grid/GridSpacingY01
350
122
  3
Grid/GridSpacingY02
350
123
  3
Grid/GridSpacingY03
350
124
  3
Grid/IsometricGrid00
350
125
  3
Grid/IsometricGrid01
350
126
  3
Grid/IsometricGrid02
350
127
  3
Grid/IsometricGrid03
350
128
  3
Grid/IsometricProjection00
350
129
  3
Grid/IsometricProjection01
350
12A
  3
Grid/IsometricProjection02
350
12B
  3
Grid/IsometricProjection03
350
12C
  3
Grid/MetaGridSpacingX00
350
12D
  3
Grid/MetaGridSpacingX01
350
12E
  3
Grid/MetaGridSpacingX02
350
12F
  3
Grid/MetaGridSpacingX03
350
130
  3
Grid/MetaGridSpacingY00
350
131
  3
Grid/MetaGridSpacingY01
350
132
  3
Grid/MetaGridSpacingY02
350
133
  3
Grid/MetaGridSpacingY03
350
134
  3
LinetypeSettings/PSLTSCALE
350
135
  3
MultiPageSettings/Columns
350
136
  3
MultiPageSettings/GlueMarginsBottom
350
137
  3
MultiPageSettings/GlueMarginsLeft
350
138
  3
MultiPageSettings/GlueMarginsRight
350
139
  3
MultiPageSettings/GlueMarginsTop
350
13A
  3
MultiPageSettings/PrintCropMarks
350
13B
  3
MultiPageSettings/Rows
350
13C
  3
PageSettings/OffsetX
350
13D
  3
PageSettings/OffsetY
350
13E
  3
PageSettings/PageOrientation
350
13F
  3
PageSettings/PaperHeight
350
140
  3
PageSettings/PaperWidth
350
141
  3
PageSettings/Scale
350
142
  3
PageSettings/ShowPaperBorders
350
143
  3
PageTagSettings/EnablePageTags
350
144
  3
PageTagSettings/TagAlignment
350
145
  3
PageTagSettings/TagFont
350
146
  3
PageTagSettings/TagPosition
350
147
  3
QCADVersion
350
148
  3
UnitSettings/PaperUnit
350
149
  3
Viewport/ViewportList.data
350
14A
  3
ViewportCenter
350
14B
  3
ViewportHeight
350
14C
  3
ViewportWidth
350
14D
  0
XRECORD
  5
117
330
114
100
AcDbXrecord
280
1
1000
White
  0
XRECORD
  5
118
330
114
100
AcDbXrecord
280
1
1000
FullColor
  0
XRECORD
  5
119
330
114
100
AcDbXrecord
280
1
290
1
  0
XRECORD
  5
11A
330
114
100
AcDbXrecord
280
1
290
1
  0
XRECORD
  5
11B
330
114
100
AcDbXrecord
280
1
290
1
  0
XRECORD
  5
11C
330
114
100
AcDbXrecord
280
1
290
1
  0
XRECORD
  5
11D
330
114
100
AcDbXrecord
280
1
1000
auto
  0
XRECORD
  5
11E
330
114
100
AcDbXrecord
280
1
1000
auto
  0
XRECORD
  5
11F
330
114
100
AcDbXrecord
280
1
1000
auto
  0
XRECORD
  5
120
330
114
100
AcDbXrecord
280
1
1000
auto
  0
XRECORD
  5
121
330
114
100
AcDbXrecord
280
1
1000
auto
  0
XRECORD
  5
122
330
114
100
AcDbXrecord
280
1
1000
auto
  0
XRECORD
  5
123
330
114
100
AcDbXrecord
280
1
1000
auto
  0
XRECORD
  5
124
330
114
100
AcDbXrecord
280
1
1000
auto
  0
XRECORD
  5
125
330
114
100
AcDbXrecord
280
1
290
0
  0
XRECORD
  5
126
330
114
100
AcDbXrecord
280
1
290
0
  0
XRECORD
  5
127
330
114
100
AcDbXrecord
280
1
290
0
  0
XRECORD
  5
128
330
114
100
AcDbXrecord
280
1
290
0
  0
XRECORD
  5
129
330
114
100
AcDbXrecord
280
1
 90
65537
  0
XRECORD
  5
12A
330
114
100
AcDbXrecord
280
1
 90
65537
  0
XRECORD
  5
12B
330
114
100
AcDbXrecord
280
1
 90
65537
  0
XRECORD
  5
12C
330
114
100
AcDbXrecord
280
1
 90
65537
  0
XRECORD
  5
12D
330
114
100
AcDbXrecord
280
1
1000
auto
  0
XRECORD
  5
12E
330
114
100
AcDbXrecord
280
1
1000
auto
  0
XRECORD
  5
12F
330
114
100
AcDbXrecord
280
1
1000
auto
  0
XRECORD
  5
130
330
114
100
AcDbXrecord
280
1
1000
auto
  0
XRECORD
  5
131
330
114
100
AcDbXrecord
280
1
1000
auto
  0
XRECORD
  5
132
330
114
100
AcDbXrecord
280
1
1000
auto
  0
XRECORD
  5
133
330
114
100
AcDbXrecord
280
1
1000
auto
  0
XRECORD
  5
134
330
114
100
AcDbXrecord
280
1
1000
auto
  0
XRECORD
  5
135
330
114
100
AcDbXrecord
280
1
290
0
  0
XRECORD
  5
136
330
114
100
AcDbXrecord
280
1
 90
1
  0
XRECORD
  5
137
330
114
100
AcDbXrecord
280
1
 40
10.0
  0
XRECORD
  5
138
330
114
100
AcDbXrecord
280
1
 40
10.0
  0
XRECORD
  5
139
330
114
100
AcDbXrecord
280
1
 40
10.0
  0
XRECORD
  5
13A
330
114
100
AcDbXrecord
280
1
 40
10.0
  0
XRECORD
  5
13B
330
114
100
AcDbXrecord
280
1
290
0
  0
XRECORD
  5
13C
330
114
100
AcDbXrecord
280
1
 90
1
  0
XRECORD
  5
13D
330
114
100
AcDbXrecord
280
1
 40
0.0
  0
XRECORD
  5
13E
330
114
100
AcDbXrecord
280
1
 40
0.0
  0
XRECORD
  5
13F
330
114
100
AcDbXrecord
280
1
1000
Portrait
  0
XRECORD
  5
140
330
114
100
AcDbXrecord
280
1
 40
297.0
  0
XRECORD
  5
141
330
114
100
AcDbXrecord
280
1
 40
210.0
  0
XRECORD
  5
142
330
114
100
AcDbXrecord
280
1
1000
1:1
  0
XRECORD
  5
143
330
114
100
AcDbXrecord
280
1
290
1
  0
XRECORD
  5
144
330
114
100
AcDbXrecord
280
1
290
0
  0
XRECORD
  5
145
330
114
100
AcDbXrecord
280
1
1000
Inside
  0
XRECORD
  5
146
330
114
100
AcDbXrecord
280
1
1000
Arial,10,-1,5,50,0,0,0,0,0
  0
XRECORD
  5
147
330
114
100
AcDbXrecord
280
1
1000
TopLeft
  0
XRECORD
  5
148
330
114
100
AcDbXrecord
280
1
1000
3.27.6
  0
XRECORD
  5
149
330
114
100
AcDbXrecord
280
1
 90
4
  0
XRECORD
  5
14A
330
114
100
AcDbXrecord
280
1
1000
00_Single.ui
  0
XRECORD
  5
14C
330
114
100
AcDbXrecord
280
1
 40
26.9659850823044742
  0
XRECORD
  5
14D
330
114
100
AcDbXrecord
280
1
 40
58.6339377572015366
  0
ENDSEC
  0
EOF
