  0
SECTION
  2
HEADER
  9
$ACADVER
  1
AC1032
  9
$ACADMAINTVER
 90
      125
  9
$DWGCODEPAGE
  3
ANSI_1252
  9
$LASTSAVEDBY
  1
maudmireillebausier
  9
$REQUIREDVERSIONS
160
                 0
  9
$INSBASE
 10
0.0
 20
0.0
 30
0.0
  9
$EXTMIN
 10
520.0845577450601
 20
-121.435494732264
 30
0.0
  9
$EXTMAX
 10
939.3187070795635
 20
328.8645361337983
 30
0.0000000000002941
  9
$LIMMIN
 10
0.0
 20
0.0
  9
$LIMMAX
 10
12.0
 20
9.0
  9
$ORTHOMODE
 70
     0
  9
$REGENMODE
 70
     1
  9
$FILLMODE
 70
     1
  9
$QTEXTMODE
 70
     0
  9
$MIRRTEXT
 70
     0
  9
$LTSCALE
 40
1.0
  9
$ATTMODE
 70
     1
  9
$TEXTSIZE
 40
0.2
  9
$TRACEWID
 40
0.05
  9
$TEXTSTYLE
  7
STANDARD
  9
$CLAYER
  8
0
  9
$CELTYPE
  6
Continuous
  9
$CECOLOR
 62
   256
  9
$CELTSCALE
 40
1.0
  9
$DISPSILH
 70
     0
  9
$DIMSCALE
 40
1.0
  9
$DIMASZ
 40
0.18
  9
$DIMEXO
 40
0.0625
  9
$DIMDLI
 40
0.38
  9
$DIMRND
 40
0.0
  9
$DIMDLE
 40
0.0
  9
$DIMEXE
 40
0.18
  9
$DIMTP
 40
0.0
  9
$DIMTM
 40
0.0
  9
$DIMTXT
 40
0.18
  9
$DIMCEN
 40
0.09
  9
$DIMTSZ
 40
0.0
  9
$DIMTOL
 70
     0
  9
$DIMLIM
 70
     0
  9
$DIMTIH
 70
     1
  9
$DIMTOH
 70
     1
  9
$DIMSE1
 70
     0
  9
$DIMSE2
 70
     0
  9
$DIMTAD
 70
     0
  9
$DIMZIN
 70
     0
  9
$DIMBLK
  1

  9
$DIMASO
 70
     1
  9
$DIMSHO
 70
     1
  9
$DIMPOST
  1

  9
$DIMAPOST
  1

  9
$DIMALT
 70
     0
  9
$DIMALTD
 70
     2
  9
$DIMALTF
 40
25.4
  9
$DIMLFAC
 40
1.0
  9
$DIMTOFL
 70
     0
  9
$DIMTVP
 40
0.0
  9
$DIMTIX
 70
     0
  9
$DIMSOXD
 70
     0
  9
$DIMSAH
 70
     0
  9
$DIMBLK1
  1

  9
$DIMBLK2
  1

  9
$DIMSTYLE
  2
Standard
  9
$DIMCLRD
 70
     0
  9
$DIMCLRE
 70
     0
  9
$DIMCLRT
 70
     0
  9
$DIMTFAC
 40
1.0
  9
$DIMGAP
 40
0.09
  9
$DIMJUST
 70
     0
  9
$DIMSD1
 70
     0
  9
$DIMSD2
 70
     0
  9
$DIMTOLJ
 70
     1
  9
$DIMTZIN
 70
     0
  9
$DIMALTZ
 70
     0
  9
$DIMALTTZ
 70
     0
  9
$DIMUPT
 70
     0
  9
$DIMDEC
 70
     4
  9
$DIMTDEC
 70
     4
  9
$DIMALTU
 70
     2
  9
$DIMALTTD
 70
     2
  9
$DIMTXSTY
  7
STANDARD
  9
$DIMAUNIT
 70
     0
  9
$DIMADEC
 70
     0
  9
$DIMALTRND
 40
0.0
  9
$DIMAZIN
 70
     0
  9
$DIMDSEP
 70
    46
  9
$DIMATFIT
 70
     3
  9
$DIMFRAC
 70
     0
  9
$DIMLDRBLK
  1

  9
$DIMLUNIT
 70
     2
  9
$DIMLWD
 70
    -2
  9
$DIMLWE
 70
    -2
  9
$DIMTMOVE
 70
     0
  9
$DIMFXL
 40
1.0
  9
$DIMFXLON
 70
     0
  9
$DIMJOGANG
 40
0.7853981633974483
  9
$DIMTFILL
 70
     0
  9
$DIMTFILLCLR
 70
     0
  9
$DIMARCSYM
 70
     0
  9
$DIMLTYPE
  6

  9
$DIMLTEX1
  6

  9
$DIMLTEX2
  6

  9
$DIMTXTDIRECTION
 70
     0
  9
$LUNITS
 70
     2
  9
$LUPREC
 70
     4
  9
$SKETCHINC
 40
0.1
  9
$FILLETRAD
 40
0.0
  9
$AUNITS
 70
     0
  9
$AUPREC
 70
     0
  9
$MENU
  1
.
  9
$ELEVATION
 40
0.0
  9
$PELEVATION
 40
0.0
  9
$THICKNESS
 40
0.0
  9
$LIMCHECK
 70
     0
  9
$CHAMFERA
 40
0.0
  9
$CHAMFERB
 40
0.0
  9
$CHAMFERC
 40
0.0
  9
$CHAMFERD
 40
0.0
  9
$SKPOLY
 70
     0
  9
$TDCREATE
 40
2459774.648032407
  9
$TDUCREATE
 40
2459774.314699074
  9
$TDUPDATE
 40
2459875.658298611
  9
$TDUUPDATE
 40
2459875.324965278
  9
$TDINDWG
 40
0.1265046296
  9
$TDUSRTIMER
 40
0.1265046296
  9
$USRTIMER
 70
     1
  9
$ANGBASE
 50
0.0
  9
$ANGDIR
 70
     0
  9
$PDMODE
 70
     0
  9
$PDSIZE
 40
0.0
  9
$PLINEWID
 40
0.0
  9
$SPLFRAME
 70
     0
  9
$SPLINETYPE
 70
     6
  9
$SPLINESEGS
 70
     8
  9
$HANDSEED
  5
10773
  9
$SURFTAB1
 70
     6
  9
$SURFTAB2
 70
     6
  9
$SURFTYPE
 70
     6
  9
$SURFU
 70
     6
  9
$SURFV
 70
     6
  9
$UCSBASE
  2

  9
$UCSNAME
  2

  9
$UCSORG
 10
0.0
 20
0.0
 30
0.0
  9
$UCSXDIR
 10
1.0
 20
0.0
 30
0.0
  9
$UCSYDIR
 10
0.0
 20
1.0
 30
0.0
  9
$UCSORTHOREF
  2

  9
$UCSORTHOVIEW
 70
     0
  9
$UCSORGTOP
 10
0.0
 20
0.0
 30
0.0
  9
$UCSORGBOTTOM
 10
0.0
 20
0.0
 30
0.0
  9
$UCSORGLEFT
 10
0.0
 20
0.0
 30
0.0
  9
$UCSORGRIGHT
 10
0.0
 20
0.0
 30
0.0
  9
$UCSORGFRONT
 10
0.0
 20
0.0
 30
0.0
  9
$UCSORGBACK
 10
0.0
 20
0.0
 30
0.0
  9
$PUCSBASE
  2

  9
$PUCSNAME
  2

  9
$PUCSORG
 10
0.0
 20
0.0
 30
0.0
  9
$PUCSXDIR
 10
1.0
 20
0.0
 30
0.0
  9
$PUCSYDIR
 10
0.0
 20
1.0
 30
0.0
  9
$PUCSORTHOREF
  2

  9
$PUCSORTHOVIEW
 70
     0
  9
$PUCSORGTOP
 10
0.0
 20
0.0
 30
0.0
  9
$PUCSORGBOTTOM
 10
0.0
 20
0.0
 30
0.0
  9
$PUCSORGLEFT
 10
0.0
 20
0.0
 30
0.0
  9
$PUCSORGRIGHT
 10
0.0
 20
0.0
 30
0.0
  9
$PUCSORGFRONT
 10
0.0
 20
0.0
 30
0.0
  9
$PUCSORGBACK
 10
0.0
 20
0.0
 30
0.0
  9
$USERI1
 70
     0
  9
$USERI2
 70
     0
  9
$USERI3
 70
     0
  9
$USERI4
 70
     0
  9
$USERI5
 70
     0
  9
$USERR1
 40
0.0
  9
$USERR2
 40
0.0
  9
$USERR3
 40
0.0
  9
$USERR4
 40
0.0
  9
$USERR5
 40
0.0
  9
$WORLDVIEW
 70
     1
  9
$SHADEDGE
 70
     3
  9
$SHADEDIF
 70
    70
  9
$TILEMODE
 70
     1
  9
$MAXACTVP
 70
    64
  9
$PINSBASE
 10
0.0
 20
0.0
 30
0.0
  9
$PLIMCHECK
 70
     0
  9
$PEXTMIN
 10
-0.1244509008747485
 20
-0.0297698798852579
 30
-0.0015258207003583
  9
$PEXTMAX
 10
10.5346522594341
 20
8.101753022130985
 30
0.0000000349246037
  9
$PLIMMIN
 10
-0.2500002402958907
 20
-0.2499999962453767
  9
$PLIMMAX
 10
10.74999951940822
 20
8.249999763458731
  9
$UNITMODE
 70
     0
  9
$VISRETAIN
 70
     1
  9
$PLINEGEN
 70
     0
  9
$PSLTSCALE
 70
     1
  9
$TREEDEPTH
 70
  3020
  9
$CMLSTYLE
  2
Standard
  9
$CMLJUST
 70
     0
  9
$CMLSCALE
 40
1.0
  9
$PROXYGRAPHICS
 70
     1
  9
$MEASUREMENT
 70
     0
  9
$CELWEIGHT
370
    -1
  9
$ENDCAPS
280
     0
  9
$JOINSTYLE
280
     0
  9
$LWDISPLAY
290
     0
  9
$INSUNITS
 70
     4
  9
$HYPERLINKBASE
  1

  9
$STYLESHEET
  1

  9
$XEDIT
290
     1
  9
$CEPSNTYPE
380
     0
  9
$PSTYLEMODE
290
     1
  9
$FINGERPRINTGUID
  2
{445F7BB3-FC27-1B4D-B006-AB8C9BF11829}
  9
$VERSIONGUID
  2
{DCCD9346-788D-264C-801A-B8E09C4C8479}
  9
$EXTNAMES
290
     1
  9
$PSVPSCALE
 40
0.0
  9
$OLESTARTUP
290
     0
  9
$SORTENTS
280
   127
  9
$INDEXCTL
280
     0
  9
$HIDETEXT
280
     0
  9
$XCLIPFRAME
280
     2
  9
$HALOGAP
280
     0
  9
$OBSCOLOR
 70
   257
  9
$OBSLTYPE
280
     0
  9
$INTERSECTIONDISPLAY
280
     0
  9
$INTERSECTIONCOLOR
 70
   257
  9
$DIMASSOC
280
     1
  9
$PROJECTNAME
  1

  9
$CAMERADISPLAY
290
     0
  9
$LENSLENGTH
 40
50.0
  9
$CAMERAHEIGHT
 40
0.0
  9
$STEPSPERSEC
 40
2.0
  9
$STEPSIZE
 40
6.0
  9
$3DDWFPREC
 40
2.0
  9
$PSOLWIDTH
 40
0.25
  9
$PSOLHEIGHT
 40
4.0
  9
$LOFTANG1
 40
1.570796326794896
  9
$LOFTANG2
 40
1.570796326794896
  9
$LOFTMAG1
 40
0.0
  9
$LOFTMAG2
 40
0.0
  9
$LOFTPARAM
 70
     7
  9
$LOFTNORMALS
280
     1
  9
$LATITUDE
 40
37.795
  9
$LONGITUDE
 40
-122.394
  9
$NORTHDIRECTION
 40
0.0
  9
$TIMEZONE
 70
 -8000
  9
$LIGHTGLYPHDISPLAY
280
     1
  9
$TILEMODELIGHTSYNCH
280
     1
  9
$CMATERIAL
347
10009
  9
$SOLIDHIST
280
     0
  9
$SHOWHIST
280
     1
  9
$DWFFRAME
280
     2
  9
$DGNFRAME
280
     0
  9
$REALWORLDSCALE
290
     1
  9
$INTERFERECOLOR
 62
     1
  9
$INTERFEREOBJVS
345
1002B
  9
$INTERFEREVPVS
346
10028
  9
$CSHADOW
280
     0
  9
$SHADOWPLANELOCATION
 40
0.0
  0
ENDSEC
  0
SECTION
  2
CLASSES
  0
CLASS
  1
ACDBDICTIONARYWDFLT
  2
AcDbDictionaryWithDefault
  3
ObjectDBX Classes
 90
        0
 91
        1
280
     0
281
     0
  0
CLASS
  1
MATERIAL
  2
AcDbMaterial
  3
ObjectDBX Classes
 90
     1153
 91
        3
280
     0
281
     0
  0
CLASS
  1
VISUALSTYLE
  2
AcDbVisualStyle
  3
ObjectDBX Classes
 90
     4095
 91
       24
280
     0
281
     0
  0
CLASS
  1
TABLESTYLE
  2
AcDbTableStyle
  3
ObjectDBX Classes
 90
     4095
 91
        1
280
     0
281
     0
  0
CLASS
  1
SCALE
  2
AcDbScale
  3
ObjectDBX Classes
 90
     1153
 91
       17
280
     0
281
     0
  0
CLASS
  1
MLEADERSTYLE
  2
AcDbMLeaderStyle
  3
ACDB_MLEADERSTYLE_CLASS
 90
     4095
 91
        1
280
     0
281
     0
  0
CLASS
  1
ACDBSECTIONVIEWSTYLE
  2
AcDbSectionViewStyle
  3
ObjectDBX Classes
 90
     1025
 91
        2
280
     0
281
     0
  0
CLASS
  1
ACDBDETAILVIEWSTYLE
  2
AcDbDetailViewStyle
  3
ObjectDBX Classes
 90
     1025
 91
        2
280
     0
281
     0
  0
CLASS
  1
DICTIONARYVAR
  2
AcDbDictionaryVar
  3
ObjectDBX Classes
 90
        0
 91
        9
280
     0
281
     0
  0
CLASS
  1
CELLSTYLEMAP
  2
AcDbCellStyleMap
  3
ObjectDBX Classes
 90
     1152
 91
        2
280
     0
281
     0
  0
CLASS
  1
SORTENTSTABLE
  2
AcDbSortentsTable
  3
ObjectDBX Classes
 90
        0
 91
        1
280
     0
281
     0
  0
CLASS
  1
MULTILEADER
  2
AcDbMLeader
  3
ACDB_MLEADER_CLASS
 90
     1025
 91
       21
280
     0
281
     1
  0
CLASS
  1
RASTERVARIABLES
  2
AcDbRasterVariables
  3
ISM
 90
        0
 91
        1
280
     0
281
     0
  0
ENDSEC
  0
SECTION
  2
TABLES
  0
TABLE
  2
VPORT
  5
8
330
0
100
AcDbSymbolTable
 70
     1
  0
VPORT
  5
1005D
330
8
100
AcDbSymbolTableRecord
100
AcDbViewportTableRecord
  2
*Active
 70
     0
 10
0.0
 20
0.0
 11
1.0
 21
1.0
 12
714.6472285249037
 22
128.9753508277731
 13
0.0
 23
0.0
 14
1.0
 24
1.0
 15
0.0
 25
0.0
 16
0.0
 26
0.0
 36
1.0
 17
0.0
 27
0.0
 37
0.0
 40
707.1856652214201
 41
1.093195266272189
 42
50.0
 43
0.0
 44
0.0
 50
0.0
 51
0.0
 71
     0
 72
  1000
 73
     1
 74
     3
 75
     0
 76
     0
 77
     0
 78
     0
281
     0
 65
     1
110
0.0
120
0.0
130
0.0
111
1.0
121
0.0
131
0.0
112
0.0
122
1.0
132
0.0
 79
     0
146
0.0
348
10027
 60
     2
 61
     5
292
     1
282
     1
141
0.0
142
0.0
 63
   250
421
  3355443
1001
ACAD_NAV_VCDISPLAY
1070
     1
  0
ENDTAB
  0
TABLE
  2
LTYPE
  5
5
330
0
100
AcDbSymbolTable
 70
     2
  0
LTYPE
  5
14
330
5
100
AcDbSymbolTableRecord
100
AcDbLinetypeTableRecord
  2
BYBLOCK
 70
     0
  3

 72
    65
 73
     0
 40
0.0
  0
LTYPE
  5
15
330
5
100
AcDbSymbolTableRecord
100
AcDbLinetypeTableRecord
  2
BYLAYER
 70
     0
  3

 72
    65
 73
     0
 40
0.0
  0
LTYPE
  5
10001
330
5
100
AcDbSymbolTableRecord
100
AcDbLinetypeTableRecord
  2
Continuous
 70
     0
  3
Solid line
 72
    65
 73
     0
 40
0.0
  0
LTYPE
  5
10681
330
5
100
AcDbSymbolTableRecord
100
AcDbLinetypeTableRecord
  2
ACAD_ISO03W100
 70
     0
  3
ISO tiret espace __    __    __    __    __    
 72
    65
 73
     2
 40
30.0
 49
12.0
 74
     0
 49
-18.0
 74
     0
  0
ENDTAB
  0
TABLE
  2
LAYER
  5
2
102
{ACAD_XDICTIONARY
360
10124
102
}
330
0
100
AcDbSymbolTable
 70
     8
  0
LAYER
  5
50
102
{ACAD_XDICTIONARY
360
102D8
102
}
330
2
100
AcDbSymbolTableRecord
100
AcDbLayerTableRecord
  2
0
 70
     0
 62
     7
  6
Continuous
370
    -3
390
10007
347
10019
348
0
  0
LAYER
  5
1011D
330
2
100
AcDbSymbolTableRecord
100
AcDbLayerTableRecord
  2
Defpoints
 70
     0
 62
     7
  6
Continuous
290
     0
370
    -3
390
10007
347
10019
348
0
  0
LAYER
  5
1011E
102
{ACAD_XDICTIONARY
360
1011F
102
}
330
2
100
AcDbSymbolTableRecord
100
AcDbLayerTableRecord
  2
dimensions
 70
     0
 62
     7
  6
Continuous
370
    -3
390
10007
347
10019
348
0
1001
AcAecLayerStandard
1000

1000

1001
AcCmTransparency
1071
        0
  0
LAYER
  5
10338
102
{ACAD_XDICTIONARY
360
10339
102
}
330
2
100
AcDbSymbolTableRecord
100
AcDbLayerTableRecord
  2
5-outcut
 70
     0
 62
     1
  6
Continuous
370
    -3
390
10007
347
10019
348
0
1001
AcAecLayerStandard
1000

1000

1001
AcCmTransparency
1071
        0
  0
LAYER
  5
1033A
102
{ACAD_XDICTIONARY
360
1033B
102
}
330
2
100
AcDbSymbolTableRecord
100
AcDbLayerTableRecord
  2
4-pocket 8mm
 70
     0
 62
     6
  6
Continuous
370
    -3
390
10007
347
10019
348
0
1001
AcAecLayerStandard
1000

1000

1001
AcCmTransparency
1071
        0
  0
LAYER
  5
1033C
102
{ACAD_XDICTIONARY
360
1033D
102
}
330
2
100
AcDbSymbolTableRecord
100
AcDbLayerTableRecord
  2
2-pocket 4mm
 70
     0
 62
     2
  6
Continuous
370
    -3
390
10007
347
10019
348
0
1001
AcAecLayerStandard
1000

1000

1001
AcCmTransparency
1071
        0
  0
LAYER
  5
1033E
102
{ACAD_XDICTIONARY
360
1033F
102
}
330
2
100
AcDbSymbolTableRecord
100
AcDbLayerTableRecord
  2
3-Incut
 70
     0
 62
     5
  6
Continuous
370
    -3
390
10007
347
10019
348
0
1001
AcAecLayerStandard
1000

1000

1001
AcCmTransparency
1071
        0
  0
LAYER
  5
10340
330
2
100
AcDbSymbolTableRecord
100
AcDbLayerTableRecord
  2
1-screw
 70
     0
 62
     7
  6
Continuous
370
    -3
390
10007
347
10019
348
0
1001
AcAecLayerStandard
1000

1000

1001
AcCmTransparency
1071
        0
  0
ENDTAB
  0
TABLE
  2
STYLE
  5
3
330
0
100
AcDbSymbolTable
 70
     2
  0
STYLE
  5
11
330
3
100
AcDbSymbolTableRecord
100
AcDbTextStyleTableRecord
  2
STANDARD
 70
     0
 40
0.0
 41
1.0
 50
0.0
 71
     0
 42
0.2
  3

  4

  0
STYLE
  5
10680
330
3
100
AcDbSymbolTableRecord
100
AcDbTextStyleTableRecord
  2

 70
     1
 40
0.0
 41
1.0
 50
0.0
 71
     0
 42
0.2
  3
ltypeshp.shx
  4

  0
ENDTAB
  0
TABLE
  2
VIEW
  5
6
330
0
100
AcDbSymbolTable
 70
     1
  0
ENDTAB
  0
TABLE
  2
UCS
  5
7
330
0
100
AcDbSymbolTable
 70
     0
  0
ENDTAB
  0
TABLE
  2
APPID
  5
9
330
0
100
AcDbSymbolTable
 70
     8
  0
APPID
  5
12
330
9
100
AcDbSymbolTableRecord
100
AcDbRegAppTableRecord
  2
ACAD
 70
     0
  0
APPID
  5
1005C
330
9
100
AcDbSymbolTableRecord
100
AcDbRegAppTableRecord
  2
ACAD_NAV_VCDISPLAY
 70
     0
  0
APPID
  5
10120
330
9
100
AcDbSymbolTableRecord
100
AcDbRegAppTableRecord
  2
ACAD_DSTYLE_DIMRADIAL_EXTENSION
 70
     0
  0
APPID
  5
10121
330
9
100
AcDbSymbolTableRecord
100
AcDbRegAppTableRecord
  2
ACAD_PSEXT
 70
     0
  0
APPID
  5
10122
330
9
100
AcDbSymbolTableRecord
100
AcDbRegAppTableRecord
  2
AcAecLayerStandard
 70
     0
  0
APPID
  5
10123
330
9
100
AcDbSymbolTableRecord
100
AcDbRegAppTableRecord
  2
AcCmTransparency
 70
     0
  0
APPID
  5
1030D
330
9
100
AcDbSymbolTableRecord
100
AcDbRegAppTableRecord
  2
ACAD_EXEMPT_FROM_CAD_STANDARDS
 70
     0
  0
APPID
  5
1051D
330
9
100
AcDbSymbolTableRecord
100
AcDbRegAppTableRecord
  2
ACAD_MLEADERVER
 70
     0
  0
ENDTAB
  0
TABLE
  2
DIMSTYLE
  5
A
330
0
100
AcDbSymbolTable
 70
     2
100
AcDbDimStyleTable
 71
     1
340
10057
  0
DIMSTYLE
105
10057
330
A
100
AcDbSymbolTableRecord
100
AcDbDimStyleTableRecord
  2
Standard
 70
     0
340
11
  0
DIMSTYLE
105
1051C
330
A
100
AcDbSymbolTableRecord
100
AcDbDimStyleTableRecord
  2
STANDARD_ACAD
 70
     0
340
11
  0
ENDTAB
  0
TABLE
  2
BLOCK_RECORD
  5
1
330
0
100
AcDbSymbolTable
 70
    32
  0
BLOCK_RECORD
  5
1F
102
{ACAD_XDICTIONARY
360
1067C
102
}
330
1
100
AcDbSymbolTableRecord
100
AcDbBlockTableRecord
  2
*MODEL_SPACE
340
10059
 70
     0
280
     1
281
     0
  0
BLOCK_RECORD
  5
1B
330
1
100
AcDbSymbolTableRecord
100
AcDbBlockTableRecord
  2
*PAPER_SPACE
340
1005A
 70
     0
280
     1
281
     0
  0
BLOCK_RECORD
  5
1005F
330
1
100
AcDbSymbolTableRecord
100
AcDbBlockTableRecord
  2
*D0
340
0
 70
     0
280
     1
281
     0
  0
BLOCK_RECORD
  5
1006A
330
1
100
AcDbSymbolTableRecord
100
AcDbBlockTableRecord
  2
*D1
340
0
 70
     0
280
     1
281
     0
  0
BLOCK_RECORD
  5
10075
330
1
100
AcDbSymbolTableRecord
100
AcDbBlockTableRecord
  2
*D2
340
0
 70
     0
280
     1
281
     0
  0
BLOCK_RECORD
  5
10082
330
1
100
AcDbSymbolTableRecord
100
AcDbBlockTableRecord
  2
*D3
340
0
 70
     0
280
     1
281
     0
  0
BLOCK_RECORD
  5
1008F
330
1
100
AcDbSymbolTableRecord
100
AcDbBlockTableRecord
  2
*D4
340
0
 70
     0
280
     1
281
     0
  0
BLOCK_RECORD
  5
1009C
330
1
100
AcDbSymbolTableRecord
100
AcDbBlockTableRecord
  2
*D5
340
0
 70
     0
280
     1
281
     0
  0
BLOCK_RECORD
  5
100A9
330
1
100
AcDbSymbolTableRecord
100
AcDbBlockTableRecord
  2
*D6
340
0
 70
     0
280
     1
281
     0
  0
BLOCK_RECORD
  5
100B6
330
1
100
AcDbSymbolTableRecord
100
AcDbBlockTableRecord
  2
*D7
340
0
 70
     0
280
     1
281
     0
  0
BLOCK_RECORD
  5
100C3
330
1
100
AcDbSymbolTableRecord
100
AcDbBlockTableRecord
  2
*D8
340
0
 70
     0
280
     1
281
     0
  0
BLOCK_RECORD
  5
100D0
330
1
100
AcDbSymbolTableRecord
100
AcDbBlockTableRecord
  2
*D9
340
0
 70
     0
280
     1
281
     0
  0
BLOCK_RECORD
  5
100DD
330
1
100
AcDbSymbolTableRecord
100
AcDbBlockTableRecord
  2
*D10
340
0
 70
     0
280
     1
281
     0
  0
BLOCK_RECORD
  5
100EB
330
1
100
AcDbSymbolTableRecord
100
AcDbBlockTableRecord
  2
*D11
340
0
 70
     0
280
     1
281
     0
  0
BLOCK_RECORD
  5
100F8
330
1
100
AcDbSymbolTableRecord
100
AcDbBlockTableRecord
  2
*D12
340
0
 70
     0
280
     1
281
     0
  0
BLOCK_RECORD
  5
10103
330
1
100
AcDbSymbolTableRecord
100
AcDbBlockTableRecord
  2
*D13
340
0
 70
     0
280
     1
281
     0
  0
BLOCK_RECORD
  5
10110
330
1
100
AcDbSymbolTableRecord
100
AcDbBlockTableRecord
  2
*D14
340
0
 70
     0
280
     1
281
     0
  0
BLOCK_RECORD
  5
1017C
330
1
100
AcDbSymbolTableRecord
100
AcDbBlockTableRecord
  2
*D15
340
0
 70
     0
280
     1
281
     0
  0
BLOCK_RECORD
  5
10187
330
1
100
AcDbSymbolTableRecord
100
AcDbBlockTableRecord
  2
*D16
340
0
 70
     0
280
     1
281
     0
  0
BLOCK_RECORD
  5
10192
330
1
100
AcDbSymbolTableRecord
100
AcDbBlockTableRecord
  2
*D17
340
0
 70
     0
280
     1
281
     0
  0
BLOCK_RECORD
  5
1019F
330
1
100
AcDbSymbolTableRecord
100
AcDbBlockTableRecord
  2
*D18
340
0
 70
     0
280
     1
281
     0
  0
BLOCK_RECORD
  5
101AC
330
1
100
AcDbSymbolTableRecord
100
AcDbBlockTableRecord
  2
*D19
340
0
 70
     0
280
     1
281
     0
  0
BLOCK_RECORD
  5
101B9
330
1
100
AcDbSymbolTableRecord
100
AcDbBlockTableRecord
  2
*D20
340
0
 70
     0
280
     1
281
     0
  0
BLOCK_RECORD
  5
101C6
330
1
100
AcDbSymbolTableRecord
100
AcDbBlockTableRecord
  2
*D21
340
0
 70
     0
280
     1
281
     0
  0
BLOCK_RECORD
  5
101D3
330
1
100
AcDbSymbolTableRecord
100
AcDbBlockTableRecord
  2
*D22
340
0
 70
     0
280
     1
281
     0
  0
BLOCK_RECORD
  5
101E0
330
1
100
AcDbSymbolTableRecord
100
AcDbBlockTableRecord
  2
*D23
340
0
 70
     0
280
     1
281
     0
  0
BLOCK_RECORD
  5
101ED
330
1
100
AcDbSymbolTableRecord
100
AcDbBlockTableRecord
  2
*D24
340
0
 70
     0
280
     1
281
     0
  0
BLOCK_RECORD
  5
101FA
330
1
100
AcDbSymbolTableRecord
100
AcDbBlockTableRecord
  2
*D25
340
0
 70
     0
280
     1
281
     0
  0
BLOCK_RECORD
  5
10208
330
1
100
AcDbSymbolTableRecord
100
AcDbBlockTableRecord
  2
*D26
340
0
 70
     0
280
     1
281
     0
  0
BLOCK_RECORD
  5
10215
330
1
100
AcDbSymbolTableRecord
100
AcDbBlockTableRecord
  2
*D27
340
0
 70
     0
280
     1
281
     0
  0
BLOCK_RECORD
  5
10220
330
1
100
AcDbSymbolTableRecord
100
AcDbBlockTableRecord
  2
*D28
340
0
 70
     0
280
     1
281
     0
  0
BLOCK_RECORD
  5
1022D
330
1
100
AcDbSymbolTableRecord
100
AcDbBlockTableRecord
  2
*D29
340
0
 70
     0
280
     1
281
     0
  0
BLOCK_RECORD
  5
10333
330
1
100
AcDbSymbolTableRecord
100
AcDbBlockTableRecord
  2
_Dot
340
0
 70
     0
280
     1
281
     0
  0
BLOCK_RECORD
  5
10430
330
1
100
AcDbSymbolTableRecord
100
AcDbBlockTableRecord
  2
A$C3317423f
340
0
 70
     4
280
     1
281
     0
  0
ENDTAB
  0
ENDSEC
  0
SECTION
  2
BLOCKS
  0
BLOCK
  5
20
330
1F
100
AcDbEntity
  8
0
100
AcDbBlockBegin
  2
*MODEL_SPACE
 70
     0
 10
0.0
 20
0.0
 30
0.0
  3
*MODEL_SPACE
  1

  0
ENDBLK
  5
21
330
1F
100
AcDbEntity
  8
0
100
AcDbBlockEnd
  0
BLOCK
  5
1C
330
1B
100
AcDbEntity
 67
     1
  8
0
100
AcDbBlockBegin
  2
*PAPER_SPACE
 70
     0
 10
0.0
 20
0.0
 30
0.0
  3
*PAPER_SPACE
  1

  0
ENDBLK
  5
1D
330
1B
100
AcDbEntity
 67
     1
  8
0
100
AcDbBlockEnd
  0
BLOCK
  5
10060
330
1005F
100
AcDbEntity
  8
0
100
AcDbBlockBegin
  2
*D0
 70
     1
 10
0.0
 20
0.0
 30
0.0
  3
*D0
  1

  0
LINE
  5
10061
330
1005F
100
AcDbEntity
  8
dimensions
  6
Continuous
 62
     0
440
 16777216
370
    -2
100
AcDbLine
 10
65.80805372294864
 20
113.8630128119951
 30
0.0
 11
62.80805372294864
 21
113.8630128119951
 31
0.0
  0
LINE
  5
10062
330
1005F
100
AcDbEntity
  8
dimensions
  6
Continuous
 62
     0
440
 16777216
370
    -2
100
AcDbLine
 10
62.80805372294864
 20
113.8630128119951
 30
0.0
 11
60.93722157588612
 21
111.5178076871675
 31
0.0
  0
MTEXT
  5
10063
330
1005F
100
AcDbEntity
  8
dimensions
  6
Continuous
 62
     0
440
 16777216
100
AcDbMText
 10
73.73662515152009
 20
113.8630128119951
 30
0.0
 40
3.0
 41
0.0
 46
0.0
 71
     5
 72
     1
  1
\A1;∅3.00
 73
     1
 44
1.0
  0
SOLID
  5
10064
330
1005F
100
AcDbEntity
  8
dimensions
  6
Continuous
 62
     0
440
 16777216
100
AcDbTrace
 10
60.54635405508152
 20
111.8296130450113
 30
0.0
 11
61.3280890966907
 21
111.2060023293238
 31
0.0
 12
59.06638942882358
 22
109.17260256234
 32
0.0
 13
59.06638942882358
 23
109.17260256234
 33
0.0
  0
LINE
  5
10065
330
1005F
100
AcDbEntity
  8
dimensions
  6
Continuous
 62
     0
440
 16777216
370
    -2
100
AcDbLine
 10
58.0409733552923
 20
107.9999999999262
 30
0.0
 11
58.22097335529233
 21
107.9999999999262
 31
0.0
  0
LINE
  5
10066
330
1005F
100
AcDbEntity
  8
dimensions
  6
Continuous
 62
     0
440
 16777216
370
    -2
100
AcDbLine
 10
58.13097335529231
 20
107.9099999999262
 30
0.0
 11
58.13097335529231
 21
108.0899999999262
 31
0.0
  0
POINT
  5
10067
330
1005F
100
AcDbEntity
  8
Defpoints
  6
Continuous
 62
     0
440
 16777216
100
AcDbPoint
 10
59.06638942882358
 20
109.17260256234
 30
0.0
  0
POINT
  5
10068
330
1005F
100
AcDbEntity
  8
Defpoints
  6
Continuous
 62
     0
440
 16777216
100
AcDbPoint
 10
57.19555728176104
 20
106.8273974375124
 30
0.0
  0
ENDBLK
  5
10069
330
1005F
100
AcDbEntity
  8
0
100
AcDbBlockEnd
  0
BLOCK
  5
1006B
330
1006A
100
AcDbEntity
  8
0
100
AcDbBlockBegin
  2
*D1
 70
     1
 10
0.0
 20
0.0
 30
0.0
  3
*D1
  1

  0
LINE
  5
1006C
330
1006A
100
AcDbEntity
  8
dimensions
  6
Continuous
 62
     0
440
 16777216
370
    -2
100
AcDbLine
 10
-18.18761015226922
 20
144.7717928265285
 30
0.0
 11
-13.18761015226902
 21
144.7717928265285
 31
0.0
  0
LINE
  5
1006D
330
1006A
100
AcDbEntity
  8
dimensions
  6
Continuous
 62
     0
440
 16777216
370
    -2
100
AcDbLine
 10
-13.18761015226902
 20
144.7717928265285
 30
0.0
 11
-2.950755254790642
 21
128.7331643062019
 31
0.0
  0
MTEXT
  5
1006E
330
1006A
100
AcDbEntity
  8
dimensions
  6
Continuous
 62
     0
440
 16777216
100
AcDbMText
 10
-25.83046729512636
 20
144.7717928265285
 30
0.0
 40
3.0
 41
0.0
 46
0.0
 71
     5
 72
     1
  1
\A1;∅4.12
 73
     1
 44
1.0
  0
SOLID
  5
1006F
330
1006A
100
AcDbEntity
  8
dimensions
  6
Continuous
 62
     0
440
 16777216
100
AcDbTrace
 10
-2.248308806886575
 20
129.1815095217127
 30
0.0
 11
-3.653201702694707
 21
128.2848190906911
 31
0.0
 12
-0.2606839617260093
 22
124.5184856187775
 32
0.0
 13
-0.2606839617260093
 23
124.5184856187775
 33
0.0
  0
LINE
  5
10070
330
1006A
100
AcDbEntity
  8
dimensions
  6
Continuous
 62
     0
440
 16777216
370
    -2
100
AcDbLine
 10
0.7589704466028948
 20
122.7799306603093
 30
0.0
 11
0.9389704466028943
 21
122.7799306603093
 31
0.0
  0
LINE
  5
10071
330
1006A
100
AcDbEntity
  8
dimensions
  6
Continuous
 62
     0
440
 16777216
370
    -2
100
AcDbLine
 10
0.8489704466029053
 20
122.6899306603093
 30
0.0
 11
0.8489704466028982
 21
122.8699306603093
 31
0.0
  0
POINT
  5
10072
330
1006A
100
AcDbEntity
  8
Defpoints
  6
Continuous
 62
     0
440
 16777216
100
AcDbPoint
 10
-0.2606839617260093
 20
124.5184856187775
 30
0.0
  0
POINT
  5
10073
330
1006A
100
AcDbEntity
  8
Defpoints
  6
Continuous
 62
     0
440
 16777216
100
AcDbPoint
 10
1.958624854931811
 20
121.0413757018411
 30
0.0
  0
ENDBLK
  5
10074
330
1006A
100
AcDbEntity
  8
0
100
AcDbBlockEnd
  0
BLOCK
  5
10076
330
10075
100
AcDbEntity
  8
0
100
AcDbBlockBegin
  2
*D2
 70
     1
 10
0.0
 20
0.0
 30
0.0
  3
*D2
  1

  0
LINE
  5
10077
330
10075
100
AcDbEntity
  8
dimensions
  6
Continuous
 62
     0
440
 16777216
370
    -2
100
AcDbLine
 10
1.896124854931835
 20
123.0004369634815
 30
0.0
 11
-28.78913628259275
 21
123.0004369634815
 31
0.0
  0
LINE
  5
10078
330
10075
100
AcDbEntity
  8
dimensions
  6
Continuous
 62
     0
440
 16777216
370
    -2
100
AcDbLine
 10
1.896124854931879
 20
0.0000000164032024
 30
0.0
 11
-28.78913628259277
 21
0.0000000164032111
 31
0.0
  0
LINE
  5
10079
330
10075
100
AcDbEntity
  8
dimensions
  6
Continuous
 62
     0
440
 16777216
370
    -2
100
AcDbLine
 10
-28.60913628259275
 20
118.0004369634815
 30
0.0
 11
-28.60913628259277
 21
65.0002184899424
 31
0.0
  0
LINE
  5
1007A
330
10075
100
AcDbEntity
  8
dimensions
  6
Continuous
 62
     0
440
 16777216
370
    -2
100
AcDbLine
 10
-28.60913628259277
 20
5.00000001640321
 30
0.0
 11
-28.60913628259277
 21
58.0002184899424
 31
0.0
  0
SOLID
  5
1007B
330
10075
100
AcDbEntity
  8
dimensions
  6
Continuous
 62
     0
440
 16777216
100
AcDbTrace
 10
-29.44246961592608
 20
118.0004369634815
 30
0.0
 11
-27.77580294925943
 21
118.0004369634815
 31
0.0
 12
-28.60913628259274
 22
123.0004369634815
 32
0.0
 13
-28.60913628259274
 23
123.0004369634815
 33
0.0
  0
SOLID
  5
1007C
330
10075
100
AcDbEntity
  8
dimensions
  6
Continuous
 62
     0
440
 16777216
100
AcDbTrace
 10
-29.44246961592611
 20
5.00000001640321
 30
0.0
 11
-27.77580294925944
 21
5.00000001640321
 31
0.0
 12
-28.60913628259277
 22
0.000000016403211
 32
0.0
 13
-28.60913628259277
 23
0.000000016403211
 33
0.0
  0
MTEXT
  5
1007D
330
10075
100
AcDbEntity
  8
dimensions
  6
Continuous
 62
     0
440
 16777216
100
AcDbMText
 10
-28.60913628259277
 20
61.50021848994239
 30
0.0
 40
3.0
 41
0.0
 46
0.0
 71
     5
 72
     1
  1
\A1;123.00
 73
     1
 44
1.0
  0
POINT
  5
1007E
330
10075
100
AcDbEntity
  8
Defpoints
  6
Continuous
 62
     0
440
 16777216
100
AcDbPoint
 10
1.958624854931835
 20
123.0004369634815
 30
0.0
  0
POINT
  5
1007F
330
10075
100
AcDbEntity
  8
Defpoints
  6
Continuous
 62
     0
440
 16777216
100
AcDbPoint
 10
1.958624854931879
 20
0.0000000164032024
 30
0.0
  0
POINT
  5
10080
330
10075
100
AcDbEntity
  8
Defpoints
  6
Continuous
 62
     0
440
 16777216
100
AcDbPoint
 10
-28.60913628259277
 20
0.000000016403211
 30
0.0
  0
ENDBLK
  5
10081
330
10075
100
AcDbEntity
  8
0
100
AcDbBlockEnd
  0
BLOCK
  5
10083
330
10082
100
AcDbEntity
  8
0
100
AcDbBlockBegin
  2
*D3
 70
     1
 10
0.0
 20
0.0
 30
0.0
  3
*D3
  1

  0
LINE
  5
10084
330
10082
100
AcDbEntity
  8
dimensions
  6
Continuous
 62
     0
440
 16777216
370
    -2
100
AcDbLine
 10
-0.0004282434742956
 20
121.103875701308
 30
0.0
 11
0.0061333126383892
 21
171.340980114797
 31
0.0
  0
LINE
  5
10085
330
10082
100
AcDbEntity
  8
dimensions
  6
Continuous
 62
     0
440
 16777216
370
    -2
100
AcDbLine
 10
316.7836159113678
 20
121.0624999829899
 30
0.0
 11
316.7901774674805
 21
171.299604396479
 31
0.0
  0
LINE
  5
10086
330
10082
100
AcDbEntity
  8
dimensions
  6
Continuous
 62
     0
440
 16777216
370
    -2
100
AcDbLine
 10
5.006109759875052
 20
171.1603270575889
 30
0.0
 11
149.2552747370875
 21
171.141486421743
 31
0.0
  0
LINE
  5
10087
330
10082
100
AcDbEntity
  8
dimensions
  6
Continuous
 62
     0
440
 16777216
370
    -2
100
AcDbLine
 10
311.7901540000143
 20
171.1202574567578
 30
0.0
 11
167.5409890228018
 21
171.1390980926037
 31
0.0
  0
SOLID
  5
10088
330
10082
100
AcDbEntity
  8
dimensions
  6
Continuous
 62
     0
440
 16777216
100
AcDbTrace
 10
5.006218602998961
 20
171.993660383814
 30
0.0
 11
5.006000916751141
 21
170.3269937313636
 31
0.0
 12
0.0061098025236244
 22
171.1609801163323
 32
0.0
 13
0.0061098025236244
 23
171.1609801163323
 33
0.0
  0
SOLID
  5
10089
330
10082
100
AcDbEntity
  8
dimensions
  6
Continuous
 62
     0
440
 16777216
100
AcDbTrace
 10
311.7902628431383
 20
171.953590782983
 30
0.0
 11
311.7900451568905
 21
170.2869241305326
 31
0.0
 12
316.7901539573658
 22
171.1196043980143
 32
0.0
 13
316.7901539573658
 23
171.1196043980143
 33
0.0
  0
MTEXT
  5
1008A
330
10082
100
AcDbEntity
  8
dimensions
  6
Continuous
 62
     0
440
 16777216
100
AcDbMText
 10
158.3981318799447
 20
171.1402922571733
 30
0.0
 40
3.0
 41
0.0
 46
0.0
 71
     5
 72
     1
  1
\A1;316.78
 73
     1
 44
1.0
  0
POINT
  5
1008B
330
10082
100
AcDbEntity
  8
Defpoints
  6
Continuous
 62
     0
440
 16777216
100
AcDbPoint
 10
-0.0004364067085889
 20
121.0413757018411
 30
0.0
  0
POINT
  5
1008C
330
10082
100
AcDbEntity
  8
Defpoints
  6
Continuous
 62
     0
440
 16777216
100
AcDbPoint
 10
316.7836077481335
 20
120.999999983523
 30
0.0
  0
POINT
  5
1008D
330
10082
100
AcDbEntity
  8
Defpoints
  6
Continuous
 62
     0
440
 16777216
100
AcDbPoint
 10
316.7901539573658
 20
171.1196043980143
 30
0.0
  0
ENDBLK
  5
1008E
330
10082
100
AcDbEntity
  8
0
100
AcDbBlockEnd
  0
BLOCK
  5
10090
330
1008F
100
AcDbEntity
  8
0
100
AcDbBlockBegin
  2
*D4
 70
     1
 10
0.0
 20
0.0
 30
0.0
  3
*D4
  1

  0
LINE
  5
10091
330
1008F
100
AcDbEntity
  8
dimensions
  6
Continuous
 62
     0
440
 16777216
370
    -2
100
AcDbLine
 10
0.0000005732499631
 20
121.062499983523
 30
0.0
 11
0.0000005732499652
 21
156.3787216686091
 31
0.0
  0
LINE
  5
10092
330
1008F
100
AcDbEntity
  8
dimensions
  6
Continuous
 62
     0
440
 16777216
370
    -2
100
AcDbLine
 10
43.56548667764611
 20
123.062499983523
 30
0.0
 11
43.56548667764611
 21
156.3787216686091
 31
0.0
  0
LINE
  5
10093
330
1008F
100
AcDbEntity
  8
dimensions
  6
Continuous
 62
     0
440
 16777216
370
    -2
100
AcDbLine
 10
5.000000573249963
 20
156.1987216686091
 30
0.0
 11
13.78274362544804
 21
156.1987216686091
 31
0.0
  0
LINE
  5
10094
330
1008F
100
AcDbEntity
  8
dimensions
  6
Continuous
 62
     0
440
 16777216
370
    -2
100
AcDbLine
 10
38.56548667764612
 20
156.1987216686091
 30
0.0
 11
29.78274362544804
 21
156.1987216686091
 31
0.0
  0
SOLID
  5
10095
330
1008F
100
AcDbEntity
  8
dimensions
  6
Continuous
 62
     0
440
 16777216
100
AcDbTrace
 10
5.000000573249963
 20
157.0320550019424
 30
0.0
 11
5.000000573249963
 21
155.3653883352757
 31
0.0
 12
0.0000005732499652
 22
156.1987216686091
 32
0.0
 13
0.0000005732499652
 23
156.1987216686091
 33
0.0
  0
SOLID
  5
10096
330
1008F
100
AcDbEntity
  8
dimensions
  6
Continuous
 62
     0
440
 16777216
100
AcDbTrace
 10
38.56548667764612
 20
157.0320550019424
 30
0.0
 11
38.56548667764612
 21
155.3653883352757
 31
0.0
 12
43.56548667764611
 22
156.1987216686091
 32
0.0
 13
43.56548667764611
 23
156.1987216686091
 33
0.0
  0
MTEXT
  5
10097
330
1008F
100
AcDbEntity
  8
dimensions
  6
Continuous
 62
     0
440
 16777216
100
AcDbMText
 10
21.78274362544804
 20
156.1987216686091
 30
0.0
 40
3.0
 41
0.0
 46
0.0
 71
     5
 72
     1
  1
\A1;43.57
 73
     1
 44
1.0
  0
POINT
  5
10098
330
1008F
100
AcDbEntity
  8
Defpoints
  6
Continuous
 62
     0
440
 16777216
100
AcDbPoint
 10
0.0000005732499631
 20
120.999999983523
 30
0.0
  0
POINT
  5
10099
330
1008F
100
AcDbEntity
  8
Defpoints
  6
Continuous
 62
     0
440
 16777216
100
AcDbPoint
 10
43.56548667764611
 20
122.999999983523
 30
0.0
  0
POINT
  5
1009A
330
1008F
100
AcDbEntity
  8
Defpoints
  6
Continuous
 62
     0
440
 16777216
100
AcDbPoint
 10
43.56548667764611
 20
156.1987216686091
 30
0.0
  0
ENDBLK
  5
1009B
330
1008F
100
AcDbEntity
  8
0
100
AcDbBlockEnd
  0
BLOCK
  5
1009D
330
1009C
100
AcDbEntity
  8
0
100
AcDbBlockBegin
  2
*D5
 70
     1
 10
0.0
 20
0.0
 30
0.0
  3
*D5
  1

  0
LINE
  5
1009E
330
1009C
100
AcDbEntity
  8
dimensions
  6
Continuous
 62
     0
440
 16777216
370
    -2
100
AcDbLine
 10
43.56548667764611
 20
123.062499983523
 30
0.0
 11
43.56548667764611
 21
156.3787216686091
 31
0.0
  0
LINE
  5
1009F
330
1009C
100
AcDbEntity
  8
dimensions
  6
Continuous
 62
     0
440
 16777216
370
    -2
100
AcDbLine
 10
110.6421049754671
 20
123.0624999999262
 30
0.0
 11
110.6421049754671
 21
156.3787216686091
 31
0.0
  0
LINE
  5
100A0
330
1009C
100
AcDbEntity
  8
dimensions
  6
Continuous
 62
     0
440
 16777216
370
    -2
100
AcDbLine
 10
48.56548667764611
 20
156.1987216686091
 30
0.0
 11
69.10379582655662
 21
156.1987216686091
 31
0.0
  0
LINE
  5
100A1
330
1009C
100
AcDbEntity
  8
dimensions
  6
Continuous
 62
     0
440
 16777216
370
    -2
100
AcDbLine
 10
105.6421049754671
 20
156.1987216686091
 30
0.0
 11
85.10379582655662
 21
156.1987216686091
 31
0.0
  0
SOLID
  5
100A2
330
1009C
100
AcDbEntity
  8
dimensions
  6
Continuous
 62
     0
440
 16777216
100
AcDbTrace
 10
48.56548667764611
 20
157.0320550019424
 30
0.0
 11
48.56548667764611
 21
155.3653883352757
 31
0.0
 12
43.56548667764611
 22
156.1987216686091
 32
0.0
 13
43.56548667764611
 23
156.1987216686091
 33
0.0
  0
SOLID
  5
100A3
330
1009C
100
AcDbEntity
  8
dimensions
  6
Continuous
 62
     0
440
 16777216
100
AcDbTrace
 10
105.6421049754671
 20
157.0320550019424
 30
0.0
 11
105.6421049754671
 21
155.3653883352757
 31
0.0
 12
110.6421049754671
 22
156.1987216686091
 32
0.0
 13
110.6421049754671
 23
156.1987216686091
 33
0.0
  0
MTEXT
  5
100A4
330
1009C
100
AcDbEntity
  8
dimensions
  6
Continuous
 62
     0
440
 16777216
100
AcDbMText
 10
77.10379582655662
 20
156.1987216686091
 30
0.0
 40
3.0
 41
0.0
 46
0.0
 71
     5
 72
     1
  1
\A1;67.08
 73
     1
 44
1.0
  0
POINT
  5
100A5
330
1009C
100
AcDbEntity
  8
Defpoints
  6
Continuous
 62
     0
440
 16777216
100
AcDbPoint
 10
43.56548667764611
 20
122.999999983523
 30
0.0
  0
POINT
  5
100A6
330
1009C
100
AcDbEntity
  8
Defpoints
  6
Continuous
 62
     0
440
 16777216
100
AcDbPoint
 10
110.6421049754671
 20
122.9999999999262
 30
0.0
  0
POINT
  5
100A7
330
1009C
100
AcDbEntity
  8
Defpoints
  6
Continuous
 62
     0
440
 16777216
100
AcDbPoint
 10
110.6421049754671
 20
156.1987216686091
 30
0.0
  0
ENDBLK
  5
100A8
330
1009C
100
AcDbEntity
  8
0
100
AcDbBlockEnd
  0
BLOCK
  5
100AA
330
100A9
100
AcDbEntity
  8
0
100
AcDbBlockBegin
  2
*D6
 70
     1
 10
0.0
 20
0.0
 30
0.0
  3
*D6
  1

  0
LINE
  5
100AB
330
100A9
100
AcDbEntity
  8
dimensions
  6
Continuous
 62
     0
440
 16777216
370
    -2
100
AcDbLine
 10
110.6421049754671
 20
123.0624999999262
 30
0.0
 11
110.6421049754671
 21
156.3787216686091
 31
0.0
  0
LINE
  5
100AC
330
100A9
100
AcDbEntity
  8
dimensions
  6
Continuous
 62
     0
440
 16777216
370
    -2
100
AcDbLine
 10
172.3684224585128
 20
123.062499983523
 30
0.0
 11
172.3684224585128
 21
156.3787216686091
 31
0.0
  0
LINE
  5
100AD
330
100A9
100
AcDbEntity
  8
dimensions
  6
Continuous
 62
     0
440
 16777216
370
    -2
100
AcDbLine
 10
115.6421049754671
 20
156.1987216686091
 30
0.0
 11
133.7909780027042
 21
156.1987216686091
 31
0.0
  0
LINE
  5
100AE
330
100A9
100
AcDbEntity
  8
dimensions
  6
Continuous
 62
     0
440
 16777216
370
    -2
100
AcDbLine
 10
167.3684224585128
 20
156.1987216686091
 30
0.0
 11
149.2195494312757
 21
156.1987216686091
 31
0.0
  0
SOLID
  5
100AF
330
100A9
100
AcDbEntity
  8
dimensions
  6
Continuous
 62
     0
440
 16777216
100
AcDbTrace
 10
115.6421049754671
 20
157.0320550019424
 30
0.0
 11
115.6421049754671
 21
155.3653883352757
 31
0.0
 12
110.6421049754671
 22
156.1987216686091
 32
0.0
 13
110.6421049754671
 23
156.1987216686091
 33
0.0
  0
SOLID
  5
100B0
330
100A9
100
AcDbEntity
  8
dimensions
  6
Continuous
 62
     0
440
 16777216
100
AcDbTrace
 10
167.3684224585128
 20
157.0320550019424
 30
0.0
 11
167.3684224585128
 21
155.3653883352757
 31
0.0
 12
172.3684224585128
 22
156.1987216686091
 32
0.0
 13
172.3684224585128
 23
156.1987216686091
 33
0.0
  0
MTEXT
  5
100B1
330
100A9
100
AcDbEntity
  8
dimensions
  6
Continuous
 62
     0
440
 16777216
100
AcDbMText
 10
141.50526371699
 20
156.1987216686091
 30
0.0
 40
3.0
 41
0.0
 46
0.0
 71
     5
 72
     1
  1
\A1;61.73
 73
     1
 44
1.0
  0
POINT
  5
100B2
330
100A9
100
AcDbEntity
  8
Defpoints
  6
Continuous
 62
     0
440
 16777216
100
AcDbPoint
 10
110.6421049754671
 20
122.9999999999262
 30
0.0
  0
POINT
  5
100B3
330
100A9
100
AcDbEntity
  8
Defpoints
  6
Continuous
 62
     0
440
 16777216
100
AcDbPoint
 10
172.3684224585128
 20
122.999999983523
 30
0.0
  0
POINT
  5
100B4
330
100A9
100
AcDbEntity
  8
Defpoints
  6
Continuous
 62
     0
440
 16777216
100
AcDbPoint
 10
172.3684224585128
 20
156.1987216686091
 30
0.0
  0
ENDBLK
  5
100B5
330
100A9
100
AcDbEntity
  8
0
100
AcDbBlockEnd
  0
BLOCK
  5
100B7
330
100B6
100
AcDbEntity
  8
0
100
AcDbBlockBegin
  2
*D7
 70
     1
 10
0.0
 20
0.0
 30
0.0
  3
*D7
  1

  0
LINE
  5
100B8
330
100B6
100
AcDbEntity
  8
dimensions
  6
Continuous
 62
     0
440
 16777216
370
    -2
100
AcDbLine
 10
172.3684224585128
 20
123.062499983523
 30
0.0
 11
172.3684224585128
 21
156.3787216686091
 31
0.0
  0
LINE
  5
100B9
330
100B6
100
AcDbEntity
  8
dimensions
  6
Continuous
 62
     0
440
 16777216
370
    -2
100
AcDbLine
 10
316.7836077481336
 20
121.062499983523
 30
0.0
 11
316.7836077481336
 21
156.3787216686091
 31
0.0
  0
LINE
  5
100BA
330
100B6
100
AcDbEntity
  8
dimensions
  6
Continuous
 62
     0
440
 16777216
370
    -2
100
AcDbLine
 10
177.3684224585128
 20
156.1987216686091
 30
0.0
 11
235.433157960466
 21
156.1987216686091
 31
0.0
  0
LINE
  5
100BB
330
100B6
100
AcDbEntity
  8
dimensions
  6
Continuous
 62
     0
440
 16777216
370
    -2
100
AcDbLine
 10
311.7836077481336
 20
156.1987216686091
 30
0.0
 11
253.7188722461803
 21
156.1987216686091
 31
0.0
  0
SOLID
  5
100BC
330
100B6
100
AcDbEntity
  8
dimensions
  6
Continuous
 62
     0
440
 16777216
100
AcDbTrace
 10
177.3684224585128
 20
157.0320550019424
 30
0.0
 11
177.3684224585128
 21
155.3653883352757
 31
0.0
 12
172.3684224585128
 22
156.1987216686091
 32
0.0
 13
172.3684224585128
 23
156.1987216686091
 33
0.0
  0
SOLID
  5
100BD
330
100B6
100
AcDbEntity
  8
dimensions
  6
Continuous
 62
     0
440
 16777216
100
AcDbTrace
 10
311.7836077481336
 20
157.0320550019424
 30
0.0
 11
311.7836077481336
 21
155.3653883352757
 31
0.0
 12
316.7836077481336
 22
156.1987216686091
 32
0.0
 13
316.7836077481336
 23
156.1987216686091
 33
0.0
  0
MTEXT
  5
100BE
330
100B6
100
AcDbEntity
  8
dimensions
  6
Continuous
 62
     0
440
 16777216
100
AcDbMText
 10
244.5760151033232
 20
156.1987216686091
 30
0.0
 40
3.0
 41
0.0
 46
0.0
 71
     5
 72
     1
  1
\A1;144.42
 73
     1
 44
1.0
  0
POINT
  5
100BF
330
100B6
100
AcDbEntity
  8
Defpoints
  6
Continuous
 62
     0
440
 16777216
100
AcDbPoint
 10
172.3684224585128
 20
122.999999983523
 30
0.0
  0
POINT
  5
100C0
330
100B6
100
AcDbEntity
  8
Defpoints
  6
Continuous
 62
     0
440
 16777216
100
AcDbPoint
 10
316.7836077481336
 20
120.999999983523
 30
0.0
  0
POINT
  5
100C1
330
100B6
100
AcDbEntity
  8
Defpoints
  6
Continuous
 62
     0
440
 16777216
100
AcDbPoint
 10
316.7836077481336
 20
156.1987216686091
 30
0.0
  0
ENDBLK
  5
100C2
330
100B6
100
AcDbEntity
  8
0
100
AcDbBlockEnd
  0
BLOCK
  5
100C4
330
100C3
100
AcDbEntity
  8
0
100
AcDbBlockBegin
  2
*D8
 70
     1
 10
0.0
 20
0.0
 30
0.0
  3
*D8
  1

  0
LINE
  5
100C5
330
100C3
100
AcDbEntity
  8
dimensions
  6
Continuous
 62
     0
440
 16777216
370
    -2
100
AcDbLine
 10
43.49475212498218
 20
117.9999290602306
 30
0.0
 11
19.23927000903379
 21
117.9899423841749
 31
0.0
  0
LINE
  5
100C6
330
100C3
100
AcDbEntity
  8
dimensions
  6
Continuous
 62
     0
440
 16777216
370
    -2
100
AcDbLine
 10
43.50329547940999
 20
97.24996386874277
 30
0.0
 11
19.2478133634616
 21
97.23997719268709
 31
0.0
  0
LINE
  5
100C7
330
100C3
100
AcDbEntity
  8
dimensions
  6
Continuous
 62
     0
440
 16777216
370
    -2
100
AcDbLine
 10
19.420505179517
 20
114.9900167495999
 30
0.0
 11
19.42210062083865
 21
111.1150338995753
 31
0.0
  0
LINE
  5
100C8
330
100C3
100
AcDbEntity
  8
dimensions
  6
Continuous
 62
     0
440
 16777216
370
    -2
100
AcDbLine
 10
19.42657816246471
 20
100.2400510495508
 30
0.0
 11
19.42498272114305
 21
104.1150338995754
 31
0.0
  0
SOLID
  5
100C9
330
100C3
100
AcDbEntity
  8
dimensions
  6
Continuous
 62
     0
440
 16777216
100
AcDbTrace
 10
19.92050513713689
 20
114.99022261389
 30
0.0
 11
18.9205052218971
 21
114.9898108853099
 31
0.0
 12
19.41926999377695
 22
117.9900164953193
 32
0.0
 13
19.41926999377695
 23
117.9900164953193
 33
0.0
  0
SOLID
  5
100CA
330
100C3
100
AcDbEntity
  8
dimensions
  6
Continuous
 62
     0
440
 16777216
100
AcDbTrace
 10
19.9265781200846
 20
100.2402569138408
 30
0.0
 11
18.92657820484482
 21
100.2398451852608
 31
0.0
 12
19.42781334820476
 22
97.24005130383147
 32
0.0
 13
19.42781334820476
 23
97.24005130383147
 33
0.0
  0
MTEXT
  5
100CB
330
100C3
100
AcDbEntity
  8
dimensions
  6
Continuous
 62
     0
440
 16777216
100
AcDbMText
 10
19.42354167099085
 20
107.6150338995754
 30
0.0
 40
3.0
 41
0.0
 46
0.0
 71
     5
 72
     1
  1
\A1;20.75
 73
     1
 44
1.0
  0
POINT
  5
100CC
330
100C3
100
AcDbEntity
  8
Defpoints
  6
Continuous
 62
     0
440
 16777216
100
AcDbPoint
 10
43.55725211968467
 20
117.9999547932668
 30
0.0
  0
POINT
  5
100CD
330
100C3
100
AcDbEntity
  8
Defpoints
  6
Continuous
 62
     0
440
 16777216
100
AcDbPoint
 10
43.56579547411246
 20
97.24998960177902
 30
0.0
  0
POINT
  5
100CE
330
100C3
100
AcDbEntity
  8
Defpoints
  6
Continuous
 62
     0
440
 16777216
100
AcDbPoint
 10
19.42781334820476
 20
97.24005130383147
 30
0.0
  0
ENDBLK
  5
100CF
330
100C3
100
AcDbEntity
  8
0
100
AcDbBlockEnd
  0
BLOCK
  5
100D1
330
100D0
100
AcDbEntity
  8
0
100
AcDbBlockBegin
  2
*D9
 70
     1
 10
0.0
 20
0.0
 30
0.0
  3
*D9
  1

  0
LINE
  5
100D2
330
100D0
100
AcDbEntity
  8
dimensions
  6
Continuous
 62
     0
440
 16777216
370
    -2
100
AcDbLine
 10
43.50329547940999
 20
97.24996386874277
 30
0.0
 11
19.24763766958328
 21
97.23997712034893
 31
0.0
  0
LINE
  5
100D3
330
100D0
100
AcDbEntity
  8
dimensions
  6
Continuous
 62
     0
440
 16777216
370
    -2
100
AcDbLine
 10
43.50298668297805
 20
87.24996380517264
 30
0.0
 11
19.25175495500828
 21
87.2399788791233
 31
0.0
  0
LINE
  5
100D4
330
100D0
100
AcDbEntity
  8
dimensions
  6
Continuous
 62
     0
440
 16777216
370
    -2
100
AcDbLine
 10
19.42640246858638
 20
100.2400509772126
 30
0.0
 11
19.42516728284634
 21
103.240050722932
 31
0.0
  0
LINE
  5
100D5
330
100D0
100
AcDbEntity
  8
dimensions
  6
Continuous
 62
     0
440
 16777216
370
    -2
100
AcDbLine
 10
19.43299012549149
 20
84.24005324454833
 30
0.0
 11
19.43422531123154
 21
81.24005349882898
 31
0.0
  0
SOLID
  5
100D6
330
100D0
100
AcDbEntity
  8
dimensions
  6
Continuous
 62
     0
440
 16777216
100
AcDbTrace
 10
19.92640242620628
 20
100.2402568415026
 30
0.0
 11
18.92640251096649
 21
100.2398451129226
 31
0.0
 12
19.42763765432643
 22
97.2400512314933
 32
0.0
 13
19.42763765432643
 23
97.2400512314933
 33
0.0
  0
SOLID
  5
100D7
330
100D0
100
AcDbEntity
  8
dimensions
  6
Continuous
 62
     0
440
 16777216
100
AcDbTrace
 10
19.93299008311138
 20
84.24025910883836
 30
0.0
 11
18.9329901678716
 21
84.23984738025835
 31
0.0
 12
19.43175493975144
 22
87.24005299026769
 32
0.0
 13
19.43175493975144
 23
87.24005299026769
 33
0.0
  0
MTEXT
  5
100D8
330
100D0
100
AcDbEntity
  8
dimensions
  6
Continuous
 62
     0
440
 16777216
100
AcDbMText
 10
19.42969629703894
 20
92.24005211088051
 30
0.0
 40
3.0
 41
0.0
 46
0.0
 71
     5
 72
     1
  1
\A1;10.00
 73
     1
 44
1.0
  0
POINT
  5
100D9
330
100D0
100
AcDbEntity
  8
Defpoints
  6
Continuous
 62
     0
440
 16777216
100
AcDbPoint
 10
43.56579547411246
 20
97.24998960177902
 30
0.0
  0
POINT
  5
100DA
330
100D0
100
AcDbEntity
  8
Defpoints
  6
Continuous
 62
     0
440
 16777216
100
AcDbPoint
 10
43.56548667768055
 20
87.24998953820886
 30
0.0
  0
POINT
  5
100DB
330
100D0
100
AcDbEntity
  8
Defpoints
  6
Continuous
 62
     0
440
 16777216
100
AcDbPoint
 10
19.43175493975144
 20
87.24005299026769
 30
0.0
  0
ENDBLK
  5
100DC
330
100D0
100
AcDbEntity
  8
0
100
AcDbBlockEnd
  0
BLOCK
  5
100DE
330
100DD
100
AcDbEntity
  8
0
100
AcDbBlockBegin
  2
*D10
 70
     1
 10
0.0
 20
0.0
 30
0.0
  3
*D10
  1

  0
LINE
  5
100DF
330
100DD
100
AcDbEntity
  8
dimensions
  6
Continuous
 62
     0
440
 16777216
370
    -2
100
AcDbLine
 10
43.49475212498218
 20
117.9999290602306
 30
0.0
 11
19.23927000903378
 21
117.9899423841749
 31
0.0
  0
LINE
  5
100E0
330
100DD
100
AcDbEntity
  8
dimensions
  6
Continuous
 62
     0
440
 16777216
370
    -2
100
AcDbLine
 10
43.50298668294361
 20
122.9999742668899
 30
0.0
 11
19.23721134909125
 21
122.9899833528219
 31
0.0
  0
LINE
  5
100E1
330
100DD
100
AcDbEntity
  8
dimensions
  6
Continuous
 62
     0
440
 16777216
370
    -2
100
AcDbLine
 10
19.42050517951699
 20
114.9900167495999
 30
0.0
 11
19.42174036525704
 21
111.9900170038806
 31
0.0
  0
LINE
  5
100E2
330
100DD
100
AcDbEntity
  8
dimensions
  6
Continuous
 62
     0
440
 16777216
370
    -2
100
AcDbLine
 10
19.41597614809436
 20
125.9900572096857
 30
0.0
 11
19.41474096235431
 21
128.990056955405
 31
0.0
  0
LINE
  5
100E3
330
100DD
100
AcDbEntity
  8
dimensions
  6
Continuous
 62
     0
440
 16777216
370
    -2
100
AcDbLine
 10
19.41474096235431
 20
128.990056955405
 30
0.0
 11
16.41474096235431
 21
128.990056955405
 31
0.0
  0
SOLID
  5
100E4
330
100DD
100
AcDbEntity
  8
dimensions
  6
Continuous
 62
     0
440
 16777216
100
AcDbTrace
 10
19.92050513713688
 20
114.99022261389
 30
0.0
 11
18.9205052218971
 21
114.9898108853099
 31
0.0
 12
19.41926999377695
 22
117.9900164953193
 32
0.0
 13
19.41926999377695
 23
117.9900164953193
 33
0.0
  0
SOLID
  5
100E5
330
100DD
100
AcDbEntity
  8
dimensions
  6
Continuous
 62
     0
440
 16777216
100
AcDbTrace
 10
19.91597610571425
 20
125.9902630739757
 30
0.0
 11
18.91597619047447
 21
125.9898513453956
 31
0.0
 12
19.41721133383441
 22
122.9900574639663
 32
0.0
 13
19.41721133383441
 23
122.9900574639663
 33
0.0
  0
MTEXT
  5
100E6
330
100DD
100
AcDbEntity
  8
dimensions
  6
Continuous
 62
     0
440
 16777216
100
AcDbMText
 10
9.84331239092574
 20
128.990056955405
 30
0.0
 40
3.0
 41
0.0
 46
0.0
 71
     5
 72
     1
  1
\A1;5.00
 73
     1
 44
1.0
  0
POINT
  5
100E7
330
100DD
100
AcDbEntity
  8
Defpoints
  6
Continuous
 62
     0
440
 16777216
100
AcDbPoint
 10
43.55725211968467
 20
117.9999547932668
 30
0.0
  0
POINT
  5
100E8
330
100DD
100
AcDbEntity
  8
Defpoints
  6
Continuous
 62
     0
440
 16777216
100
AcDbPoint
 10
43.56548667764609
 20
122.9999999999262
 30
0.0
  0
POINT
  5
100E9
330
100DD
100
AcDbEntity
  8
Defpoints
  6
Continuous
 62
     0
440
 16777216
100
AcDbPoint
 10
19.41721133383441
 20
122.9900574639663
 30
0.0
  0
ENDBLK
  5
100EA
330
100DD
100
AcDbEntity
  8
0
100
AcDbBlockEnd
  0
BLOCK
  5
100EC
330
100EB
100
AcDbEntity
  8
0
100
AcDbBlockBegin
  2
*D11
 70
     1
 10
0.0
 20
0.0
 30
0.0
  3
*D11
  1

  0
LINE
  5
100ED
330
100EB
100
AcDbEntity
  8
dimensions
  6
Continuous
 62
     0
440
 16777216
370
    -2
100
AcDbLine
 10
42.81548667765206
 20
52.25812589162343
 30
0.0
 11
42.81548667765206
 21
52.37562589162343
 31
0.0
  0
LINE
  5
100EE
330
100EB
100
AcDbEntity
  8
dimensions
  6
Continuous
 62
     0
440
 16777216
370
    -2
100
AcDbLine
 10
44.31548667770274
 20
52.25812589162343
 30
0.0
 11
44.31548667770274
 21
52.37562589162343
 31
0.0
  0
LINE
  5
100EF
330
100EB
100
AcDbEntity
  8
dimensions
  6
Continuous
 62
     0
440
 16777216
370
    -2
100
AcDbLine
 10
47.31548667770275
 20
52.19562589162343
 30
0.0
 11
50.31548667770277
 21
52.19562589162343
 31
0.0
  0
LINE
  5
100F0
330
100EB
100
AcDbEntity
  8
dimensions
  6
Continuous
 62
     0
440
 16777216
370
    -2
100
AcDbLine
 10
39.81548667765207
 20
52.19562589162343
 30
0.0
 11
25.73189801889554
 21
52.19562589162343
 31
0.0
  0
SOLID
  5
100F1
330
100EB
100
AcDbEntity
  8
dimensions
  6
Continuous
 62
     0
440
 16777216
100
AcDbTrace
 10
47.31548667770275
 20
52.69562589162343
 30
0.0
 11
47.31548667770275
 21
51.69562589162342
 31
0.0
 12
44.31548667770274
 22
52.19562589162343
 32
0.0
 13
44.31548667770274
 23
52.19562589162343
 33
0.0
  0
SOLID
  5
100F2
330
100EB
100
AcDbEntity
  8
dimensions
  6
Continuous
 62
     0
440
 16777216
100
AcDbTrace
 10
39.81548667765207
 20
52.69562589162343
 30
0.0
 11
39.81548667765207
 21
51.69562589162342
 31
0.0
 12
42.81548667765206
 22
52.19562589162343
 32
0.0
 13
42.81548667765206
 23
52.19562589162343
 33
0.0
  0
MTEXT
  5
100F3
330
100EB
100
AcDbEntity
  8
dimensions
  6
Continuous
 62
     0
440
 16777216
100
AcDbMText
 10
19.44618373318125
 20
52.19562589162343
 30
0.0
 40
3.0
 41
0.0
 46
0.0
 71
     5
 72
     1
  1
\A1;1.50
 73
     1
 44
1.0
  0
POINT
  5
100F4
330
100EB
100
AcDbEntity
  8
Defpoints
  6
Continuous
 62
     0
440
 16777216
100
AcDbPoint
 10
42.81548667765206
 20
52.19562589162343
 30
0.0
  0
POINT
  5
100F5
330
100EB
100
AcDbEntity
  8
Defpoints
  6
Continuous
 62
     0
440
 16777216
100
AcDbPoint
 10
44.31548667770274
 20
52.19562589162343
 30
0.0
  0
POINT
  5
100F6
330
100EB
100
AcDbEntity
  8
Defpoints
  6
Continuous
 62
     0
440
 16777216
100
AcDbPoint
 10
44.31548667770274
 20
52.19562589162343
 30
0.0
  0
ENDBLK
  5
100F7
330
100EB
100
AcDbEntity
  8
0
100
AcDbBlockEnd
  0
BLOCK
  5
100F9
330
100F8
100
AcDbEntity
  8
0
100
AcDbBlockBegin
  2
*D12
 70
     1
 10
0.0
 20
0.0
 30
0.0
  3
*D12
  1

  0
LINE
  5
100FA
330
100F8
100
AcDbEntity
  8
dimensions
  6
Continuous
 62
     0
440
 16777216
370
    -2
100
AcDbLine
 10
195.2425609205884
 20
17.36301281199508
 30
0.0
 11
192.2425609205884
 21
17.36301281199509
 31
0.0
  0
LINE
  5
100FB
330
100F8
100
AcDbEntity
  8
dimensions
  6
Continuous
 62
     0
440
 16777216
370
    -2
100
AcDbLine
 10
192.2425609205884
 20
17.36301281199509
 30
0.0
 11
190.3717287735259
 21
15.01780768716755
 31
0.0
  0
MTEXT
  5
100FC
330
100F8
100
AcDbEntity
  8
dimensions
  6
Continuous
 62
     0
440
 16777216
100
AcDbMText
 10
203.1711323491598
 20
17.36301281199506
 30
0.0
 40
3.0
 41
0.0
 46
0.0
 71
     5
 72
     1
  1
\A1;∅3.00
 73
     1
 44
1.0
  0
SOLID
  5
100FD
330
100F8
100
AcDbEntity
  8
dimensions
  6
Continuous
 62
     0
440
 16777216
100
AcDbTrace
 10
189.9808612527213
 20
15.3296130450113
 30
0.0
 11
190.7625962943304
 21
14.70600232932378
 31
0.0
 12
188.5008966264633
 22
12.67260256234
 32
0.0
 13
188.5008966264633
 23
12.67260256234
 33
0.0
  0
LINE
  5
100FE
330
100F8
100
AcDbEntity
  8
dimensions
  6
Continuous
 62
     0
440
 16777216
370
    -2
100
AcDbLine
 10
187.4754805529321
 20
11.49999999992626
 30
0.0
 11
187.6554805529321
 21
11.49999999992622
 31
0.0
  0
LINE
  5
100FF
330
100F8
100
AcDbEntity
  8
dimensions
  6
Continuous
 62
     0
440
 16777216
370
    -2
100
AcDbLine
 10
187.5654805529321
 20
11.40999999992623
 30
0.0
 11
187.5654805529321
 21
11.58999999992623
 31
0.0
  0
POINT
  5
10100
330
100F8
100
AcDbEntity
  8
Defpoints
  6
Continuous
 62
     0
440
 16777216
100
AcDbPoint
 10
188.5008966264633
 20
12.67260256234
 30
0.0
  0
POINT
  5
10101
330
100F8
100
AcDbEntity
  8
Defpoints
  6
Continuous
 62
     0
440
 16777216
100
AcDbPoint
 10
186.6300644794008
 20
10.32739743751246
 30
0.0
  0
ENDBLK
  5
10102
330
100F8
100
AcDbEntity
  8
0
100
AcDbBlockEnd
  0
BLOCK
  5
10104
330
10103
100
AcDbEntity
  8
0
100
AcDbBlockBegin
  2
*D13
 70
     1
 10
0.0
 20
0.0
 30
0.0
  3
*D13
  1

  0
LINE
  5
10105
330
10103
100
AcDbEntity
  8
dimensions
  6
Continuous
 62
     0
440
 16777216
370
    -2
100
AcDbLine
 10
72.38286660781124
 20
79.26249999996311
 30
0.0
 11
72.38286660781124
 21
93.73313580988035
 31
0.0
  0
LINE
  5
10106
330
10103
100
AcDbEntity
  8
dimensions
  6
Continuous
 62
     0
440
 16777216
370
    -2
100
AcDbLine
 10
81.18286660781123
 20
79.2624999999631
 30
0.0
 11
81.18286660781123
 21
93.73313580988035
 31
0.0
  0
LINE
  5
10107
330
10103
100
AcDbEntity
  8
dimensions
  6
Continuous
 62
     0
440
 16777216
370
    -2
100
AcDbLine
 10
69.38286660781122
 20
93.55313580988035
 30
0.0
 11
66.38286660781123
 21
93.55313580988035
 31
0.0
  0
LINE
  5
10108
330
10103
100
AcDbEntity
  8
dimensions
  6
Continuous
 62
     0
440
 16777216
370
    -2
100
AcDbLine
 10
84.18286660781124
 20
93.55313580988035
 30
0.0
 11
87.18286660781123
 21
93.55313580988035
 31
0.0
  0
SOLID
  5
10109
330
10103
100
AcDbEntity
  8
dimensions
  6
Continuous
 62
     0
440
 16777216
100
AcDbTrace
 10
69.38286660781122
 20
94.05313580988034
 30
0.0
 11
69.38286660781122
 21
93.05313580988034
 31
0.0
 12
72.38286660781124
 22
93.55313580988035
 32
0.0
 13
72.38286660781124
 23
93.55313580988035
 33
0.0
  0
SOLID
  5
1010A
330
10103
100
AcDbEntity
  8
dimensions
  6
Continuous
 62
     0
440
 16777216
100
AcDbTrace
 10
84.18286660781124
 20
94.05313580988034
 30
0.0
 11
84.18286660781124
 21
93.05313580988034
 31
0.0
 12
81.18286660781123
 22
93.55313580988035
 32
0.0
 13
81.18286660781123
 23
93.55313580988035
 33
0.0
  0
MTEXT
  5
1010B
330
10103
100
AcDbEntity
  8
dimensions
  6
Continuous
 62
     0
440
 16777216
100
AcDbMText
 10
93.75429517923979
 20
93.55313580988035
 30
0.0
 40
3.0
 41
0.0
 46
0.0
 71
     5
 72
     1
  1
\A1;8.80
 73
     1
 44
1.0
  0
POINT
  5
1010C
330
10103
100
AcDbEntity
  8
Defpoints
  6
Continuous
 62
     0
440
 16777216
100
AcDbPoint
 10
72.38286660781124
 20
79.19999999996311
 30
0.0
  0
POINT
  5
1010D
330
10103
100
AcDbEntity
  8
Defpoints
  6
Continuous
 62
     0
440
 16777216
100
AcDbPoint
 10
81.18286660781123
 20
79.1999999999631
 30
0.0
  0
POINT
  5
1010E
330
10103
100
AcDbEntity
  8
Defpoints
  6
Continuous
 62
     0
440
 16777216
100
AcDbPoint
 10
81.18286660781123
 20
93.55313580988035
 30
0.0
  0
ENDBLK
  5
1010F
330
10103
100
AcDbEntity
  8
0
100
AcDbBlockEnd
  0
BLOCK
  5
10111
330
10110
100
AcDbEntity
  8
0
100
AcDbBlockBegin
  2
*D14
 70
     1
 10
0.0
 20
0.0
 30
0.0
  3
*D14
  1

  0
LINE
  5
10112
330
10110
100
AcDbEntity
  8
dimensions
  6
Continuous
 62
     0
440
 16777216
370
    -2
100
AcDbLine
 10
76.84536660781123
 20
81.44999999996311
 30
0.0
 11
95.34715090148049
 21
81.44999999996311
 31
0.0
  0
LINE
  5
10113
330
10110
100
AcDbEntity
  8
dimensions
  6
Continuous
 62
     0
440
 16777216
370
    -2
100
AcDbLine
 10
76.84536660781123
 20
76.94999999996309
 30
0.0
 11
95.34715090148049
 21
76.94999999996309
 31
0.0
  0
LINE
  5
10114
330
10110
100
AcDbEntity
  8
dimensions
  6
Continuous
 62
     0
440
 16777216
370
    -2
100
AcDbLine
 10
95.16715090148045
 20
84.4499999999631
 30
0.0
 11
95.16715090148045
 21
87.44999999996311
 31
0.0
  0
LINE
  5
10115
330
10110
100
AcDbEntity
  8
dimensions
  6
Continuous
 62
     0
440
 16777216
370
    -2
100
AcDbLine
 10
95.16715090148045
 20
73.9499999999631
 30
0.0
 11
95.16715090148045
 21
70.9499999999631
 31
0.0
  0
SOLID
  5
10116
330
10110
100
AcDbEntity
  8
dimensions
  6
Continuous
 62
     0
440
 16777216
100
AcDbTrace
 10
94.66715090148047
 20
84.4499999999631
 30
0.0
 11
95.66715090148049
 21
84.4499999999631
 31
0.0
 12
95.16715090148045
 22
81.44999999996311
 32
0.0
 13
95.16715090148045
 23
81.44999999996311
 33
0.0
  0
SOLID
  5
10117
330
10110
100
AcDbEntity
  8
dimensions
  6
Continuous
 62
     0
440
 16777216
100
AcDbTrace
 10
94.66715090148047
 20
73.9499999999631
 30
0.0
 11
95.66715090148049
 21
73.9499999999631
 31
0.0
 12
95.16715090148045
 22
76.94999999996309
 32
0.0
 13
95.16715090148045
 23
76.94999999996309
 33
0.0
  0
MTEXT
  5
10118
330
10110
100
AcDbEntity
  8
dimensions
  6
Continuous
 62
     0
440
 16777216
100
AcDbMText
 10
95.16715090148045
 20
79.19999999996313
 30
0.0
 40
3.0
 41
0.0
 46
0.0
 71
     5
 72
     1
  1
\A1;4.50
 73
     1
 44
1.0
  0
POINT
  5
10119
330
10110
100
AcDbEntity
  8
Defpoints
  6
Continuous
 62
     0
440
 16777216
100
AcDbPoint
 10
76.78286660781123
 20
81.44999999996311
 30
0.0
  0
POINT
  5
1011A
330
10110
100
AcDbEntity
  8
Defpoints
  6
Continuous
 62
     0
440
 16777216
100
AcDbPoint
 10
76.78286660781123
 20
76.94999999996309
 30
0.0
  0
POINT
  5
1011B
330
10110
100
AcDbEntity
  8
Defpoints
  6
Continuous
 62
     0
440
 16777216
100
AcDbPoint
 10
95.16715090148045
 20
76.94999999996309
 30
0.0
  0
ENDBLK
  5
1011C
330
10110
100
AcDbEntity
  8
0
100
AcDbBlockEnd
  0
BLOCK
  5
1017D
330
1017C
100
AcDbEntity
  8
0
100
AcDbBlockBegin
  2
*D15
 70
     1
 10
0.0
 20
0.0
 30
0.0
  3
*D15
  1

  0
LINE
  5
1023A
330
1017C
100
AcDbEntity
  8
dimensions
  6
Continuous
 62
     0
440
 16777216
370
    -2
100
AcDbLine
 10
87.26382211403189
 20
277.5666098828865
 30
0.0
 11
84.26382211403184
 21
277.5666098828864
 31
0.0
  0
LINE
  5
1023B
330
1017C
100
AcDbEntity
  8
dimensions
  6
Continuous
 62
     0
440
 16777216
370
    -2
100
AcDbLine
 10
84.26382211403184
 20
277.5666098828864
 30
0.0
 11
82.39298996696938
 21
275.2214047580588
 31
0.0
  0
MTEXT
  5
1023C
330
1017C
100
AcDbEntity
  8
dimensions
  6
Continuous
 62
     0
440
 16777216
100
AcDbMText
 10
95.19239354260333
 20
277.5666098828864
 30
0.0
 40
3.0
 41
0.0
 46
0.0
 71
     5
 72
     1
  1
\A1;∅3.00
 73
     1
 44
1.0
  0
SOLID
  5
1023D
330
1017C
100
AcDbEntity
  8
dimensions
  6
Continuous
 62
     0
440
 16777216
100
AcDbTrace
 10
82.00212244616478
 20
275.5332101159026
 30
0.0
 11
82.78385748777399
 21
274.9095994002151
 31
0.0
 12
80.52215781990692
 22
272.8761996332313
 32
0.0
 13
80.52215781990692
 23
272.8761996332313
 33
0.0
  0
LINE
  5
1023E
330
1017C
100
AcDbEntity
  8
dimensions
  6
Continuous
 62
     0
440
 16777216
370
    -2
100
AcDbLine
 10
79.49674174637563
 20
271.7035970708174
 30
0.0
 11
79.67674174637562
 21
271.7035970708174
 31
0.0
  0
LINE
  5
1023F
330
1017C
100
AcDbEntity
  8
dimensions
  6
Continuous
 62
     0
440
 16777216
370
    -2
100
AcDbLine
 10
79.58674174637565
 20
271.6135970708174
 30
0.0
 11
79.58674174637562
 21
271.7935970708174
 31
0.0
  0
POINT
  5
10240
330
1017C
100
AcDbEntity
  8
Defpoints
  6
Continuous
 62
     0
440
 16777216
100
AcDbPoint
 10
80.52215781990692
 20
272.8761996332313
 30
0.0
  0
POINT
  5
10241
330
1017C
100
AcDbEntity
  8
Defpoints
  6
Continuous
 62
     0
440
 16777216
100
AcDbPoint
 10
78.6513256728444
 20
270.5309945084036
 30
0.0
  0
ENDBLK
  5
1017E
330
1017C
100
AcDbEntity
  8
0
100
AcDbBlockEnd
  0
BLOCK
  5
10188
330
10187
100
AcDbEntity
  8
0
100
AcDbBlockBegin
  2
*D16
 70
     1
 10
0.0
 20
0.0
 30
0.0
  3
*D16
  1

  0
LINE
  5
10242
330
10187
100
AcDbEntity
  8
dimensions
  6
Continuous
 62
     0
440
 16777216
370
    -2
100
AcDbLine
 10
3.26815823881418
 20
308.4753898974197
 30
0.0
 11
8.268158238814834
 21
308.4753898974196
 31
0.0
  0
LINE
  5
10243
330
10187
100
AcDbEntity
  8
dimensions
  6
Continuous
 62
     0
440
 16777216
370
    -2
100
AcDbLine
 10
8.268158238814834
 20
308.4753898974196
 30
0.0
 11
18.50501313629277
 21
292.4367613770932
 31
0.0
  0
MTEXT
  5
10244
330
10187
100
AcDbEntity
  8
dimensions
  6
Continuous
 62
     0
440
 16777216
100
AcDbMText
 10
-4.374698904042984
 20
308.4753898974196
 30
0.0
 40
3.0
 41
0.0
 46
0.0
 71
     5
 72
     1
  1
\A1;∅4.12
 73
     1
 44
1.0
  0
SOLID
  5
10245
330
10187
100
AcDbEntity
  8
dimensions
  6
Continuous
 62
     0
440
 16777216
100
AcDbTrace
 10
19.20745958419687
 20
292.8851065926039
 30
0.0
 11
17.80256668838868
 21
291.9884161615824
 31
0.0
 12
21.19508442935734
 22
288.2220826896687
 32
0.0
 13
21.19508442935734
 23
288.2220826896687
 33
0.0
  0
LINE
  5
10246
330
10187
100
AcDbEntity
  8
dimensions
  6
Continuous
 62
     0
440
 16777216
370
    -2
100
AcDbLine
 10
22.21473883768624
 20
286.4835277312005
 30
0.0
 11
22.39473883768626
 21
286.4835277312005
 31
0.0
  0
LINE
  5
10247
330
10187
100
AcDbEntity
  8
dimensions
  6
Continuous
 62
     0
440
 16777216
370
    -2
100
AcDbLine
 10
22.30473883768626
 20
286.3935277312005
 30
0.0
 11
22.30473883768623
 21
286.5735277312004
 31
0.0
  0
POINT
  5
10248
330
10187
100
AcDbEntity
  8
Defpoints
  6
Continuous
 62
     0
440
 16777216
100
AcDbPoint
 10
21.19508442935734
 20
288.2220826896687
 30
0.0
  0
POINT
  5
10249
330
10187
100
AcDbEntity
  8
Defpoints
  6
Continuous
 62
     0
440
 16777216
100
AcDbPoint
 10
23.41439324601514
 20
284.7449727727322
 30
0.0
  0
ENDBLK
  5
10189
330
10187
100
AcDbEntity
  8
0
100
AcDbBlockEnd
  0
BLOCK
  5
10193
330
10192
100
AcDbEntity
  8
0
100
AcDbBlockBegin
  2
*D17
 70
     1
 10
0.0
 20
0.0
 30
0.0
  3
*D17
  1

  0
LINE
  5
1024A
330
10192
100
AcDbEntity
  8
dimensions
  6
Continuous
 62
     0
440
 16777216
370
    -2
100
AcDbLine
 10
23.35189324601516
 20
286.7040340343727
 30
0.0
 11
-7.333367891509412
 21
286.7040340343727
 31
0.0
  0
LINE
  5
1024B
330
10192
100
AcDbEntity
  8
dimensions
  6
Continuous
 62
     0
440
 16777216
370
    -2
100
AcDbLine
 10
23.35189324601521
 20
163.7035970872944
 30
0.0
 11
-7.333367891509442
 21
163.7035970872944
 31
0.0
  0
LINE
  5
1024C
330
10192
100
AcDbEntity
  8
dimensions
  6
Continuous
 62
     0
440
 16777216
370
    -2
100
AcDbLine
 10
-7.153367891509418
 20
281.7040340343727
 30
0.0
 11
-7.153367891509429
 21
228.7038155608335
 31
0.0
  0
LINE
  5
1024D
330
10192
100
AcDbEntity
  8
dimensions
  6
Continuous
 62
     0
440
 16777216
370
    -2
100
AcDbLine
 10
-7.153367891509442
 20
168.7035970872944
 30
0.0
 11
-7.153367891509429
 21
221.7038155608335
 31
0.0
  0
SOLID
  5
1024E
330
10192
100
AcDbEntity
  8
dimensions
  6
Continuous
 62
     0
440
 16777216
100
AcDbTrace
 10
-7.986701224842747
 20
281.7040340343727
 30
0.0
 11
-6.320034558176081
 21
281.7040340343727
 31
0.0
 12
-7.153367891509414
 22
286.7040340343727
 32
0.0
 13
-7.153367891509414
 23
286.7040340343727
 33
0.0
  0
SOLID
  5
1024F
330
10192
100
AcDbEntity
  8
dimensions
  6
Continuous
 62
     0
440
 16777216
100
AcDbTrace
 10
-7.986701224842772
 20
168.7035970872944
 30
0.0
 11
-6.320034558176107
 21
168.7035970872944
 31
0.0
 12
-7.153367891509442
 22
163.7035970872944
 32
0.0
 13
-7.153367891509442
 23
163.7035970872944
 33
0.0
  0
MTEXT
  5
10250
330
10192
100
AcDbEntity
  8
dimensions
  6
Continuous
 62
     0
440
 16777216
100
AcDbMText
 10
-7.153367891509462
 20
225.2038155608335
 30
0.0
 40
3.0
 41
0.0
 46
0.0
 71
     5
 72
     1
  1
\A1;123.00
 73
     1
 44
1.0
  0
POINT
  5
10251
330
10192
100
AcDbEntity
  8
Defpoints
  6
Continuous
 62
     0
440
 16777216
100
AcDbPoint
 10
23.41439324601516
 20
286.7040340343727
 30
0.0
  0
POINT
  5
10252
330
10192
100
AcDbEntity
  8
Defpoints
  6
Continuous
 62
     0
440
 16777216
100
AcDbPoint
 10
23.41439324601521
 20
163.7035970872944
 30
0.0
  0
POINT
  5
10253
330
10192
100
AcDbEntity
  8
Defpoints
  6
Continuous
 62
     0
440
 16777216
100
AcDbPoint
 10
-7.153367891509442
 20
163.7035970872944
 30
0.0
  0
ENDBLK
  5
10194
330
10192
100
AcDbEntity
  8
0
100
AcDbBlockEnd
  0
BLOCK
  5
101A0
330
1019F
100
AcDbEntity
  8
0
100
AcDbBlockBegin
  2
*D18
 70
     1
 10
0.0
 20
0.0
 30
0.0
  3
*D18
  1

  0
LINE
  5
10254
330
1019F
100
AcDbEntity
  8
dimensions
  6
Continuous
 62
     0
440
 16777216
370
    -2
100
AcDbLine
 10
21.45534014760903
 20
284.8074727721991
 30
0.0
 11
21.46190170372172
 21
335.0445771856881
 31
0.0
  0
LINE
  5
10255
330
1019F
100
AcDbEntity
  8
dimensions
  6
Continuous
 62
     0
440
 16777216
370
    -2
100
AcDbLine
 10
338.2393843024513
 20
284.7660970538811
 30
0.0
 11
338.245945858564
 21
335.0032014673701
 31
0.0
  0
LINE
  5
10256
330
1019F
100
AcDbEntity
  8
dimensions
  6
Continuous
 62
     0
440
 16777216
370
    -2
100
AcDbLine
 10
26.46187815095838
 20
334.86392412848
 30
0.0
 11
170.7110431281709
 21
334.8450834926341
 31
0.0
  0
LINE
  5
10257
330
1019F
100
AcDbEntity
  8
dimensions
  6
Continuous
 62
     0
440
 16777216
370
    -2
100
AcDbLine
 10
333.2459223910978
 20
334.8238545276489
 30
0.0
 11
188.996757413885
 21
334.8426951634948
 31
0.0
  0
SOLID
  5
10258
330
1019F
100
AcDbEntity
  8
dimensions
  6
Continuous
 62
     0
440
 16777216
100
AcDbTrace
 10
26.46198699408229
 20
335.6972574547052
 30
0.0
 11
26.46176930783447
 21
334.0305908022549
 31
0.0
 12
21.46187819360695
 22
334.8645771872235
 32
0.0
 13
21.46187819360695
 23
334.8645771872235
 33
0.0
  0
SOLID
  5
10259
330
1019F
100
AcDbEntity
  8
dimensions
  6
Continuous
 62
     0
440
 16777216
100
AcDbTrace
 10
333.2460312342217
 20
335.6571878538741
 30
0.0
 11
333.2458135479738
 21
333.9905212014237
 31
0.0
 12
338.2459223484492
 22
334.8232014689054
 32
0.0
 13
338.2459223484492
 23
334.8232014689054
 33
0.0
  0
MTEXT
  5
1025A
330
1019F
100
AcDbEntity
  8
dimensions
  6
Continuous
 62
     0
440
 16777216
100
AcDbMText
 10
179.853900271028
 20
334.8438893280644
 30
0.0
 40
3.0
 41
0.0
 46
0.0
 71
     5
 72
     1
  1
\A1;316.78
 73
     1
 44
1.0
  0
POINT
  5
1025B
330
1019F
100
AcDbEntity
  8
Defpoints
  6
Continuous
 62
     0
440
 16777216
100
AcDbPoint
 10
21.45533198437473
 20
284.7449727727323
 30
0.0
  0
POINT
  5
1025C
330
1019F
100
AcDbEntity
  8
Defpoints
  6
Continuous
 62
     0
440
 16777216
100
AcDbPoint
 10
338.239376139217
 20
284.7035970544141
 30
0.0
  0
POINT
  5
1025D
330
1019F
100
AcDbEntity
  8
Defpoints
  6
Continuous
 62
     0
440
 16777216
100
AcDbPoint
 10
338.2459223484492
 20
334.8232014689054
 30
0.0
  0
ENDBLK
  5
101A1
330
1019F
100
AcDbEntity
  8
0
100
AcDbBlockEnd
  0
BLOCK
  5
101AD
330
101AC
100
AcDbEntity
  8
0
100
AcDbBlockBegin
  2
*D19
 70
     1
 10
0.0
 20
0.0
 30
0.0
  3
*D19
  1

  0
LINE
  5
1025E
330
101AC
100
AcDbEntity
  8
dimensions
  6
Continuous
 62
     0
440
 16777216
370
    -2
100
AcDbLine
 10
21.45576896433329
 20
284.7660970544142
 30
0.0
 11
21.45576896433329
 21
320.0823187395003
 31
0.0
  0
LINE
  5
1025F
330
101AC
100
AcDbEntity
  8
dimensions
  6
Continuous
 62
     0
440
 16777216
370
    -2
100
AcDbLine
 10
65.02125506872943
 20
286.7660970544142
 30
0.0
 11
65.02125506872943
 21
320.0823187395003
 31
0.0
  0
LINE
  5
10260
330
101AC
100
AcDbEntity
  8
dimensions
  6
Continuous
 62
     0
440
 16777216
370
    -2
100
AcDbLine
 10
26.45576896433329
 20
319.9023187395003
 30
0.0
 11
35.23851201653136
 21
319.9023187395003
 31
0.0
  0
LINE
  5
10261
330
101AC
100
AcDbEntity
  8
dimensions
  6
Continuous
 62
     0
440
 16777216
370
    -2
100
AcDbLine
 10
60.02125506872943
 20
319.9023187395003
 30
0.0
 11
51.23851201653136
 21
319.9023187395003
 31
0.0
  0
SOLID
  5
10262
330
101AC
100
AcDbEntity
  8
dimensions
  6
Continuous
 62
     0
440
 16777216
100
AcDbTrace
 10
26.45576896433329
 20
320.7356520728337
 30
0.0
 11
26.45576896433329
 21
319.068985406167
 31
0.0
 12
21.45576896433329
 22
319.9023187395003
 32
0.0
 13
21.45576896433329
 23
319.9023187395003
 33
0.0
  0
SOLID
  5
10263
330
101AC
100
AcDbEntity
  8
dimensions
  6
Continuous
 62
     0
440
 16777216
100
AcDbTrace
 10
60.02125506872943
 20
320.7356520728337
 30
0.0
 11
60.02125506872943
 21
319.068985406167
 31
0.0
 12
65.02125506872943
 22
319.9023187395003
 32
0.0
 13
65.02125506872943
 23
319.9023187395003
 33
0.0
  0
MTEXT
  5
10264
330
101AC
100
AcDbEntity
  8
dimensions
  6
Continuous
 62
     0
440
 16777216
100
AcDbMText
 10
43.23851201653136
 20
319.9023187395003
 30
0.0
 40
3.0
 41
0.0
 46
0.0
 71
     5
 72
     1
  1
\A1;43.57
 73
     1
 44
1.0
  0
POINT
  5
10265
330
101AC
100
AcDbEntity
  8
Defpoints
  6
Continuous
 62
     0
440
 16777216
100
AcDbPoint
 10
21.45576896433329
 20
284.7035970544141
 30
0.0
  0
POINT
  5
10266
330
101AC
100
AcDbEntity
  8
Defpoints
  6
Continuous
 62
     0
440
 16777216
100
AcDbPoint
 10
65.02125506872943
 20
286.7035970544142
 30
0.0
  0
POINT
  5
10267
330
101AC
100
AcDbEntity
  8
Defpoints
  6
Continuous
 62
     0
440
 16777216
100
AcDbPoint
 10
65.02125506872943
 20
319.9023187395003
 30
0.0
  0
ENDBLK
  5
101AE
330
101AC
100
AcDbEntity
  8
0
100
AcDbBlockEnd
  0
BLOCK
  5
101BA
330
101B9
100
AcDbEntity
  8
0
100
AcDbBlockBegin
  2
*D20
 70
     1
 10
0.0
 20
0.0
 30
0.0
  3
*D20
  1

  0
LINE
  5
10268
330
101B9
100
AcDbEntity
  8
dimensions
  6
Continuous
 62
     0
440
 16777216
370
    -2
100
AcDbLine
 10
65.02125506872943
 20
286.7660970544142
 30
0.0
 11
65.02125506872943
 21
320.0823187395003
 31
0.0
  0
LINE
  5
10269
330
101B9
100
AcDbEntity
  8
dimensions
  6
Continuous
 62
     0
440
 16777216
370
    -2
100
AcDbLine
 10
132.0978733665504
 20
286.7660970708174
 30
0.0
 11
132.0978733665504
 21
320.0823187395003
 31
0.0
  0
LINE
  5
1026A
330
101B9
100
AcDbEntity
  8
dimensions
  6
Continuous
 62
     0
440
 16777216
370
    -2
100
AcDbLine
 10
70.02125506872943
 20
319.9023187395003
 30
0.0
 11
90.55956421763992
 21
319.9023187395003
 31
0.0
  0
LINE
  5
1026B
330
101B9
100
AcDbEntity
  8
dimensions
  6
Continuous
 62
     0
440
 16777216
370
    -2
100
AcDbLine
 10
127.0978733665504
 20
319.9023187395003
 30
0.0
 11
106.5595642176399
 21
319.9023187395003
 31
0.0
  0
SOLID
  5
1026C
330
101B9
100
AcDbEntity
  8
dimensions
  6
Continuous
 62
     0
440
 16777216
100
AcDbTrace
 10
70.02125506872943
 20
320.7356520728337
 30
0.0
 11
70.02125506872943
 21
319.068985406167
 31
0.0
 12
65.02125506872943
 22
319.9023187395003
 32
0.0
 13
65.02125506872943
 23
319.9023187395003
 33
0.0
  0
SOLID
  5
1026D
330
101B9
100
AcDbEntity
  8
dimensions
  6
Continuous
 62
     0
440
 16777216
100
AcDbTrace
 10
127.0978733665504
 20
320.7356520728337
 30
0.0
 11
127.0978733665504
 21
319.068985406167
 31
0.0
 12
132.0978733665504
 22
319.9023187395003
 32
0.0
 13
132.0978733665504
 23
319.9023187395003
 33
0.0
  0
MTEXT
  5
1026E
330
101B9
100
AcDbEntity
  8
dimensions
  6
Continuous
 62
     0
440
 16777216
100
AcDbMText
 10
98.55956421763991
 20
319.9023187395003
 30
0.0
 40
3.0
 41
0.0
 46
0.0
 71
     5
 72
     1
  1
\A1;67.08
 73
     1
 44
1.0
  0
POINT
  5
1026F
330
101B9
100
AcDbEntity
  8
Defpoints
  6
Continuous
 62
     0
440
 16777216
100
AcDbPoint
 10
65.02125506872943
 20
286.7035970544142
 30
0.0
  0
POINT
  5
10270
330
101B9
100
AcDbEntity
  8
Defpoints
  6
Continuous
 62
     0
440
 16777216
100
AcDbPoint
 10
132.0978733665504
 20
286.7035970708173
 30
0.0
  0
POINT
  5
10271
330
101B9
100
AcDbEntity
  8
Defpoints
  6
Continuous
 62
     0
440
 16777216
100
AcDbPoint
 10
132.0978733665504
 20
319.9023187395003
 30
0.0
  0
ENDBLK
  5
101BB
330
101B9
100
AcDbEntity
  8
0
100
AcDbBlockEnd
  0
BLOCK
  5
101C7
330
101C6
100
AcDbEntity
  8
0
100
AcDbBlockBegin
  2
*D21
 70
     1
 10
0.0
 20
0.0
 30
0.0
  3
*D21
  1

  0
LINE
  5
10272
330
101C6
100
AcDbEntity
  8
dimensions
  6
Continuous
 62
     0
440
 16777216
370
    -2
100
AcDbLine
 10
132.0978733665504
 20
286.7660970708174
 30
0.0
 11
132.0978733665504
 21
320.0823187395003
 31
0.0
  0
LINE
  5
10273
330
101C6
100
AcDbEntity
  8
dimensions
  6
Continuous
 62
     0
440
 16777216
370
    -2
100
AcDbLine
 10
193.8241908495961
 20
286.7660970544142
 30
0.0
 11
193.8241908495961
 21
320.0823187395003
 31
0.0
  0
LINE
  5
10274
330
101C6
100
AcDbEntity
  8
dimensions
  6
Continuous
 62
     0
440
 16777216
370
    -2
100
AcDbLine
 10
137.0978733665504
 20
319.9023187395003
 30
0.0
 11
155.2467463937875
 21
319.9023187395003
 31
0.0
  0
LINE
  5
10275
330
101C6
100
AcDbEntity
  8
dimensions
  6
Continuous
 62
     0
440
 16777216
370
    -2
100
AcDbLine
 10
188.8241908495961
 20
319.9023187395003
 30
0.0
 11
170.675317822359
 21
319.9023187395003
 31
0.0
  0
SOLID
  5
10276
330
101C6
100
AcDbEntity
  8
dimensions
  6
Continuous
 62
     0
440
 16777216
100
AcDbTrace
 10
137.0978733665504
 20
320.7356520728337
 30
0.0
 11
137.0978733665504
 21
319.068985406167
 31
0.0
 12
132.0978733665504
 22
319.9023187395003
 32
0.0
 13
132.0978733665504
 23
319.9023187395003
 33
0.0
  0
SOLID
  5
10277
330
101C6
100
AcDbEntity
  8
dimensions
  6
Continuous
 62
     0
440
 16777216
100
AcDbTrace
 10
188.8241908495961
 20
320.7356520728337
 30
0.0
 11
188.8241908495961
 21
319.068985406167
 31
0.0
 12
193.8241908495961
 22
319.9023187395003
 32
0.0
 13
193.8241908495961
 23
319.9023187395003
 33
0.0
  0
MTEXT
  5
10278
330
101C6
100
AcDbEntity
  8
dimensions
  6
Continuous
 62
     0
440
 16777216
100
AcDbMText
 10
162.9610321080732
 20
319.9023187395003
 30
0.0
 40
3.0
 41
0.0
 46
0.0
 71
     5
 72
     1
  1
\A1;61.73
 73
     1
 44
1.0
  0
POINT
  5
10279
330
101C6
100
AcDbEntity
  8
Defpoints
  6
Continuous
 62
     0
440
 16777216
100
AcDbPoint
 10
132.0978733665504
 20
286.7035970708173
 30
0.0
  0
POINT
  5
1027A
330
101C6
100
AcDbEntity
  8
Defpoints
  6
Continuous
 62
     0
440
 16777216
100
AcDbPoint
 10
193.8241908495961
 20
286.7035970544142
 30
0.0
  0
POINT
  5
1027B
330
101C6
100
AcDbEntity
  8
Defpoints
  6
Continuous
 62
     0
440
 16777216
100
AcDbPoint
 10
193.8241908495961
 20
319.9023187395003
 30
0.0
  0
ENDBLK
  5
101C8
330
101C6
100
AcDbEntity
  8
0
100
AcDbBlockEnd
  0
BLOCK
  5
101D4
330
101D3
100
AcDbEntity
  8
0
100
AcDbBlockBegin
  2
*D22
 70
     1
 10
0.0
 20
0.0
 30
0.0
  3
*D22
  1

  0
LINE
  5
1027C
330
101D3
100
AcDbEntity
  8
dimensions
  6
Continuous
 62
     0
440
 16777216
370
    -2
100
AcDbLine
 10
193.8241908495961
 20
286.7660970544142
 30
0.0
 11
193.8241908495961
 21
320.0823187395003
 31
0.0
  0
LINE
  5
1027D
330
101D3
100
AcDbEntity
  8
dimensions
  6
Continuous
 62
     0
440
 16777216
370
    -2
100
AcDbLine
 10
338.239376139217
 20
284.7660970544142
 30
0.0
 11
338.239376139217
 21
320.0823187395003
 31
0.0
  0
LINE
  5
1027E
330
101D3
100
AcDbEntity
  8
dimensions
  6
Continuous
 62
     0
440
 16777216
370
    -2
100
AcDbLine
 10
198.8241908495961
 20
319.9023187395003
 30
0.0
 11
256.8889263515494
 21
319.9023187395003
 31
0.0
  0
LINE
  5
1027F
330
101D3
100
AcDbEntity
  8
dimensions
  6
Continuous
 62
     0
440
 16777216
370
    -2
100
AcDbLine
 10
333.239376139217
 20
319.9023187395003
 30
0.0
 11
275.1746406372638
 21
319.9023187395003
 31
0.0
  0
SOLID
  5
10280
330
101D3
100
AcDbEntity
  8
dimensions
  6
Continuous
 62
     0
440
 16777216
100
AcDbTrace
 10
198.8241908495961
 20
320.7356520728337
 30
0.0
 11
198.8241908495961
 21
319.068985406167
 31
0.0
 12
193.8241908495961
 22
319.9023187395003
 32
0.0
 13
193.8241908495961
 23
319.9023187395003
 33
0.0
  0
SOLID
  5
10281
330
101D3
100
AcDbEntity
  8
dimensions
  6
Continuous
 62
     0
440
 16777216
100
AcDbTrace
 10
333.239376139217
 20
320.7356520728337
 30
0.0
 11
333.239376139217
 21
319.068985406167
 31
0.0
 12
338.239376139217
 22
319.9023187395003
 32
0.0
 13
338.239376139217
 23
319.9023187395003
 33
0.0
  0
MTEXT
  5
10282
330
101D3
100
AcDbEntity
  8
dimensions
  6
Continuous
 62
     0
440
 16777216
100
AcDbMText
 10
266.0317834944066
 20
319.9023187395003
 30
0.0
 40
3.0
 41
0.0
 46
0.0
 71
     5
 72
     1
  1
\A1;144.42
 73
     1
 44
1.0
  0
POINT
  5
10283
330
101D3
100
AcDbEntity
  8
Defpoints
  6
Continuous
 62
     0
440
 16777216
100
AcDbPoint
 10
193.8241908495961
 20
286.7035970544142
 30
0.0
  0
POINT
  5
10284
330
101D3
100
AcDbEntity
  8
Defpoints
  6
Continuous
 62
     0
440
 16777216
100
AcDbPoint
 10
338.239376139217
 20
284.7035970544141
 30
0.0
  0
POINT
  5
10285
330
101D3
100
AcDbEntity
  8
Defpoints
  6
Continuous
 62
     0
440
 16777216
100
AcDbPoint
 10
338.239376139217
 20
319.9023187395003
 30
0.0
  0
ENDBLK
  5
101D5
330
101D3
100
AcDbEntity
  8
0
100
AcDbBlockEnd
  0
BLOCK
  5
101E1
330
101E0
100
AcDbEntity
  8
0
100
AcDbBlockBegin
  2
*D23
 70
     1
 10
0.0
 20
0.0
 30
0.0
  3
*D23
  1

  0
LINE
  5
10286
330
101E0
100
AcDbEntity
  8
dimensions
  6
Continuous
 62
     0
440
 16777216
370
    -2
100
AcDbLine
 10
64.95052051606549
 20
281.7035261311218
 30
0.0
 11
40.6950384001171
 21
281.6935394550661
 31
0.0
  0
LINE
  5
10287
330
101E0
100
AcDbEntity
  8
dimensions
  6
Continuous
 62
     0
440
 16777216
370
    -2
100
AcDbLine
 10
64.9590638704933
 20
260.9535609396339
 30
0.0
 11
40.70358175454492
 21
260.9435742635782
 31
0.0
  0
LINE
  5
10288
330
101E0
100
AcDbEntity
  8
dimensions
  6
Continuous
 62
     0
440
 16777216
370
    -2
100
AcDbLine
 10
40.87627357060031
 20
278.6936138204912
 30
0.0
 11
40.87786901192195
 21
274.8186309704666
 31
0.0
  0
LINE
  5
10289
330
101E0
100
AcDbEntity
  8
dimensions
  6
Continuous
 62
     0
440
 16777216
370
    -2
100
AcDbLine
 10
40.88234655354803
 20
263.9436481204421
 30
0.0
 11
40.88075111222637
 21
267.8186309704665
 31
0.0
  0
SOLID
  5
1028A
330
101E0
100
AcDbEntity
  8
dimensions
  6
Continuous
 62
     0
440
 16777216
100
AcDbTrace
 10
41.3762735282202
 20
278.6938196847811
 30
0.0
 11
40.3762736129804
 21
278.6934079562012
 31
0.0
 12
40.87503838486028
 22
281.6936135662106
 32
0.0
 13
40.87503838486028
 23
281.6936135662106
 33
0.0
  0
SOLID
  5
1028B
330
101E0
100
AcDbEntity
  8
dimensions
  6
Continuous
 62
     0
440
 16777216
100
AcDbTrace
 10
41.38234651116792
 20
263.943853984732
 30
0.0
 11
40.38234659592814
 21
263.943442256152
 31
0.0
 12
40.88358173928807
 22
260.9436483747227
 32
0.0
 13
40.88358173928807
 23
260.9436483747227
 33
0.0
  0
MTEXT
  5
1028C
330
101E0
100
AcDbEntity
  8
dimensions
  6
Continuous
 62
     0
440
 16777216
100
AcDbMText
 10
40.87931006207417
 20
271.3186309704666
 30
0.0
 40
3.0
 41
0.0
 46
0.0
 71
     5
 72
     1
  1
\A1;20.75
 73
     1
 44
1.0
  0
POINT
  5
1028D
330
101E0
100
AcDbEntity
  8
Defpoints
  6
Continuous
 62
     0
440
 16777216
100
AcDbPoint
 10
65.01302051076796
 20
281.703551864158
 30
0.0
  0
POINT
  5
1028E
330
101E0
100
AcDbEntity
  8
Defpoints
  6
Continuous
 62
     0
440
 16777216
100
AcDbPoint
 10
65.0215638651958
 20
260.9535866726702
 30
0.0
  0
POINT
  5
1028F
330
101E0
100
AcDbEntity
  8
Defpoints
  6
Continuous
 62
     0
440
 16777216
100
AcDbPoint
 10
40.88358173928807
 20
260.9436483747227
 30
0.0
  0
ENDBLK
  5
101E2
330
101E0
100
AcDbEntity
  8
0
100
AcDbBlockEnd
  0
BLOCK
  5
101EE
330
101ED
100
AcDbEntity
  8
0
100
AcDbBlockBegin
  2
*D24
 70
     1
 10
0.0
 20
0.0
 30
0.0
  3
*D24
  1

  0
LINE
  5
10290
330
101ED
100
AcDbEntity
  8
dimensions
  6
Continuous
 62
     0
440
 16777216
370
    -2
100
AcDbLine
 10
64.95906387049334
 20
260.953560939634
 30
0.0
 11
40.70340606066663
 21
260.9435741912401
 31
0.0
  0
LINE
  5
10291
330
101ED
100
AcDbEntity
  8
dimensions
  6
Continuous
 62
     0
440
 16777216
370
    -2
100
AcDbLine
 10
64.9587550740614
 20
250.9535608760639
 30
0.0
 11
40.70752334609164
 21
250.9435759500145
 31
0.0
  0
LINE
  5
10292
330
101ED
100
AcDbEntity
  8
dimensions
  6
Continuous
 62
     0
440
 16777216
370
    -2
100
AcDbLine
 10
40.88217085966973
 20
263.9436480481038
 30
0.0
 11
40.88093567392967
 21
266.9436477938232
 31
0.0
  0
LINE
  5
10293
330
101ED
100
AcDbEntity
  8
dimensions
  6
Continuous
 62
     0
440
 16777216
370
    -2
100
AcDbLine
 10
40.88875851657486
 20
247.9436503154396
 30
0.0
 11
40.88999370231493
 21
244.9436505697202
 31
0.0
  0
SOLID
  5
10294
330
101ED
100
AcDbEntity
  8
dimensions
  6
Continuous
 62
     0
440
 16777216
100
AcDbTrace
 10
41.38217081728962
 20
263.9438539123939
 30
0.0
 11
40.38217090204983
 21
263.9434421838139
 31
0.0
 12
40.88340604540977
 22
260.9436483023845
 32
0.0
 13
40.88340604540977
 23
260.9436483023845
 33
0.0
  0
SOLID
  5
10295
330
101ED
100
AcDbEntity
  8
dimensions
  6
Continuous
 62
     0
440
 16777216
100
AcDbTrace
 10
41.38875847419475
 20
247.9438561797295
 30
0.0
 11
40.38875855895496
 21
247.9434444511495
 31
0.0
 12
40.88752333083482
 22
250.9436500611589
 32
0.0
 13
40.88752333083482
 23
250.9436500611589
 33
0.0
  0
MTEXT
  5
10296
330
101ED
100
AcDbEntity
  8
dimensions
  6
Continuous
 62
     0
440
 16777216
100
AcDbMText
 10
40.88546468812227
 20
255.9436491817717
 30
0.0
 40
3.0
 41
0.0
 46
0.0
 71
     5
 72
     1
  1
\A1;10.00
 73
     1
 44
1.0
  0
POINT
  5
10297
330
101ED
100
AcDbEntity
  8
Defpoints
  6
Continuous
 62
     0
440
 16777216
100
AcDbPoint
 10
65.02156386519583
 20
260.9535866726703
 30
0.0
  0
POINT
  5
10298
330
101ED
100
AcDbEntity
  8
Defpoints
  6
Continuous
 62
     0
440
 16777216
100
AcDbPoint
 10
65.02125506876389
 20
250.9535866091002
 30
0.0
  0
POINT
  5
10299
330
101ED
100
AcDbEntity
  8
Defpoints
  6
Continuous
 62
     0
440
 16777216
100
AcDbPoint
 10
40.88752333083482
 20
250.9436500611589
 30
0.0
  0
ENDBLK
  5
101EF
330
101ED
100
AcDbEntity
  8
0
100
AcDbBlockEnd
  0
BLOCK
  5
101FB
330
101FA
100
AcDbEntity
  8
0
100
AcDbBlockBegin
  2
*D25
 70
     1
 10
0.0
 20
0.0
 30
0.0
  3
*D25
  1

  0
LINE
  5
1029A
330
101FA
100
AcDbEntity
  8
dimensions
  6
Continuous
 62
     0
440
 16777216
370
    -2
100
AcDbLine
 10
64.95052051606553
 20
281.7035261311218
 30
0.0
 11
40.69503840011713
 21
281.6935394550662
 31
0.0
  0
LINE
  5
1029B
330
101FA
100
AcDbEntity
  8
dimensions
  6
Continuous
 62
     0
440
 16777216
370
    -2
100
AcDbLine
 10
64.95875507402695
 20
286.7035713377812
 30
0.0
 11
40.69297974017458
 21
286.6935804237131
 31
0.0
  0
LINE
  5
1029C
330
101FA
100
AcDbEntity
  8
dimensions
  6
Continuous
 62
     0
440
 16777216
370
    -2
100
AcDbLine
 10
40.87627357060035
 20
278.6936138204912
 30
0.0
 11
40.87750875634041
 21
275.6936140747718
 31
0.0
  0
LINE
  5
1029D
330
101FA
100
AcDbEntity
  8
dimensions
  6
Continuous
 62
     0
440
 16777216
370
    -2
100
AcDbLine
 10
40.87174453917771
 20
289.6936542805768
 30
0.0
 11
40.87050935343763
 21
292.6936540262962
 31
0.0
  0
LINE
  5
1029E
330
101FA
100
AcDbEntity
  8
dimensions
  6
Continuous
 62
     0
440
 16777216
370
    -2
100
AcDbLine
 10
40.87050935343763
 20
292.6936540262962
 30
0.0
 11
37.87050935343764
 21
292.6936540262962
 31
0.0
  0
SOLID
  5
1029F
330
101FA
100
AcDbEntity
  8
dimensions
  6
Continuous
 62
     0
440
 16777216
100
AcDbTrace
 10
41.37627352822025
 20
278.6938196847812
 30
0.0
 11
40.37627361298045
 21
278.6934079562012
 31
0.0
 12
40.87503838486028
 22
281.6936135662106
 32
0.0
 13
40.87503838486028
 23
281.6936135662106
 33
0.0
  0
SOLID
  5
102A0
330
101FA
100
AcDbEntity
  8
dimensions
  6
Continuous
 62
     0
440
 16777216
100
AcDbTrace
 10
41.3717444967976
 20
289.6938601448669
 30
0.0
 11
40.37174458155779
 21
289.6934484162869
 31
0.0
 12
40.87297972491774
 22
286.6936545348575
 32
0.0
 13
40.87297972491774
 23
286.6936545348575
 33
0.0
  0
MTEXT
  5
102A1
330
101FA
100
AcDbEntity
  8
dimensions
  6
Continuous
 62
     0
440
 16777216
100
AcDbMText
 10
31.29908078200902
 20
292.6936540262962
 30
0.0
 40
3.0
 41
0.0
 46
0.0
 71
     5
 72
     1
  1
\A1;5.00
 73
     1
 44
1.0
  0
POINT
  5
102A2
330
101FA
100
AcDbEntity
  8
Defpoints
  6
Continuous
 62
     0
440
 16777216
100
AcDbPoint
 10
65.01302051076802
 20
281.7035518641581
 30
0.0
  0
POINT
  5
102A3
330
101FA
100
AcDbEntity
  8
Defpoints
  6
Continuous
 62
     0
440
 16777216
100
AcDbPoint
 10
65.02125506872943
 20
286.7035970708175
 30
0.0
  0
POINT
  5
102A4
330
101FA
100
AcDbEntity
  8
Defpoints
  6
Continuous
 62
     0
440
 16777216
100
AcDbPoint
 10
40.87297972491774
 20
286.6936545348575
 30
0.0
  0
ENDBLK
  5
101FC
330
101FA
100
AcDbEntity
  8
0
100
AcDbBlockEnd
  0
BLOCK
  5
10209
330
10208
100
AcDbEntity
  8
0
100
AcDbBlockBegin
  2
*D26
 70
     1
 10
0.0
 20
0.0
 30
0.0
  3
*D26
  1

  0
LINE
  5
102A5
330
10208
100
AcDbEntity
  8
dimensions
  6
Continuous
 62
     0
440
 16777216
370
    -2
100
AcDbLine
 10
64.27125506873538
 20
215.9617229625146
 30
0.0
 11
64.27125506873538
 21
216.0792229625146
 31
0.0
  0
LINE
  5
102A6
330
10208
100
AcDbEntity
  8
dimensions
  6
Continuous
 62
     0
440
 16777216
370
    -2
100
AcDbLine
 10
65.77125506878608
 20
215.9617229625146
 30
0.0
 11
65.77125506878608
 21
216.0792229625146
 31
0.0
  0
LINE
  5
102A7
330
10208
100
AcDbEntity
  8
dimensions
  6
Continuous
 62
     0
440
 16777216
370
    -2
100
AcDbLine
 10
68.77125506878606
 20
215.8992229625146
 30
0.0
 11
71.77125506878606
 21
215.8992229625146
 31
0.0
  0
LINE
  5
102A8
330
10208
100
AcDbEntity
  8
dimensions
  6
Continuous
 62
     0
440
 16777216
370
    -2
100
AcDbLine
 10
61.27125506873539
 20
215.8992229625146
 30
0.0
 11
47.18766640997886
 21
215.8992229625146
 31
0.0
  0
SOLID
  5
102A9
330
10208
100
AcDbEntity
  8
dimensions
  6
Continuous
 62
     0
440
 16777216
100
AcDbTrace
 10
68.77125506878606
 20
216.3992229625146
 30
0.0
 11
68.77125506878606
 21
215.3992229625146
 31
0.0
 12
65.77125506878608
 22
215.8992229625146
 32
0.0
 13
65.77125506878608
 23
215.8992229625146
 33
0.0
  0
SOLID
  5
102AA
330
10208
100
AcDbEntity
  8
dimensions
  6
Continuous
 62
     0
440
 16777216
100
AcDbTrace
 10
61.27125506873539
 20
216.3992229625146
 30
0.0
 11
61.27125506873539
 21
215.3992229625146
 31
0.0
 12
64.27125506873538
 22
215.8992229625146
 32
0.0
 13
64.27125506873538
 23
215.8992229625146
 33
0.0
  0
MTEXT
  5
102AB
330
10208
100
AcDbEntity
  8
dimensions
  6
Continuous
 62
     0
440
 16777216
100
AcDbMText
 10
40.90195212426457
 20
215.8992229625146
 30
0.0
 40
3.0
 41
0.0
 46
0.0
 71
     5
 72
     1
  1
\A1;1.50
 73
     1
 44
1.0
  0
POINT
  5
102AC
330
10208
100
AcDbEntity
  8
Defpoints
  6
Continuous
 62
     0
440
 16777216
100
AcDbPoint
 10
64.27125506873538
 20
215.8992229625146
 30
0.0
  0
POINT
  5
102AD
330
10208
100
AcDbEntity
  8
Defpoints
  6
Continuous
 62
     0
440
 16777216
100
AcDbPoint
 10
65.77125506878608
 20
215.8992229625146
 30
0.0
  0
POINT
  5
102AE
330
10208
100
AcDbEntity
  8
Defpoints
  6
Continuous
 62
     0
440
 16777216
100
AcDbPoint
 10
65.77125506878608
 20
215.8992229625146
 30
0.0
  0
ENDBLK
  5
1020A
330
10208
100
AcDbEntity
  8
0
100
AcDbBlockEnd
  0
BLOCK
  5
10216
330
10215
100
AcDbEntity
  8
0
100
AcDbBlockBegin
  2
*D27
 70
     1
 10
0.0
 20
0.0
 30
0.0
  3
*D27
  1

  0
LINE
  5
102AF
330
10215
100
AcDbEntity
  8
dimensions
  6
Continuous
 62
     0
440
 16777216
370
    -2
100
AcDbLine
 10
216.6983293116719
 20
181.0666098828863
 30
0.0
 11
213.6983293116717
 21
181.0666098828863
 31
0.0
  0
LINE
  5
102B0
330
10215
100
AcDbEntity
  8
dimensions
  6
Continuous
 62
     0
440
 16777216
370
    -2
100
AcDbLine
 10
213.6983293116717
 20
181.0666098828863
 30
0.0
 11
211.8274971646092
 21
178.7214047580587
 31
0.0
  0
MTEXT
  5
102B1
330
10215
100
AcDbEntity
  8
dimensions
  6
Continuous
 62
     0
440
 16777216
100
AcDbMText
 10
224.6269007402431
 20
181.0666098828863
 30
0.0
 40
3.0
 41
0.0
 46
0.0
 71
     5
 72
     1
  1
\A1;∅3.00
 73
     1
 44
1.0
  0
SOLID
  5
102B2
330
10215
100
AcDbEntity
  8
dimensions
  6
Continuous
 62
     0
440
 16777216
100
AcDbTrace
 10
211.4366296438046
 20
179.0332101159024
 30
0.0
 11
212.2183646854138
 21
178.409599400215
 31
0.0
 12
209.9566650175467
 22
176.3761996332312
 32
0.0
 13
209.9566650175467
 23
176.3761996332312
 33
0.0
  0
LINE
  5
102B3
330
10215
100
AcDbEntity
  8
dimensions
  6
Continuous
 62
     0
440
 16777216
370
    -2
100
AcDbLine
 10
208.9312489440154
 20
175.2035970708174
 30
0.0
 11
209.1112489440154
 21
175.2035970708174
 31
0.0
  0
LINE
  5
102B4
330
10215
100
AcDbEntity
  8
dimensions
  6
Continuous
 62
     0
440
 16777216
370
    -2
100
AcDbLine
 10
209.0212489440155
 20
175.1135970708174
 30
0.0
 11
209.0212489440154
 21
175.2935970708174
 31
0.0
  0
POINT
  5
102B5
330
10215
100
AcDbEntity
  8
Defpoints
  6
Continuous
 62
     0
440
 16777216
100
AcDbPoint
 10
209.9566650175467
 20
176.3761996332312
 30
0.0
  0
POINT
  5
102B6
330
10215
100
AcDbEntity
  8
Defpoints
  6
Continuous
 62
     0
440
 16777216
100
AcDbPoint
 10
208.0858328704842
 20
174.0309945084037
 30
0.0
  0
ENDBLK
  5
10217
330
10215
100
AcDbEntity
  8
0
100
AcDbBlockEnd
  0
BLOCK
  5
10221
330
10220
100
AcDbEntity
  8
0
100
AcDbBlockBegin
  2
*D28
 70
     1
 10
0.0
 20
0.0
 30
0.0
  3
*D28
  1

  0
LINE
  5
102B7
330
10220
100
AcDbEntity
  8
dimensions
  6
Continuous
 62
     0
440
 16777216
370
    -2
100
AcDbLine
 10
93.83863499889455
 20
242.9660970708543
 30
0.0
 11
93.83863499889455
 21
257.4367328807716
 31
0.0
  0
LINE
  5
102B8
330
10220
100
AcDbEntity
  8
dimensions
  6
Continuous
 62
     0
440
 16777216
370
    -2
100
AcDbLine
 10
102.6386349988945
 20
242.9660970708543
 30
0.0
 11
102.6386349988945
 21
257.4367328807716
 31
0.0
  0
LINE
  5
102B9
330
10220
100
AcDbEntity
  8
dimensions
  6
Continuous
 62
     0
440
 16777216
370
    -2
100
AcDbLine
 10
90.83863499889456
 20
257.2567328807715
 30
0.0
 11
87.83863499889456
 21
257.2567328807715
 31
0.0
  0
LINE
  5
102BA
330
10220
100
AcDbEntity
  8
dimensions
  6
Continuous
 62
     0
440
 16777216
370
    -2
100
AcDbLine
 10
105.6386349988945
 20
257.2567328807715
 30
0.0
 11
108.6386349988945
 21
257.2567328807715
 31
0.0
  0
SOLID
  5
102BB
330
10220
100
AcDbEntity
  8
dimensions
  6
Continuous
 62
     0
440
 16777216
100
AcDbTrace
 10
90.83863499889456
 20
257.7567328807715
 30
0.0
 11
90.83863499889456
 21
256.7567328807716
 31
0.0
 12
93.83863499889455
 22
257.2567328807715
 32
0.0
 13
93.83863499889455
 23
257.2567328807715
 33
0.0
  0
SOLID
  5
102BC
330
10220
100
AcDbEntity
  8
dimensions
  6
Continuous
 62
     0
440
 16777216
100
AcDbTrace
 10
105.6386349988945
 20
257.7567328807715
 30
0.0
 11
105.6386349988945
 21
256.7567328807716
 31
0.0
 12
102.6386349988945
 22
257.2567328807715
 32
0.0
 13
102.6386349988945
 23
257.2567328807715
 33
0.0
  0
MTEXT
  5
102BD
330
10220
100
AcDbEntity
  8
dimensions
  6
Continuous
 62
     0
440
 16777216
100
AcDbMText
 10
115.2100635703231
 20
257.2567328807715
 30
0.0
 40
3.0
 41
0.0
 46
0.0
 71
     5
 72
     1
  1
\A1;8.80
 73
     1
 44
1.0
  0
POINT
  5
102BE
330
10220
100
AcDbEntity
  8
Defpoints
  6
Continuous
 62
     0
440
 16777216
100
AcDbPoint
 10
93.83863499889455
 20
242.9035970708543
 30
0.0
  0
POINT
  5
102BF
330
10220
100
AcDbEntity
  8
Defpoints
  6
Continuous
 62
     0
440
 16777216
100
AcDbPoint
 10
102.6386349988945
 20
242.9035970708543
 30
0.0
  0
POINT
  5
102C0
330
10220
100
AcDbEntity
  8
Defpoints
  6
Continuous
 62
     0
440
 16777216
100
AcDbPoint
 10
102.6386349988945
 20
257.2567328807715
 30
0.0
  0
ENDBLK
  5
10222
330
10220
100
AcDbEntity
  8
0
100
AcDbBlockEnd
  0
BLOCK
  5
1022E
330
1022D
100
AcDbEntity
  8
0
100
AcDbBlockBegin
  2
*D29
 70
     1
 10
0.0
 20
0.0
 30
0.0
  3
*D29
  1

  0
LINE
  5
102C1
330
1022D
100
AcDbEntity
  8
dimensions
  6
Continuous
 62
     0
440
 16777216
370
    -2
100
AcDbLine
 10
98.30113499889456
 20
245.1535970708543
 30
0.0
 11
116.8029192925638
 21
245.1535970708543
 31
0.0
  0
LINE
  5
102C2
330
1022D
100
AcDbEntity
  8
dimensions
  6
Continuous
 62
     0
440
 16777216
370
    -2
100
AcDbLine
 10
98.30113499889456
 20
240.6535970708543
 30
0.0
 11
116.8029192925638
 21
240.6535970708543
 31
0.0
  0
LINE
  5
102C3
330
1022D
100
AcDbEntity
  8
dimensions
  6
Continuous
 62
     0
440
 16777216
370
    -2
100
AcDbLine
 10
116.6229192925638
 20
248.1535970708543
 30
0.0
 11
116.6229192925638
 21
251.1535970708543
 31
0.0
  0
LINE
  5
102C4
330
1022D
100
AcDbEntity
  8
dimensions
  6
Continuous
 62
     0
440
 16777216
370
    -2
100
AcDbLine
 10
116.6229192925638
 20
237.6535970708543
 30
0.0
 11
116.6229192925638
 21
234.6535970708543
 31
0.0
  0
SOLID
  5
102C5
330
1022D
100
AcDbEntity
  8
dimensions
  6
Continuous
 62
     0
440
 16777216
100
AcDbTrace
 10
116.1229192925638
 20
248.1535970708543
 30
0.0
 11
117.1229192925638
 21
248.1535970708543
 31
0.0
 12
116.6229192925638
 22
245.1535970708543
 32
0.0
 13
116.6229192925638
 23
245.1535970708543
 33
0.0
  0
SOLID
  5
102C6
330
1022D
100
AcDbEntity
  8
dimensions
  6
Continuous
 62
     0
440
 16777216
100
AcDbTrace
 10
116.1229192925638
 20
237.6535970708543
 30
0.0
 11
117.1229192925638
 21
237.6535970708543
 31
0.0
 12
116.6229192925638
 22
240.6535970708543
 32
0.0
 13
116.6229192925638
 23
240.6535970708543
 33
0.0
  0
MTEXT
  5
102C7
330
1022D
100
AcDbEntity
  8
dimensions
  6
Continuous
 62
     0
440
 16777216
100
AcDbMText
 10
116.6229192925638
 20
242.9035970708543
 30
0.0
 40
3.0
 41
0.0
 46
0.0
 71
     5
 72
     1
  1
\A1;4.50
 73
     1
 44
1.0
  0
POINT
  5
102C8
330
1022D
100
AcDbEntity
  8
Defpoints
  6
Continuous
 62
     0
440
 16777216
100
AcDbPoint
 10
98.23863499889455
 20
245.1535970708543
 30
0.0
  0
POINT
  5
102C9
330
1022D
100
AcDbEntity
  8
Defpoints
  6
Continuous
 62
     0
440
 16777216
100
AcDbPoint
 10
98.23863499889455
 20
240.6535970708543
 30
0.0
  0
POINT
  5
102CA
330
1022D
100
AcDbEntity
  8
Defpoints
  6
Continuous
 62
     0
440
 16777216
100
AcDbPoint
 10
116.6229192925638
 20
240.6535970708543
 30
0.0
  0
ENDBLK
  5
1022F
330
1022D
100
AcDbEntity
  8
0
100
AcDbBlockEnd
  0
BLOCK
  5
10334
330
10333
100
AcDbEntity
  8
0
100
AcDbBlockBegin
  2
_Dot
 70
     0
 10
0.0
 20
0.0
 30
0.0
  3
_Dot
  1

  0
LWPOLYLINE
  5
10335
330
10333
100
AcDbEntity
  8
0
  6
ByBlock
 62
     0
100
AcDbPolyline
 90
        2
 70
     1
 43
0.5
 10
-0.25
 20
0.0
 42
1.0
 10
0.25
 20
0.0
 42
1.0
  0
LINE
  5
10336
330
10333
100
AcDbEntity
  8
0
  6
ByBlock
 62
     0
370
    -2
100
AcDbLine
 10
-0.5
 20
0.0
 30
0.0
 11
-1.0
 21
0.0
 31
0.0
  0
ENDBLK
  5
10337
330
10333
100
AcDbEntity
  8
0
100
AcDbBlockEnd
  0
BLOCK
  5
104A6
330
10430
100
AcDbEntity
  8
0
100
AcDbBlockBegin
  2
A$C3317423f
 70
     0
 10
0.0
 20
0.0
 30
0.0
  3
A$C3317423f
  1

  0
LWPOLYLINE
  5
10431
330
10430
100
AcDbEntity
  8
5-outcut
 62
     1
100
AcDbPolyline
 90
       16
 70
     1
 43
0.0
 10
155.1326277240118
 20
818.6919933445929
 42
-0.1989123673787581
 10
143.4168989712945
 20
846.9762645920717
 10
143.4168989712945
 20
1084.976264592072
 42
-0.1989123673787581
 10
155.1326277240329
 20
1113.260535839529
 42
-0.4142135738258418
 10
300.7011702187567
 20
1113.260535839533
 42
-0.1989123673796576
 10
312.4168989712946
 20
1084.976264592072
 10
312.4168989712946
 20
1041.076264592072
 10
304.3168989713759
 20
1041.076264592072
 10
304.3168989713759
 20
990.8762645920717
 10
312.4168989712946
 20
990.8762645920717
 10
312.4168989712946
 20
941.0762645920696
 10
304.3168989713758
 20
941.0762645920696
 10
304.3168989713758
 20
890.8762645920717
 10
312.4168989712946
 20
890.8762645920717
 10
312.4168989712946
 20
846.9762645920717
 42
-0.1989135534020193
 10
300.7010411426229
 20
818.6918642686581
 42
-0.4142130544074138
  0
LWPOLYLINE
  5
10432
330
10430
100
AcDbEntity
  8
4-pocket 8mm
100
AcDbPolyline
 90
        4
 70
     1
 43
0.0
 10
192.3168989713758
 20
838.8762645920721
 10
267.5168989713758
 20
838.8762645920721
 10
267.5168989713758
 20
847.0762645920716
 10
192.3168989713758
 20
847.0762645920716
  0
LWPOLYLINE
  5
10433
330
10430
100
AcDbEntity
  8
4-pocket 8mm
100
AcDbPolyline
 90
        4
 70
     1
 43
0.0
 10
267.5168989713758
 20
1093.076264592071
 10
192.3168989713758
 20
1093.076264592071
 10
192.3168989713758
 20
1084.876264592072
 10
267.5168989713758
 20
1084.876264592072
  0
LWPOLYLINE
  5
10434
330
10430
100
AcDbEntity
  8
5-outcut
 62
     1
100
AcDbPolyline
 90
       14
 70
     1
 43
0.0
 10
332.5081312710182
 20
890.2462841233216
 10
349.9437270449677
 20
890.2462841233212
 42
-0.0837880926445704
 10
360.7924025184968
 20
882.5305553706046
 42
-0.4142130544074137
 10
360.7925315942282
 20
736.9621419521971
 42
-0.0837892415347219
 10
349.9437270451808
 20
729.2462841233218
 10
332.5081312710182
 20
729.2462841233216
 10
332.5081312710182
 20
754.6962841233217
 10
340.6081312710182
 20
754.6962841233217
 10
340.6081312710182
 20
784.7962841233217
 10
332.5081312710182
 20
784.7962841233217
 10
332.5081312710182
 20
834.6962841233215
 10
340.6081312710182
 20
834.6962841233215
 10
340.6081312710182
 20
864.7962841233217
 10
332.5081312710182
 20
864.7962841233217
  0
LWPOLYLINE
  5
10435
330
10430
100
AcDbEntity
  8
5-outcut
 62
     1
100
AcDbPolyline
 90
       24
 70
     1
 43
0.0
 10
143.4168989712945
 20
616.1112743576991
 10
151.4168989712945
 20
616.1112743576967
 10
151.4168989712945
 20
566.1112743576967
 10
143.4168989712945
 20
566.1112743576967
 10
143.4168989712945
 20
516.1112743576973
 10
151.4168989712945
 20
516.1112743576973
 10
151.4168989712945
 20
448.1112743577732
 42
0.0354891516934864
 10
155.1326277239306
 20
443.8270031102184
 42
0.414213573825843
 10
300.7011702186753
 20
443.8270031102353
 42
0.0354891516937256
 10
304.4168989712947
 20
448.1112743578052
 10
304.4168989712945
 20
516.1112743576973
 10
312.4168989711322
 20
516.1112743576973
 10
312.4168989711322
 20
566.1112743576967
 10
304.4168989711323
 20
566.1112743576967
 10
304.4168989712947
 20
616.1112743576967
 10
312.4168989711322
 20
616.1112743576991
 10
312.4168989711322
 20
666.1112743576969
 10
304.4168989712947
 20
666.1112743576969
 10
304.4168989712947
 20
734.1112743576274
 42
0.0354902940122945
 10
300.701041142338
 20
738.3956746809068
 42
0.4142130544074126
 10
155.1326277239306
 20
738.3955456051758
 42
0.0354891516934947
 10
151.4168989712945
 20
734.1112743576202
 10
151.4168989712945
 20
666.1112743576969
 10
143.4168989712945
 20
666.1112743576965
  0
LWPOLYLINE
  5
10436
330
10430
100
AcDbEntity
  8
4-pocket 8mm
100
AcDbPolyline
 90
        4
 70
     1
 43
0.0
 10
265.5168989712134
 20
710.0112743576967
 10
190.3168989712135
 20
710.0112743576967
 10
190.3168989712135
 20
718.2112743576966
 10
265.5168989712134
 20
718.2112743576966
  0
LWPOLYLINE
  5
10437
330
10430
100
AcDbEntity
  8
4-pocket 8mm
100
AcDbPolyline
 90
        4
 70
     1
 43
0.0
 10
265.5168989712134
 20
464.0112743576973
 10
190.3168989712133
 20
464.0112743576973
 10
190.3168989712133
 20
472.2112743576972
 10
265.5168989712134
 20
472.2112743576972
  0
CIRCLE
  5
10438
330
10430
100
AcDbEntity
  8
4-pocket 8mm
100
AcDbCircle
 10
391.3139300170317
 20
604.4661319956624
 30
0.0000000000000011
 40
2.049999999999998
  0
CIRCLE
  5
10439
330
10430
100
AcDbEntity
  8
4-pocket 8mm
100
AcDbCircle
 10
391.7184038097427
 20
656.8540571888255
 30
0.0
 40
8.5
  0
LWPOLYLINE
  5
1043A
330
10430
100
AcDbEntity
  8
5-outcut
 62
     1
100
AcDbPolyline
 90
       16
 70
     1
 43
0.0
 10
481.4168837124243
 20
591.2462841233215
 10
485.4168837124243
 20
591.2462841233215
 10
485.4168837124243
 20
666.2462841233217
 10
481.4168837124243
 20
666.2462841233217
 10
481.4168837124243
 20
709.2462841233216
 10
440.4168837124243
 20
709.2462841233216
 10
440.4168837124243
 20
713.2462841233216
 10
365.4168837124244
 20
713.2462841233216
 10
365.4168837124244
 20
709.2462841233216
 10
332.4168837124243
 20
709.2462841233216
 10
332.4168837124243
 20
548.2462841233219
 10
365.4168837124244
 20
548.2462841233219
 10
365.4168837124244
 20
544.2462841233218
 10
440.4168837124243
 20
544.2462841233218
 10
440.4168837124243
 20
548.2462841233219
 10
481.4168837124243
 20
548.2462841233215
  0
LWPOLYLINE
  5
1043B
330
10430
100
AcDbEntity
  8
5-outcut
 62
     1
100
AcDbPolyline
 90
       24
 70
     1
 43
0.0
 10
332.4168837124243
 20
414.7462841233223
 10
324.4168837124243
 20
414.7462841233223
 10
324.4168837124242
 20
384.7462841233223
 10
332.4168837124243
 20
384.7462841233223
 10
332.4168837124243
 20
359.2462841233223
 10
365.4168837124242
 20
359.2462841233223
 10
365.4168837124242
 20
355.2462841233223
 10
440.4168837124243
 20
355.2462841233223
 10
440.4168837124243
 20
359.2462841233214
 10
481.4168837124243
 20
359.2462841233214
 10
481.4168837124243
 20
402.2462841233212
 10
485.4168837124243
 20
402.2462841233212
 10
485.4168837124243
 20
477.2462841233212
 10
481.4168837124243
 20
477.2462841233212
 10
481.4168837124243
 20
520.2462841233214
 10
440.4168837124243
 20
520.2462841233214
 10
440.4168837124243
 20
524.2462841233223
 10
365.4168837124244
 20
524.2462841233223
 10
365.4168837124244
 20
520.2462841233214
 10
332.4168837124243
 20
520.2462841233214
 10
332.4168837124243
 20
494.7462841233223
 10
324.4168837124243
 20
494.7462841233223
 10
324.4168837124243
 20
464.7462841233223
 10
332.4168837124243
 20
464.7462841233223
  0
LWPOLYLINE
  5
1043C
330
10430
100
AcDbEntity
  8
5-outcut
 62
     1
100
AcDbPolyline
 90
       16
 70
     1
 43
0.0
 10
155.132627723687
 20
68.96201287584313
 42
-0.1989123673787585
 10
143.4168989709699
 20
97.24628412332116
 10
143.4168989709699
 20
335.2462841233223
 42
-0.198912367378758
 10
155.1326277238908
 20
363.5305553705973
 42
-0.4142130544074142
 10
300.7010411420944
 20
363.5306844465323
 42
-0.198913553402024
 10
312.4168989709699
 20
335.2462841233223
 10
312.4168989709699
 20
291.3462841233222
 10
304.316898971051
 20
291.3462841233213
 10
304.316898971051
 20
241.1462841233245
 10
312.4168989709699
 20
241.1462841233245
 10
312.4168989709699
 20
191.3462841233213
 10
304.316898971051
 20
191.3462841233222
 10
304.316898971051
 20
141.1462841233224
 10
312.4168989709699
 20
141.1462841233224
 10
312.4168989709698
 20
97.24628412332254
 42
-0.1989123673796638
 10
300.7011702184525
 20
68.96201287583926
 42
-0.4142135738258402
  0
LWPOLYLINE
  5
1043D
330
10430
100
AcDbEntity
  8
4-pocket 8mm
100
AcDbPolyline
 90
        4
 70
     1
 43
0.0
 10
192.3168989710511
 20
343.3462841233222
 10
267.516898971051
 20
343.3462841233222
 10
267.516898971051
 20
335.1462841233224
 10
192.3168989710511
 20
335.1462841233224
  0
LWPOLYLINE
  5
1043E
330
10430
100
AcDbEntity
  8
4-pocket 8mm
100
AcDbPolyline
 90
        4
 70
     1
 43
0.0
 10
267.516898971051
 20
89.14628412332239
 10
192.3168989710511
 20
89.14628412332239
 10
192.3168989710511
 20
97.34628412332243
 10
267.516898971051
 20
97.34628412332243
  0
LWPOLYLINE
  5
1043F
330
10430
100
AcDbEntity
  8
5-outcut
 62
     1
100
AcDbPolyline
 90
        6
 70
     1
 43
0.0
 10
339.6326124649622
 20
68.9620128758595
 42
-0.0767735775739359
 10
332.416883712431
 20
78.81397553214242
 10
332.4168837124243
 20
335.2462841233223
 10
492.4168837124241
 20
335.2462841233223
 10
492.4168837123909
 20
78.81397553236546
 42
-0.0767735775752242
 10
485.2011549596858
 20
68.9620128758645
 42
-0.4142135738258422
  0
LWPOLYLINE
  5
10440
330
10430
100
AcDbEntity
  8
2-pocket 4mm
100
AcDbPolyline
 90
       16
 70
     1
 43
0.0
 10
192.3168989713758
 20
1084.876264592072
 10
159.5168989713759
 20
1084.876264592072
 10
159.5168989713759
 20
847.0762645920716
 10
192.3168989713758
 20
847.0762645920716
 10
192.3168989713758
 20
838.8762645920721
 10
159.5168989713759
 20
838.8762645920721
 10
159.5168989713759
 20
814.5572142496972
 10
155.1326277240118
 20
818.6919933445929
 42
-0.0365350858997445
 10
151.3168989713758
 20
823.1101798692611
 10
151.3168989714374
 20
845.7762645919896
 42
-0.1622776601815141
 10
150.9168989713758
 20
846.9762645920715
 10
150.9168989714
 20
1108.294712224701
 42
-0.0407800020125617
 10
155.1326277240226
 20
1113.26053583954
 42
-0.0146400616915353
 10
159.5168989713855
 20
1117.395314934435
 10
159.5168989713759
 20
1093.076264592071
 10
192.3168989713758
 20
1093.076264592072
  0
LWPOLYLINE
  5
10441
330
10430
100
AcDbEntity
  8
2-pocket 4mm
100
AcDbPolyline
 90
        4
 70
     1
 43
0.0
 10
308.5168989713758
 20
1084.876264592072
 10
267.5168989713758
 20
1084.876264592072
 10
267.516898971376
 20
1093.076264592071
 10
308.5168989713759
 20
1093.076264592072
  0
LWPOLYLINE
  5
10442
330
10430
100
AcDbEntity
  8
2-pocket 4mm
100
AcDbPolyline
 90
        4
 70
     1
 43
0.0
 10
267.5168989713758
 20
847.0762645920716
 10
308.5168989713758
 20
847.0762645920716
 10
308.5168989713758
 20
838.8762645920721
 10
267.5168989713758
 20
838.8762645920721
  0
CIRCLE
  5
10443
330
10430
100
AcDbEntity
  8
2-pocket 4mm
100
AcDbCircle
 10
179.4168989713758
 20
989.0262645920717
 30
0.0
 40
2.049999999999998
  0
CIRCLE
  5
10444
330
10430
100
AcDbEntity
  8
2-pocket 4mm
100
AcDbCircle
 10
269.4168989713757
 20
989.0262645920717
 30
0.0
 40
2.049999999999998
  0
CIRCLE
  5
10445
330
10430
100
AcDbEntity
  8
2-pocket 4mm
100
AcDbCircle
 10
269.4168989713757
 20
949.026264592072
 30
0.0
 40
2.049999999999998
  0
CIRCLE
  5
10446
330
10430
100
AcDbEntity
  8
2-pocket 4mm
100
AcDbCircle
 10
179.4168989713758
 20
949.026264592072
 30
0.0
 40
2.049999999999998
  0
CIRCLE
  5
10447
330
10430
100
AcDbEntity
  8
2-pocket 4mm
100
AcDbCircle
 10
179.4168989713758
 20
909.0262645920716
 30
0.0
 40
2.049999999999998
  0
CIRCLE
  5
10448
330
10430
100
AcDbEntity
  8
2-pocket 4mm
100
AcDbCircle
 10
269.4168989713757
 20
909.0262645920716
 30
0.0
 40
2.049999999999998
  0
CIRCLE
  5
10449
330
10430
100
AcDbEntity
  8
2-pocket 4mm
100
AcDbCircle
 10
179.4168989713758
 20
869.0262645920716
 30
0.0
 40
2.049999999999998
  0
CIRCLE
  5
1044A
330
10430
100
AcDbEntity
  8
2-pocket 4mm
100
AcDbCircle
 10
269.4168989713757
 20
869.0262645920716
 30
0.0
 40
2.049999999999998
  0
LWPOLYLINE
  5
1044B
330
10430
100
AcDbEntity
  8
2-pocket 4mm
100
AcDbPolyline
 90
        4
 70
     1
 43
0.0
 10
151.4168989712945
 20
710.0112743576967
 10
151.4168989712945
 20
718.2112743576966
 10
190.3168989712135
 20
718.2112743576965
 10
190.3168989712135
 20
710.0112743576967
  0
LWPOLYLINE
  5
1044C
330
10430
100
AcDbEntity
  8
2-pocket 4mm
100
AcDbPolyline
 90
        4
 70
     1
 43
0.0
 10
304.4168989712947
 20
718.2112743576965
 10
304.4168989712947
 20
710.0112743576967
 10
265.5168989712134
 20
710.0112743576967
 10
265.5168989712134
 20
718.2112743576966
  0
CIRCLE
  5
1044D
330
10430
100
AcDbEntity
  8
2-pocket 4mm
100
AcDbCircle
 10
177.9168989712945
 20
675.1112743576968
 30
0.0
 40
4.000000000000004
  0
CIRCLE
  5
1044E
330
10430
100
AcDbEntity
  8
2-pocket 4mm
100
AcDbCircle
 10
191.1491320183282
 20
667.9144943383443
 30
-0.0000000000000011
 40
4.000000000000004
  0
CIRCLE
  5
1044F
330
10430
100
AcDbEntity
  8
2-pocket 4mm
100
AcDbCircle
 10
264.6846659242612
 20
667.9144943383437
 30
0.0
 40
4.000000000000004
  0
CIRCLE
  5
10450
330
10430
100
AcDbEntity
  8
2-pocket 4mm
100
AcDbCircle
 10
277.9168989712946
 20
675.1112743576968
 30
0.0
 40
3.999999999999998
  0
CIRCLE
  5
10451
330
10430
100
AcDbEntity
  8
2-pocket 4mm
100
AcDbCircle
 10
277.9168989712946
 20
560.875821330016
 30
0.0
 40
3.999999999999998
  0
CIRCLE
  5
10452
330
10430
100
AcDbEntity
  8
2-pocket 4mm
100
AcDbCircle
 10
264.684665924261
 20
544.3789604324109
 30
0.0
 40
3.999999999999998
  0
CIRCLE
  5
10453
330
10430
100
AcDbEntity
  8
2-pocket 4mm
100
AcDbCircle
 10
191.149132018328
 20
544.3789604324109
 30
-0.0000000000000011
 40
4.000000000000004
  0
CIRCLE
  5
10454
330
10430
100
AcDbEntity
  8
2-pocket 4mm
100
AcDbCircle
 10
177.9168989712945
 20
560.875821330016
 30
0.0
 40
4.000000000000004
  0
LWPOLYLINE
  5
10455
330
10430
100
AcDbEntity
  8
4-pocket 8mm
100
AcDbPolyline
 90
        4
 70
     1
 43
0.0
 10
291.4168989711996
 20
510.8612743576973
 10
282.1668989712087
 20
510.8612743576973
 10
282.1668989712088
 20
486.6112743576962
 10
291.4168989712088
 20
486.6112743576962
  0
LINE
  5
10456
330
10430
100
AcDbEntity
  8
2-pocket 4mm
100
AcDbLine
 10
298.4118989712006
 20
502.7312743577011
 30
0.0
 11
294.4168989712009
 21
502.7312743576803
 31
0.0
  0
LINE
  5
10457
330
10430
100
AcDbEntity
  8
2-pocket 4mm
100
AcDbLine
 10
294.4168989712009
 20
502.7312743576803
 30
0.0
 11
294.4168989712002
 21
511.3612743576964
 31
0.0
  0
ARC
  5
10458
330
10430
100
AcDbEntity
  8
2-pocket 4mm
100
AcDbCircle
 10
290.4168989712001
 20
511.3612743576964
 30
0.0
 40
3.999999999999941
100
AcDbArc
 50
0.0
 51
90.0
  0
LINE
  5
10459
330
10430
100
AcDbEntity
  8
2-pocket 4mm
100
AcDbLine
 10
290.4168989712001
 20
515.3612743576973
 30
0.0
 11
283.1668989712088
 21
515.3612743576973
 31
0.0
  0
ARC
  5
1045A
330
10430
100
AcDbEntity
  8
2-pocket 4mm
100
AcDbCircle
 10
283.1668989712087
 20
511.3612743576964
 30
0.0
 40
3.999999999999912
100
AcDbArc
 50
89.99999999999836
 51
180.0
  0
LINE
  5
1045B
330
10430
100
AcDbEntity
  8
2-pocket 4mm
100
AcDbLine
 10
279.1668989712088
 20
511.3612743576964
 30
0.0
 11
279.1668989712038
 21
502.7312743576773
 31
0.0
  0
LINE
  5
1045C
330
10430
100
AcDbEntity
  8
2-pocket 4mm
100
AcDbLine
 10
279.1668989712038
 20
502.7312743576773
 30
0.0
 11
275.1718989712042
 21
502.7312743576971
 31
0.0
  0
ARC
  5
1045D
330
10430
100
AcDbEntity
  8
2-pocket 4mm
100
AcDbCircle
 10
275.1718989712042
 20
498.7362743576973
 30
0.0000000000000011
 40
3.995000000000033
100
AcDbArc
 50
90.0
 51
270.0000051226419
  0
LINE
  5
1045E
330
10430
100
AcDbEntity
  8
2-pocket 4mm
100
AcDbLine
 10
275.171899328385
 20
494.7412743576974
 30
0.0000000000000011
 11
279.1668989712047
 21
494.7412743576633
 31
0.0000000000000011
  0
LINE
  5
1045F
330
10430
100
AcDbEntity
  8
2-pocket 4mm
100
AcDbLine
 10
279.1668989712047
 20
494.7412743576633
 30
0.0000000000000011
 11
279.1668989712114
 21
486.1112743576962
 31
0.0
  0
ARC
  5
10460
330
10430
100
AcDbEntity
  8
2-pocket 4mm
100
AcDbCircle
 10
283.1668989712113
 20
486.1112743576962
 30
0.0
 40
3.99999999999993
100
AcDbArc
 50
180.0
 51
270.0
  0
LINE
  5
10461
330
10430
100
AcDbEntity
  8
2-pocket 4mm
100
AcDbLine
 10
283.1668989712114
 20
482.1112743576962
 30
0.0
 11
290.4168989712
 21
482.1112743576962
 31
0.0
  0
ARC
  5
10462
330
10430
100
AcDbEntity
  8
2-pocket 4mm
100
AcDbCircle
 10
290.4168989712001
 20
486.1112743576962
 30
0.0
 40
4.000000000000055
100
AcDbArc
 50
269.9999999999984
 51
0.0
  0
LINE
  5
10463
330
10430
100
AcDbEntity
  8
2-pocket 4mm
100
AcDbLine
 10
294.4168989712002
 20
486.1112743576962
 30
0.0
 11
294.4168989712033
 21
494.7412743576661
 31
0.0
  0
LINE
  5
10464
330
10430
100
AcDbEntity
  8
2-pocket 4mm
100
AcDbLine
 10
294.4168989712033
 20
494.7412743576661
 30
0.0
 11
298.4118986097795
 21
494.7412743576752
 31
0.0
  0
ARC
  5
10465
330
10430
100
AcDbEntity
  8
2-pocket 4mm
100
AcDbCircle
 10
298.411898971202
 20
498.7362743577011
 30
0.0
 40
3.995000000026053
100
AcDbArc
 50
269.9999948165244
 51
90.00000000002115
  0
LWPOLYLINE
  5
10466
330
10430
100
AcDbEntity
  8
2-pocket 4mm
100
AcDbPolyline
 90
        4
 70
     1
 43
0.0
 10
304.4168989712947
 20
472.2112743576972
 10
304.4168989712947
 20
464.0112743576973
 10
265.5168989712134
 20
464.0112743576973
 10
265.5168989712134
 20
472.2112743576972
  0
LWPOLYLINE
  5
10467
330
10430
100
AcDbEntity
  8
2-pocket 4mm
100
AcDbPolyline
 90
        4
 70
     1
 43
0.0
 10
151.4168989712945
 20
464.0112743576973
 10
151.4168989712945
 20
472.2112743576972
 10
190.3168989712133
 20
472.2112743576972
 10
190.3168989712133
 20
464.0112743576973
  0
LWPOLYLINE
  5
10468
330
10430
100
AcDbEntity
  8
2-pocket 4mm
100
AcDbPolyline
 90
       16
 70
     1
 43
0.0
 10
159.516898971051
 20
97.34628412332243
 10
192.3168989710511
 20
97.34628412332243
 10
192.3168989710511
 20
89.14628412332239
 10
159.516898971051
 20
89.14628412332239
 10
159.5168989710508
 20
64.82723378094738
 42
-0.014640061691597
 10
155.132627723687
 20
68.96201287584313
 42
-0.0407800020125732
 10
150.916898971051
 20
73.92783649067451
 10
150.9168989710126
 20
335.2462841233223
 42
-0.1622776601815514
 10
151.3168989710819
 20
336.4462841234274
 10
151.3168989710513
 20
359.1123688461323
 42
-0.0365350858997511
 10
155.132627723687
 20
363.5305553708004
 10
159.516898971051
 20
367.6653344653113
 10
159.516898971051
 20
343.3462841233222
 10
192.3168989710511
 20
343.3462841233213
 10
192.3168989710511
 20
335.1462841233224
 10
159.516898971051
 20
335.1462841233224
  0
LWPOLYLINE
  5
10469
330
10430
100
AcDbEntity
  8
2-pocket 4mm
100
AcDbPolyline
 90
        4
 70
     1
 43
0.0
 10
267.516898971051
 20
97.34628412332243
 10
308.516898971051
 20
97.34628412332243
 10
308.516898971051
 20
89.14628412332239
 10
267.516898971051
 20
89.14628412332239
  0
LWPOLYLINE
  5
1046A
330
10430
100
AcDbEntity
  8
2-pocket 4mm
100
AcDbPolyline
 90
        4
 70
     1
 43
0.0
 10
308.516898971051
 20
335.1462841233224
 10
267.516898971051
 20
335.1462841233224
 10
267.516898971051
 20
343.3462841233222
 10
308.516898971051
 20
343.3462841233213
  0
CIRCLE
  5
1046B
330
10430
100
AcDbEntity
  8
2-pocket 4mm
100
AcDbCircle
 10
179.416898971051
 20
313.1962841233214
 30
0.0
 40
2.049999999999998
  0
CIRCLE
  5
1046C
330
10430
100
AcDbEntity
  8
2-pocket 4mm
100
AcDbCircle
 10
269.4168989710511
 20
313.1962841233214
 30
0.0
 40
2.049999999999998
  0
CIRCLE
  5
1046D
330
10430
100
AcDbEntity
  8
2-pocket 4mm
100
AcDbCircle
 10
179.416898971051
 20
273.1962841233214
 30
0.0
 40
2.049999999999998
  0
CIRCLE
  5
1046E
330
10430
100
AcDbEntity
  8
2-pocket 4mm
100
AcDbCircle
 10
269.4168989710511
 20
273.1962841233214
 30
0.0
 40
2.049999999999998
  0
CIRCLE
  5
1046F
330
10430
100
AcDbEntity
  8
2-pocket 4mm
100
AcDbCircle
 10
179.416898971051
 20
233.1962841233224
 30
0.0
 40
2.049999999999998
  0
CIRCLE
  5
10470
330
10430
100
AcDbEntity
  8
2-pocket 4mm
100
AcDbCircle
 10
269.416898971051
 20
233.1962841233214
 30
0.0
 40
2.049999999999998
  0
CIRCLE
  5
10471
330
10430
100
AcDbEntity
  8
2-pocket 4mm
100
AcDbCircle
 10
179.416898971051
 20
193.1962841233223
 30
0.0
 40
2.049999999999998
  0
CIRCLE
  5
10472
330
10430
100
AcDbEntity
  8
2-pocket 4mm
100
AcDbCircle
 10
269.416898971051
 20
193.1962841233214
 30
0.0
 40
2.049999999999998
  0
CIRCLE
  5
10473
330
10430
100
AcDbEntity
  8
3-Incut
100
AcDbCircle
 10
354.9168837125055
 20
292.2462841233223
 30
0.0
 40
4.000000000000004
  0
CIRCLE
  5
10474
330
10430
100
AcDbEntity
  8
3-Incut
100
AcDbCircle
 10
469.916883712343
 20
292.2462841233223
 30
0.0
 40
4.000000000000004
  0
LWPOLYLINE
  5
10475
330
10430
100
AcDbEntity
  8
3-Incut
100
AcDbPolyline
 90
        4
 70
     1
 43
0.0
 10
335.5168837124244
 20
690.2462841232408
 10
335.5168837124244
 20
682.1462841232406
 10
332.4168837124245
 20
682.1462841232406
 10
332.4168837124243
 20
690.2462841232408
  0
LWPOLYLINE
  5
10476
330
10430
100
AcDbEntity
  8
3-Incut
100
AcDbPolyline
 90
        4
 70
     1
 43
0.0
 10
332.4168837124243
 20
575.346284123403
 10
335.5168837124244
 20
575.346284123403
 10
335.5168837124243
 20
567.246284123403
 10
332.4168837124243
 20
567.246284123403
  0
CIRCLE
  5
10477
330
10430
100
AcDbEntity
  8
2-pocket 4mm
100
AcDbCircle
 10
357.9168837124243
 20
582.2462841232338
 30
0.0
 40
3.999999999999998
  0
CIRCLE
  5
10478
330
10430
100
AcDbEntity
  8
2-pocket 4mm
100
AcDbCircle
 10
371.5729086893169
 20
603.6913089534259
 30
0.0
 40
3.999999999999998
  0
LWPOLYLINE
  5
10479
330
10430
100
AcDbEntity
  8
4-pocket 8mm
100
AcDbPolyline
 90
        4
 70
     1
 43
0.0
 10
384.3247479829455
 20
612.2463446800008
 10
402.8247479829453
 20
612.2463446800008
 10
402.8247479829453
 20
645.2463446800002
 10
384.3247479829455
 20
645.2463446800002
  0
LWPOLYLINE
  5
1047A
330
10430
100
AcDbEntity
  8
3-Incut
100
AcDbPolyline
 90
        4
 70
     1
 43
0.0
 10
409.3247480708803
 20
646.7462841289111
 10
409.3247480708803
 20
610.7462841289109
 10
375.3247480708803
 20
610.7462841214587
 10
375.3247480629898
 20
646.7462841214588
  0
CIRCLE
  5
1047B
330
10430
100
AcDbEntity
  8
2-pocket 4mm
100
AcDbCircle
 10
408.5148586893168
 20
603.6913089534259
 30
0.0
 40
3.999999999999998
  0
CIRCLE
  5
1047C
330
10430
100
AcDbEntity
  8
2-pocket 4mm
100
AcDbCircle
 10
420.5434078760267
 20
603.8728082868345
 30
0.0
 40
3.999999999999998
  0
CIRCLE
  5
1047D
330
10430
100
AcDbEntity
  8
2-pocket 4mm
100
AcDbCircle
 10
470.2903595488217
 20
603.8728082868345
 30
0.0
 40
3.999999999999998
  0
CIRCLE
  5
1047E
330
10430
100
AcDbEntity
  8
2-pocket 4mm
100
AcDbCircle
 10
470.2903595488218
 20
653.6197599596297
 30
0.0
 40
3.999999999999998
  0
CIRCLE
  5
1047F
330
10430
100
AcDbEntity
  8
2-pocket 4mm
100
AcDbCircle
 10
420.5434078760267
 20
653.6197599596297
 30
0.0
 40
3.999999999999998
  0
CIRCLE
  5
10480
330
10430
100
AcDbEntity
  8
2-pocket 4mm
100
AcDbCircle
 10
408.5148586893168
 20
663.6332589534257
 30
0.0
 40
3.999999999999998
  0
CIRCLE
  5
10481
330
10430
100
AcDbEntity
  8
2-pocket 4mm
100
AcDbCircle
 10
357.9168837124243
 20
675.2462841232406
 30
0.0
 40
4.000000000000004
  0
LWPOLYLINE
  5
10482
330
10430
100
AcDbEntity
  8
0
  6
Continuous
 62
     8
100
AcDbPolyline
 90
        4
 70
     1
 43
0.0
 10
502.416883712391
 20
28.81377976418344
 10
133.4168989717521
 20
28.81377976418344
 10
133.4168989717521
 20
1153.40876895121
 10
502.416883712391
 20
1153.40876895121
  0
CIRCLE
  5
10483
330
10430
100
AcDbEntity
  8
1-screw
  6
Continuous
100
AcDbCircle
 10
143.4168989717522
 20
1143.40876895121
 30
0.0
 40
2.049999999999998
  0
CIRCLE
  5
10484
330
10430
100
AcDbEntity
  8
1-screw
  6
Continuous
100
AcDbCircle
 10
143.4168989712933
 20
785.2104361416604
 30
0.0
 40
2.049999999999998
  0
CIRCLE
  5
10485
330
10430
100
AcDbEntity
  8
1-screw
  6
Continuous
100
AcDbCircle
 10
143.4168989717522
 20
38.81377976418344
 30
0.0
 40
2.049999999999998
  0
CIRCLE
  5
10486
330
10430
100
AcDbEntity
  8
1-screw
  6
Continuous
100
AcDbCircle
 10
492.4168837123909
 20
38.81377976418344
 30
0.0
 40
2.049999999999998
  0
CIRCLE
  5
10487
330
10430
100
AcDbEntity
  8
1-screw
  6
Continuous
100
AcDbCircle
 10
492.4168837123909
 20
1143.40876895121
 30
0.0
 40
2.049999999999998
  0
CIRCLE
  5
10488
330
10430
100
AcDbEntity
  8
1-screw
  6
Continuous
100
AcDbCircle
 10
143.4168989712933
 20
397.0121125737335
 30
0.0
 40
2.049999999999998
  0
CIRCLE
  5
10489
330
10430
100
AcDbEntity
  8
1-screw
  6
Continuous
100
AcDbCircle
 10
492.4168837123909
 20
534.2462841233214
 30
0.0
 40
2.049999999999998
  0
MULTILEADER
  5
1048A
330
10430
100
AcDbEntity
  8
0
 62
     0
 48
10.0
160
               536
310
18020000150000000C00000016000000000000C10C00000033000000000000000C00000013000000993A0000C000000026000000A86AC6FF34C4F33F9387343D94479040000000000000000000000000000000000000000000000000000000000000F03F000000000000F03F00000000000000000000000000000000530069
310
0064006500200041000000000006000000010000000000000000002E40000000000000F03F0000000000000000000000000000F03F00000000000000000000000000000000000000000000000000000000010000000000000041007200690061006C00000000000000000000000C00000033000000000000000C0000001000
310
0000000000000C00000016000000000000C10C00000012000000FF7F00000C00000013000000010000000C00000013000000891300003C0000000600000002000000DDB66E1C51516740C6252C351766904000000000000000007AE910855A605540C6252C351766904000000000000000000C00000013000000122700003C
310
00000006000000020000007AE910855A605540C6252C351766904000000000000000007AE910855AE05040C6252C351766904000000000000000000C00000016000000000000C10C00000012000000FF7F00000C00000017000000000000000C000000130000009A3A00000C00000016000000000000C10C00000012000000
310
FF7F00000C00000017000000FFFFFFFF0C0000003300000000000000
100
AcDbMLeader
270
     2
300
CONTEXT_DATA{
 40
50.0
 10
-2.323260922248549
 20
1049.522663774305
 30
0.0
 41
15.0
140
5000.0
145
4.5
174
     1
175
     1
176
     2
177
     0
290
     1
304
{\fArial|b0|i0|c0|p0;Side A}
 11
0.0
 21
0.0
 31
1.0
340
11
 12
63.00552488948405
 22
1057.150562819326
 32
0.0
 13
1.0
 23
0.0
 33
0.0
 42
0.0
 43
0.0
 44
0.0
 45
1.0
170
     1
 90
-1056964608
171
     3
172
     5
 91
-1073741824
141
0.0
 92
        0
291
     0
292
     0
173
     0
293
     0
142
0.0
143
0.0
294
     0
295
     0
296
     0
110
-62.91807674762373
120
1049.522663774305
130
0.0
111
1.0
121
0.0
131
0.0
112
0.0
122
1.0
132
0.0
297
     0
302
LEADER{
290
     1
291
     1
 10
85.50552488948406
 20
1049.522663774305
 30
0.0
 11
-1.0
 21
0.0
 31
0.0
 90
        1
 40
18.0
304
LEADER_LINE{
 10
186.5411512529744
 20
1049.522663774305
 30
0.0
 91
        0
305
}
271
     0
303
}
272
     9
273
     9
301
}
340
10052
 90
 17123072
170
     1
 91
-1056964608
341
14
171
    -2
290
     1
291
     1
 41
0.36
342
10333
 42
100.0
172
     2
343
11
173
     1
 95
        1
174
     1
175
     0
 92
-1056964608
292
     0
 93
-1056964608
 10
1.0
 20
1.0
 30
1.0
 43
0.0
176
     0
293
     0
294
     0
178
     0
179
     3
 45
50.0
271
     0
272
     9
273
     9
295
     0
  0
MULTILEADER
  5
1048B
330
10430
100
AcDbEntity
  8
0
 62
     0
 48
10.0
160
               532
310
14020000150000000C00000016000000000000C10C00000033000000000000000C00000013000000993A0000BC0000002600000012C0FCDA5D80304002F18159DFCD8340000000000000000000000000000000000000000000000000000000000000F03F000000000000F03F00000000000000000000000000000000420061
310
0063006B000000410004000000010000000000000000002E40000000000000F03F0000000000000000000000000000F03F00000000000000000000000000000000000000000000000000000000010000000000000041007200690061006C00000000000000000000000C00000033000000000000000C000000100000000000
310
00000C00000016000000000000C10C00000012000000FF7F00000C00000013000000010000000C00000013000000891300003C0000000600000002000000DDB66E1C515167409079CFE3E3088440000000000000000073E910855A6055409079CFE3E308844000000000000000000C00000013000000122700003C00000006
310
0000000200000073E910855A6055409079CFE3E3088440000000000000000073E910855AE050409079CFE3E308844000000000000000000C00000016000000000000C10C00000012000000FF7F00000C00000017000000000000000C000000130000009A3A00000C00000016000000000000C10C00000012000000FF7F0000
310
0C00000017000000FFFFFFFF0C0000003300000000000000
100
AcDbMLeader
270
     2
300
CONTEXT_DATA{
 40
50.0
 10
13.53622066028888
 20
641.1112743576977
 30
0.0
 41
15.0
140
5000.0
145
4.5
174
     1
175
     1
176
     2
177
     0
290
     1
304
{\fArial|b0|i0|c0|p0;Back}
 11
0.0
 21
0.0
 31
1.0
340
11
 12
63.00552488948405
 22
648.7340574409174
 32
0.0
 13
1.0
 23
0.0
 33
0.0
 42
0.0
 43
0.0
 44
0.0
 45
1.0
170
     1
 90
-1056964608
171
     3
172
     5
 91
-1073741824
141
0.0
 92
        0
291
     0
292
     0
173
     0
293
     0
142
0.0
143
0.0
294
     0
295
     0
296
     0
110
-62.91807674762373
120
641.1112743576977
130
0.0
111
1.0
121
0.0
131
0.0
112
0.0
122
1.0
132
0.0
297
     0
302
LEADER{
290
     1
291
     1
 10
85.50552488948396
 20
641.1112743576977
 30
0.0
 11
-1.0
 21
0.0
 31
0.0
 90
        1
 40
18.0
304
LEADER_LINE{
 10
186.5411512529744
 20
641.1112743576977
 30
0.0
 91
        0
305
}
271
     0
303
}
272
     9
273
     9
301
}
340
10052
 90
 17123072
170
     1
 91
-1056964608
341
14
171
    -2
290
     1
291
     1
 41
0.36
342
10333
 42
100.0
172
     2
343
11
173
     1
 95
        1
174
     1
175
     0
 92
-1056964608
292
     0
 93
-1056964608
 10
1.0
 20
1.0
 30
1.0
 43
0.0
176
     0
293
     0
294
     0
178
     0
179
     3
 45
50.0
271
     0
272
     9
273
     9
295
     0
  0
MULTILEADER
  5
1048C
330
10430
100
AcDbEntity
  8
0
 62
     0
 48
10.0
160
               536
310
18020000150000000C00000016000000000000C10C00000033000000000000000C00000013000000993A0000C00000002600000064033EAC0F0D0340521ED2F4A2427240000000000000000000000000000000000000000000000000000000000000F03F000000000000F03F00000000000000000000000000000000530069
310
0064006500200042000000000006000000010000000000000000002E40000000000000F03F0000000000000000000000000000F03F00000000000000000000000000000000000000000000000000000000010000000000000041007200690061006C00000000000000000000000C00000033000000000000000C0000001000
310
0000000000000C00000016000000000000C10C00000012000000FF7F00000C00000013000000010000000C00000013000000891300003C0000000600000002000000DDB66E1C515167403497B0D4AEBC724000000000000000007AE910855A6055403497B0D4AEBC724000000000000000000C00000013000000122700003C
310
00000006000000020000007AE910855A6055403497B0D4AEBC724000000000000000007AE910855AE050403497B0D4AEBC724000000000000000000C00000016000000000000C10C00000012000000FF7F00000C00000017000000000000000C000000130000009A3A00000C00000016000000000000C10C00000012000000
310
FF7F00000C00000017000000FFFFFFFF0C0000003300000000000000
100
AcDbMLeader
270
     2
300
CONTEXT_DATA{
 40
50.0
 10
-1.177285478865186
 20
299.7926833055565
 30
0.0
 41
15.0
140
5000.0
145
4.5
174
     1
175
     1
176
     2
177
     0
290
     1
304
{\fArial|b0|i0|c0|p0;Side B}
 11
0.0
 21
0.0
 31
1.0
340
11
 12
63.00552488948405
 22
307.4205823505763
 32
0.0
 13
1.0
 23
0.0
 33
0.0
 42
0.0
 43
0.0
 44
0.0
 45
1.0
170
     1
 90
-1056964608
171
     3
172
     5
 91
-1073741824
141
0.0
 92
        0
291
     0
292
     0
173
     0
293
     0
142
0.0
143
0.0
294
     0
295
     0
296
     0
110
-62.91807674762373
120
299.7926833055565
130
0.0
111
1.0
121
0.0
131
0.0
112
0.0
122
1.0
132
0.0
297
     0
302
LEADER{
290
     1
291
     1
 10
85.50552488948406
 20
299.7926833055565
 30
0.0
 11
-1.0
 21
0.0
 31
0.0
 90
        1
 40
18.0
304
LEADER_LINE{
 10
186.5411512529744
 20
299.7926833055565
 30
0.0
 91
        0
305
}
271
     0
303
}
272
     9
273
     9
301
}
340
10052
 90
 17123072
170
     1
 91
-1056964608
341
14
171
    -2
290
     1
291
     1
 41
0.36
342
10333
 42
100.0
172
     2
343
11
173
     1
 95
        1
174
     1
175
     0
 92
-1056964608
292
     0
 93
-1056964608
 10
1.0
 20
1.0
 30
1.0
 43
0.0
176
     0
293
     0
294
     0
178
     0
179
     3
 45
50.0
271
     0
272
     9
273
     9
295
     0
  0
MULTILEADER
  5
1048D
330
10430
100
AcDbEntity
  8
0
 62
     0
 48
10.0
160
               544
310
20020000150000000C00000016000000000000C10C00000033000000000000000C00000013000000993A0000C8000000260000008DDDDCD5DFD88140A07BA3F9E7108940000000000000000000000000000000000000000000000000000000000000F03F000000000000F03F4D67E2F1059EB5BC0000000000000000460072
310
006F006E007400200066006F006F007400000000000A000000010000000000000000002E40000000000000F03F0000000000000000000000000000F03F00000000000000000000000000000000000000000000000000000000010000000000000041007200690061006C00000000000000000000000C000000330000000000
310
00000C00000010000000000000000C00000016000000000000C10C00000012000000FF7F00000C00000013000000010000000C00000013000000891300003C000000060000000200000090BC82C260D17640047DCF63F84D89400000000000000000C2659F45A0328140047DCF63F84D894000000000000000000C00000013
310
000000122700003C0000000600000002000000C2659F45A0328140047DCF63F84D89400000000000000000C2659F45A0C28140047DCF63F84D894000000000000000000C00000016000000000000C10C00000012000000FF7F00000C00000017000000000000000C000000130000009A3A00000C00000016000000000000C1
310
0C00000012000000FF7F00000C00000017000000FFFFFFFF0C0000003300000000000000
100
AcDbMLeader
270
     2
300
CONTEXT_DATA{
 40
50.0
 10
568.3282577946595
 20
809.7462841234232
 30
0.0
 41
15.0
140
5000.0
145
4.5
174
     1
175
     1
176
     0
177
     0
290
     1
304
{\fArial|b0|i0|c0|p0;Front foot}
 11
0.0
 21
0.0
 31
1.0
340
11
 12
572.8282577946595
 22
817.3690672066431
 32
0.0
 13
1.0
 23
-0.0000000000000003
 33
0.0
 42
0.0
 43
0.0
 44
0.0
 45
1.0
170
     1
 90
-1056964608
171
     1
172
     5
 91
-1073741824
141
0.0
 92
        0
291
     0
292
     0
173
     0
293
     0
142
0.0
143
0.0
294
     0
295
     0
296
     0
110
698.7518594317672
120
809.7462841234232
130
0.0
111
1.0
121
-0.0000000000000003
131
0.0
112
0.0000000000000003
122
1.0
132
0.0
297
     0
302
LEADER{
290
     1
291
     1
 10
550.3282577946595
 20
809.7462841234232
 30
0.0
 11
1.0
 21
-0.0000000000000003
 31
0.0
 90
        1
 40
18.0
304
LEADER_LINE{
 10
365.0861229998491
 20
809.7462841234232
 30
0.0
 91
        0
305
}
271
     0
303
}
272
     9
273
     9
301
}
340
10052
 90
 17123072
170
     1
 91
-1056964608
341
14
171
    -2
290
     1
291
     1
 41
0.36
342
10333
 42
100.0
172
     2
343
11
173
     1
 95
        1
174
     1
175
     0
 92
-1056964608
292
     0
 93
-1056964608
 10
1.0
 20
1.0
 30
1.0
 43
0.0
176
     0
293
     0
294
     0
178
     0
179
     1
 45
50.0
271
     0
272
     9
273
     9
295
     0
  0
MULTILEADER
  5
1048E
330
10430
100
AcDbEntity
  8
0
 62
     0
 48
10.0
160
               528
310
10020000150000000C00000016000000000000C10C00000033000000000000000C00000013000000993A0000B800000026000000FC87D56EB2E2814014A36CBAA07A8340000000000000000000000000000000000000000000000000000000000000F03F000000000000F03F4D67E2F1059EB5BC000000000000000054006F
310
007000000003000000010000000000000000002E40000000000000F03F0000000000000000000000000000F03F00000000000000000000000000000000000000000000000000000000010000000000000041007200690061006C00000000000000000000000C00000033000000000000000C00000010000000000000000C00
310
000016000000000000C10C00000012000000FF7F00000C00000013000000010000000C00000013000000891300003C000000060000000200000073AA4B9EAE147C408579CF63F8A583400000000000000000C2659F45A03281408579CF63F8A5834000000000000000000C00000013000000122700003C0000000600000002
310
000000C2659F45A03281408579CF63F8A583400000000000000000C2659F45A0C281408579CF63F8A5834000000000000000000C00000016000000000000C10C00000012000000FF7F00000C00000017000000000000000C000000130000009A3A00000C00000016000000000000C10C00000012000000FF7F00000C000000
310
17000000FFFFFFFF0C0000003300000000000000
100
AcDbMLeader
270
     2
300
CONTEXT_DATA{
 40
50.0
 10
568.3282577946595
 20
628.7462841233215
 30
0.0
 41
15.0
140
5000.0
145
4.5
174
     1
175
     1
176
     0
177
     0
290
     1
304
{\fArial|b0|i0|c0|p0;Top}
 11
0.0
 21
0.0
 31
1.0
340
11
 12
572.8282577946595
 22
638.3284805762546
 32
0.0
 13
1.0
 23
-0.0000000000000003
 33
0.0
 42
0.0
 43
0.0
 44
0.0
 45
1.0
170
     1
 90
-1056964608
171
     1
172
     5
 91
-1073741824
141
0.0
 92
        0
291
     0
292
     0
173
     0
293
     0
142
0.0
143
0.0
294
     0
295
     0
296
     0
110
698.7518594317672
120
628.7462841233215
130
0.0
111
1.0
121
-0.0000000000000003
131
0.0
112
0.0000000000000003
122
1.0
132
0.0
297
     0
302
LEADER{
290
     1
291
     1
 10
550.3282577946595
 20
628.7462841233215
 30
0.0
 11
1.0
 21
-0.0000000000000003
 31
0.0
 90
        1
 40
18.0
304
LEADER_LINE{
 10
449.2926314311691
 20
628.7462841233215
 30
0.0
 91
        0
305
}
271
     0
303
}
272
     9
273
     9
301
}
340
10052
 90
 17123072
170
     1
 91
-1056964608
341
14
171
    -2
290
     1
291
     1
 41
0.36
342
10333
 42
100.0
172
     2
343
11
173
     1
 95
        1
174
     1
175
     0
 92
-1056964608
292
     0
 93
-1056964608
 10
1.0
 20
1.0
 30
1.0
 43
0.0
176
     0
293
     0
294
     0
178
     0
179
     1
 45
50.0
271
     0
272
     9
273
     9
295
     0
  0
MULTILEADER
  5
1048F
330
10430
100
AcDbEntity
  8
0
 62
     0
 48
10.0
160
               532
310
14020000150000000C00000016000000000000C10C00000033000000000000000C00000013000000993A0000BC0000002600000014419C62B1D98140315EB5C9A5616D40000000000000000000000000000000000000000000000000000000000000F03F000000000000F03F4D67E2F1059EB5BC000000000000000044006F
310
006F0072000000000004000000010000000000000000002E40000000000000F03F0000000000000000000000000000F03F00000000000000000000000000000000000000000000000000000000010000000000000041007200690061006C00000000000000000000000C00000033000000000000000C000000100000000000
310
00000C00000016000000000000C10C00000012000000FF7F00000C00000013000000010000000C00000013000000891300003C00000006000000020000006EAA4B9EAE147C406180EBF2B74D6E400000000000000000C0659F45A03281406180EBF2B74D6E4000000000000000000C00000013000000122700003C00000006
310
00000002000000C0659F45A03281406180EBF2B74D6E400000000000000000C0659F45A0C281406180EBF2B74D6E4000000000000000000C00000016000000000000C10C00000012000000FF7F00000C00000017000000000000000C000000130000009A3A00000C00000016000000000000C10C00000012000000FF7F0000
310
0C00000017000000FFFFFFFF0C0000003300000000000000
100
AcDbMLeader
270
     2
300
CONTEXT_DATA{
 40
50.0
 10
568.3282577946592
 20
242.4287047004355
 30
0.0
 41
15.0
140
5000.0
145
4.5
174
     1
175
     1
176
     0
177
     0
290
     1
304
{\fArial|b0|i0|c0|p0;Door}
 11
0.0
 21
0.0
 31
1.0
340
11
 12
572.8282577946592
 22
250.0514877836554
 32
0.0
 13
1.0
 23
-0.0000000000000003
 33
0.0
 42
0.0
 43
0.0
 44
0.0
 45
1.0
170
     1
 90
-1056964608
171
     1
172
     5
 91
-1073741824
141
0.0
 92
        0
291
     0
292
     0
173
     0
293
     0
142
0.0
143
0.0
294
     0
295
     0
296
     0
110
698.751859431767
120
242.4287047004355
130
0.0
111
1.0
121
-0.0000000000000003
131
0.0
112
0.0000000000000003
122
1.0
132
0.0
297
     0
302
LEADER{
290
     1
291
     1
 10
550.3282577946593
 20
242.4287047004355
 30
0.0
 11
1.0
 21
-0.0000000000000003
 31
0.0
 90
        1
 40
18.0
304
LEADER_LINE{
 10
449.2926314311688
 20
242.4287047004355
 30
0.0
 91
        0
305
}
271
     0
303
}
272
     9
273
     9
301
}
340
10052
 90
 17123072
170
     1
 91
-1056964608
341
14
171
    -2
290
     1
291
     1
 41
0.36
342
10333
 42
100.0
172
     2
343
11
173
     1
 95
        1
174
     1
175
     0
 92
-1056964608
292
     0
 93
-1056964608
 10
1.0
 20
1.0
 30
1.0
 43
0.0
176
     0
293
     0
294
     0
178
     0
179
     1
 45
50.0
271
     0
272
     9
273
     9
295
     0
  0
MULTILEADER
  5
10490
330
10430
100
AcDbEntity
  8
0
 62
     0
 48
10.0
160
               536
310
18020000150000000C00000016000000000000C10C00000033000000000000000C00000013000000993A0000C000000026000000B790680659DA8140EFE103B3E7057B40000000000000000000000000000000000000000000000000000000000000F03F000000000000F03F4D67E2F1059EB5BC000000000000000042006F
310
00740074006F006D000000000006000000010000000000000000002E40000000000000F03F0000000000000000000000000000F03F00000000000000000000000000000000000000000000000000000000010000000000000041007200690061006C00000000000000000000000C00000033000000000000000C0000001000
310
0000000000000C00000016000000000000C10C00000012000000FF7F00000C00000013000000010000000C00000013000000891300003C000000060000000200000073AA4B9EAE147C4006F39EC7F07B7B400000000000000000C2659F45A032814006F39EC7F07B7B4000000000000000000C00000013000000122700003C
310
0000000600000002000000C2659F45A032814006F39EC7F07B7B400000000000000000C2659F45A0C2814006F39EC7F07B7B4000000000000000000C00000016000000000000C10C00000012000000FF7F00000C00000017000000000000000C000000130000009A3A00000C00000016000000000000C10C00000012000000
310
FF7F00000C00000017000000FFFFFFFF0C0000003300000000000000
100
AcDbMLeader
270
     2
300
CONTEXT_DATA{
 40
50.0
 10
568.3282577946595
 20
439.7462841233212
 30
0.0
 41
15.0
140
5000.0
145
4.5
174
     1
175
     1
176
     0
177
     0
290
     1
304
{\fArial|b0|i0|c0|p0;Bottom}
 11
0.0
 21
0.0
 31
1.0
340
11
 12
572.8282577946595
 22
447.3690672065412
 32
0.0
 13
1.0
 23
-0.0000000000000003
 33
0.0
 42
0.0
 43
0.0
 44
0.0
 45
1.0
170
     1
 90
-1056964608
171
     1
172
     5
 91
-1073741824
141
0.0
 92
        0
291
     0
292
     0
173
     0
293
     0
142
0.0
143
0.0
294
     0
295
     0
296
     0
110
698.7518594317672
120
439.7462841233212
130
0.0
111
1.0
121
-0.0000000000000003
131
0.0
112
0.0000000000000003
122
1.0
132
0.0
297
     0
302
LEADER{
290
     1
291
     1
 10
550.3282577946595
 20
439.7462841233212
 30
0.0
 11
1.0
 21
-0.0000000000000003
 31
0.0
 90
        1
 40
18.0
304
LEADER_LINE{
 10
449.2926314311691
 20
439.7462841233212
 30
0.0
 91
        0
305
}
271
     0
303
}
272
     9
273
     9
301
}
340
10052
 90
 17123072
170
     1
 91
-1056964608
341
14
171
    -2
290
     1
291
     1
 41
0.36
342
10333
 42
100.0
172
     2
343
11
173
     1
 95
        1
174
     1
175
     0
 92
-1056964608
292
     0
 93
-1056964608
 10
1.0
 20
1.0
 30
1.0
 43
0.0
176
     0
293
     0
294
     0
178
     0
179
     1
 45
50.0
271
     0
272
     9
273
     9
295
     0
  0
MULTILEADER
  5
10491
330
10430
100
AcDbEntity
  8
0
 62
     0
 48
10.0
160
               548
310
24020000150000000C00000016000000000000C10C00000033000000000000000C00000013000000993A0000CC000000260000008A1023F9B6E181402392C071E1479140000000000000000000000000000000000000000000000000000000000000F03F000000000000F03F4D67E2F1059EB5BC000000000000000032002D
310
0050006F0063006B0065007400200034006D006D00000000000C000000010000000000000000002E40000000000000F03F0000000000000000000000000000F03F00000000000000000000000000000000000000000000000000000000010000000000000041007200690061006C00000000000000000000000C0000003300
310
0000000000000C00000010000000000000000C00000016000000000000C10C00000012000000FF7F00000C00000013000000010000000C00000013000000891300003C0000000600000002000000C2659F45A032814045F45394A26591400000000000000000C2659F45A032814045F45394A265914000000000000000000C
310
00000013000000122700003C0000000600000002000000C2659F45A032814045F45394A26591400000000000000000C2659F45A0C2814045F45394A265914000000000000000000C00000016000000000000C10C00000012000000FF7F00000C00000017000000000000000C000000130000009A3A00000C00000016000000
310
000000C10C00000012000000FF7F00000C00000017000000FFFFFFFF0C0000003300000000000000
100
AcDbMLeader
270
     2
300
CONTEXT_DATA{
 40
50.0
 10
568.3282577946595
 20
1113.40876895121
 30
0.0
 41
15.0
140
5000.0
145
4.5
174
     1
175
     1
176
     0
177
     0
290
     1
304
{\fArial|b0|i0|c0|p0;2-Pocket 4mm}
 11
0.0
 21
0.0
 31
1.0
340
11
 12
572.8282577946595
 22
1121.03155203443
 32
0.0
 13
1.0
 23
-0.0000000000000003
 33
0.0
 42
0.0
 43
0.0
 44
0.0
 45
1.0
170
     1
 90
-1056964608
171
     1
172
     5
 91
-1073741824
141
0.0
 92
        0
291
     0
292
     0
173
     0
293
     0
142
0.0
143
0.0
294
     0
295
     0
296
     0
110
698.7518594317672
120
1113.40876895121
130
0.0
111
1.0
121
-0.0000000000000003
131
0.0
112
0.0000000000000003
122
1.0
132
0.0
297
     0
302
LEADER{
290
     1
291
     1
 10
550.3282577946595
 20
1113.40876895121
 30
0.0
 11
1.0
 21
-0.0000000000000003
 31
0.0
 90
        1
 40
18.0
304
LEADER_LINE{
 10
550.3282577946595
 20
1113.40876895121
 30
0.0
 91
        0
305
}
271
     0
303
}
272
     9
273
     9
301
}
340
10052
 90
 17123072
170
     1
 91
-1056964608
341
14
171
    -2
290
     1
291
     1
 41
0.36
342
10333
 42
100.0
172
     2
343
11
173
     1
 95
        1
174
     1
175
     0
 92
-1056964608
292
     0
 93
-1056964608
 10
1.0
 20
1.0
 30
1.0
 43
0.0
176
     0
293
     0
294
     0
178
     0
179
     1
 45
50.0
271
     0
272
     9
273
     9
295
     0
  0
LWPOLYLINE
  5
10492
330
10430
100
AcDbEntity
  8
0
  6
Continuous
 62
     2
100
AcDbPolyline
 90
        4
 70
     1
 43
0.0
 10
530.3282577946595
 20
1123.408768951211
 10
550.3282577946595
 20
1123.408768951211
 10
550.3282577946595
 20
1103.40876895121
 10
530.3282577946595
 20
1103.40876895121
  0
MULTILEADER
  5
10493
330
10430
100
AcDbEntity
  8
0
 62
     0
 48
10.0
160
               548
310
24020000150000000C00000016000000000000C10C00000033000000000000000C00000013000000993A0000CC00000026000000BF0DCB2496DF81401F57FDEBEBCF9040000000000000000000000000000000000000000000000000000000000000F03F000000000000F03F4D67E2F1059EB5BC000000000000000033002D
310
0050006F0063006B0065007400200036006D006D00000000000C000000010000000000000000002E40000000000000F03F0000000000000000000000000000F03F00000000000000000000000000000000000000000000000000000000010000000000000041007200690061006C00000000000000000000000C0000003300
310
0000000000000C00000010000000000000000C00000016000000000000C10C00000012000000FF7F00000C00000013000000010000000C00000013000000891300003C0000000600000002000000C2659F45A032814045F45394A2ED90400000000000000000C2659F45A032814045F45394A2ED904000000000000000000C
310
00000013000000122700003C0000000600000002000000C2659F45A032814045F45394A2ED90400000000000000000C2659F45A0C2814045F45394A2ED904000000000000000000C00000016000000000000C10C00000012000000FF7F00000C00000017000000000000000C000000130000009A3A00000C00000016000000
310
000000C10C00000012000000FF7F00000C00000017000000FFFFFFFF0C0000003300000000000000
100
AcDbMLeader
270
     2
300
CONTEXT_DATA{
 40
50.0
 10
568.3282577946595
 20
1083.40876895121
 30
0.0
 41
15.0
140
5000.0
145
4.5
174
     1
175
     1
176
     0
177
     0
290
     1
304
{\fArial|b0|i0|c0|p0;3-Pocket 6mm}
 11
0.0
 21
0.0
 31
1.0
340
11
 12
572.8282577946595
 22
1091.041783958032
 32
0.0
 13
1.0
 23
-0.0000000000000003
 33
0.0
 42
0.0
 43
0.0
 44
0.0
 45
1.0
170
     1
 90
-1056964608
171
     1
172
     5
 91
-1073741824
141
0.0
 92
        0
291
     0
292
     0
173
     0
293
     0
142
0.0
143
0.0
294
     0
295
     0
296
     0
110
698.7518594317672
120
1083.40876895121
130
0.0
111
1.0
121
-0.0000000000000003
131
0.0
112
0.0000000000000003
122
1.0
132
0.0
297
     0
302
LEADER{
290
     1
291
     1
 10
550.3282577946595
 20
1083.40876895121
 30
0.0
 11
1.0
 21
-0.0000000000000003
 31
0.0
 90
        1
 40
18.0
304
LEADER_LINE{
 10
550.3282577946595
 20
1083.40876895121
 30
0.0
 91
        0
305
}
271
     0
303
}
272
     9
273
     9
301
}
340
10052
 90
 17123072
170
     1
 91
-1056964608
341
14
171
    -2
290
     1
291
     1
 41
0.36
342
10333
 42
100.0
172
     2
343
11
173
     1
 95
        1
174
     1
175
     0
 92
-1056964608
292
     0
 93
-1056964608
 10
1.0
 20
1.0
 30
1.0
 43
0.0
176
     0
293
     0
294
     0
178
     0
179
     1
 45
50.0
271
     0
272
     9
273
     9
295
     0
  0
LWPOLYLINE
  5
10494
330
10430
100
AcDbEntity
  8
0
  6
Continuous
 62
     5
100
AcDbPolyline
 90
        4
 70
     1
 43
0.0
 10
530.3282577946595
 20
1093.408768951211
 10
550.3282577946595
 20
1093.408768951211
 10
550.3282577946595
 20
1073.40876895121
 10
530.3282577946595
 20
1073.40876895121
  0
MULTILEADER
  5
10495
330
10430
100
AcDbEntity
  8
0
 62
     0
 48
10.0
160
               556
310
2C020000150000000C00000016000000000000C10C00000033000000000000000C00000013000000993A0000D400000026000000F76247717FE48140C6C47B7A74609040000000000000000000000000000000000000000000000000000000000000F03F000000000000F03F4D67E2F1059EB5BC000000000000000034002D
310
0050006F0063006B006500740020007400680072006F007500670068000000666610000000010000000000000000002E40000000000000F03F0000000000000000000000000000F03F00000000000000000000000000000000000000000000000000000000010000000000000041007200690061006C000000000033330000
310
33CC0C00000033000000000000000C00000010000000000000000C00000016000000000000C10C00000012000000FF7F00000C00000013000000010000000C00000013000000891300003C0000000600000002000000C2659F45A032814045F45394A27590400000000000000000C2659F45A032814045F45394A275904000
310
000000000000000C00000013000000122700003C0000000600000002000000C2659F45A032814045F45394A27590400000000000000000C2659F45A0C2814045F45394A275904000000000000000000C00000016000000000000C10C00000012000000FF7F00000C00000017000000000000000C000000130000009A3A0000
310
0C00000016000000000000C10C00000012000000FF7F00000C00000017000000FFFFFFFF0C0000003300000000000000
100
AcDbMLeader
270
     2
300
CONTEXT_DATA{
 40
50.0
 10
568.3282577946595
 20
1053.40876895121
 30
0.0
 41
15.0
140
5000.0
145
4.5
174
     1
175
     1
176
     0
177
     0
290
     1
304
{\fArial|b0|i0|c0|p0;4-Pocket through}
 11
0.0
 21
0.0
 31
1.0
340
11
 12
572.8282577946595
 22
1063.113748487363
 32
0.0
 13
1.0
 23
-0.0000000000000003
 33
0.0
 42
0.0
 43
0.0
 44
0.0
 45
1.0
170
     1
 90
-1056964608
171
     1
172
     5
 91
-1073741824
141
0.0
 92
        0
291
     0
292
     0
173
     0
293
     0
142
0.0
143
0.0
294
     0
295
     0
296
     0
110
698.7518594317672
120
1053.40876895121
130
0.0
111
1.0
121
-0.0000000000000003
131
0.0
112
0.0000000000000003
122
1.0
132
0.0
297
     0
302
LEADER{
290
     1
291
     1
 10
550.3282577946595
 20
1053.40876895121
 30
0.0
 11
1.0
 21
-0.0000000000000003
 31
0.0
 90
        1
 40
18.0
304
LEADER_LINE{
 10
550.3282577946595
 20
1053.40876895121
 30
0.0
 91
        0
305
}
271
     0
303
}
272
     9
273
     9
301
}
340
10052
 90
 17123072
170
     1
 91
-1056964608
341
14
171
    -2
290
     1
291
     1
 41
0.36
342
10333
 42
100.0
172
     2
343
11
173
     1
 95
        1
174
     1
175
     0
 92
-1056964608
292
     0
 93
-1056964608
 10
1.0
 20
1.0
 30
1.0
 43
0.0
176
     0
293
     0
294
     0
178
     0
179
     1
 45
50.0
271
     0
272
     9
273
     9
295
     0
  0
LWPOLYLINE
  5
10496
330
10430
100
AcDbEntity
  8
0
  6
Continuous
 62
     6
100
AcDbPolyline
 90
        4
 70
     1
 43
0.0
 10
530.3282577946595
 20
1063.408768951211
 10
550.3282577946595
 20
1063.408768951211
 10
550.3282577946595
 20
1043.40876895121
 10
530.3282577946595
 20
1043.40876895121
  0
MULTILEADER
  5
10497
330
10430
100
AcDbEntity
  8
0
 62
     0
 48
10.0
160
               540
310
1C020000150000000C00000016000000000000C10C00000033000000000000000C00000013000000993A0000C400000026000000B3974419ABDF81402F223F442ABE8F40000000000000000000000000000000000000000000000000000000000000F03F000000000000F03F4D67E2F1059EB5BC000000000000000035002D
310
004F00750074006300750074000000360008000000010000000000000000002E40000000000000F03F0000000000000000000000000000F03F00000000000000000000000000000000000000000000000000000000010000000000000041007200690061006C00000000006100000000000C00000033000000000000000C00
310
000010000000000000000C00000016000000000000C10C00000012000000FF7F00000C00000013000000010000000C00000013000000891300003C0000000600000002000000C2659F45A032814092E8A72845FB8F400000000000000000C2659F45A032814092E8A72845FB8F4000000000000000000C0000001300000012
310
2700003C0000000600000002000000C2659F45A032814092E8A72845FB8F400000000000000000C2659F45A0C2814092E8A72845FB8F4000000000000000000C00000016000000000000C10C00000012000000FF7F00000C00000017000000000000000C000000130000009A3A00000C00000016000000000000C10C000000
310
12000000FF7F00000C00000017000000FFFFFFFF0C0000003300000000000000
100
AcDbMLeader
270
     2
300
CONTEXT_DATA{
 40
50.0
 10
568.3282577946595
 20
1023.408768951211
 30
0.0
 41
15.0
140
5000.0
145
4.5
174
     1
175
     1
176
     0
177
     0
290
     1
304
{\fArial|b0|i0|c0|p0;5-Outcut}
 11
0.0
 21
0.0
 31
1.0
340
11
 12
572.8282577946595
 22
1031.036667996231
 32
0.0
 13
1.0
 23
-0.0000000000000003
 33
0.0
 42
0.0
 43
0.0
 44
0.0
 45
1.0
170
     1
 90
-1056964608
171
     1
172
     5
 91
-1073741824
141
0.0
 92
        0
291
     0
292
     0
173
     0
293
     0
142
0.0
143
0.0
294
     0
295
     0
296
     0
110
698.7518594317672
120
1023.40876895121
130
0.0
111
1.0
121
-0.0000000000000003
131
0.0
112
0.0000000000000003
122
1.0
132
0.0
297
     0
302
LEADER{
290
     1
291
     1
 10
550.3282577946595
 20
1023.408768951211
 30
0.0
 11
1.0
 21
-0.0000000000000003
 31
0.0
 90
        1
 40
18.0
304
LEADER_LINE{
 10
550.3282577946595
 20
1023.408768951211
 30
0.0
 91
        0
305
}
271
     0
303
}
272
     9
273
     9
301
}
340
10052
 90
 17123072
170
     1
 91
-1056964608
341
14
171
    -2
290
     1
291
     1
 41
0.36
342
10333
 42
100.0
172
     2
343
11
173
     1
 95
        1
174
     1
175
     0
 92
-1056964608
292
     0
 93
-1056964608
 10
1.0
 20
1.0
 30
1.0
 43
0.0
176
     0
293
     0
294
     0
178
     0
179
     1
 45
50.0
271
     0
272
     9
273
     9
295
     0
  0
LWPOLYLINE
  5
10498
330
10430
100
AcDbEntity
  8
0
  6
Continuous
 62
     1
100
AcDbPolyline
 90
        4
 70
     1
 43
0.0
 10
530.3282577946593
 20
1033.408768951211
 10
550.3282577946595
 20
1033.408768951211
 10
550.3282577946595
 20
1013.408768951211
 10
530.3282577946593
 20
1013.408768951211
  0
MULTILEADER
  5
10499
330
10430
100
AcDbEntity
  8
0
 62
     0
 48
10.0
160
               548
310
24020000150000000C00000016000000000000C10C00000033000000000000000C00000013000000993A0000CC00000026000000B790680659DA81408C89F7F4E8E08E40000000000000000000000000000000000000000000000000000000000000F03F000000000000F03F4D67E2F1059EB5BC000000000000000042006F
310
0075006E00640069006E006700200062006F007800000000000C000000010000000000000000002E40000000000000F03F0000000000000000000000000000F03F00000000000000000000000000000000000000000000000000000000010000000000000041007200690061006C00000000000000000000000C0000003300
310
0000000000000C00000010000000000000000C00000016000000000000C10C00000012000000FF7F00000C00000013000000010000000C00000013000000891300003C0000000600000002000000C2659F45A03281408CE8A728450B8F400000000000000000C2659F45A03281408CE8A728450B8F4000000000000000000C
310
00000013000000122700003C0000000600000002000000C2659F45A03281408CE8A728450B8F400000000000000000C2659F45A0C281408CE8A728450B8F4000000000000000000C00000016000000000000C10C00000012000000FF7F00000C00000017000000000000000C000000130000009A3A00000C00000016000000
310
000000C10C00000012000000FF7F00000C00000017000000FFFFFFFF0C0000003300000000000000
100
AcDbMLeader
270
     2
300
CONTEXT_DATA{
 40
50.0
 10
568.3282577946595
 20
993.4087689512102
 30
0.0
 41
15.0
140
5000.0
145
4.5
174
     1
175
     1
176
     0
177
     0
290
     1
304
{\fArial|b0|i0|c0|p0;Bounding box}
 11
0.0
 21
0.0
 31
1.0
340
11
 12
572.8282577946595
 22
1003.113748487363
 32
0.0
 13
1.0
 23
-0.0000000000000003
 33
0.0
 42
0.0
 43
0.0
 44
0.0
 45
1.0
170
     1
 90
-1056964608
171
     1
172
     5
 91
-1073741824
141
0.0
 92
        0
291
     0
292
     0
173
     0
293
     0
142
0.0
143
0.0
294
     0
295
     0
296
     0
110
698.7518594317672
120
993.4087689512102
130
0.0
111
1.0
121
-0.0000000000000003
131
0.0
112
0.0000000000000003
122
1.0
132
0.0
297
     0
302
LEADER{
290
     1
291
     1
 10
550.3282577946595
 20
993.4087689512102
 30
0.0
 11
1.0
 21
-0.0000000000000003
 31
0.0
 90
        1
 40
18.0
304
LEADER_LINE{
 10
550.3282577946595
 20
993.4087689512102
 30
0.0
 91
        0
305
}
271
     0
303
}
272
     9
273
     9
301
}
340
10052
 90
 17123072
170
     1
 91
-1056964608
341
14
171
    -2
290
     1
291
     1
 41
0.36
342
10333
 42
100.0
172
     2
343
11
173
     1
 95
        1
174
     1
175
     0
 92
-1056964608
292
     0
 93
-1056964608
 10
1.0
 20
1.0
 30
1.0
 43
0.0
176
     0
293
     0
294
     0
178
     0
179
     1
 45
50.0
271
     0
272
     9
273
     9
295
     0
  0
LWPOLYLINE
  5
1049A
330
10430
100
AcDbEntity
  8
0
  6
Continuous
 62
     8
100
AcDbPolyline
 90
        4
 70
     1
 43
0.0
 10
530.3282577946593
 20
1003.408768951211
 10
550.3282577946595
 20
1003.408768951211
 10
550.3282577946595
 20
983.4087689512106
 10
530.3282577946593
 20
983.4087689512106
  0
MULTILEADER
  5
1049B
330
10430
100
AcDbEntity
  8
0
 62
     0
 48
10.0
160
               540
310
1C020000150000000C00000016000000000000C10C00000033000000000000000C00000013000000993A0000C4000000260000001A3AC04F5FD4814011565C9C1FBF9140000000000000000000000000000000000000000000000000000000000000F03F000000000000F03F4D67E2F1059EB5BC000000000000000031002D
310
005300630072006500770073000000620008000000010000000000000000002E40000000000000F03F0000000000000000000000000000F03F00000000000000000000000000000000000000000000000000000000010000000000000041007200690061006C00000000006100000000000C00000033000000000000000C00
310
000010000000000000000C00000016000000000000C10C00000012000000FF7F00000C00000013000000010000000C00000013000000891300003C0000000600000002000000C2659F45A032814045F45394A2DD91400000000000000000C2659F45A032814045F45394A2DD914000000000000000000C0000001300000012
310
2700003C0000000600000002000000C2659F45A032814045F45394A2DD91400000000000000000C2659F45A0C2814045F45394A2DD914000000000000000000C00000016000000000000C10C00000012000000FF7F00000C00000017000000000000000C000000130000009A3A00000C00000016000000000000C10C000000
310
12000000FF7F00000C00000017000000FFFFFFFF0C0000003300000000000000
100
AcDbMLeader
270
     2
300
CONTEXT_DATA{
 40
50.0
 10
568.3282577946595
 20
1143.40876895121
 30
0.0
 41
15.0
140
5000.0
145
4.5
174
     1
175
     1
176
     0
177
     0
290
     1
304
{\fArial|b0|i0|c0|p0;1-Screws}
 11
0.0
 21
0.0
 31
1.0
340
11
 12
572.8282577946595
 22
1151.036667996231
 32
0.0
 13
1.0
 23
-0.0000000000000003
 33
0.0
 42
0.0
 43
0.0
 44
0.0
 45
1.0
170
     1
 90
-1056964608
171
     1
172
     5
 91
-1073741824
141
0.0
 92
        0
291
     0
292
     0
173
     0
293
     0
142
0.0
143
0.0
294
     0
295
     0
296
     0
110
698.7518594317672
120
1143.40876895121
130
0.0
111
1.0
121
-0.0000000000000003
131
0.0
112
0.0000000000000003
122
1.0
132
0.0
297
     0
302
LEADER{
290
     1
291
     1
 10
550.3282577946595
 20
1143.40876895121
 30
0.0
 11
1.0
 21
-0.0000000000000003
 31
0.0
 90
        1
 40
18.0
304
LEADER_LINE{
 10
550.3282577946595
 20
1143.40876895121
 30
0.0
 91
        0
305
}
271
     0
303
}
272
     9
273
     9
301
}
340
10052
 90
 17123072
170
     1
 91
-1056964608
341
14
171
    -2
290
     1
291
     1
 41
0.36
342
10333
 42
100.0
172
     2
343
11
173
     1
 95
        1
174
     1
175
     0
 92
-1056964608
292
     0
 93
-1056964608
 10
1.0
 20
1.0
 30
1.0
 43
0.0
176
     0
293
     0
294
     0
178
     0
179
     1
 45
50.0
271
     0
272
     9
273
     9
295
     0
  0
LWPOLYLINE
  5
1049C
330
10430
100
AcDbEntity
  8
0
  6
Continuous
100
AcDbPolyline
 90
        4
 70
     1
 43
0.0
 10
530.3282577946593
 20
1153.40876895121
 10
550.3282577946595
 20
1153.40876895121
 10
550.3282577946595
 20
1133.40876895121
 10
530.3282577946593
 20
1133.40876895121
  0
LINE
  5
1049D
330
10430
100
AcDbEntity
  8
0
  6
Continuous
100
AcDbLine
 10
133.4168989717521
 20
28.81377976418344
 30
0.0
 11
133.4168989717521
 21
68.81377976418344
 31
0.0
  0
LINE
  5
1049E
330
10430
100
AcDbEntity
  8
0
  6
Continuous
100
AcDbLine
 10
133.4168989717521
 20
28.81377976418344
 30
0.0
 11
173.4168989717522
 21
28.81377976418344
 31
0.0
  0
LINE
  5
1049F
330
10430
100
AcDbEntity
  8
0
  6
Continuous
100
AcDbLine
 10
173.4168989717522
 20
28.81377976418344
 30
0.0
 11
164.7566449339078
 21
33.81377976418344
 31
0.0
  0
LINE
  5
104A0
330
10430
100
AcDbEntity
  8
0
  6
Continuous
100
AcDbLine
 10
173.4168989717522
 20
28.81377976418344
 30
0.0
 11
164.7566449339078
 21
23.81377976418344
 31
0.0
  0
LINE
  5
104A1
330
10430
100
AcDbEntity
  8
0
  6
Continuous
100
AcDbLine
 10
133.4168989717521
 20
68.81377976418344
 30
0.0
 11
128.4168989717521
 21
60.1535257263381
 31
0.0
  0
LINE
  5
104A2
330
10430
100
AcDbEntity
  8
0
  6
Continuous
100
AcDbLine
 10
133.4168989717521
 20
68.81377976418344
 30
0.0
 11
138.4168989717523
 21
60.1535257263381
 31
0.0
  0
LWPOLYLINE
  5
104A3
330
10430
100
AcDbEntity
  8
0
  6
Continuous
100
AcDbPolyline
 90
        4
 70
     1
 43
0.0
 10
128.4168989717521
 20
33.81377976418344
 10
138.4168989717522
 20
33.81377976418344
 10
138.4168989717522
 20
23.81377976418344
 10
128.4168989717521
 20
23.81377976418344
  0
MTEXT
  5
104A4
330
10430
100
AcDbEntity
  8
0
  6
Continuous
100
AcDbMText
 10
109.6158047011658
 20
53.66876140529234
 30
0.0
 40
15.0
 41
18.12323519920755
 46
0.0
 71
     1
 72
     5
  1
{\fArial|b0|i0|c0|p0;Y}
 73
     1
 44
1.0
101
Embedded Object
 70
     1
 10
1.0
 20
0.0
 30
0.0
 11
109.6158047011658
 21
53.66876140529234
 31
0.0
 40
18.12323519920755
 41
0.0
 42
13.75170532060027
 43
15.0
 71
     2
 72
     1
 44
18.12323519920755
 45
1.0
 73
     0
 74
     0
 46
0.0
  0
MTEXT
  5
104A5
330
10430
100
AcDbEntity
  8
0
  6
Continuous
100
AcDbMText
 10
148.4534236810878
 20
19.69635877522637
 30
0.0
 40
15.0
 41
18.12323519920755
 46
0.0
 71
     1
 72
     5
  1
{\fArial|b0|i0|c0|p0;X}
 73
     1
 44
1.0
101
Embedded Object
 70
     1
 10
1.0
 20
0.0
 30
0.0
 11
148.4534236810878
 21
19.69635877522637
 31
0.0
 40
18.12323519920755
 41
0.0
 42
13.75170532060027
 43
15.0
 71
     2
 72
     1
 44
18.12323519920755
 45
1.0
 73
     0
 74
     0
 46
0.0
  0
ENDBLK
  5
104A7
330
10430
100
AcDbEntity
  8
0
100
AcDbBlockEnd
  0
ENDSEC
  0
SECTION
  2
ENTITIES
  0
MULTILEADER
  5
1058A
330
1F
100
AcDbEntity
  8
0
 62
     0
 48
10.0
160
               536
310
18020000150000000C00000016000000000000C10C00000033000000000000000C00000013000000993A0000C00000002600000023165A6EB2568B402BFA8641FC037340EEA7D006D6B3443D00000000000000000000000000000000000000000000F03F000000000000F03F4D67E2F1059EB5BC00000000000000004F0075
310
0074006300750074000000000006000000010000000000000000001E40000000000000F03F0000000000000000000000000000F03F00000000000000000000000000000000000000000000000000000000010000000000000041007200690061006C00000000000000000000000C00000033000000000000000C0000001000
310
0000000000000C00000016000000000000C10C00000012000000FF7F00000C00000013000000010000000C00000013000000891300003C0000000600000002000000D842DAB3BF008B408AC0EF2517417340EEA7D006D6B3443DD842DAB3BF008B408AC0EF2517417340EEA7D006D6B3443D0C00000013000000122700003C
310
0000000600000002000000D842DAB3BF008B408AC0EF2517417340EEA7D006D6B3443DD842DAB3BF488B408AC0EF2517417340EEA7D006D6B3443D0C00000016000000000000C10C00000012000000FF7F00000C00000017000000000000000C000000130000009A3A00000C00000016000000000000C10C00000012000000
310
FF7F00000C00000017000000FFFFFFFF0C0000003300000000000000
100
AcDbMLeader
270
     2
300
CONTEXT_DATA{
 40
50.0
 10
873.0936047603272
 20
308.0681514134709
 30
0.0000000000001471
 41
7.5
140
2500.0
145
2.25
174
     1
175
     1
176
     0
177
     0
290
     1
304
{\fArial|b0|i0|c0|p0;Outcut}
 11
0.0
 21
0.0
 31
1.0
340
11
 12
875.3436047603271
 22
311.8821009359812
 32
0.0000000000001471
 13
1.0
 23
-0.0000000000000003
 33
0.0
 42
0.0
 43
0.0
 44
0.0
 45
1.0
170
     1
 90
-1056964608
171
     1
172
     5
 91
-1073741824
141
0.0
 92
        0
291
     0
292
     0
173
     0
293
     0
142
0.0
143
0.0
294
     0
295
     0
296
     0
110
938.3054055788813
120
308.0681514134709
130
0.0000000000001471
111
1.0
121
-0.0000000000000003
131
0.0
112
0.0000000000000003
122
1.0
132
0.0
297
     0
302
LEADER{
290
     1
291
     1
 10
864.0936047603272
 20
308.0681514134709
 30
0.0000000000001471
 11
1.0
 21
-0.0000000000000003
 31
0.0
 90
        1
 40
9.0
304
LEADER_LINE{
 10
864.0936047603272
 20
308.0681514134709
 30
0.0000000000001471
 91
        0
305
}
271
     0
303
}
272
     9
273
     9
301
}
340
10052
 90
 17123072
170
     1
 91
-1056964608
341
14
171
    -2
290
     1
291
     1
 41
0.36
342
10333
 42
100.0
172
     2
343
11
173
     1
 95
        1
174
     1
175
     0
 92
-1056964608
292
     0
 93
-1056964608
 10
1.0
 20
1.0
 30
1.0
 43
0.0
176
     0
293
     0
294
     0
178
     0
179
     1
 45
50.0
271
     0
272
     9
273
     9
295
     0
  0
LWPOLYLINE
  5
1058B
330
1F
100
AcDbEntity
  8
0
  6
Continuous
 62
     1
100
AcDbPolyline
 90
        4
 70
     1
 43
0.0
 10
854.093604760327
 20
313.068151413471
 10
864.0936047603272
 20
313.068151413471
 10
864.0936047603272
 20
303.0681514134709
 10
854.093604760327
 20
303.0681514134709
  0
LWPOLYLINE
  5
1058D
330
1F
100
AcDbEntity
  8
0
  6
Continuous
 62
     8
100
AcDbPolyline
 90
        4
 70
     1
 43
0.0
 10
854.093604760327
 20
298.068151413471
 10
864.0936047603272
 20
298.068151413471
 10
864.0936047603272
 20
288.0681514134709
 10
854.093604760327
 20
288.0681514134709
  0
LWPOLYLINE
  5
10652
330
1F
100
AcDbEntity
  8
3-Incut
100
AcDbPolyline
 90
        4
 70
     1
 43
0.0
 10
778.9563521023536
 20
236.1931514299514
 10
761.1835898174754
 20
236.1931514299517
 42
-1.00791820233049
 10
761.2651022569332
 20
241.1931514299516
 10
778.999660808664
 20
241.1931514299515
 42
-0.9953439783584087
  0
CIRCLE
  5
10653
330
1F
100
AcDbEntity
  8
3-Incut
100
AcDbCircle
 10
-544.952177916
 20
206.5681514299481
 30
0.0
 40
1.624999999999995
210
0.0
220
0.0
230
-1.0
  0
CIRCLE
  5
10654
330
1F
100
AcDbEntity
  8
3-Incut
100
AcDbCircle
 10
-788.7371927111517
 20
303.0681514299549
 30
0.0
 40
1.625
210
0.0
220
0.0
230
-1.0
  0
CIRCLE
  5
10655
330
1F
100
AcDbEntity
  8
3-Incut
100
AcDbCircle
 10
-544.9521779160001
 20
306.5681514299481
 30
0.0
 40
1.625
210
0.0
220
0.0
230
-1.0
  0
CIRCLE
  5
10656
330
1F
100
AcDbEntity
  8
3-Incut
100
AcDbCircle
 10
-788.7371927111517
 20
210.068151429948
 30
0.0
 40
1.624999999999995
210
0.0
220
0.0
230
-1.0
  0
CIRCLE
  5
10657
330
1F
100
AcDbEntity
  8
3-Incut
100
AcDbCircle
 10
-659.1876309436806
 20
206.568151429948
 30
0.0
 40
1.624999999999995
210
0.0
220
0.0
230
-1.0
  0
CIRCLE
  5
10658
330
1F
100
AcDbEntity
  8
3-Incut
100
AcDbCircle
 10
-775.5852994585993
 20
265.8181514299515
 30
0.0
 40
1.624999999999995
210
0.0
220
0.0
230
-1.0
  0
CIRCLE
  5
10659
330
1F
100
AcDbEntity
  8
3-Incut
100
AcDbCircle
 10
-659.1876309436806
 20
306.568151429948
 30
0.0
 40
1.625
210
0.0
220
0.0
230
-1.0
  0
CIRCLE
  5
1065A
330
1F
100
AcDbEntity
  8
3-Incut
100
AcDbCircle
 10
-764.5852994585992
 20
247.3181514299515
 30
0.0
 40
1.624999999999995
210
0.0
220
0.0
230
-1.0
  0
LINE
  5
1065B
330
1F
100
AcDbEntity
  8
5-outcut
 62
     1
100
AcDbLine
 10
803.302679388798
 20
316.0681514134711
 30
0.0000000000002875
 11
803.302679388798
 21
197.0681514463512
 31
0.0000000000002941
  0
LWPOLYLINE
  5
1065C
330
1F
100
AcDbEntity
  8
3-Incut
100
AcDbPolyline
 90
        4
 70
     1
 43
0.0
 10
735.4760610909616
 20
220.0681514135432
 42
-1.000013948977982
 10
736.9760610909295
 20
220.0681514135464
 10
736.9760610909692
 20
200.8181618744903
 42
-1.000013947895469
 10
735.4760610909186
 20
200.8181618744934
  0
LWPOLYLINE
  5
1065D
330
1F
100
AcDbEntity
  8
3-Incut
100
AcDbPolyline
 90
        4
 70
     1
 43
0.0
 10
735.4760610909616
 20
250.8181618752606
 42
-1.000013948977982
 10
736.9760610909295
 20
250.8181618752638
 10
736.9760610909694
 20
231.5681723362076
 42
-1.000013947895469
 10
735.4760610909187
 20
231.5681723362106
  0
LWPOLYLINE
  5
1065E
330
1F
100
AcDbEntity
  8
3-Incut
100
AcDbPolyline
 90
        4
 70
     1
 43
0.0
 10
735.4760610909634
 20
281.568172336978
 42
-1.000013948977982
 10
736.9760610909311
 20
281.568172336981
 10
736.976061090971
 20
262.3181827979249
 42
-1.000013947895469
 10
735.4760610909202
 20
262.318182797928
  0
LWPOLYLINE
  5
1065F
330
1F
100
AcDbEntity
  8
3-Incut
100
AcDbPolyline
 90
        4
 70
     1
 43
0.0
 10
735.4760610909634
 20
312.3181827986953
 42
-1.000013948977982
 10
736.9760610909311
 20
312.3181827986984
 10
736.976061090971
 20
293.0681932596423
 42
-1.000013947895469
 10
735.4760610909202
 20
293.0681932596453
  0
LWPOLYLINE
  5
10660
330
1F
100
AcDbEntity
  8
3-Incut
100
AcDbPolyline
 90
        4
 70
     1
 43
0.0
 10
673.7497436079161
 20
220.0681514135432
 42
-1.000013948977982
 10
675.2497436078837
 20
220.0681514135464
 10
675.2497436079237
 20
200.8181618744903
 42
-1.000013947895469
 10
673.749743607873
 20
200.8181618744934
  0
LWPOLYLINE
  5
10661
330
1F
100
AcDbEntity
  8
3-Incut
100
AcDbPolyline
 90
        4
 70
     1
 43
0.0
 10
673.7497436079161
 20
250.8181618752606
 42
-1.000013948977982
 10
675.2497436078837
 20
250.8181618752638
 10
675.2497436079237
 20
231.5681723362076
 42
-1.000013947895469
 10
673.7497436078731
 20
231.5681723362106
  0
LWPOLYLINE
  5
10662
330
1F
100
AcDbEntity
  8
3-Incut
100
AcDbPolyline
 90
        4
 70
     1
 43
0.0
 10
673.7497436079178
 20
281.568172336978
 42
-1.000013948977982
 10
675.2497436078852
 20
281.568172336981
 10
675.2497436079252
 20
262.3181827979249
 42
-1.000013947895469
 10
673.7497436078747
 20
262.318182797928
  0
LWPOLYLINE
  5
10663
330
1F
100
AcDbEntity
  8
3-Incut
100
AcDbPolyline
 90
        4
 70
     1
 43
0.0
 10
673.7497436079178
 20
312.3181827986953
 42
-1.000013948977982
 10
675.2497436078852
 20
312.3181827986984
 10
675.2497436079253
 20
293.0681932596423
 42
-1.000013947895469
 10
673.7497436078747
 20
293.0681932596453
  0
ARC
  5
10664
330
1F
100
AcDbEntity
  8
5-outcut
 62
     1
100
AcDbCircle
 10
801.3026793887981
 20
316.0681514134711
 30
0.0
 40
2.0
100
AcDbArc
 50
0.0
 51
90.0
  0
ARC
  5
10665
330
1F
100
AcDbEntity
  8
5-outcut
 62
     1
100
AcDbCircle
 10
801.3026793887979
 20
197.0681514463512
 30
0.0
 40
2.0
100
AcDbArc
 50
270.0
 51
0.0
  0
ARC
  5
10666
330
1F
100
AcDbEntity
  8
5-outcut
 62
     1
100
AcDbCircle
 10
532.0845577450608
 20
316.0681514134716
 30
0.0
 40
2.0
100
AcDbArc
 50
90.0
 51
180.0
  0
ARC
  5
10667
330
1F
100
AcDbEntity
  8
5-outcut
 62
     1
100
AcDbCircle
 10
532.0845577450602
 20
197.0681514463518
 30
0.0
 40
2.0
100
AcDbArc
 50
180.0
 51
270.0
  0
LINE
  5
10668
330
1F
100
AcDbEntity
  8
5-outcut
 62
     1
100
AcDbLine
 10
801.3026793887979
 20
195.0681514463512
 30
0.0
 11
532.0845577450602
 21
195.0681514463513
 31
0.0
  0
LINE
  5
10669
330
1F
100
AcDbEntity
  8
5-outcut
 62
     1
100
AcDbLine
 10
530.0845577450602
 20
197.0681514463518
 30
0.0
 11
530.0845577450608
 21
316.0681514134716
 31
0.0
  0
LINE
  5
1066A
330
1F
100
AcDbEntity
  8
5-outcut
 62
     1
100
AcDbLine
 10
532.0845577450608
 20
318.0681514134716
 30
0.0
 11
801.3026793887981
 21
318.0681514134712
 31
0.0
  0
LWPOLYLINE
  5
1067B
330
1F
100
AcDbEntity
  8
0
  6
Continuous
 62
     8
100
AcDbPolyline
 90
        4
 70
     1
 43
0.0
 10
813.3026793887982
 20
328.068151413471
 10
813.302679388798
 20
185.0681514463513
 10
520.0845577450601
 20
185.0681514463513
 10
520.0845577450602
 20
328.0681514134711
  0
MULTILEADER
  5
10682
330
1F
100
AcDbEntity
  8
0
 62
     0
 48
10.0
160
               532
310
14020000150000000C00000016000000000000C10C00000033000000000000000C00000013000000993A0000BC00000026000000454C8380EE528B40FB37A29B12F67340EEA7D006D6B3443D00000000000000000000000000000000000000000000F03F000000000000F03F4D67E2F1059EB5BC000000000000000049006E
310
00630075007400000005000000010000000000000000001E40000000000000F03F0000000000000000000000000000F03F00000000000000000000000000000000000000000000000000000000010000000000000041007200690061006C00000000000000000000000C00000033000000000000000C000000100000000000
310
00000C00000016000000000000C10C00000012000000FF7F00000C00000013000000010000000C00000013000000891300003C0000000600000002000000D842DAB3BF008B408AC0EF2517317440EEA7D006D6B3443DD842DAB3BF008B408AC0EF2517317440EEA7D006D6B3443D0C00000013000000122700003C00000006
310
00000002000000D842DAB3BF008B408AC0EF2517317440EEA7D006D6B3443DD842DAB3BF488B408AC0EF2517317440EEA7D006D6B3443D0C00000016000000000000C10C00000012000000FF7F00000C00000017000000000000000C000000130000009A3A00000C00000016000000000000C10C00000012000000FF7F0000
310
0C00000017000000FFFFFFFF0C0000003300000000000000
100
AcDbMLeader
270
     2
300
CONTEXT_DATA{
 40
50.0
 10
873.0936047603272
 20
323.0681514134709
 30
0.0000000000001471
 41
7.5
140
2500.0
145
2.25
174
     1
175
     1
176
     0
177
     0
290
     1
304
{\fArial|b0|i0|c0|p0;Incut}
 11
0.0
 21
0.0
 31
1.0
340
11
 12
875.3436047603271
 22
326.8795429550807
 32
0.0000000000001471
 13
1.0
 23
-0.0000000000000003
 33
0.0
 42
0.0
 43
0.0
 44
0.0
 45
1.0
170
     1
 90
-1056964608
171
     1
172
     5
 91
-1073741824
141
0.0
 92
        0
291
     0
292
     0
173
     0
293
     0
142
0.0
143
0.0
294
     0
295
     0
296
     0
110
938.3054055788813
120
323.0681514134709
130
0.0000000000001471
111
1.0
121
-0.0000000000000003
131
0.0
112
0.0000000000000003
122
1.0
132
0.0
297
     0
302
LEADER{
290
     1
291
     1
 10
864.0936047603272
 20
323.0681514134709
 30
0.0000000000001471
 11
1.0
 21
-0.0000000000000003
 31
0.0
 90
        1
 40
9.0
304
LEADER_LINE{
 10
864.0936047603272
 20
323.0681514134709
 30
0.0000000000001471
 91
        0
305
}
271
     0
303
}
272
     9
273
     9
301
}
340
10052
 90
 17123072
170
     1
 91
-1056964608
341
14
171
    -2
290
     1
291
     1
 41
0.36
342
10333
 42
100.0
172
     2
343
11
173
     1
 95
        1
174
     1
175
     0
 92
-1056964608
292
     0
 93
-1056964608
 10
1.0
 20
1.0
 30
1.0
 43
0.0
176
     0
293
     0
294
     0
178
     0
179
     1
 45
50.0
271
     0
272
     9
273
     9
295
     0
  0
LWPOLYLINE
  5
10683
330
1F
100
AcDbEntity
  8
0
  6
Continuous
 62
     5
100
AcDbPolyline
 90
        4
 70
     1
 43
0.0
 10
854.093604760327
 20
328.068151413471
 10
864.0936047603272
 20
328.068151413471
 10
864.0936047603272
 20
318.0681514134709
 10
854.093604760327
 20
318.0681514134709
  0
MULTILEADER
  5
1068A
330
1F
100
AcDbEntity
  8
0
 62
     0
 48
10.0
160
               548
310
24020000150000000C00000016000000000000C10C00000033000000000000000C00000013000000993A0000CC0000002600000052D83E149C548B408D613FF2BA267240000000000000000000000000000000000000000000000000000000000000F03F000000000000F03F4D67E2F1059EB5BC000000000000000042006F
310
0075006E00640069006E006700200062006F007800000000000C000000010000000000000000001E40000000000000F03F0000000000000000000000000000F03F00000000000000000000000000000000000000000000000000000000010000000000000041007200690061006C00000000000000000000000C0000003300
310
0000000000000C00000010000000000000000C00000016000000000000C10C00000012000000FF7F00000C00000013000000010000000C00000013000000891300003C0000000600000002000000D842DAB3BF008B408AC0EF25175172400000000000000000D842DAB3BF008B408AC0EF251751724000000000000000000C
310
00000013000000122700003C0000000600000002000000D842DAB3BF008B408AC0EF25175172400000000000000000D842DAB3BF488B408AC0EF251751724000000000000000000C00000016000000000000C10C00000012000000FF7F00000C00000017000000000000000C000000130000009A3A00000C00000016000000
310
000000C10C00000012000000FF7F00000C00000017000000FFFFFFFF0C0000003300000000000000
100
AcDbMLeader
270
     2
300
CONTEXT_DATA{
 40
50.0
 10
873.0936047603272
 20
293.0681514134709
 30
0.0
 41
7.5
140
2500.0
145
2.25
174
     1
175
     1
176
     0
177
     0
290
     1
304
{\fArial|b0|i0|c0|p0;Bounding box}
 11
0.0
 21
0.0
 31
1.0
340
11
 12
875.3436047603271
 22
297.9206411815474
 32
0.0
 13
1.0
 23
-0.0000000000000003
 33
0.0
 42
0.0
 43
0.0
 44
0.0
 45
1.0
170
     1
 90
-1056964608
171
     1
172
     5
 91
-1073741824
141
0.0
 92
        0
291
     0
292
     0
173
     0
293
     0
142
0.0
143
0.0
294
     0
295
     0
296
     0
110
938.3054055788807
120
293.0681514134708
130
0.0
111
1.0
121
-0.0000000000000003
131
0.0
112
0.0000000000000003
122
1.0
132
0.0
297
     0
302
LEADER{
290
     1
291
     1
 10
864.0936047603272
 20
293.0681514134709
 30
0.0
 11
1.0
 21
-0.0000000000000003
 31
0.0
 90
        1
 40
9.0
304
LEADER_LINE{
 10
864.0936047603272
 20
293.0681514134709
 30
0.0
 91
        0
305
}
271
     0
303
}
272
     9
273
     9
301
}
340
10052
 90
 17123072
170
     1
 91
-1056964608
341
14
171
    -2
290
     1
291
     1
 41
0.36
342
10333
 42
100.0
172
     2
343
11
173
     1
 95
        1
174
     1
175
     0
 92
-1056964608
292
     0
 93
-1056964608
 10
1.0
 20
1.0
 30
1.0
 43
0.0
176
     0
293
     0
294
     0
178
     0
179
     1
 45
50.0
271
     0
272
     9
273
     9
295
     0
  0
MULTILEADER
  5
106A0
330
1F
100
AcDbEntity
  8
0
 62
     0
 48
10.0
160
               552
310
28020000150000000C00000016000000000000C10C00000033000000000000000C00000013000000993A0000D000000026000000877D121F710F8B409CB6317091746B40000000000000000000000000000000000000000000000000000000000000F03F000000000000F03F4D67E2F1059EB53C0000000000000000540065
310
00630068006E006900630061006C002000700061006E0065006C0000000F000000010000000000000000001E40000000000000F03F0000000000000000000000000000F03F00000000000000000000000000000000000000000000000000000000010000000000000041007200690061006C00000000000000000057520C00
310
000033000000000000000C00000010000000000000000C00000016000000000000C10C00000012000000FF7F00000C00000013000000010000000C00000013000000891300003C00000006000000020000000644EF4C8F1088408063F7C240CB6B4000000000000000006A6C770A686F8A407D63F7C240CB6B400000000000
310
0000000C00000013000000112700003C00000006000000020000006A6C770A686F8A407D63F7C240CB6B4000000000000000006A6C770A68FF8A407D63F7C240CB6B4000000000000000000C00000016000000000000C10C00000012000000FF7F00000C00000017000000000000000C000000130000009A3A00000C000000
310
16000000000000C10C00000012000000FF7F00000C00000017000000FFFFFFFF0C0000003300000000000000
100
AcDbMLeader
270
     2
300
CONTEXT_DATA{
 40
50.0
 10
863.9258012132604
 20
222.3516554672059
 30
0.0
 41
7.5
140
2500.0
145
2.25
174
     1
175
     1
176
     0
177
     0
290
     1
304
{\fArial|b0|i0|c0|p0;Technical panel}
 11
0.0
 21
0.0
 31
1.0
340
11
 12
866.1758012132606
 22
227.1427536936725
 32
0.0
 13
1.0
 23
0.0000000000000003
 33
0.0
 42
0.0000000000000003
 43
0.0
 44
0.0
 45
1.0
170
     1
 90
-1056964608
171
     1
172
     5
 91
-1073741824
141
0.0
 92
        0
291
     0
292
     0
173
     0
293
     0
142
0.0
143
0.0
294
     0
295
     0
296
     0
110
847.0731409131241
120
222.3516554672059
130
0.0
111
1.0
121
0.0000000000000003
131
0.0
112
-0.0000000000000003
122
1.0
132
0.0
297
     0
302
LEADER{
290
     1
291
     1
 10
845.9258012132606
 20
222.3516554672059
 30
0.0
 11
1.0
 21
0.0000000000000003
 31
0.0
 90
        0
 40
18.0
304
LEADER_LINE{
 10
770.0699709599145
 20
222.351655467206
 30
0.0
 91
        0
305
}
271
     0
303
}
272
     9
273
     9
301
}
340
10052
 90
 17123072
170
     1
 91
-1056964608
341
14
171
    -2
290
     1
291
     1
 41
0.36
342
10333
 42
100.0
172
     2
343
11
173
     1
 95
        1
174
     1
175
     0
 92
-1056964608
292
     0
 93
-1056964608
 10
1.0
 20
1.0
 30
1.0
 43
0.0
176
     0
293
     0
294
     0
178
     0
179
     1
 45
50.0
271
     0
272
     9
273
     9
295
     0
  0
VIEWPORT
  5
104C3
102
{ACAD_XDICTIONARY
360
104C4
102
}
330
1B
100
AcDbEntity
 67
     1
  8
0
  6
Continuous
348
10027
100
AcDbViewport
 10
3.243922104574216
 20
3.223844004359906
 30
0.0
 40
15.39102940527718
 41
14.0789389417691
 68
     1
 69
     1
 12
3.243922104574216
 22
3.223844004359906
 13
0.0
 23
0.0
 14
10.0
 24
10.0
 15
10.0
 25
10.0
 16
0.0
 26
0.0
 36
1.0
 17
0.0
 27
0.0
 37
0.0
 42
50.0
 43
0.0
 44
0.0
 45
14.0789389417691
 50
0.0
 51
0.0
 72
  1000
 90
   557088
  1

281
     0
 71
     1
 74
     0
110
0.0
120
0.0
130
0.0
111
1.0
121
0.0
131
0.0
112
0.0
122
1.0
132
0.0
 79
     0
146
0.0
170
     0
 61
     5
292
     1
282
     1
141
0.0
142
0.0
 63
   250
421
  3355443
  0
VIEWPORT
  5
104C7
102
{ACAD_XDICTIONARY
360
104C8
102
}
330
1B
100
AcDbEntity
 67
     1
  8
0
  6
Continuous
348
10027
100
AcDbViewport
 10
5.205297857281039
 20
4.036115005231835
 30
0.0
 40
10.6586985952455
 41
8.130817046501062
 68
     2
 69
     2
 12
811.8210211283194
 22
108.1615393077365
 13
0.0
 23
0.0
 14
1.0
 24
1.0
 15
0.0
 25
0.0
 16
0.0
 26
0.0
 36
1.0
 17
0.0
 27
0.0
 37
0.0
 42
50.0
 43
0.0
 44
0.0
 45
477.5918700831957
 50
0.0
 51
0.0
 72
  1000
 90
   557152
  1

281
     0
 71
     1
 74
     0
110
0.0
120
0.0
130
0.0
111
1.0
121
0.0
131
0.0
112
0.0
122
1.0
132
0.0
 79
     0
146
0.0
170
     0
 61
     5
292
     1
282
     1
141
0.0
142
0.0
 63
   250
421
  3355443
  0
ENDSEC
  0
SECTION
  2
OBJECTS
  0
DICTIONARY
  5
C
330
0
100
AcDbDictionary
281
     1
  3
ACAD_CIP_PREVIOUS_PRODUCT_INFO
350
1005E
  3
ACAD_COLOR
350
1003A
  3
ACAD_DETAILVIEWSTYLE
350
10055
  3
ACAD_GROUP
350
D
  3
ACAD_IMAGE_VARS
350
104FF
  3
ACAD_LAYOUT
350
1003B
  3
ACAD_MATERIAL
350
10008
  3
ACAD_MLEADERSTYLE
350
10051
  3
ACAD_MLINESTYLE
350
17
  3
ACAD_PLOTSETTINGS
350
10058
  3
ACAD_PLOTSTYLENAME
350
10006
  3
ACAD_SCALELIST
350
1003F
  3
ACAD_SECTIONVIEWSTYLE
350
10053
  3
ACAD_TABLESTYLE
350
1003C
  3
ACAD_VISUALSTYLE
350
10021
  3
ACDB_RECOMPOSE_DATA
350
10772
  3
AcDbVariableDictionary
350
102EA
  0
DICTIONARY
  5
10124
330
2
100
AcDbDictionary
280
     1
281
     1
  3
ACAD_LAYERSTATES
360
10125
  0
DICTIONARY
  5
102D8
330
50
100
AcDbDictionary
280
     1
281
     1
  3
ADSK_XREC_LAYER_RECONCILED
360
102D9
  0
DICTIONARY
  5
1011F
330
1011E
100
AcDbDictionary
280
     1
281
     1
  3
ADSK_XREC_LAYER_RECONCILED
360
102E2
  0
DICTIONARY
  5
10339
330
10338
100
AcDbDictionary
280
     1
281
     1
  0
DICTIONARY
  5
1033B
330
1033A
100
AcDbDictionary
280
     1
281
     1
  0
DICTIONARY
  5
1033D
330
1033C
100
AcDbDictionary
280
     1
281
     1
  0
DICTIONARY
  5
1033F
330
1033E
100
AcDbDictionary
280
     1
281
     1
  0
DICTIONARY
  5
1067C
330
1F
100
AcDbDictionary
280
     1
281
     1
  3
ACAD_SORTENTS
360
1067D
  0
DICTIONARY
  5
104C4
330
104C3
100
AcDbDictionary
280
     1
281
     1
  3
ASDK_XREC_ANNOTATION_SCALE_INFO
360
104C5
  0
DICTIONARY
  5
104C8
330
104C7
100
AcDbDictionary
280
     1
281
     1
  3
ASDK_XREC_ANNOTATION_SCALE_INFO
360
104C9
  0
XRECORD
  5
1005E
102
{ACAD_REACTORS
330
C
102
}
330
C
100
AcDbXrecord
280
     1
300
ACDLTM
300
2020
300

  0
DICTIONARY
  5
1003A
102
{ACAD_REACTORS
330
C
102
}
330
C
100
AcDbDictionary
281
     1
  0
DICTIONARY
  5
10055
102
{ACAD_REACTORS
330
C
102
}
330
C
100
AcDbDictionary
281
     1
  3
Imperial24
350
10056
  3
Metric50
350
1051F
  0
DICTIONARY
  5
D
330
C
100
AcDbDictionary
281
     1
  0
RASTERVARIABLES
  5
104FF
102
{ACAD_REACTORS
330
C
102
}
330
C
100
AcDbRasterVariables
 90
        0
 70
     1
 71
     1
 72
     1
  0
DICTIONARY
  5
1003B
102
{ACAD_REACTORS
330
C
102
}
330
C
100
AcDbDictionary
281
     1
  3
Model
350
10059
  3
Présentation1
350
1005A
  0
DICTIONARY
  5
10008
102
{ACAD_REACTORS
330
C
102
}
330
C
100
AcDbDictionary
281
     1
  3
ByBlock
350
10011
  3
ByLayer
350
10009
  3
Global
350
10019
  0
DICTIONARY
  5
10051
102
{ACAD_REACTORS
330
C
102
}
330
C
100
AcDbDictionary
281
     1
  3
Standard
350
10052
  0
DICTIONARY
  5
17
330
C
100
AcDbDictionary
281
     1
  3
Standard
350
1003E
  0
DICTIONARY
  5
10058
102
{ACAD_REACTORS
330
C
102
}
330
C
100
AcDbDictionary
281
     1
  0
ACDBDICTIONARYWDFLT
  5
10006
102
{ACAD_REACTORS
330
C
102
}
330
C
100
AcDbDictionary
281
     1
  3
Normal
350
10007
100
AcDbDictionaryWithDefault
340
10007
  0
DICTIONARY
  5
1003F
102
{ACAD_REACTORS
330
C
102
}
330
C
100
AcDbDictionary
281
     1
  3
A0
350
10040
  3
A1
350
104E8
  3
A2
350
104E9
  3
A3
350
104EA
  3
A4
350
104EB
  3
A5
350
104EC
  3
A6
350
104ED
  3
A7
350
104EE
  3
A8
350
104EF
  3
A9
350
104F0
  3
B0
350
104F1
  3
B1
350
104F2
  3
B2
350
104F3
  3
B3
350
104F4
  3
B4
350
104F5
  3
B5
350
104F6
  3
B6
350
104F7
  0
DICTIONARY
  5
10053
102
{ACAD_REACTORS
330
C
102
}
330
C
100
AcDbDictionary
281
     1
  3
Imperial24
350
10054
  3
Metric50
350
1051E
  0
DICTIONARY
  5
1003C
102
{ACAD_REACTORS
330
C
102
}
330
C
100
AcDbDictionary
281
     1
  3
Standard
350
1003D
  0
DICTIONARY
  5
10021
102
{ACAD_REACTORS
330
C
102
}
330
C
100
AcDbDictionary
281
     1
  3
2dWireframe
350
10027
  3
Basic
350
10026
  3
Brighten
350
1002D
  3
ColorChange
350
10031
  3
Conceptual
350
1002A
  3
Dim
350
1002C
  3
EdgeColorOff
350
10039
  3
Facepattern
350
10030
  3
Flat
350
10022
  3
FlatWithEdges
350
10023
  3
Gouraud
350
10024
  3
GouraudWithEdges
350
10025
  3
Hidden
350
10029
  3
JitterOff
350
10037
  3
Linepattern
350
1002F
  3
OverhangOff
350
10038
  3
Realistic
350
1002B
  3
Shaded
350
10036
  3
Shaded with edges
350
10035
  3
Shades of Gray
350
10032
  3
Sketchy
350
10033
  3
Thicken
350
1002E
  3
Wireframe
350
10028
  3
X-Ray
350
10034
  0
XRECORD
  5
10772
102
{ACAD_REACTORS
330
C
102
}
330
C
100
AcDbXrecord
280
     1
 90
        1
330
1003D
  0
DICTIONARY
  5
102EA
102
{ACAD_REACTORS
330
C
102
}
330
C
100
AcDbDictionary
281
     1
  3
CANNOSCALE
350
102F0
  3
CMLEADERSTYLE
350
102EC
  3
CTABLESTYLE
350
102EB
  3
CVIEWDETAILSTYLE
350
102ED
  3
CVIEWSECTIONSTYLE
350
102EE
  3
LAYEREVAL
350
102F2
  3
LAYERNOTIFY
350
102F3
  3
LIGHTINGUNITS
350
102F1
  3
MSLTSCALE
350
102EF
  0
DICTIONARY
  5
10125
102
{ACAD_REACTORS
330
10124
102
}
330
10124
100
AcDbDictionary
281
     1
  0
XRECORD
  5
102D9
102
{ACAD_REACTORS
330
102D8
102
}
330
102D8
100
AcDbXrecord
280
     1
290
     1
  0
XRECORD
  5
102E2
102
{ACAD_REACTORS
330
1011F
102
}
330
1011F
100
AcDbXrecord
280
     1
290
     1
  0
SORTENTSTABLE
  5
1067D
102
{ACAD_REACTORS
330
1067C
102
}
330
1067C
100
AcDbSortentsTable
330
1F
  0
XRECORD
  5
104C5
102
{ACAD_REACTORS
330
104C4
102
}
330
104C4
100
AcDbXrecord
280
     1
 90
        1
340
10040
  0
XRECORD
  5
104C9
102
{ACAD_REACTORS
330
104C8
102
}
330
104C8
100
AcDbXrecord
280
     1
 90
        1
340
104F2
  0
ACDBDETAILVIEWSTYLE
  5
10056
102
{ACAD_REACTORS
330
10055
102
}
330
10055
100
AcDbModelDocViewStyle
 70
     0
  3
Imperial24
290
     0
300
Imperial24
 90
        0
100
AcDbDetailViewStyle
 70
     0
 71
     0
 90
        3
 71
     1
340
11
 62
   256
 40
0.24
340
0
 62
   256
 40
0.24
300

 40
0.36
280
     3
 71
     2
340
0
 90
       25
 62
   256
 71
     3
340
11
 62
   256
 40
0.24
 90
        1
 40
0.75
 90
        1
300
%<\AcVar ViewType \f "%tc1">% %<\AcVar ViewDetailId>%\PECHELLE %<\AcVar ViewScale \f "%sn">%
 71
     4
340
0
 90
       25
 62
   256
340
0
 90
       25
 62
   256
280
     0
  0
ACDBDETAILVIEWSTYLE
  5
1051F
102
{ACAD_REACTORS
330
10055
102
}
330
10055
100
AcDbModelDocViewStyle
 70
     0
  3
Metric50
290
     0
300
Metric50
 90
        0
100
AcDbDetailViewStyle
 70
     0
 71
     0
 90
        3
 71
     1
340
11
 62
   256
 40
5.0
340
0
 62
   256
 40
5.0
300

 40
0.0
280
     1
 71
     2
340
10001
 90
       25
 62
   256
 71
     3
340
11
 62
   256
 40
5.0
 90
        0
 40
15.0
 90
        1
300
%<\AcVar ViewDetailId>% (%<\AcVar ViewScale \f "%sn">%)
 71
     4
340
10001
 90
       25
 62
   256
340
10001
 90
       25
 62
   256
280
     0
  0
LAYOUT
  5
10059
102
{ACAD_REACTORS
330
1003B
102
}
330
1003B
100
AcDbPlotSettings
  1

  2

  4

  6

 40
0.0
 41
0.0
 42
0.0
 43
0.0
 44
0.0
 45
0.0
 46
0.0
 47
0.0
 48
0.0
 49
0.0
140
0.0
141
0.0
142
1.0
143
1.0
 70
  1712
 72
     0
 73
     0
 74
     0
  7

 75
     0
147
1.0
 76
     0
 77
     2
 78
   300
148
0.0
149
0.0
100
AcDbLayout
  1
Model
 70
     1
 71
     0
 10
0.0
 20
0.0
 11
12.0
 21
9.0
 12
0.0
 22
0.0
 32
0.0
 14
0.0
 24
0.0
 34
0.0
 15
0.0
 25
0.0
 35
0.0
146
0.0
 13
0.0
 23
0.0
 33
0.0
 16
1.0
 26
0.0
 36
0.0
 17
0.0
 27
1.0
 37
0.0
 76
     0
330
1F
331
1005D
  0
LAYOUT
  5
1005A
102
{ACAD_REACTORS
330
1003B
102
}
330
1003B
100
AcDbPlotSettings
  1

  2
Aucun(e)
  4
Letter_(8.50_x_11.00_Inches)
  6

 40
6.349999904632567
 41
6.349999904632567
 42
6.350006103515625
 43
6.350006103515625
 44
215.8999938964844
 45
279.3999938964844
 46
0.0
 47
0.0
 48
0.0
 49
0.0
140
0.0
141
0.0
142
1.0
143
1.0
 70
   688
 72
     0
 73
     1
 74
     5
  7

 75
    16
147
1.0
 76
     0
 77
     2
 78
   300
148
0.0
149
0.0
100
AcDbLayout
  1
Présentation1
 70
     1
 71
     1
 10
-0.2500002402958907
 20
-0.2499999962453767
 11
10.74999951940822
 21
8.249999763458731
 12
0.0
 22
0.0
 32
0.0
 14
-0.1244509008747485
 24
-0.0297698798852579
 34
-0.0015258207003583
 15
10.5346522594341
 25
8.101753022130985
 35
0.0000000349246037
146
0.0
 13
0.0
 23
0.0
 33
0.0
 16
1.0
 26
0.0
 36
0.0
 17
0.0
 27
1.0
 37
0.0
 76
     0
330
1B
331
104C3
1001
ACAD_PSEXT
1000
Aucun(e)
1000
Aucun(e)
1000
Ne s'applique pas
1000
La présentation ne sera tracée que si un nouveau nom de configuration du traceur est sélectionné.
1070
     0
  0
MATERIAL
  5
10011
102
{ACAD_XDICTIONARY
360
10012
102
}
102
{ACAD_REACTORS
330
10008
102
}
330
10008
100
AcDbMaterial
  1
ByBlock
 72
     0
 43
0.0008202099737533
 43
0.0
 43
0.0
 43
0.0
 43
0.0
 43
0.0008202099737533
 43
0.0
 43
0.0
 43
0.0
 43
0.0
 43
1.0
 43
0.0
 43
0.0
 43
0.0
 43
0.0
 43
1.0
 77
     0
 47
0.0008202099737533
 47
0.0
 47
0.0
 47
0.0
 47
0.0
 47
0.0008202099737533
 47
0.0
 47
0.0
 47
0.0
 47
0.0
 47
1.0
 47
0.0
 47
0.0
 47
0.0
 47
0.0
 47
1.0
171
     0
 49
0.0008202099737533
 49
0.0
 49
0.0
 49
0.0
 49
0.0
 49
0.0008202099737533
 49
0.0
 49
0.0
 49
0.0
 49
0.0
 49
1.0
 49
0.0
 49
0.0
 49
0.0
 49
0.0
 49
1.0
175
     0
142
0.0008202099737533
142
0.0
142
0.0
142
0.0
142
0.0
142
0.0008202099737533
142
0.0
142
0.0
142
0.0
142
0.0
142
1.0
142
0.0
142
0.0
142
0.0
142
0.0
142
1.0
179
     0
144
0.0008202099737533
144
0.0
144
0.0
144
0.0
144
0.0
144
0.0008202099737533
144
0.0
144
0.0
144
0.0
144
0.0
144
1.0
144
0.0
144
0.0
144
0.0
144
0.0
144
1.0
147
0.0008202099737533
147
0.0
147
0.0
147
0.0
147
0.0
147
0.0008202099737533
147
0.0
147
0.0
147
0.0
147
0.0
147
1.0
147
0.0
147
0.0
147
0.0
147
0.0
147
1.0
  0
MATERIAL
  5
10009
102
{ACAD_XDICTIONARY
360
1000A
102
}
102
{ACAD_REACTORS
330
10008
102
}
330
10008
100
AcDbMaterial
  1
ByLayer
 72
     0
 43
0.0008202099737533
 43
0.0
 43
0.0
 43
0.0
 43
0.0
 43
0.0008202099737533
 43
0.0
 43
0.0
 43
0.0
 43
0.0
 43
1.0
 43
0.0
 43
0.0
 43
0.0
 43
0.0
 43
1.0
 77
     0
 47
0.0008202099737533
 47
0.0
 47
0.0
 47
0.0
 47
0.0
 47
0.0008202099737533
 47
0.0
 47
0.0
 47
0.0
 47
0.0
 47
1.0
 47
0.0
 47
0.0
 47
0.0
 47
0.0
 47
1.0
171
     0
 49
0.0008202099737533
 49
0.0
 49
0.0
 49
0.0
 49
0.0
 49
0.0008202099737533
 49
0.0
 49
0.0
 49
0.0
 49
0.0
 49
1.0
 49
0.0
 49
0.0
 49
0.0
 49
0.0
 49
1.0
175
     0
142
0.0008202099737533
142
0.0
142
0.0
142
0.0
142
0.0
142
0.0008202099737533
142
0.0
142
0.0
142
0.0
142
0.0
142
1.0
142
0.0
142
0.0
142
0.0
142
0.0
142
1.0
179
     0
144
0.0008202099737533
144
0.0
144
0.0
144
0.0
144
0.0
144
0.0008202099737533
144
0.0
144
0.0
144
0.0
144
0.0
144
1.0
144
0.0
144
0.0
144
0.0
144
0.0
144
1.0
147
0.0008202099737533
147
0.0
147
0.0
147
0.0
147
0.0
147
0.0008202099737533
147
0.0
147
0.0
147
0.0
147
0.0
147
1.0
147
0.0
147
0.0
147
0.0
147
0.0
147
1.0
  0
MATERIAL
  5
10019
102
{ACAD_XDICTIONARY
360
1001A
102
}
102
{ACAD_REACTORS
330
10008
102
}
330
10008
100
AcDbMaterial
  1
Global
 72
     0
 43
0.0008202099737533
 43
0.0
 43
0.0
 43
0.0
 43
0.0
 43
0.0008202099737533
 43
0.0
 43
0.0
 43
0.0
 43
0.0
 43
1.0
 43
0.0
 43
0.0
 43
0.0
 43
0.0
 43
1.0
 77
     0
 47
0.0008202099737533
 47
0.0
 47
0.0
 47
0.0
 47
0.0
 47
0.0008202099737533
 47
0.0
 47
0.0
 47
0.0
 47
0.0
 47
1.0
 47
0.0
 47
0.0
 47
0.0
 47
0.0
 47
1.0
171
     0
 49
0.0008202099737533
 49
0.0
 49
0.0
 49
0.0
 49
0.0
 49
0.0008202099737533
 49
0.0
 49
0.0
 49
0.0
 49
0.0
 49
1.0
 49
0.0
 49
0.0
 49
0.0
 49
0.0
 49
1.0
175
     0
142
0.0008202099737533
142
0.0
142
0.0
142
0.0
142
0.0
142
0.0008202099737533
142
0.0
142
0.0
142
0.0
142
0.0
142
1.0
142
0.0
142
0.0
142
0.0
142
0.0
142
1.0
179
     0
144
0.0008202099737533
144
0.0
144
0.0
144
0.0
144
0.0
144
0.0008202099737533
144
0.0
144
0.0
144
0.0
144
0.0
144
1.0
144
0.0
144
0.0
144
0.0
144
0.0
144
1.0
147
0.0008202099737533
147
0.0
147
0.0
147
0.0
147
0.0
147
0.0008202099737533
147
0.0
147
0.0
147
0.0
147
0.0
147
1.0
147
0.0
147
0.0
147
0.0
147
0.0
147
1.0
  0
MLEADERSTYLE
  5
10052
102
{ACAD_REACTORS
330
10051
330
1048A
330
1048B
330
1048C
330
1048D
330
1048E
330
1048F
330
10490
330
10491
330
10493
330
10495
330
10497
330
10499
330
1049B
330
1058A
330
10682
330
1068A
330
106A0
102
}
330
10051
100
AcDbMLeaderStyle
179
     2
170
     2
171
     1
172
     0
 90
        2
 40
0.0
 41
0.0
173
     1
 91
-1056964608
340
14
 92
       -2
290
     1
 42
0.09
291
     1
 43
0.36
  3
Standard
 44
0.18
300

342
11
174
     1
178
     6
175
     1
176
     0
 93
-1056964608
 45
0.18
292
     0
297
     0
 46
0.18
 94
-1056964608
 47
1.0
 49
1.0
140
1.0
293
     1
141
0.0
294
     1
177
     0
142
1.0
295
     0
296
     0
143
0.125
271
     0
272
     9
273
     9
298
     0
  0
MLINESTYLE
  5
1003E
102
{ACAD_REACTORS
330
17
102
}
330
17
100
AcDbMlineStyle
  2
STANDARD
 70
     0
  3

 62
   256
 51
90.0
 52
90.0
 71
     2
 49
0.5
 62
   256
  6
BYLAYER
 49
-0.5
 62
   256
  6
BYLAYER
  0
ACDBPLACEHOLDER
  5
10007
102
{ACAD_REACTORS
330
10006
102
}
330
10006
  0
SCALE
  5
10040
102
{ACAD_REACTORS
330
1003F
102
}
330
1003F
100
AcDbScale
 70
     0
300
1:1
140
1.0
141
1.0
290
     1
  0
SCALE
  5
104E8
102
{ACAD_REACTORS
330
1003F
102
}
330
1003F
100
AcDbScale
 70
     0
300
1:2
140
1.0
141
2.0
290
     0
  0
SCALE
  5
104E9
102
{ACAD_REACTORS
330
1003F
102
}
330
1003F
100
AcDbScale
 70
     0
300
1:4
140
1.0
141
4.0
290
     0
  0
SCALE
  5
104EA
102
{ACAD_REACTORS
330
1003F
102
}
330
1003F
100
AcDbScale
 70
     0
300
1:5
140
1.0
141
5.0
290
     0
  0
SCALE
  5
104EB
102
{ACAD_REACTORS
330
1003F
102
}
330
1003F
100
AcDbScale
 70
     0
300
1:8
140
1.0
141
8.0
290
     0
  0
SCALE
  5
104EC
102
{ACAD_REACTORS
330
1003F
102
}
330
1003F
100
AcDbScale
 70
     0
300
1:10
140
1.0
141
10.0
290
     0
  0
SCALE
  5
104ED
102
{ACAD_REACTORS
330
1003F
102
}
330
1003F
100
AcDbScale
 70
     0
300
1:16
140
1.0
141
16.0
290
     0
  0
SCALE
  5
104EE
102
{ACAD_REACTORS
330
1003F
102
}
330
1003F
100
AcDbScale
 70
     0
300
1:20
140
1.0
141
20.0
290
     0
  0
SCALE
  5
104EF
102
{ACAD_REACTORS
330
1003F
102
}
330
1003F
100
AcDbScale
 70
     0
300
1:30
140
1.0
141
30.0
290
     0
  0
SCALE
  5
104F0
102
{ACAD_REACTORS
330
1003F
102
}
330
1003F
100
AcDbScale
 70
     0
300
1:40
140
1.0
141
40.0
290
     0
  0
SCALE
  5
104F1
102
{ACAD_REACTORS
330
1003F
102
}
330
1003F
100
AcDbScale
 70
     0
300
1:50
140
1.0
141
50.0
290
     0
  0
SCALE
  5
104F2
102
{ACAD_REACTORS
330
1003F
102
}
330
1003F
100
AcDbScale
 70
     0
300
1:100
140
1.0
141
100.0
290
     0
  0
SCALE
  5
104F3
102
{ACAD_REACTORS
330
1003F
102
}
330
1003F
100
AcDbScale
 70
     0
300
2:1
140
2.0
141
1.0
290
     0
  0
SCALE
  5
104F4
102
{ACAD_REACTORS
330
1003F
102
}
330
1003F
100
AcDbScale
 70
     0
300
4:1
140
4.0
141
1.0
290
     0
  0
SCALE
  5
104F5
102
{ACAD_REACTORS
330
1003F
102
}
330
1003F
100
AcDbScale
 70
     0
300
8:1
140
8.0
141
1.0
290
     0
  0
SCALE
  5
104F6
102
{ACAD_REACTORS
330
1003F
102
}
330
1003F
100
AcDbScale
 70
     0
300
10:1
140
10.0
141
1.0
290
     0
  0
SCALE
  5
104F7
102
{ACAD_REACTORS
330
1003F
102
}
330
1003F
100
AcDbScale
 70
     0
300
100:1
140
100.0
141
1.0
290
     0
  0
ACDBSECTIONVIEWSTYLE
  5
10054
102
{ACAD_REACTORS
330
10053
102
}
330
10053
100
AcDbModelDocViewStyle
 70
     0
  3
Imperial24
290
     0
300
Imperial24
 90
        0
100
AcDbSectionViewStyle
 70
     0
 71
     0
 90
       78
 71
     1
340
11
 62
   256
 40
0.24
340
0
340
0
 62
   256
 40
0.24
300
I, O, Q, S, X, Z
 40
0.48
 90
        3
 40
0.18
 90
        1
 71
     2
340
0
 90
       25
 62
   256
340
0
 90
       50
 62
   256
 40
0.24
 40
0.0
 40
0.24
 71
     3
340
11
 62
   256
 40
0.24
 90
        1
 40
0.75
 90
        1
300
%<\AcVar ViewType \f "%tc1">% %<\AcVar ViewSectionStartId>%-%<\AcVar ViewSectionEndId>%\PECHELLE %<\AcVar ViewScale \f "%sn">%
 71
     4
 62
   256
 62
   257
300
ANSI31
 40
1.0
 90
        0
290
     0
290
     0
 90
        6
 40
0.0
 40
1.570796326794896
 40
0.2617993877991494
 40
1.308996938995747
 40
-0.2617993877991494
 40
1.832595714594044
  0
ACDBSECTIONVIEWSTYLE
  5
1051E
102
{ACAD_REACTORS
330
10053
102
}
330
10053
100
AcDbModelDocViewStyle
 70
     0
  3
Metric50
290
     0
300
Metric50
 90
        0
100
AcDbSectionViewStyle
 70
     0
 71
     0
 90
      102
 71
     1
340
11
 62
   256
 40
5.0
340
0
340
0
 62
   256
 40
5.0
300
I, O, Q, S, X, Z
 40
10.0
 90
        0
 40
2.5
 90
        0
 71
     2
340
10001
 90
       25
 62
   256
340
10001
 90
       50
 62
   256
 40
5.0
 40
2.5
 40
5.0
 71
     3
340
11
 62
   256
 40
5.0
 90
        0
 40
15.0
 90
        1
300
%<\AcVar ViewSectionStartId>%-%<\AcVar ViewSectionEndId>% (%<\AcVar ViewScale \f "%sn">%)
 71
     4
 62
   256
 62
   257
300
ANSI31
 40
1.0
 90
        0
290
     0
290
     0
 90
        6
 40
0.0
 40
1.570796326794896
 40
0.2617993877991494
 40
1.308996938995747
 40
-0.2617993877991494
 40
1.832595714594045
  0
TABLESTYLE
  5
1003D
102
{ACAD_XDICTIONARY
360
102F4
102
}
102
{ACAD_REACTORS
330
1003C
102
}
330
1003C
100
AcDbTableStyle
280
     0
  3
Standard
 70
     0
 71
     0
 40
0.06
 41
0.06
280
     0
281
     0
  7
STANDARD
140
0.18
170
     2
 62
     0
 63
     7
283
     0
 90
      512
 91
        0
  1

274
    -2
284
     1
 64
     0
275
    -2
285
     1
 65
     0
276
    -2
286
     1
 66
     0
277
    -2
287
     1
 67
     0
278
    -2
288
     1
 68
     0
279
    -2
289
     1
 69
     0
  7
STANDARD
140
0.25
170
     5
 62
     0
 63
     7
283
     0
 90
      512
 91
        0
  1

274
    -2
284
     1
 64
     0
275
    -2
285
     1
 65
     0
276
    -2
286
     1
 66
     0
277
    -2
287
     1
 67
     0
278
    -2
288
     1
 68
     0
279
    -2
289
     1
 69
     0
  7
STANDARD
140
0.18
170
     5
 62
     0
 63
     7
283
     0
 90
      512
 91
        0
  1

274
    -2
284
     1
 64
     0
275
    -2
285
     1
 65
     0
276
    -2
286
     1
 66
     0
277
    -2
287
     1
 67
     0
278
    -2
288
     1
 68
     0
279
    -2
289
     1
 69
     0
  0
VISUALSTYLE
  5
10027
102
{ACAD_REACTORS
330
10021
102
}
330
10021
100
AcDbVisualStyle
  2
2dWireframe
 70
     4
177
     3
291
     0
 70
    58
 90
        0
176
     1
 90
        2
176
     1
 90
        0
176
     1
 90
        0
176
     1
 40
0.6
176
     1
 40
30.0
176
     1
 62
     7
420
 16777215
176
     1
 90
        1
176
     1
 90
        4
176
     1
 62
     7
176
     1
 62
   257
176
     1
 90
        1
176
     1
 90
        1
176
     1
 40
1.0
176
     1
 90
        0
176
     1
 62
   257
176
     1
 40
1.0
176
     1
 90
        1
176
     1
 90
        6
176
     1
 90
        2
176
     1
 62
     7
176
     1
 90
        5
176
     1
 90
        0
176
     1
 90
        0
176
     1
290
     0
176
     1
 90
        1
176
     1
 40
0.0
176
     1
 90
        0
176
     1
290
     1
176
     1
290
     1
176
     1
290
     0
176
     1
290
     0
176
     1
290
     0
176
     1
290
     0
176
     1
290
     0
176
     1
290
     0
176
     1
290
     0
176
     1
 90
       50
176
     1
 40
0.0
176
     1
 40
1.0
176
     1
 90
        0
176
     1
 62
    18
176
     1
 90
       50
176
     1
 90
        3
176
     1
 62
     5
420
      255
176
     1
290
     0
176
     1
 90
       50
176
     1
 90
       50
176
     1
 90
       50
176
     1
290
     0
176
     1
 90
       50
176
     1
 62
   256
176
     0
 40
1.0
176
     0
 90
        2
176
     1
  1
strokes_ogs.tif
176
     1
290
     0
176
     1
 40
1.0
176
     1
 40
1.0
176
     1
  0
VISUALSTYLE
  5
10026
102
{ACAD_REACTORS
330
10021
102
}
330
10021
100
AcDbVisualStyle
  2
Basic
 70
     7
177
     3
291
     1
 70
    58
 90
        1
176
     1
 90
        0
176
     1
 90
        1
176
     1
 90
        0
176
     1
 40
0.6
176
     1
 40
30.0
176
     1
 62
     7
420
 16777215
176
     1
 90
        0
176
     1
 90
        4
176
     1
 62
     7
176
     1
 62
   257
176
     1
 90
        1
176
     1
 90
        1
176
     1
 40
1.0
176
     1
 90
        8
176
     1
 62
     7
176
     1
 40
1.0
176
     1
 90
        1
176
     1
 90
        6
176
     1
 90
        2
176
     1
 62
     7
176
     1
 90
        5
176
     1
 90
        0
176
     1
 90
        0
176
     1
290
     0
176
     1
 90
        1
176
     1
 40
0.0
176
     1
 90
        0
176
     1
290
     0
176
     1
290
     1
176
     1
290
     1
176
     1
290
     0
176
     1
290
     0
176
     1
290
     0
176
     1
290
     0
176
     1
290
     0
176
     1
290
     0
176
     1
 90
       50
176
     1
 40
0.0
176
     1
 40
1.0
176
     1
 90
        0
176
     1
 62
    18
176
     1
 90
       50
176
     1
 90
        3
176
     1
 62
     5
420
      255
176
     1
290
     0
176
     1
 90
       50
176
     1
 90
       50
176
     1
 90
       50
176
     1
290
     0
176
     1
 90
       50
176
     1
 62
   256
176
     0
 40
1.0
176
     0
 90
        2
176
     1
  1
strokes_ogs.tif
176
     1
290
     0
176
     1
 40
1.0
176
     1
 40
1.0
176
     1
  0
VISUALSTYLE
  5
1002D
102
{ACAD_REACTORS
330
10021
102
}
330
10021
100
AcDbVisualStyle
  2
Brighten
 70
    12
177
     3
291
     1
 70
    58
 90
        2
176
     1
 90
        2
176
     1
 90
        0
176
     1
 90
        0
176
     1
 40
0.6
176
     1
 40
30.0
176
     1
 62
     7
420
 16777215
176
     1
 90
        1
176
     1
 90
        4
176
     1
 62
     7
176
     1
 62
   257
176
     1
 90
        1
176
     1
 90
        1
176
     1
 40
1.0
176
     1
 90
        8
176
     1
 62
     7
176
     1
 40
1.0
176
     1
 90
        1
176
     1
 90
        6
176
     1
 90
        2
176
     1
 62
     7
176
     1
 90
        5
176
     1
 90
        0
176
     1
 90
        0
176
     1
290
     0
176
     1
 90
        1
176
     1
 40
50.0
176
     1
 90
        0
176
     1
290
     0
176
     1
290
     1
176
     1
290
     1
176
     1
290
     0
176
     1
290
     0
176
     1
290
     0
176
     1
290
     0
176
     1
290
     0
176
     1
290
     0
176
     1
 90
       50
176
     1
 40
0.0
176
     1
 40
1.0
176
     1
 90
        0
176
     1
 62
    18
176
     1
 90
       50
176
     1
 90
        3
176
     1
 62
     5
420
      255
176
     1
290
     0
176
     1
 90
       50
176
     1
 90
       50
176
     1
 90
       50
176
     1
290
     0
176
     1
 90
       50
176
     1
 62
   256
176
     0
 40
1.0
176
     0
 90
        2
176
     1
  1
strokes_ogs.tif
176
     1
290
     0
176
     1
 40
1.0
176
     1
 40
1.0
176
     1
  0
VISUALSTYLE
  5
10031
102
{ACAD_REACTORS
330
10021
102
}
330
10021
100
AcDbVisualStyle
  2
ColorChange
 70
    16
177
     3
291
     1
 70
    58
 90
        2
176
     1
 90
        2
176
     1
 90
        3
176
     1
 90
        0
176
     1
 40
0.6
176
     1
 40
30.0
176
     1
 62
     8
420
  8421504
176
     1
 90
        1
176
     1
 90
        4
176
     1
 62
     7
176
     1
 62
   257
176
     1
 90
        1
176
     1
 90
        1
176
     1
 40
1.0
176
     1
 90
        8
176
     1
 62
     8
420
  8421504
176
     1
 40
1.0
176
     1
 90
        1
176
     1
 90
        6
176
     1
 90
        2
176
     1
 62
     7
176
     1
 90
        5
176
     1
 90
        0
176
     1
 90
        0
176
     1
290
     0
176
     1
 90
        1
176
     1
 40
0.0
176
     1
 90
        0
176
     1
290
     0
176
     1
290
     1
176
     1
290
     1
176
     1
290
     0
176
     1
290
     0
176
     1
290
     0
176
     1
290
     0
176
     1
290
     0
176
     1
290
     0
176
     1
 90
       50
176
     1
 40
0.0
176
     1
 40
1.0
176
     1
 90
        0
176
     1
 62
    18
176
     1
 90
       50
176
     1
 90
        3
176
     1
 62
     5
420
      255
176
     1
290
     0
176
     1
 90
       50
176
     1
 90
       50
176
     1
 90
       50
176
     1
290
     0
176
     1
 90
       50
176
     1
 62
   256
176
     0
 40
1.0
176
     0
 90
        2
176
     1
  1
strokes_ogs.tif
176
     1
290
     0
176
     1
 40
1.0
176
     1
 40
1.0
176
     1
  0
VISUALSTYLE
  5
1002A
102
{ACAD_REACTORS
330
10021
102
}
330
10021
100
AcDbVisualStyle
  2
Conceptual
 70
     9
177
     3
291
     0
 70
    58
 90
        3
176
     1
 90
        2
176
     1
 90
        0
176
     1
 90
        0
176
     1
 40
0.6
176
     1
 40
30.0
176
     1
 62
     7
420
 16777215
176
     1
 90
        2
176
     1
 90
        2
176
     1
 62
     7
176
     1
 62
   257
176
     1
 90
        1
176
     1
 90
        1
176
     1
 40
179.0
176
     1
 90
        8
176
     1
 62
     7
176
     1
 40
1.0
176
     1
 90
        1
176
     1
 90
        6
176
     1
 90
        2
176
     1
 62
     7
176
     1
 90
        3
176
     1
 90
        0
176
     1
 90
        0
176
     1
290
     0
176
     1
 90
        1
176
     1
 40
0.0
176
     1
 90
        0
176
     1
290
     0
176
     1
290
     1
176
     1
290
     1
176
     1
290
     0
176
     1
290
     0
176
     1
290
     0
176
     1
290
     0
176
     1
290
     0
176
     1
290
     0
176
     1
 90
       50
176
     1
 40
0.0
176
     1
 40
1.0
176
     1
 90
        0
176
     1
 62
    18
176
     1
 90
       50
176
     1
 90
        3
176
     1
 62
     5
420
      255
176
     1
290
     0
176
     1
 90
       50
176
     1
 90
       50
176
     1
 90
       50
176
     1
290
     0
176
     1
 90
       50
176
     1
 62
   256
176
     0
 40
1.0
176
     0
 90
        2
176
     1
  1
strokes_ogs.tif
176
     1
290
     0
176
     1
 40
1.0
176
     1
 40
1.0
176
     1
  0
VISUALSTYLE
  5
1002C
102
{ACAD_REACTORS
330
10021
102
}
330
10021
100
AcDbVisualStyle
  2
Dim
 70
    11
177
     3
291
     1
 70
    58
 90
        2
176
     1
 90
        2
176
     1
 90
        0
176
     1
 90
        0
176
     1
 40
0.6
176
     1
 40
30.0
176
     1
 62
     7
420
 16777215
176
     1
 90
        1
176
     1
 90
        4
176
     1
 62
     7
176
     1
 62
   257
176
     1
 90
        1
176
     1
 90
        1
176
     1
 40
1.0
176
     1
 90
        8
176
     1
 62
     7
176
     1
 40
1.0
176
     1
 90
        1
176
     1
 90
        6
176
     1
 90
        2
176
     1
 62
     7
176
     1
 90
        5
176
     1
 90
        0
176
     1
 90
        0
176
     1
290
     0
176
     1
 90
        1
176
     1
 40
-50.0
176
     1
 90
        0
176
     1
290
     0
176
     1
290
     1
176
     1
290
     1
176
     1
290
     0
176
     1
290
     0
176
     1
290
     0
176
     1
290
     0
176
     1
290
     0
176
     1
290
     0
176
     1
 90
       50
176
     1
 40
0.0
176
     1
 40
1.0
176
     1
 90
        0
176
     1
 62
    18
176
     1
 90
       50
176
     1
 90
        3
176
     1
 62
     5
420
      255
176
     1
290
     0
176
     1
 90
       50
176
     1
 90
       50
176
     1
 90
       50
176
     1
290
     0
176
     1
 90
       50
176
     1
 62
   256
176
     0
 40
1.0
176
     0
 90
        2
176
     1
  1
strokes_ogs.tif
176
     1
290
     0
176
     1
 40
1.0
176
     1
 40
1.0
176
     1
  0
VISUALSTYLE
  5
10039
102
{ACAD_REACTORS
330
10021
102
}
330
10021
100
AcDbVisualStyle
  2
EdgeColorOff
 70
    22
177
     3
291
     1
 70
    58
 90
        2
176
     0
 90
        2
176
     0
 90
        0
176
     0
 90
        0
176
     0
 40
0.6
176
     0
 40
30.0
176
     0
 62
     7
420
 16777215
176
     0
 90
        1
176
     0
 90
        4
176
     0
 62
     7
176
     0
 62
   257
176
     0
 90
        1
176
     0
 90
        1
176
     0
 40
1.0
176
     0
 90
        8
176
     2
 62
     7
176
     0
 40
1.0
176
     0
 90
        1
176
     0
 90
        6
176
     0
 90
        2
176
     0
 62
     7
176
     0
 90
        5
176
     0
 90
        0
176
     0
 90
        0
176
     0
290
     0
176
     0
 90
        1
176
     0
 40
0.0
176
     0
 90
        0
176
     0
290
     0
176
     1
290
     1
176
     1
290
     1
176
     1
290
     0
176
     1
290
     0
176
     1
290
     0
176
     1
290
     0
176
     1
290
     0
176
     1
290
     0
176
     1
 90
       50
176
     0
 40
0.0
176
     0
 40
1.0
176
     0
 90
        0
176
     0
 62
    18
176
     0
 90
       50
176
     0
 90
        3
176
     0
 62
     5
420
      255
176
     0
290
     0
176
     1
 90
       50
176
     0
 90
       50
176
     0
 90
       50
176
     0
290
     0
176
     1
 90
       50
176
     0
 62
   256
176
     0
 40
1.0
176
     0
 90
        2
176
     0
  1
strokes_ogs.tif
176
     0
290
     0
176
     1
 40
1.0
176
     0
 40
1.0
176
     0
  0
VISUALSTYLE
  5
10030
102
{ACAD_REACTORS
330
10021
102
}
330
10021
100
AcDbVisualStyle
  2
Facepattern
 70
    15
177
     3
291
     1
 70
    58
 90
        2
176
     1
 90
        2
176
     1
 90
        0
176
     1
 90
        0
176
     1
 40
0.6
176
     1
 40
30.0
176
     1
 62
     7
420
 16777215
176
     1
 90
        1
176
     1
 90
        4
176
     1
 62
     7
176
     1
 62
   257
176
     1
 90
        1
176
     1
 90
        1
176
     1
 40
1.0
176
     1
 90
        8
176
     1
 62
     7
176
     1
 40
1.0
176
     1
 90
        1
176
     1
 90
        6
176
     1
 90
        2
176
     1
 62
     7
176
     1
 90
        5
176
     1
 90
        0
176
     1
 90
        0
176
     1
290
     0
176
     1
 90
        1
176
     1
 40
0.0
176
     1
 90
        0
176
     1
290
     0
176
     1
290
     1
176
     1
290
     1
176
     1
290
     0
176
     1
290
     0
176
     1
290
     0
176
     1
290
     0
176
     1
290
     0
176
     1
290
     0
176
     1
 90
       50
176
     1
 40
0.0
176
     1
 40
1.0
176
     1
 90
        0
176
     1
 62
    18
176
     1
 90
       50
176
     1
 90
        3
176
     1
 62
     5
420
      255
176
     1
290
     0
176
     1
 90
       50
176
     1
 90
       50
176
     1
 90
       50
176
     1
290
     0
176
     1
 90
       50
176
     1
 62
   256
176
     0
 40
1.0
176
     0
 90
        2
176
     1
  1
strokes_ogs.tif
176
     1
290
     0
176
     1
 40
1.0
176
     1
 40
1.0
176
     1
  0
VISUALSTYLE
  5
10022
102
{ACAD_REACTORS
330
10021
102
}
330
10021
100
AcDbVisualStyle
  2
Flat
 70
     0
177
     3
291
     1
 70
    58
 90
        2
176
     1
 90
        1
176
     1
 90
        1
176
     1
 90
        2
176
     1
 40
0.6
176
     1
 40
30.0
176
     1
 62
     7
420
 16777215
176
     1
 90
        0
176
     1
 90
        0
176
     1
 62
     7
176
     1
 62
   257
176
     1
 90
        1
176
     1
 90
        1
176
     1
 40
1.0
176
     1
 90
        8
176
     1
 62
     7
176
     1
 40
1.0
176
     1
 90
        1
176
     1
 90
        6
176
     1
 90
        2
176
     1
 62
     7
176
     1
 90
        5
176
     1
 90
        0
176
     1
 90
        0
176
     1
290
     0
176
     1
 90
       13
176
     1
 40
0.0
176
     1
 90
        0
176
     1
290
     0
176
     1
290
     1
176
     1
290
     1
176
     1
290
     0
176
     1
290
     0
176
     1
290
     0
176
     1
290
     0
176
     1
290
     0
176
     1
290
     0
176
     1
 90
       50
176
     1
 40
0.0
176
     1
 40
1.0
176
     1
 90
        0
176
     1
 62
    18
176
     1
 90
       50
176
     1
 90
        3
176
     1
 62
     5
420
      255
176
     1
290
     0
176
     1
 90
       50
176
     1
 90
       50
176
     1
 90
       50
176
     1
290
     0
176
     1
 90
       50
176
     1
 62
   256
176
     0
 40
1.0
176
     0
 90
        2
176
     1
  1
strokes_ogs.tif
176
     1
290
     0
176
     1
 40
1.0
176
     1
 40
1.0
176
     1
  0
VISUALSTYLE
  5
10023
102
{ACAD_REACTORS
330
10021
102
}
330
10021
100
AcDbVisualStyle
  2
FlatWithEdges
 70
     1
177
     3
291
     1
 70
    58
 90
        2
176
     1
 90
        1
176
     1
 90
        1
176
     1
 90
        2
176
     1
 40
0.6
176
     1
 40
30.0
176
     1
 62
     7
420
 16777215
176
     1
 90
        1
176
     1
 90
        0
176
     1
 62
     7
176
     1
 62
   257
176
     1
 90
        1
176
     1
 90
        1
176
     1
 40
1.0
176
     1
 90
        0
176
     1
 62
   257
176
     1
 40
1.0
176
     1
 90
        1
176
     1
 90
        6
176
     1
 90
        2
176
     1
 62
     7
176
     1
 90
        5
176
     1
 90
        0
176
     1
 90
        0
176
     1
290
     0
176
     1
 90
       13
176
     1
 40
0.0
176
     1
 90
        0
176
     1
290
     0
176
     1
290
     1
176
     1
290
     1
176
     1
290
     0
176
     1
290
     0
176
     1
290
     0
176
     1
290
     0
176
     1
290
     0
176
     1
290
     0
176
     1
 90
       50
176
     1
 40
0.0
176
     1
 40
1.0
176
     1
 90
        0
176
     1
 62
    18
176
     1
 90
       50
176
     1
 90
        3
176
     1
 62
     5
420
      255
176
     1
290
     0
176
     1
 90
       50
176
     1
 90
       50
176
     1
 90
       50
176
     1
290
     0
176
     1
 90
       50
176
     1
 62
   256
176
     0
 40
1.0
176
     0
 90
        2
176
     1
  1
strokes_ogs.tif
176
     1
290
     0
176
     1
 40
1.0
176
     1
 40
1.0
176
     1
  0
VISUALSTYLE
  5
10024
102
{ACAD_REACTORS
330
10021
102
}
330
10021
100
AcDbVisualStyle
  2
Gouraud
 70
     2
177
     3
291
     1
 70
    58
 90
        2
176
     1
 90
        2
176
     1
 90
        1
176
     1
 90
        2
176
     1
 40
0.6
176
     1
 40
30.0
176
     1
 62
     7
420
 16777215
176
     1
 90
        0
176
     1
 90
        0
176
     1
 62
     7
176
     1
 62
   257
176
     1
 90
        1
176
     1
 90
        1
176
     1
 40
1.0
176
     1
 90
        0
176
     1
 62
     7
176
     1
 40
1.0
176
     1
 90
        1
176
     1
 90
        6
176
     1
 90
        2
176
     1
 62
     7
176
     1
 90
        5
176
     1
 90
        0
176
     1
 90
        0
176
     1
290
     0
176
     1
 90
       13
176
     1
 40
0.0
176
     1
 90
        0
176
     1
290
     0
176
     1
290
     1
176
     1
290
     1
176
     1
290
     0
176
     1
290
     0
176
     1
290
     0
176
     1
290
     0
176
     1
290
     0
176
     1
290
     0
176
     1
 90
       50
176
     1
 40
0.0
176
     1
 40
1.0
176
     1
 90
        0
176
     1
 62
    18
176
     1
 90
       50
176
     1
 90
        3
176
     1
 62
     5
420
      255
176
     1
290
     0
176
     1
 90
       50
176
     1
 90
       50
176
     1
 90
       50
176
     1
290
     0
176
     1
 90
       50
176
     1
 62
   256
176
     0
 40
1.0
176
     0
 90
        2
176
     1
  1
strokes_ogs.tif
176
     1
290
     0
176
     1
 40
1.0
176
     1
 40
1.0
176
     1
  0
VISUALSTYLE
  5
10025
102
{ACAD_REACTORS
330
10021
102
}
330
10021
100
AcDbVisualStyle
  2
GouraudWithEdges
 70
     3
177
     3
291
     1
 70
    58
 90
        2
176
     1
 90
        2
176
     1
 90
        1
176
     1
 90
        2
176
     1
 40
0.6
176
     1
 40
30.0
176
     1
 62
     7
420
 16777215
176
     1
 90
        1
176
     1
 90
        0
176
     1
 62
     7
176
     1
 62
   257
176
     1
 90
        1
176
     1
 90
        1
176
     1
 40
1.0
176
     1
 90
        0
176
     1
 62
   257
176
     1
 40
1.0
176
     1
 90
        1
176
     1
 90
        6
176
     1
 90
        2
176
     1
 62
     7
176
     1
 90
        5
176
     1
 90
        0
176
     1
 90
        0
176
     1
290
     0
176
     1
 90
       13
176
     1
 40
0.0
176
     1
 90
        0
176
     1
290
     0
176
     1
290
     1
176
     1
290
     1
176
     1
290
     0
176
     1
290
     0
176
     1
290
     0
176
     1
290
     0
176
     1
290
     0
176
     1
290
     0
176
     1
 90
       50
176
     1
 40
0.0
176
     1
 40
1.0
176
     1
 90
        0
176
     1
 62
    18
176
     1
 90
       50
176
     1
 90
        3
176
     1
 62
     5
420
      255
176
     1
290
     0
176
     1
 90
       50
176
     1
 90
       50
176
     1
 90
       50
176
     1
290
     0
176
     1
 90
       50
176
     1
 62
   256
176
     0
 40
1.0
176
     0
 90
        2
176
     1
  1
strokes_ogs.tif
176
     1
290
     0
176
     1
 40
1.0
176
     1
 40
1.0
176
     1
  0
VISUALSTYLE
  5
10029
102
{ACAD_REACTORS
330
10021
102
}
330
10021
100
AcDbVisualStyle
  2
Hidden
 70
     6
177
     3
291
     0
 70
    58
 90
        1
176
     1
 90
        2
176
     1
 90
        2
176
     1
 90
        0
176
     1
 40
0.6
176
     1
 40
30.0
176
     1
 62
     7
420
 16777215
176
     1
 90
        2
176
     1
 90
        2
176
     1
 62
     7
176
     1
 62
   257
176
     1
 90
        2
176
     1
 90
        1
176
     1
 40
40.0
176
     1
 90
        0
176
     1
 62
   257
176
     1
 40
1.0
176
     1
 90
        1
176
     1
 90
        6
176
     1
 90
        2
176
     1
 62
     7
176
     1
 90
        3
176
     1
 90
        0
176
     1
 90
        0
176
     1
290
     0
176
     1
 90
        1
176
     1
 40
0.0
176
     1
 90
        0
176
     1
290
     0
176
     1
290
     1
176
     1
290
     1
176
     1
290
     0
176
     1
290
     0
176
     1
290
     0
176
     1
290
     0
176
     1
290
     0
176
     1
290
     0
176
     1
 90
       50
176
     1
 40
0.0
176
     1
 40
1.0
176
     1
 90
        0
176
     1
 62
    18
176
     1
 90
       50
176
     1
 90
        3
176
     1
 62
     5
420
      255
176
     1
290
     0
176
     1
 90
       50
176
     1
 90
       50
176
     1
 90
       50
176
     1
290
     0
176
     1
 90
       50
176
     1
 62
   256
176
     0
 40
1.0
176
     0
 90
        2
176
     1
  1
strokes_ogs.tif
176
     1
290
     0
176
     1
 40
1.0
176
     1
 40
1.0
176
     1
  0
VISUALSTYLE
  5
10037
102
{ACAD_REACTORS
330
10021
102
}
330
10021
100
AcDbVisualStyle
  2
JitterOff
 70
    20
177
     3
291
     1
 70
    58
 90
        2
176
     0
 90
        2
176
     0
 90
        0
176
     0
 90
        0
176
     0
 40
0.6
176
     0
 40
30.0
176
     0
 62
     7
420
 16777215
176
     0
 90
        1
176
     0
 90
        4
176
     0
 62
     7
176
     0
 62
   257
176
     0
 90
        1
176
     0
 90
        1
176
     0
 40
1.0
176
     0
 90
       10
176
     2
 62
     7
176
     0
 40
1.0
176
     0
 90
        1
176
     0
 90
        6
176
     0
 90
        2
176
     0
 62
     7
176
     0
 90
        5
176
     0
 90
        0
176
     0
 90
        0
176
     0
290
     0
176
     0
 90
        1
176
     0
 40
0.0
176
     0
 90
        0
176
     0
290
     0
176
     1
290
     1
176
     1
290
     1
176
     1
290
     0
176
     1
290
     0
176
     1
290
     0
176
     1
290
     0
176
     1
290
     0
176
     1
290
     0
176
     1
 90
       50
176
     0
 40
0.0
176
     0
 40
1.0
176
     0
 90
        0
176
     0
 62
    18
176
     0
 90
       50
176
     0
 90
        3
176
     0
 62
     5
420
      255
176
     0
290
     0
176
     1
 90
       50
176
     0
 90
       50
176
     0
 90
       50
176
     0
290
     0
176
     1
 90
       50
176
     0
 62
   256
176
     0
 40
1.0
176
     0
 90
        2
176
     0
  1
strokes_ogs.tif
176
     0
290
     0
176
     1
 40
1.0
176
     0
 40
1.0
176
     0
  0
VISUALSTYLE
  5
1002F
102
{ACAD_REACTORS
330
10021
102
}
330
10021
100
AcDbVisualStyle
  2
Linepattern
 70
    14
177
     3
291
     1
 70
    58
 90
        2
176
     1
 90
        2
176
     1
 90
        0
176
     1
 90
        0
176
     1
 40
0.6
176
     1
 40
30.0
176
     1
 62
     7
420
 16777215
176
     1
 90
        1
176
     1
 90
        4
176
     1
 62
     7
176
     1
 62
   257
176
     1
 90
        7
176
     1
 90
        7
176
     1
 40
1.0
176
     1
 90
        8
176
     1
 62
     7
176
     1
 40
1.0
176
     1
 90
        1
176
     1
 90
        6
176
     1
 90
        2
176
     1
 62
     7
176
     1
 90
        5
176
     1
 90
        0
176
     1
 90
        0
176
     1
290
     0
176
     1
 90
        1
176
     1
 40
0.0
176
     1
 90
        0
176
     1
290
     0
176
     1
290
     1
176
     1
290
     1
176
     1
290
     0
176
     1
290
     0
176
     1
290
     0
176
     1
290
     0
176
     1
290
     0
176
     1
290
     0
176
     1
 90
       50
176
     1
 40
0.0
176
     1
 40
1.0
176
     1
 90
        0
176
     1
 62
    18
176
     1
 90
       50
176
     1
 90
        3
176
     1
 62
     5
420
      255
176
     1
290
     0
176
     1
 90
       50
176
     1
 90
       50
176
     1
 90
       50
176
     1
290
     0
176
     1
 90
       50
176
     1
 62
   256
176
     0
 40
1.0
176
     0
 90
        2
176
     1
  1
strokes_ogs.tif
176
     1
290
     0
176
     1
 40
1.0
176
     1
 40
1.0
176
     1
  0
VISUALSTYLE
  5
10038
102
{ACAD_REACTORS
330
10021
102
}
330
10021
100
AcDbVisualStyle
  2
OverhangOff
 70
    21
177
     3
291
     1
 70
    58
 90
        2
176
     0
 90
        2
176
     0
 90
        0
176
     0
 90
        0
176
     0
 40
0.6
176
     0
 40
30.0
176
     0
 62
     7
420
 16777215
176
     0
 90
        1
176
     0
 90
        4
176
     0
 62
     7
176
     0
 62
   257
176
     0
 90
        1
176
     0
 90
        1
176
     0
 40
1.0
176
     0
 90
        9
176
     2
 62
     7
176
     0
 40
1.0
176
     0
 90
        1
176
     0
 90
        6
176
     0
 90
        2
176
     0
 62
     7
176
     0
 90
        5
176
     0
 90
        0
176
     0
 90
        0
176
     0
290
     0
176
     0
 90
        1
176
     0
 40
0.0
176
     0
 90
        0
176
     0
290
     0
176
     1
290
     1
176
     1
290
     1
176
     1
290
     0
176
     1
290
     0
176
     1
290
     0
176
     1
290
     0
176
     1
290
     0
176
     1
290
     0
176
     1
 90
       50
176
     0
 40
0.0
176
     0
 40
1.0
176
     0
 90
        0
176
     0
 62
    18
176
     0
 90
       50
176
     0
 90
        3
176
     0
 62
     5
420
      255
176
     0
290
     0
176
     1
 90
       50
176
     0
 90
       50
176
     0
 90
       50
176
     0
290
     0
176
     1
 90
       50
176
     0
 62
   256
176
     0
 40
1.0
176
     0
 90
        2
176
     0
  1
strokes_ogs.tif
176
     0
290
     0
176
     1
 40
1.0
176
     0
 40
1.0
176
     0
  0
VISUALSTYLE
  5
1002B
102
{ACAD_REACTORS
330
10021
102
}
330
10021
100
AcDbVisualStyle
  2
Realistic
 70
     8
177
     3
291
     0
 70
    58
 90
        2
176
     1
 90
        3
176
     1
 90
        0
176
     1
 90
        2
176
     1
 40
0.6
176
     1
 40
30.0
176
     1
 62
     7
420
 16777215
176
     1
 90
        0
176
     1
 90
        0
176
     1
 62
     7
176
     1
 62
   257
176
     1
 90
        1
176
     1
 90
        1
176
     1
 40
1.0
176
     1
 90
        8
176
     1
 62
   257
176
     1
 40
1.0
176
     1
 90
        1
176
     1
 90
        6
176
     1
 90
        2
176
     1
 62
     7
176
     1
 90
        3
176
     1
 90
        0
176
     1
 90
        0
176
     1
290
     0
176
     1
 90
       13
176
     1
 40
0.0
176
     1
 90
        0
176
     1
290
     0
176
     1
290
     1
176
     1
290
     1
176
     1
290
     0
176
     1
290
     0
176
     1
290
     0
176
     1
290
     0
176
     1
290
     0
176
     1
290
     0
176
     1
 90
       50
176
     1
 40
0.0
176
     1
 40
1.0
176
     1
 90
        0
176
     1
 62
    18
176
     1
 90
       50
176
     1
 90
        3
176
     1
 62
     5
420
      255
176
     1
290
     0
176
     1
 90
       50
176
     1
 90
       50
176
     1
 90
       50
176
     1
290
     0
176
     1
 90
       50
176
     1
 62
   256
176
     0
 40
1.0
176
     0
 90
        2
176
     1
  1
strokes_ogs.tif
176
     1
290
     0
176
     1
 40
1.0
176
     1
 40
1.0
176
     1
  0
VISUALSTYLE
  5
10036
102
{ACAD_REACTORS
330
10021
102
}
330
10021
100
AcDbVisualStyle
  2
Shaded
 70
    27
177
     3
291
     0
 70
    58
 90
        2
176
     1
 90
        2
176
     1
 90
        1
176
     1
 90
        2
176
     1
 40
0.6
176
     1
 40
30.0
176
     1
 62
     7
420
 16777215
176
     1
 90
        0
176
     1
 90
        4
176
     1
 62
     7
176
     1
 62
   257
176
     1
 90
        1
176
     1
 90
        1
176
     1
 40
1.0
176
     1
 90
        8
176
     1
 62
   257
176
     1
 40
1.0
176
     1
 90
        1
176
     1
 90
        6
176
     1
 90
        2
176
     1
 62
     8
420
  7895160
176
     1
 90
        3
176
     1
 90
        0
176
     1
 90
        0
176
     1
290
     0
176
     1
 90
        5
176
     1
 40
0.0
176
     1
 90
        0
176
     1
290
     0
176
     1
290
     1
176
     1
290
     1
176
     1
290
     0
176
     1
290
     0
176
     1
290
     0
176
     1
290
     0
176
     1
290
     0
176
     1
290
     0
176
     1
 90
       50
176
     1
 40
0.0
176
     1
 40
1.0
176
     1
 90
        0
176
     1
 62
    18
176
     1
 90
       50
176
     1
 90
        3
176
     1
 62
     5
420
      255
176
     1
290
     0
176
     1
 90
       50
176
     1
 90
       50
176
     1
 90
       50
176
     1
290
     0
176
     1
 90
       50
176
     1
 62
   256
176
     0
 40
1.0
176
     0
 90
        2
176
     1
  1
strokes_ogs.tif
176
     1
290
     0
176
     1
 40
1.0
176
     1
 40
1.0
176
     1
  0
VISUALSTYLE
  5
10035
102
{ACAD_REACTORS
330
10021
102
}
330
10021
100
AcDbVisualStyle
  2
Shaded with edges
 70
    26
177
     3
291
     0
 70
    58
 90
        2
176
     1
 90
        2
176
     1
 90
        1
176
     1
 90
        2
176
     1
 40
0.6
176
     1
 40
30.0
176
     1
 62
     7
420
 16777215
176
     1
 90
        1
176
     1
 90
        2
176
     1
 62
     7
176
     1
 62
   257
176
     1
 90
        2
176
     1
 90
        1
176
     1
 40
1.0
176
     1
 90
        8
176
     1
 62
   257
176
     1
 40
1.0
176
     1
 90
        1
176
     1
 90
        6
176
     1
 90
        2
176
     1
 62
     7
176
     1
 90
        3
176
     1
 90
        0
176
     1
 90
        0
176
     1
290
     0
176
     1
 90
        5
176
     1
 40
0.0
176
     1
 90
        0
176
     1
290
     0
176
     1
290
     1
176
     1
290
     1
176
     1
290
     0
176
     1
290
     0
176
     1
290
     0
176
     1
290
     0
176
     1
290
     0
176
     1
290
     0
176
     1
 90
       50
176
     1
 40
0.0
176
     1
 40
1.0
176
     1
 90
        0
176
     1
 62
    18
176
     1
 90
       50
176
     1
 90
        3
176
     1
 62
     5
420
      255
176
     1
290
     0
176
     1
 90
       50
176
     1
 90
       50
176
     1
 90
       50
176
     1
290
     0
176
     1
 90
       50
176
     1
 62
   256
176
     0
 40
1.0
176
     0
 90
        2
176
     1
  1
strokes_ogs.tif
176
     1
290
     0
176
     1
 40
1.0
176
     1
 40
1.0
176
     1
  0
VISUALSTYLE
  5
10032
102
{ACAD_REACTORS
330
10021
102
}
330
10021
100
AcDbVisualStyle
  2
Shades of Gray
 70
    23
177
     3
291
     0
 70
    58
 90
        2
176
     1
 90
        2
176
     1
 90
        3
176
     1
 90
        0
176
     1
 40
0.6
176
     1
 40
30.0
176
     1
 62
     7
420
 16777215
176
     1
 90
        2
176
     1
 90
        2
176
     1
 62
     7
176
     1
 62
     7
176
     1
 90
        1
176
     1
 90
        1
176
     1
 40
40.0
176
     1
 90
        8
176
     1
 62
     7
176
     1
 40
1.0
176
     1
 90
        1
176
     1
 90
        6
176
     1
 90
        2
176
     1
 62
     7
176
     1
 90
        3
176
     1
 90
        0
176
     1
 90
        0
176
     1
290
     0
176
     1
 90
        1
176
     1
 40
0.0
176
     1
 90
        0
176
     1
290
     0
176
     1
290
     1
176
     1
290
     1
176
     1
290
     0
176
     1
290
     0
176
     1
290
     0
176
     1
290
     0
176
     1
290
     0
176
     1
290
     0
176
     1
 90
       50
176
     1
 40
0.0
176
     1
 40
1.0
176
     1
 90
        0
176
     1
 62
    18
176
     1
 90
       50
176
     1
 90
        3
176
     1
 62
     5
420
      255
176
     1
290
     0
176
     1
 90
       50
176
     1
 90
       50
176
     1
 90
       50
176
     1
290
     0
176
     1
 90
       50
176
     1
 62
   256
176
     0
 40
1.0
176
     0
 90
        2
176
     1
  1
strokes_ogs.tif
176
     1
290
     0
176
     1
 40
1.0
176
     1
 40
1.0
176
     1
  0
VISUALSTYLE
  5
10033
102
{ACAD_REACTORS
330
10021
102
}
330
10021
100
AcDbVisualStyle
  2
Sketchy
 70
    24
177
     3
291
     0
 70
    58
 90
        1
176
     1
 90
        2
176
     1
 90
        2
176
     1
 90
        0
176
     1
 40
0.6
176
     1
 40
30.0
176
     1
 62
     7
420
 16777215
176
     1
 90
        2
176
     1
 90
        2
176
     1
 62
     7
176
     1
 62
     7
176
     1
 90
        1
176
     1
 90
        1
176
     1
 40
40.0
176
     1
 90
       11
176
     1
 62
     7
176
     1
 40
1.0
176
     1
 90
        1
176
     1
 90
        6
176
     1
 90
        2
176
     1
 62
     7
176
     1
 90
        6
176
     1
 90
        0
176
     1
 90
        0
176
     1
290
     0
176
     1
 90
        1
176
     1
 40
0.0
176
     1
 90
        0
176
     1
290
     0
176
     1
290
     1
176
     1
290
     1
176
     1
290
     0
176
     1
290
     0
176
     1
290
     0
176
     1
290
     0
176
     1
290
     0
176
     1
290
     0
176
     1
 90
       50
176
     1
 40
0.0
176
     1
 40
1.0
176
     1
 90
        0
176
     1
 62
    18
176
     1
 90
       50
176
     1
 90
        3
176
     1
 62
     5
420
      255
176
     1
290
     0
176
     1
 90
       50
176
     1
 90
       50
176
     1
 90
       50
176
     1
290
     0
176
     1
 90
       50
176
     1
 62
   256
176
     0
 40
1.0
176
     0
 90
        2
176
     1
  1
strokes_ogs.tif
176
     1
290
     0
176
     1
 40
1.0
176
     1
 40
1.0
176
     1
  0
VISUALSTYLE
  5
1002E
102
{ACAD_REACTORS
330
10021
102
}
330
10021
100
AcDbVisualStyle
  2
Thicken
 70
    13
177
     3
291
     1
 70
    58
 90
        2
176
     1
 90
        2
176
     1
 90
        0
176
     1
 90
        0
176
     1
 40
0.6
176
     1
 40
30.0
176
     1
 62
     7
420
 16777215
176
     1
 90
        1
176
     1
 90
        4
176
     1
 62
     7
176
     1
 62
   257
176
     1
 90
        1
176
     1
 90
        1
176
     1
 40
1.0
176
     1
 90
       12
176
     1
 62
     7
176
     1
 40
1.0
176
     1
 90
        1
176
     1
 90
        6
176
     1
 90
        2
176
     1
 62
     7
176
     1
 90
        5
176
     1
 90
        0
176
     1
 90
        0
176
     1
290
     0
176
     1
 90
        1
176
     1
 40
0.0
176
     1
 90
        0
176
     1
290
     0
176
     1
290
     1
176
     1
290
     1
176
     1
290
     0
176
     1
290
     0
176
     1
290
     0
176
     1
290
     0
176
     1
290
     0
176
     1
290
     0
176
     1
 90
       50
176
     1
 40
0.0
176
     1
 40
1.0
176
     1
 90
        0
176
     1
 62
    18
176
     1
 90
       50
176
     1
 90
        3
176
     1
 62
     5
420
      255
176
     1
290
     0
176
     1
 90
       50
176
     1
 90
       50
176
     1
 90
       50
176
     1
290
     0
176
     1
 90
       50
176
     1
 62
   256
176
     0
 40
1.0
176
     0
 90
        2
176
     1
  1
strokes_ogs.tif
176
     1
290
     0
176
     1
 40
1.0
176
     1
 40
1.0
176
     1
  0
VISUALSTYLE
  5
10028
102
{ACAD_REACTORS
330
10021
102
}
330
10021
100
AcDbVisualStyle
  2
Wireframe
 70
     5
177
     3
291
     0
 70
    58
 90
        0
176
     1
 90
        2
176
     1
 90
        0
176
     1
 90
        0
176
     1
 40
0.6
176
     1
 40
30.0
176
     1
 62
     7
420
 16777215
176
     1
 90
        1
176
     1
 90
        4
176
     1
 62
     7
176
     1
 62
   257
176
     1
 90
        1
176
     1
 90
        1
176
     1
 40
1.0
176
     1
 90
        0
176
     1
 62
   257
176
     1
 40
1.0
176
     1
 90
        1
176
     1
 90
        6
176
     1
 90
        2
176
     1
 62
     7
176
     1
 90
        3
176
     1
 90
        0
176
     1
 90
        0
176
     1
290
     0
176
     1
 90
        1
176
     1
 40
0.0
176
     1
 90
        0
176
     1
290
     0
176
     1
290
     1
176
     1
290
     1
176
     1
290
     0
176
     1
290
     0
176
     1
290
     0
176
     1
290
     0
176
     1
290
     0
176
     1
290
     0
176
     1
 90
       50
176
     1
 40
0.0
176
     1
 40
1.0
176
     1
 90
        0
176
     1
 62
    18
176
     1
 90
       50
176
     1
 90
        3
176
     1
 62
     5
420
      255
176
     1
290
     0
176
     1
 90
       50
176
     1
 90
       50
176
     1
 90
       50
176
     1
290
     0
176
     1
 90
       50
176
     1
 62
   256
176
     0
 40
1.0
176
     0
 90
        2
176
     1
  1
strokes_ogs.tif
176
     1
290
     0
176
     1
 40
1.0
176
     1
 40
1.0
176
     1
  0
VISUALSTYLE
  5
10034
102
{ACAD_REACTORS
330
10021
102
}
330
10021
100
AcDbVisualStyle
  2
X-Ray
 70
    25
177
     3
291
     0
 70
    58
 90
        2
176
     1
 90
        2
176
     1
 90
        1
176
     1
 90
        1
176
     1
 40
0.5
176
     1
 40
30.0
176
     1
 62
     7
420
 16777215
176
     1
 90
        1
176
     1
 90
        0
176
     1
 62
     7
176
     1
 62
   257
176
     1
 90
        1
176
     1
 90
        1
176
     1
 40
1.0
176
     1
 90
        8
176
     1
 62
     7
176
     1
 40
1.0
176
     1
 90
        1
176
     1
 90
        6
176
     1
 90
        2
176
     1
 62
     7
176
     1
 90
        3
176
     1
 90
        0
176
     1
 90
        0
176
     1
290
     0
176
     1
 90
       13
176
     1
 40
0.0
176
     1
 90
        0
176
     1
290
     0
176
     1
290
     1
176
     1
290
     1
176
     1
290
     0
176
     1
290
     0
176
     1
290
     0
176
     1
290
     0
176
     1
290
     0
176
     1
290
     0
176
     1
 90
       50
176
     1
 40
0.0
176
     1
 40
1.0
176
     1
 90
        0
176
     1
 62
    18
176
     1
 90
       50
176
     1
 90
        3
176
     1
 62
     5
420
      255
176
     1
290
     0
176
     1
 90
       50
176
     1
 90
       50
176
     1
 90
       50
176
     1
290
     0
176
     1
 90
       50
176
     1
 62
   256
176
     0
 40
1.0
176
     0
 90
        2
176
     1
  1
strokes_ogs.tif
176
     1
290
     0
176
     1
 40
1.0
176
     1
 40
1.0
176
     1
  0
DICTIONARYVAR
  5
102F0
102
{ACAD_REACTORS
330
102EA
102
}
330
102EA
100
DictionaryVariables
280
     0
  1
1:1
  0
DICTIONARYVAR
  5
102EC
102
{ACAD_REACTORS
330
102EA
102
}
330
102EA
100
DictionaryVariables
280
     0
  1
STANDARD
  0
DICTIONARYVAR
  5
102EB
102
{ACAD_REACTORS
330
102EA
102
}
330
102EA
100
DictionaryVariables
280
     0
  1
STANDARD
  0
DICTIONARYVAR
  5
102ED
102
{ACAD_REACTORS
330
102EA
102
}
330
102EA
100
DictionaryVariables
280
     0
  1
Imperial24
  0
DICTIONARYVAR
  5
102EE
102
{ACAD_REACTORS
330
102EA
102
}
330
102EA
100
DictionaryVariables
280
     0
  1
Imperial24
  0
DICTIONARYVAR
  5
102F2
102
{ACAD_REACTORS
330
102EA
102
}
330
102EA
100
DictionaryVariables
280
     0
  1
1
  0
DICTIONARYVAR
  5
102F3
102
{ACAD_REACTORS
330
102EA
102
}
330
102EA
100
DictionaryVariables
280
     0
  1
15
  0
DICTIONARYVAR
  5
102F1
102
{ACAD_REACTORS
330
102EA
102
}
330
102EA
100
DictionaryVariables
280
     0
  1
0
  0
DICTIONARYVAR
  5
102EF
102
{ACAD_REACTORS
330
102EA
102
}
330
102EA
100
DictionaryVariables
280
     0
  1
0
  0
DICTIONARY
  5
10012
330
10011
100
AcDbDictionary
280
     1
281
     1
  3
BUMPTILE
360
10014
  3
DIFFUSETILE
360
10013
  3
OPACITYTILE
360
10017
  3
REFLECTIONTILE
360
10016
  3
REFRACTIONTILE
360
10018
  3
SPECULARTILE
360
10015
  0
DICTIONARY
  5
1000A
330
10009
100
AcDbDictionary
280
     1
281
     1
  3
BUMPTILE
360
1000C
  3
DIFFUSETILE
360
1000B
  3
OPACITYTILE
360
1000F
  3
REFLECTIONTILE
360
1000E
  3
REFRACTIONTILE
360
10010
  3
SPECULARTILE
360
1000D
  0
DICTIONARY
  5
1001A
330
10019
100
AcDbDictionary
280
     1
281
     1
  3
BUMPTILE
360
1001C
  3
DIFFUSETILE
360
1001B
  3
OPACITYTILE
360
1001F
  3
REFLECTIONTILE
360
1001E
  3
REFRACTIONTILE
360
10020
  3
SPECULARTILE
360
1001D
  0
DICTIONARY
  5
102F4
330
1003D
100
AcDbDictionary
280
     1
281
     1
  3
ACAD_ROUNDTRIP_2008_TABLESTYLE_CELLSTYLEMAP
360
10771
  0
XRECORD
  5
10014
102
{ACAD_REACTORS
330
10012
102
}
330
10012
100
AcDbXrecord
280
     1
270
     1
271
     1
  0
XRECORD
  5
10013
102
{ACAD_REACTORS
330
10012
102
}
330
10012
100
AcDbXrecord
280
     1
270
     1
271
     1
  0
XRECORD
  5
10017
102
{ACAD_REACTORS
330
10012
102
}
330
10012
100
AcDbXrecord
280
     1
270
     1
271
     1
  0
XRECORD
  5
10016
102
{ACAD_REACTORS
330
10012
102
}
330
10012
100
AcDbXrecord
280
     1
270
     1
271
     1
  0
XRECORD
  5
10018
102
{ACAD_REACTORS
330
10012
102
}
330
10012
100
AcDbXrecord
280
     1
270
     1
271
     1
  0
XRECORD
  5
10015
102
{ACAD_REACTORS
330
10012
102
}
330
10012
100
AcDbXrecord
280
     1
270
     1
271
     1
  0
XRECORD
  5
1000C
102
{ACAD_REACTORS
330
1000A
102
}
330
1000A
100
AcDbXrecord
280
     1
270
     1
271
     1
  0
XRECORD
  5
1000B
102
{ACAD_REACTORS
330
1000A
102
}
330
1000A
100
AcDbXrecord
280
     1
270
     1
271
     1
  0
XRECORD
  5
1000F
102
{ACAD_REACTORS
330
1000A
102
}
330
1000A
100
AcDbXrecord
280
     1
270
     1
271
     1
  0
XRECORD
  5
1000E
102
{ACAD_REACTORS
330
1000A
102
}
330
1000A
100
AcDbXrecord
280
     1
270
     1
271
     1
  0
XRECORD
  5
10010
102
{ACAD_REACTORS
330
1000A
102
}
330
1000A
100
AcDbXrecord
280
     1
270
     1
271
     1
  0
XRECORD
  5
1000D
102
{ACAD_REACTORS
330
1000A
102
}
330
1000A
100
AcDbXrecord
280
     1
270
     1
271
     1
  0
XRECORD
  5
1001C
102
{ACAD_REACTORS
330
1001A
102
}
330
1001A
100
AcDbXrecord
280
     1
270
     1
271
     1
  0
XRECORD
  5
1001B
102
{ACAD_REACTORS
330
1001A
102
}
330
1001A
100
AcDbXrecord
280
     1
270
     1
271
     1
  0
XRECORD
  5
1001F
102
{ACAD_REACTORS
330
1001A
102
}
330
1001A
100
AcDbXrecord
280
     1
270
     1
271
     1
  0
XRECORD
  5
1001E
102
{ACAD_REACTORS
330
1001A
102
}
330
1001A
100
AcDbXrecord
280
     1
270
     1
271
     1
  0
XRECORD
  5
10020
102
{ACAD_REACTORS
330
1001A
102
}
330
1001A
100
AcDbXrecord
280
     1
270
     1
271
     1
  0
XRECORD
  5
1001D
102
{ACAD_REACTORS
330
1001A
102
}
330
1001A
100
AcDbXrecord
280
     1
270
     1
271
     1
  0
CELLSTYLEMAP
  5
10771
102
{ACAD_REACTORS
330
102F4
102
}
330
102F4
100
AcDbCellStyleMap
 90
        3
300
CELLSTYLE
  1
TABLEFORMAT_BEGIN
 90
        5
170
     1
 91
        0
 92
    32768
 62
   257
 93
        1
300
CONTENTFORMAT
  1
CONTENTFORMAT_BEGIN
 90
        0
 91
        0
 92
      512
 93
        0
300

 40
0.0
140
1.0
 94
        5
 62
     0
340
11
144
0.25
309
CONTENTFORMAT_END
171
     1
301
MARGIN
  1
CELLMARGIN_BEGIN
 40
0.06
 40
0.06
 40
0.06
 40
0.06
 40
0.18
 40
0.18
309
CELLMARGIN_END
 94
        6
 95
        1
302
GRIDFORMAT
  1
GRIDFORMAT_BEGIN
 90
        0
 91
        1
 62
     0
 92
       -2
340
0
 93
        0
 40
0.045
309
GRIDFORMAT_END
 95
        2
302
GRIDFORMAT
  1
GRIDFORMAT_BEGIN
 90
        0
 91
        1
 62
     0
 92
       -2
340
0
 93
        0
 40
0.045
309
GRIDFORMAT_END
 95
        4
302
GRIDFORMAT
  1
GRIDFORMAT_BEGIN
 90
        0
 91
        1
 62
     0
 92
       -2
340
0
 93
        0
 40
0.045
309
GRIDFORMAT_END
 95
        8
302
GRIDFORMAT
  1
GRIDFORMAT_BEGIN
 90
        0
 91
        1
 62
     0
 92
       -2
340
0
 93
        0
 40
0.045
309
GRIDFORMAT_END
 95
       16
302
GRIDFORMAT
  1
GRIDFORMAT_BEGIN
 90
        0
 91
        1
 62
     0
 92
       -2
340
0
 93
        0
 40
0.045
309
GRIDFORMAT_END
 95
       32
302
GRIDFORMAT
  1
GRIDFORMAT_BEGIN
 90
        0
 91
        1
 62
     0
 92
       -2
340
0
 93
        0
 40
0.045
309
GRIDFORMAT_END
309
TABLEFORMAT_END
  1
CELLSTYLE_BEGIN
 90
        1
 91
        1
300
_TITLE
309
CELLSTYLE_END
300
CELLSTYLE
  1
TABLEFORMAT_BEGIN
 90
        5
170
     1
 91
        0
 92
        0
 62
   257
 93
        1
300
CONTENTFORMAT
  1
CONTENTFORMAT_BEGIN
 90
        0
 91
        0
 92
      512
 93
        0
300

 40
0.0
140
1.0
 94
        5
 62
     0
340
11
144
0.18
309
CONTENTFORMAT_END
171
     1
301
MARGIN
  1
CELLMARGIN_BEGIN
 40
0.06
 40
0.06
 40
0.06
 40
0.06
 40
0.18
 40
0.18
309
CELLMARGIN_END
 94
        6
 95
        1
302
GRIDFORMAT
  1
GRIDFORMAT_BEGIN
 90
        0
 91
        1
 62
     0
 92
       -2
340
0
 93
        0
 40
0.045
309
GRIDFORMAT_END
 95
        2
302
GRIDFORMAT
  1
GRIDFORMAT_BEGIN
 90
        0
 91
        1
 62
     0
 92
       -2
340
0
 93
        0
 40
0.045
309
GRIDFORMAT_END
 95
        4
302
GRIDFORMAT
  1
GRIDFORMAT_BEGIN
 90
        0
 91
        1
 62
     0
 92
       -2
340
0
 93
        0
 40
0.045
309
GRIDFORMAT_END
 95
        8
302
GRIDFORMAT
  1
GRIDFORMAT_BEGIN
 90
        0
 91
        1
 62
     0
 92
       -2
340
0
 93
        0
 40
0.045
309
GRIDFORMAT_END
 95
       16
302
GRIDFORMAT
  1
GRIDFORMAT_BEGIN
 90
        0
 91
        1
 62
     0
 92
       -2
340
0
 93
        0
 40
0.045
309
GRIDFORMAT_END
 95
       32
302
GRIDFORMAT
  1
GRIDFORMAT_BEGIN
 90
        0
 91
        1
 62
     0
 92
       -2
340
0
 93
        0
 40
0.045
309
GRIDFORMAT_END
309
TABLEFORMAT_END
  1
CELLSTYLE_BEGIN
 90
        2
 91
        1
300
_HEADER
309
CELLSTYLE_END
300
CELLSTYLE
  1
TABLEFORMAT_BEGIN
 90
        5
170
     1
 91
        0
 92
        0
 62
   257
 93
        1
300
CONTENTFORMAT
  1
CONTENTFORMAT_BEGIN
 90
        0
 91
        0
 92
      512
 93
        0
300

 40
0.0
140
1.0
 94
        2
 62
     0
340
11
144
0.18
309
CONTENTFORMAT_END
171
     1
301
MARGIN
  1
CELLMARGIN_BEGIN
 40
0.06
 40
0.06
 40
0.06
 40
0.06
 40
0.18
 40
0.18
309
CELLMARGIN_END
 94
        6
 95
        1
302
GRIDFORMAT
  1
GRIDFORMAT_BEGIN
 90
        0
 91
        1
 62
     0
 92
       -2
340
0
 93
        0
 40
0.045
309
GRIDFORMAT_END
 95
        2
302
GRIDFORMAT
  1
GRIDFORMAT_BEGIN
 90
        0
 91
        1
 62
     0
 92
       -2
340
0
 93
        0
 40
0.045
309
GRIDFORMAT_END
 95
        4
302
GRIDFORMAT
  1
GRIDFORMAT_BEGIN
 90
        0
 91
        1
 62
     0
 92
       -2
340
0
 93
        0
 40
0.045
309
GRIDFORMAT_END
 95
        8
302
GRIDFORMAT
  1
GRIDFORMAT_BEGIN
 90
        0
 91
        1
 62
     0
 92
       -2
340
0
 93
        0
 40
0.045
309
GRIDFORMAT_END
 95
       16
302
GRIDFORMAT
  1
GRIDFORMAT_BEGIN
 90
        0
 91
        1
 62
     0
 92
       -2
340
0
 93
        0
 40
0.045
309
GRIDFORMAT_END
 95
       32
302
GRIDFORMAT
  1
GRIDFORMAT_BEGIN
 90
        0
 91
        1
 62
     0
 92
       -2
340
0
 93
        0
 40
0.045
309
GRIDFORMAT_END
309
TABLEFORMAT_END
  1
CELLSTYLE_BEGIN
 90
        3
 91
        2
300
_DATA
309
CELLSTYLE_END
  0
ENDSEC
  0
SECTION
  2
ACDSDATA
 70
     2
 71
     8
  0
ACDSSCHEMA
 90
        0
  1
AcDb_Thumbnail_Schema
  2
AcDbDs::ID
280
    10
 91
        8
  2
Thumbnail_Data
280
    15
 91
        0
101
ACDSRECORD
 95
        0
 90
        1
  2
AcDbDs::TreatedAsObjectData
280
     1
291
     1
101
ACDSRECORD
 95
        0
 90
        2
  2
AcDbDs::Legacy
280
     1
291
     1
101
ACDSRECORD
  1
AcDbDs::ID
 90
        3
  2
AcDs:Indexable
280
     1
291
     1
101
ACDSRECORD
  1
AcDbDs::ID
 90
        4
  2
AcDbDs::HandleAttribute
280
     7
282
     1
  0
ACDSSCHEMA
 90
        1
  1
AcDbDs::TreatedAsObjectDataSchema
  2
AcDbDs::TreatedAsObjectData
280
     1
 91
        0
  0
ACDSSCHEMA
 90
        2
  1
AcDbDs::LegacySchema
  2
AcDbDs::Legacy
280
     1
 91
        0
  0
ACDSSCHEMA
 90
        3
  1
AcDbDs::IndexedPropertySchema
  2
AcDs:Indexable
280
     1
 91
        0
  0
ACDSSCHEMA
 90
        4
  1
AcDbDs::HandleAttributeSchema
  2
AcDbDs::HandleAttribute
280
     7
 91
        1
284
     1
  0
ACDSRECORD
 90
        0
  2
AcDbDs::ID
280
    10
320
10059
  2
Thumbnail_Data
280
    15
 94
     3322
310
89504E470D0A1A0A0000000D4948445200000117000001000803000000AEDEC2C500000300504C5445212830FFFFFF2128300000000000000000000000000000000000000000000000000000330000660000990000CC0000FF0033000033330033660033990033CC0033FF0066000066330066660066990066CC0066FF0099
310
000099330099660099990099CC0099FF00CC0000CC3300CC6600CC9900CCCC00CCFF00FF0000FF3300FF6600FF9900FFCC00FFFF3300003300333300663300993300CC3300FF3333003333333333663333993333CC3333FF3366003366333366663366993366CC3366FF3399003399333399663399993399CC3399FF33CC00
310
33CC3333CC6633CC9933CCCC33CCFF33FF0033FF3333FF6633FF9933FFCC33FFFF6600006600336600666600996600CC6600FF6633006633336633666633996633CC6633FF6666006666336666666666996666CC6666FF6699006699336699666699996699CC6699FF66CC0066CC3366CC6666CC9966CCCC66CCFF66FF0066
310
FF3366FF6666FF9966FFCC66FFFF9900009900339900669900999900CC9900FF9933009933339933669933999933CC9933FF9966009966339966669966999966CC9966FF9999009999339999669999999999CC9999FF99CC0099CC3399CC6699CC9999CCCC99CCFF99FF0099FF3399FF6699FF9999FFCC99FFFFCC0000CC00
310
33CC0066CC0099CC00CCCC00FFCC3300CC3333CC3366CC3399CC33CCCC33FFCC6600CC6633CC6666CC6699CC66CCCC66FFCC9900CC9933CC9966CC9999CC99CCCC99FFCCCC00CCCC33CCCC66CCCC99CCCCCCCCCCFFCCFF00CCFF33CCFF66CCFF99CCFFCCCCFFFFFF0000FF0033FF0066FF0099FF00CCFF00FFFF3300FF3333
310
FF3366FF3399FF33CCFF33FFFF6600FF6633FF6666FF6699FF66CCFF66FFFF9900FF9933FF9966FF9999FF99CCFF99FFFFCC00FFCC33FFCC66FFCC99FFCCCCFFCCFFFFFF00FFFF33FFFF66FFFF99FFFFCCFFFFFF0000000D0D0D1A1A1A2828283535354343435050505D5D5D6B6B6B787878868686939393A1A1A1AEAEAEBB
310
BBBBC9C9C9D6D6D6E4E4E4F1F1F1FFFFFF0000000000000000000000000000000000000000000000000000000000002E4550F1000001634944415478DAEDDB516EC2200080616EC0FD2FD313F9DAF7C568A375E0EA6C81C2F72566595F3AFF01A5B186000000000000000000000000000000C0C3A598F579E35508F3A2B92E
310
954E146F2F5D525DE6B9E92ED3E1125D4E308FA6C3CF32E506666F5DAEFFEBAD47935D9661D4ECF5A85697FBABD52566E912B3EFE9D77B8FBB7599571AEDF2D150D9DCE576E8BCE3E5A87994ED725F5F46EDF2C7F5C8BA7B49DC7FACC74B536B4DB52EF926FD75099F75E970BC7CBDDFED741EED751F60DDD545175D74D145
310
973A5D9E7ED325BDFB1DBC4B187E1ED9EFEA621E155877A32EA9A32F1F2FE8621EBD3B1A17BAACBBBCFCD4C578B1BEE85276BFDBE1E747BAFCFB3E60FEC6D0EB8B2EBAB84E6F3B9A7B2EE82C5D4A3F47769E2E659F3BB4DFD545977DF6BBCD77A9F0BD893374E9EB44BA1CFAE756FA1E1F0000000000000000000000000000
310
00000000000000000000000000000000000000000000000000C0B87E009FDF6C9A6220B5240000000049454E44AE426082B4E9C0B2B9FFB6F222C3DF73B2DE5D823048A8FFFBE5133FBFFFF0B20E7E3684E3C519FEFCC1F032F6BD388025441D315D79591EFDFF05BFC3FBE665F93CB4210C2FCBA3E5A3D07C59C6E75702C4
310
0CD8FCDF4FF34C4B9710D62FB87D8DCDD0FA97B1EF0B025287B94C248493DCD3BAE38FD447C3CE3B2975C459F9DD38806DD520D143AC7E772306D657C34CA6C04B957B2B96F1ADFCCCFED42E94C8CBB6968C21BC030FBC48917B4E8CC75C4871A39A1DA98DD3EB5A82E1A56978C8C968F79C404C70CD79999F9ABC0E3ACF59
310
A34FE0455071BEB86C25241ECA0D877C3764717B86B5FC4B9691A5BCB4EB003DDB760CCBC42368CCBCE8413679B18602BFA4D4DABA082F6918D2CF5ABCF8442F312C95BF84852438E625AF3271655E9C46310CB683977CDE15E4C57A112006EF2D10DB386DBCED9161315E103C03B6A44DD74F109FD70169EF057086285C1F
310
C5B64B16B1557D64DB2E8D5FB71794E2C5558D4023C3D34AF1C9B282868386A3BD589CCED2B2C04B16A79D61B8B71865F317ACFEA0593DE7FDDDB6A1EC1996E1459784D8E303761DB9C6C2BE61D1BE94590E48424CB88962BACFB02E2F36EC008DDB16429C760D851DC36A713AD48776F2679DB749ED2478C77C60588C9735
310
0B33BD6CECF85D67648AAAC3FDC62AEB48B75D0487A145F577D12A36AFC00BB21C752169DB2E59FD85EE7B370D21086D8C9ABC248EF48097C450F7BF8BF3E2F33995DD23F516D35A4184A8AC0D05A5D791C9F893C67773BF519070A23D4D70C425E3742B9DB7014BC7A34697C235A7D4E70BF292FB988D935037C6F914B219
310
C07156AA9E76932189C0FE84CBB49E9C41D2D282992BAEB0AA534FE78918624B05761DB50C2576B44AF65F5AC34B5A4DA65FD7F82151C0AE61B9FEAE6B28A5BCA4FDDDB4B717E661BDFA485A5BAFC85CABDE9F4E5CC8D6C26B18168A47B685A22601D29003758ECCF45E8C57C90C51CCBF200FBA4967D39FAFD39EC86C4B37
310
0D2BE52FCE45266EC664F7AEFFA26AA9D615BC90AA7E37FAD6FDE14D795E8CEBF1A25DA41C540653CEE871495177DFBE0B0FD34D8CCACBE9AB6E1EF7239747E4E5A3DECBF942FFF21E5E9EA7CB2A54372236DE9ABBCE5197D5D61F55E5C5EBB232FD91F4E8B224D11F49439755A25F97E9B2D49955B94B9725C6B2A5CB2A54
310
1FC562E05097055B64AEFFF8589755C3BF9CD565097559392F7AF979C35D5D56A17824AE67D0D06525E754C57761525D164AF222BDBAACA03F72C79AA54B7F54AECFA0CEF4A05397E54F055D8D17EF78BB7559C1F11EEBB26AF2F2285DD635F547277459FE04F42E2F835E43F04A5D9661E06B3C4963473D8D3E79D5037459
310
9579415219EFEAB264CF101579C97459C941B2188F4266A732A0685833DF8D4909B2FA29C9775343898685CF63DEA7CB6A2578592653F4DCE1095D56BA0683CFA9A9CBF2F97BBF2E2B35BC882EABE1263B7459B150CC7A31CEB09ADFBD5B977597E1F57559417FD4ABCBAA798ECCF9DF3E5D56687F5E5997057B30AC5F97D5
310
6758569725D4651DEBB2908FF05897D534AC9BEF9A53887DBA2C6DA802FFB5745966E3C79F26DCD365A906CEA6CBB29675F7D52C2BDDBAAC650B56CBD42FA3CB024EEAB2342792E8B2405D9625D2FBAB4BEAB2FC7E409AA748A2CB2ABA1FD0ABCB925C9725D46545FD51AF2EABE879EF5E5D96C43E6607A145EF5152196B23
310
16998825277559E5FADEF1EA4778A7E3C6677459081DCD547F54EE9E36EAB2F27864AEFC3CA3CB82B87A93BA2CE7942FA9CB9284983E5D96393774355EA8CB6AF07207A8CBA22EEBF2EF252FE4E529DFDF1B7F4E21411004411004411004411004411004411004411004411004411004411004411004411004411004411004
310
411004411004411004415C14FF001F350EC0FB20686E0000000049454E44AE426082AD9FAEB1DF78642E192D413FAD989707F4D335FA52695A9BEAA7BD7FF9897EBA8EFE086CF1FC483F3DA7342EA79FD699518DF4D36E3FB1B67E5AA1573C26D0A97E1A1757A614ADA99F867EF501FD74D8370327A22FA89F1624DB0CF128
310
6E489EEBA72BF8DDEE79CC92FD561E53050AEAD72542E3EBE8841FD44F0B721F57E2454F872893FAE9914EB8B27EFAF4D5535E662D50C7578817EA3E212FFC20E485BC90977FF2719681100441100441100441100441100441100441100441100441100441100441100441100441100441BC0DBF01BA7E130AB298FF1E0000
310
000049454E44AE426082F398FE4BBF60D6F45FC0EBBFD6DE4928773E1DE9BF58A27342EF9360AAFFC2F2827275862E96ED96535296F5EA2499FE0BD24BF67D09B0585CC7D44990EA9C2C9C37AEE99C543D6F74CAA9C3F609A652021AD7F1E264C38B3305DF516F65FA19B8CE49A207C5FBEBA21E1A20D37FA916EFEEF5BA20
310
66F986FECBD4D27BE99CC052176C07744E60781F5EFAD12CE87964FA2FEDB176453D8F30DE35D2C2728ACE89338517E6A55B4167E89C4C4C15E6E5A7754E5E8597E33A27495DAABF553FD53929CCCB2DAE5BE725BC1F90E99CBC8AFECB019D13D7533AD37FB18861975356BE1F000BD5498EEABF3437CB9929BC80FE4B9B37
310
067584E3FA2F06CB754EA6A6AAC57589CE0998746CA6FFE248694D91C55AF9BCF1B0CEC992FECB9ACEC9F9FA2F87EF7D2EF032E89C84A399EBBFB0FE393E414FEE7F79FCFE3429AD3171928865DA47E6A64A6B2AFCC5508D97AEE390FD81A8BDD367ACD7D1FB2483CEC9608A1DCEB64329759FC482829C3FA01D2F64F5FA2F
310
36D73971AD594341B9A4FE8B7F88415997EBBFCCF45399A9F6B8B168DEE81D74E60E96F55FF27CA8B0AEDFCC1D2D59FCB6FE4BFD3AC34316CBDCB73F454BE43C75922A3A270FE3D3EA42BC8817F1F27BBCBC3D4C1004411004411004411004411004411004411004411004411004411004411004411004411004417810FF01
310
C525D0489F0514A90000000049454E44AE426082
  0
ACDSRECORD
 90
        0
  2
AcDbDs::ID
280
    10
320
1005A
  2
Thumbnail_Data
280
    15
 94
     3385
310
89504E470D0A1A0A0000000D4948445200000100000000C608030000000A6AAE4900000300504C5445FFFFFFFFFFFFFFFFFF0000000000000000000000000000000000000000000000000000330000660000990000CC0000FF0033000033330033660033990033CC0033FF0066000066330066660066990066CC0066FF0099
310
000099330099660099990099CC0099FF00CC0000CC3300CC6600CC9900CCCC00CCFF00FF0000FF3300FF6600FF9900FFCC00FFFF3300003300333300663300993300CC3300FF3333003333333333663333993333CC3333FF3366003366333366663366993366CC3366FF3399003399333399663399993399CC3399FF33CC00
310
33CC3333CC6633CC9933CCCC33CCFF33FF0033FF3333FF6633FF9933FFCC33FFFF6600006600336600666600996600CC6600FF6633006633336633666633996633CC6633FF6666006666336666666666996666CC6666FF6699006699336699666699996699CC6699FF66CC0066CC3366CC6666CC9966CCCC66CCFF66FF0066
310
FF3366FF6666FF9966FFCC66FFFF9900009900339900669900999900CC9900FF9933009933339933669933999933CC9933FF9966009966339966669966999966CC9966FF9999009999339999669999999999CC9999FF99CC0099CC3399CC6699CC9999CCCC99CCFF99FF0099FF3399FF6699FF9999FFCC99FFFFCC0000CC00
310
33CC0066CC0099CC00CCCC00FFCC3300CC3333CC3366CC3399CC33CCCC33FFCC6600CC6633CC6666CC6699CC66CCCC66FFCC9900CC9933CC9966CC9999CC99CCCC99FFCCCC00CCCC33CCCC66CCCC99CCCCCCCCCCFFCCFF00CCFF33CCFF66CCFF99CCFFCCCCFFFFFF0000FF0033FF0066FF0099FF00CCFF00FFFF3300FF3333
310
FF3366FF3399FF33CCFF33FFFF6600FF6633FF6666FF6699FF66CCFF66FFFF9900FF9933FF9966FF9999FF99CCFF99FFFFCC00FFCC33FFCC66FFCC99FFCCCCFFCCFFFFFF00FFFF33FFFF66FFFF99FFFFCCFFFFFF0000000D0D0D1A1A1A2828283535354343435050505D5D5D6B6B6B787878868686939393A1A1A1AEAEAEBB
310
BBBBC9C9C9D6D6D6E4E4E4F1F1F1FFFFFF000000000000000000000000000000000000000000000000000000000000AD4AB4E4000007C84944415478DAED5D5B72DB300CE40DF6FE97D161FA9D43B48DF52080054539B60887D074D269E3ED842B122F62D1F235F953BECACC4F12F04DC09F399F8A80295F7E122008F8DE11
310
7FA6FAAA08C8239004CCB6FED98F00256048282A1FFC7B0612302014D3047CFF2A225A998E001DAEDD670467DA012E01CB8D0F23E06103061E81E5BEB7BF8CD9746F22C033DE0DA3CE085837C6C404AC3FC1DB0D619B804BBEF8F1E11712C012F71B8DE01D0460FC0E6813F0E623B0467B2D1B30F808BCDB0620BD8047C096
310
1E342B79BF9A80F5AFA626E0B4961BD208BE2812BC6D078425E0636D40E602AFB101494012701B030343E124208FC0BC04D47F4C02F208FC2623F86991E0F404642E906EF07E02F44792800C85E72200DB33E9113888989580D97740BAC10C8593804E026EB9198A9C0B7C26017D36E0353A8FDF6E0493808FBC1DCE5CE035
310
3D424102A13777894D4F4086C2494086C2810918AB17187F046E7E928024201401E37583638DE0544F6A87C9114802928024208D6012904720094802A62560F464BB72E30C912813247462387E824400026E992112A51E306C07F855E11F94F85E501EFCE41922CB8FB077EFBF2E02A8F21D7D045CC5AE04DC3643A4E35E60
310
DD8DCA31AD7F774240035BD02420C4040994CA1EA9FE3E41C0F13B36023AB090DBE181AD08B8658648F30860BBEF344D8EDB8FBDAFEEB1809A80AB584BC02D3BE0E476B8DEA775B36FFDCEF5AB5CB69B65078B2656D980D13344EA55A0581300881D2C6D80D721BF9F00860DE705C0BB9C1FFB5DBC64434021ECEC58C9AD21
310
E0B6F901E75E603F06A80D7BFDFE5C021C2BA956CF090834410210BD1F0FC36E1CE06365D071002A8BF758FA09F62020509FE0BA09606DE07130D67D6D0321C99E872D1BF6EE1DD0170A9BC8C52C627DB520A1305C83C8B077DB802BB900C45E568B403B17A8E2A63636642E605FE59304148423A01D0AD74F15DD4A09948E
310
98168A05394A0C1B8A009AC451EF27D5F02C8F336B75B0918F8039FF6447C02500E75884254038F3DA1DAA08F97BBB2F1CAB7EF3B01109808C660E63609D230B844062C22D4DB6D87804900ABDC8748D835FFAB0E0D8704690D572843507D407971F6183110095CD002635D6859D9D009D47EA83C4B1A18E008EDA953F04C6
310
98B34563CB156C200250DB2B7D96715216476D28AF60231AC10265F79897B7474013D0870DE806451E63EC3A13832F6C8F7762A386C2B2B86B56507F6879128B8004989C073ABA21B1BDA90A5FC2C63A02C7EEDFD259D03AAF35824F63431AC1631105DC9F11029EC4C6264046765B69D83782DDD8D0F702D66B95A33C5C2F
310
625DCAE263CB39369A17D0964ADE8AD1452E1C5BACCD67D870B9805EBCCE06FCAB31796D64DD25A90EC63B0210657F7651D84180B2110432301BECD30EFB775947614313E062551540A44BE1B2C1FAD6C6299199D3BCECD8E3C2C3A90E1AFF109100EDC17571D0A9071C7D0FDC1154170565A41B6C1941570F2F0D21980DB0
310
C58FC20CA00E8B232643FA3AC71871F83541D20EC52B4CE3662974A7C3D4766B6746AAC24E1A200A267B6C183419DADB3A8E9F19F5E9868C12851780C48A8E28936F22A01184795B559D9094B82A02C46DB2BE59B50444BC19DAAF2F606A5734D2555E809601CEB0D10A22FAE60FDE228E1DA10A223D5894C05E409A2A7738
310
6CBD88C52B88B93BA0040D859DC8D7D9C6851250AE61435F8FF73DBFA55D7EAC60623C01E39E284670921DF086414ABF5032333B01E0A3F0BA08B88C8D160A17217BD18B00AB942CBD5852660A5811AA63BCB666682B1F2DBD58F50F8D21A0271780EE669362817A25D0B900C1C2C322728F900E644D7B53B1B900EF103FC1
310
06BE1AA39AA1662EE0DC075B2961E85CC068862E49664C25AC533213AB26085503A5B297FD0644B9415140C62936A676B8A1FB3997CC982228C36AC94CB050185015EDB6EEC797CC9C6343EB05582C071317F98A9116B6443E02E255B61651DA045CD40CDDA19D3E6D95ED94CC58027CC94C1B1B9A0026FBF724330A5B9A72
310
9B7D91FF25F35FEFD68A3E9F0ED30BCF5ECDD0B96466C80EB85410A1DD31E6A5B60838C7862440DD71C093CC14B8D25973A56EFAE8E37A01AB7B7108807583A0593FD10CC5BD1ED7B58CFAEC1AD59B4986AE63C37589F1AC85C95E6C97986932ECC04693CC403A6F9700D81E21E339BBB08142E16A38CCB96446BB41D4BAE0
310
2BD8504D5226FDF587FCE91D508F063891CC94F892993A9405EB806E4866AA28103DD8A8C910E8FC0CB5002F1BA49219071BB355D6744D7749665841B08145892F99A97EF80EC90C9EC1866E9404EB12F70878121B900057F6B2F7523F2199A9B6474A66864A66CE08809DF2500F83ABBF6F08301343E42039F1FDA804A8F5
310
B52433C606D8F5F99299B071802F99B9A0193237A2A61A1AB8539484ABC4C9B7243336809677A2E2AA20DA20A5426316590B81D6C52C6DAC2E10A30497CCC069E628A57027273543C5C3D63156D05CE09264466783AE64467C1EC33543E73D420D670EEA0F548F50F137801D23137D820435E2DA0F58C94C436F345C33D435
310
52530580FBE936151DAE19D2B31450B8640621C7E999D265B764464E4CFA68C98C696A9204D04008761069FDC90F6991B1E5FB2ED90B97CCF8D8F08A111ED49D68864CCDB74F6EF3C992194E40B9868DDC23E484038D8A90130BB4B0A91748CD506A8692802460B8111CFF9FAD8D2560A6471F81EF6EACD9BEEE04CCF91C04
310
4CFC2401494012F035F9333D017F015A0B66AA9B90826A0000000049454E44AE426082AFDA22008CF4757B0C80A1AEE101604E700230F211F819C71CED770360CC6B0560E06B02300198007C0F7E0D0FC03F4878607A8B00A1620000000049454E44AE42608224A8DF3AA18419C7EB7307E0D596237287E172873DEA6C1B00
310
597721C01F58D0ED706B2B2410D08A1077F6F430922E1322F76EE3F7AD2B7D7FFDB392DB771E5FE5E7BF8FF73C1AD88F1F62FDD4F33D8FD7B7772EB7DEF6FD53CFF74B2A739576FF7AFB5622797B8DDB8DFCBCFEDE24BFE3EB06C098D70EC0C0D70460023001F81AFBFA8EF8B7864FBDFE03112A51B8F30012B10000000049
310
454E44AE4260828D0F01038F49C0246012F033F8189E80FF0045C579384CEDC5C60000000049454E44AE4260821DDEA12566014F7ED3142D063C6A89D9FB155C292D89B4C44CE099F2FAE7B4C4F2525A6D5A62338AA4CC316DD212CBBF73B44D4BACF1959BE72A45D918C9EE2884D7A803292DA15A6219DCD1E702D53C6FD4
310
1283CA2053292DA62556867E565214C3ABC5ABD767DB2F946487FCC74DAC7AF778FD5A6ED4C7DEBE96988E4147BAC2DE3EDCA02566274559FDFFF55A62D79E0E07F941A819E0A4C48C45E3FD72F2ADB104114177D204E480A7BE64256AA8343D176989DD9111BAE6595A623F4846E7F1424ABFED793C014B4D6EA9C92D1BB0
310
085804AC5D60ED026B1758366011B00858BBC0DA05D62EB06CC0226011B08CE022E0D94BE0EBEB815FDF043CF3D90978F0B30858042C02FE3CFC793C01FF0126015EC5AA43522F0000000049454E44AE426082
  0
ENDSEC
  0
EOF
