  0
SECTION
  2
HEADER
  9
$ACADVER
  1
AC1014
  9
$ACADMAINTVER
 70
     9
  9
$DWGCODEPAGE
  3
ANSI_1252
  9
$INSBASE
 10
0.0
 20
0.0
 30
0.0
  9
$EXTMIN
 10
-237.4277581010482
 20
591.4782772171695
 30
24.21437901591493
  9
$EXTMAX
 10
4.494453053568298
 20
624.5573459188923
 30
24.21537629134515
  9
$LIMMIN
 10
0.0
 20
0.0
  9
$LIMMAX
 10
12.0
 20
9.0
  9
$ORTHOMODE
 70
     0
  9
$REGENMODE
 70
     1
  9
$FILLMODE
 70
     1
  9
$QTEXTMODE
 70
     0
  9
$MIRRTEXT
 70
     1
  9
$DRAGMODE
 70
     2
  9
$LTSCALE
 40
1.0
  9
$OSMODE
 70
    37
  9
$ATTMODE
 70
     1
  9
$TEXTSIZE
 40
0.2
  9
$TRACEWID
 40
0.05
  9
$TEXTSTYLE
  7
STANDARD
  9
$CLAYER
  8
GNAP
  9
$CELTYPE
  6
BYLAYER
  9
$CECOLOR
 62
   256
  9
$CELTSCALE
 40
1.0
  9
$DELOBJ
 70
     1
  9
$DISPSILH
 70
     0
  9
$DIMSCALE
 40
1.0
  9
$DIMASZ
 40
0.18
  9
$DIMEXO
 40
0.0625
  9
$DIMDLI
 40
0.38
  9
$DIMRND
 40
0.0
  9
$DIMDLE
 40
0.0
  9
$DIMEXE
 40
0.18
  9
$DIMTP
 40
0.0
  9
$DIMTM
 40
0.0
  9
$DIMTXT
 40
0.18
  9
$DIMCEN
 40
0.09
  9
$DIMTSZ
 40
0.0
  9
$DIMTOL
 70
     0
  9
$DIMLIM
 70
     0
  9
$DIMTIH
 70
     1
  9
$DIMTOH
 70
     1
  9
$DIMSE1
 70
     0
  9
$DIMSE2
 70
     0
  9
$DIMTAD
 70
     0
  9
$DIMZIN
 70
     0
  9
$DIMBLK
  1

  9
$DIMASO
 70
     1
  9
$DIMSHO
 70
     1
  9
$DIMPOST
  1

  9
$DIMAPOST
  1

  9
$DIMALT
 70
     0
  9
$DIMALTD
 70
     2
  9
$DIMALTF
 40
25.4
  9
$DIMLFAC
 40
1.0
  9
$DIMTOFL
 70
     0
  9
$DIMTVP
 40
0.0
  9
$DIMTIX
 70
     0
  9
$DIMSOXD
 70
     0
  9
$DIMSAH
 70
     0
  9
$DIMBLK1
  1

  9
$DIMBLK2
  1

  9
$DIMSTYLE
  2
STANDARD_ACAD
  9
$DIMCLRD
 70
     0
  9
$DIMCLRE
 70
     0
  9
$DIMCLRT
 70
     0
  9
$DIMTFAC
 40
1.0
  9
$DIMGAP
 40
0.09
  9
$DIMJUST
 70
     0
  9
$DIMSD1
 70
     0
  9
$DIMSD2
 70
     0
  9
$DIMTOLJ
 70
     1
  9
$DIMTZIN
 70
     0
  9
$DIMALTZ
 70
     0
  9
$DIMALTTZ
 70
     0
  9
$DIMFIT
 70
     5
  9
$DIMUPT
 70
     0
  9
$DIMUNIT
 70
     2
  9
$DIMDEC
 70
     4
  9
$DIMTDEC
 70
     4
  9
$DIMALTU
 70
     2
  9
$DIMALTTD
 70
     2
  9
$DIMTXSTY
  7
STANDARD
  9
$DIMAUNIT
 70
     0
  9
$LUNITS
 70
     2
  9
$LUPREC
 70
     3
  9
$SKETCHINC
 40
0.1
  9
$FILLETRAD
 40
0.0
  9
$AUNITS
 70
     0
  9
$AUPREC
 70
     0
  9
$MENU
  1
.
  9
$ELEVATION
 40
0.0
  9
$PELEVATION
 40
0.0
  9
$THICKNESS
 40
0.0
  9
$LIMCHECK
 70
     0
  9
$CHAMFERA
 40
0.0
  9
$CHAMFERB
 40
0.0
  9
$CHAMFERC
 40
0.0
  9
$CHAMFERD
 40
0.0
  9
$SKPOLY
 70
     0
  9
$TDCREATE
 40
2459823.94323162
  9
$TDUPDATE
 40
2459823.94325081
  9
$TDINDWG
 40
0.0000000116
  9
$TDUSRTIMER
 40
0.0000000116
  9
$USRTIMER
 70
     1
  9
$ANGBASE
 50
0.0
  9
$ANGDIR
 70
     0
  9
$PDMODE
 70
     0
  9
$PDSIZE
 40
0.0
  9
$PLINEWID
 40
0.0
  9
$COORDS
 70
     1
  9
$SPLFRAME
 70
     0
  9
$SPLINETYPE
 70
     6
  9
$SPLINESEGS
 70
     8
  9
$ATTDIA
 70
     0
  9
$ATTREQ
 70
     1
  9
$HANDLING
 70
     1
  9
$HANDSEED
  5
1B2
  9
$SURFTAB1
 70
     6
  9
$SURFTAB2
 70
     6
  9
$SURFTYPE
 70
     6
  9
$SURFU
 70
     6
  9
$SURFV
 70
     6
  9
$UCSNAME
  2

  9
$UCSORG
 10
0.0
 20
0.0
 30
0.0
  9
$UCSXDIR
 10
1.0
 20
0.0
 30
0.0
  9
$UCSYDIR
 10
0.0
 20
1.0
 30
0.0
  9
$PUCSNAME
  2

  9
$PUCSORG
 10
0.0
 20
0.0
 30
0.0
  9
$PUCSXDIR
 10
1.0
 20
0.0
 30
0.0
  9
$PUCSYDIR
 10
0.0
 20
1.0
 30
0.0
  9
$USERI1
 70
     0
  9
$USERI2
 70
     0
  9
$USERI3
 70
     0
  9
$USERI4
 70
     0
  9
$USERI5
 70
     0
  9
$USERR1
 40
0.0
  9
$USERR2
 40
0.0
  9
$USERR3
 40
0.0
  9
$USERR4
 40
0.0
  9
$USERR5
 40
0.0
  9
$WORLDVIEW
 70
     1
  9
$SHADEDGE
 70
     3
  9
$SHADEDIF
 70
    70
  9
$TILEMODE
 70
     1
  9
$MAXACTVP
 70
    64
  9
$PINSBASE
 10
0.0
 20
0.0
 30
0.0
  9
$PLIMCHECK
 70
     0
  9
$PEXTMIN
 10
1.000000000000000E+20
 20
1.000000000000000E+20
 30
1.000000000000000E+20
  9
$PEXTMAX
 10
-1.000000000000000E+20
 20
-1.000000000000000E+20
 30
-1.000000000000000E+20
  9
$PLIMMIN
 10
0.0
 20
0.0
  9
$PLIMMAX
 10
12.0
 20
9.0
  9
$UNITMODE
 70
     0
  9
$VISRETAIN
 70
     1
  9
$PLINEGEN
 70
     0
  9
$PSLTSCALE
 70
     1
  9
$TREEDEPTH
 70
  3020
  9
$PICKSTYLE
 70
     1
  9
$CMLSTYLE
  2
STANDARD
  9
$CMLJUST
 70
     0
  9
$CMLSCALE
 40
1.0
  9
$PROXYGRAPHICS
 70
     1
  9
$MEASUREMENT
 70
     1
  0
ENDSEC
  0
SECTION
  2
CLASSES
  0
CLASS
  1
ACDBDICTIONARYWDFLT
  2
AcDbDictionaryWithDefault
  3
ObjectDBX Classes
 90
        0
280
     0
281
     0
  0
CLASS
  1
VISUALSTYLE
  2
AcDbVisualStyle
  3
ObjectDBX Classes
 90
     4095
280
     0
281
     0
  0
CLASS
  1
MATERIAL
  2
AcDbMaterial
  3
ObjectDBX Classes
 90
     1153
280
     0
281
     0
  0
CLASS
  1
SCALE
  2
AcDbScale
  3
ObjectDBX Classes
 90
     1153
280
     0
281
     0
  0
CLASS
  1
TABLESTYLE
  2
AcDbTableStyle
  3
ObjectDBX Classes
 90
     4095
280
     0
281
     0
  0
CLASS
  1
MLEADERSTYLE
  2
AcDbMLeaderStyle
  3
ACDB_MLEADERSTYLE_CLASS
 90
     4095
280
     0
281
     0
  0
CLASS
  1
SUN
  2
AcDbSun
  3
SCENEOE
 90
     1153
280
     0
281
     0
  0
CLASS
  1
DICTIONARYVAR
  2
AcDbDictionaryVar
  3
ObjectDBX Classes
 90
        0
280
     0
281
     0
  0
CLASS
  1
XRECORD
  2
AcDbXrecord
  3
ObjectDBX Classes
 90
        0
280
     0
281
     0
  0
CLASS
  1
LWPOLYLINE
  2
AcDbPolyline
  3
ObjectDBX Classes
 90
        0
280
     0
281
     1
  0
CLASS
  1
HATCH
  2
AcDbHatch
  3
ObjectDBX Classes
 90
        0
280
     0
281
     1
  0
CLASS
  1
ACDBPLACEHOLDER
  2
AcDbPlaceHolder
  3
ObjectDBX Classes
 90
        0
280
     0
281
     0
  0
CLASS
  1
LAYOUT
  2
AcDbLayout
  3
ObjectDBX Classes
 90
        0
280
     0
281
     0
  0
ENDSEC
  0
SECTION
  2
TABLES
  0
TABLE
  2
VPORT
  5
8
102
{ACAD_XDICTIONARY
360
1A7
102
}
330
0
100
AcDbSymbolTable
 70
     1
  0
VPORT
  5
29
330
8
100
AcDbSymbolTableRecord
100
AcDbViewportTableRecord
  2
*ACTIVE
 70
     0
 10
0.0
 20
0.0
 11
1.0
 21
1.0
 12
10.42990654205607
 22
4.5
 13
0.0
 23
0.0
 14
0.5
 24
0.5
 15
0.5
 25
0.5
 16
0.0
 26
0.0
 36
1.0
 17
0.0
 27
0.0
 37
0.0
 40
9.0
 41
1.972972972850329
 42
50.0
 43
0.0
 44
0.0
 50
0.0
 51
0.0
 71
     0
 72
   100
 73
     1
 74
     3
 75
     0
 76
     0
 77
     0
 78
     0
  0
ENDTAB
  0
TABLE
  2
LTYPE
  5
5
330
0
100
AcDbSymbolTable
 70
     1
  0
LTYPE
  5
14
330
5
100
AcDbSymbolTableRecord
100
AcDbLinetypeTableRecord
  2
BYBLOCK
 70
     0
  3

 72
    65
 73
     0
 40
0.0
  0
LTYPE
  5
15
330
5
100
AcDbSymbolTableRecord
100
AcDbLinetypeTableRecord
  2
BYLAYER
 70
     0
  3

 72
    65
 73
     0
 40
0.0
  0
LTYPE
  5
16
330
5
100
AcDbSymbolTableRecord
100
AcDbLinetypeTableRecord
  2
CONTINUOUS
 70
     0
  3
Solid line
 72
    65
 73
     0
 40
0.0
  0
ENDTAB
  0
TABLE
  2
LAYER
  5
2
330
0
100
AcDbSymbolTable
 70
     2
  0
LAYER
  5
10
330
2
100
AcDbSymbolTableRecord
100
AcDbLayerTableRecord
  2
0
 70
     0
 62
     7
  6
CONTINUOUS
  0
LAYER
  5
5F
330
2
100
AcDbSymbolTableRecord
100
AcDbLayerTableRecord
  2
GNAP
 70
     0
 62
    18
  6
CONTINUOUS
  0
ENDTAB
  0
TABLE
  2
STYLE
  5
3
330
0
100
AcDbSymbolTable
 70
     1
  0
STYLE
  5
11
330
3
100
AcDbSymbolTableRecord
100
AcDbTextStyleTableRecord
  2
STANDARD
 70
     0
 40
0.0
 41
1.0
 50
0.0
 71
     0
 42
0.2
  3
txt
  4

  0
ENDTAB
  0
TABLE
  2
VIEW
  5
6
330
0
100
AcDbSymbolTable
 70
     0
  0
ENDTAB
  0
TABLE
  2
UCS
  5
7
330
0
100
AcDbSymbolTable
 70
     0
  0
ENDTAB
  0
TABLE
  2
APPID
  5
9
330
0
100
AcDbSymbolTable
 70
     3
  0
APPID
  5
12
330
9
100
AcDbSymbolTableRecord
100
AcDbRegAppTableRecord
  2
ACAD
 70
     0
  0
APPID
  5
5E
330
9
100
AcDbSymbolTableRecord
100
AcDbRegAppTableRecord
  2
RHINO
 70
     0
  0
APPID
  5
1B1
330
9
100
AcDbSymbolTableRecord
100
AcDbRegAppTableRecord
  2
ACAD_MLEADERVER
 70
     0
  0
ENDTAB
  0
TABLE
  2
DIMSTYLE
  5
A
330
0
100
AcDbSymbolTable
 70
     1
  0
DIMSTYLE
105
27
330
A
100
AcDbSymbolTableRecord
100
AcDbDimStyleTableRecord
  2
STANDARD_ACAD
 70
     0
  3

  4

  5

  6

  7

 40
1.0
 41
0.18
 42
0.0625
 43
0.38
 44
0.18
 45
0.0
 46
0.0
 47
0.0
 48
0.0
140
0.18
141
0.09
142
0.0
143
25.4
144
1.0
145
0.0
146
1.0
147
0.09
 71
     0
 72
     0
 73
     1
 74
     1
 75
     0
 76
     0
 77
     0
 78
     0
170
     0
171
     2
172
     0
173
     0
174
     0
175
     0
176
     0
177
     0
178
     0
270
     2
271
     4
272
     4
273
     2
274
     2
340
11
275
     0
280
     0
281
     0
282
     0
283
     1
284
     0
285
     0
286
     0
287
     3
288
     0
  0
ENDTAB
  0
TABLE
  2
BLOCK_RECORD
  5
1
330
0
100
AcDbSymbolTable
 70
     0
  0
BLOCK_RECORD
  5
1F
330
1
100
AcDbSymbolTableRecord
100
AcDbBlockTableRecord
  2
*MODEL_SPACE
  0
BLOCK_RECORD
  5
1B
330
1
100
AcDbSymbolTableRecord
100
AcDbBlockTableRecord
  2
*PAPER_SPACE
  0
ENDTAB
  0
ENDSEC
  0
SECTION
  2
BLOCKS
  0
BLOCK
  5
20
330
1F
100
AcDbEntity
  8
0
100
AcDbBlockBegin
  2
*MODEL_SPACE
 70
     0
 10
0.0
 20
0.0
 30
0.0
  3
*MODEL_SPACE
  1

  0
ENDBLK
  5
21
330
1F
100
AcDbEntity
  8
0
100
AcDbBlockEnd
  0
BLOCK
  5
1C
330
1B
100
AcDbEntity
 67
     1
  8
0
100
AcDbBlockBegin
  2
*PAPER_SPACE
 70
     0
 10
0.0
 20
0.0
 30
0.0
  3
*PAPER_SPACE
  1

  0
ENDBLK
  5
1D
330
1B
100
AcDbEntity
 67
     1
  8
0
100
AcDbBlockEnd
  0
ENDSEC
  0
SECTION
  2
ENTITIES
  0
CIRCLE
  5
60
330
1F
100
AcDbEntity
  8
GNAP
100
AcDbCircle
 10
-153.9322599589102
 20
596.0573808603185
 30
24.21535776296286
 40
1.64999982502322
210
-4.122297885213274E-6
220
-1.166684355148421E-12
230
0.9999999999915035
  0
CIRCLE
  5
61
330
1F
100
AcDbEntity
  8
GNAP
100
AcDbCircle
 10
-153.9322539479327
 20
620.0573808603177
 30
24.2153577629607
 40
1.649999825023163
210
-4.122297885213280E-6
220
-1.168837514559883E-12
230
0.9999999999915035
  0
CIRCLE
  5
62
330
1F
100
AcDbEntity
  8
GNAP
100
AcDbCircle
 10
54.95393265710456
 20
596.0571060276881
 30
-24.21535776299469
 40
1.650000185482126
210
4.122297880364517E-6
220
1.113183782942957E-12
230
-0.9999999999915035
  0
CIRCLE
  5
63
330
1F
100
AcDbEntity
  8
GNAP
100
AcDbCircle
 10
78.95393396764219
 20
596.0572094928424
 30
-24.21535776301312
 40
1.650000185482162
210
4.122297846990526E-6
220
1.077656773664700E-12
230
-0.9999999999915035
  0
CIRCLE
  5
64
330
1F
100
AcDbEntity
  8
GNAP
100
AcDbCircle
 10
78.95383050249194
 20
620.0572094926201
 30
-24.21535776299501
 40
1.650000185482148
210
4.122297880364534E-6
220
1.113183854501442E-12
230
-0.9999999999915035
  0
ARC
  5
65
330
1F
100
AcDbEntity
  8
GNAP
100
AcDbCircle
 10
-146.2950257919596
 20
595.8357837989514
 30
24.21535776286649
 40
1.36540295126972
210
-4.122297836660249E-6
220
-1.316910023074018E-12
230
0.9999999999915035
100
AcDbArc
 50
195.0060654877373
 51
277.5600190029521
  0
LINE
  5
66
330
1F
100
AcDbEntity
  8
GNAP
100
AcDbLine
 10
-146.1154868005298
 20
594.4822494934209
 30
24.21475543229998
 11
-86.81937427245774
 21
594.4821545462997
 31
24.2149998685394
  0
ARC
  5
67
330
1F
100
AcDbEntity
  8
GNAP
100
AcDbCircle
 10
-86.63953392014123
 20
595.8355334491642
 30
24.21535776312262
 40
1.365262287192652
210
-4.122298058120545E-6
220
-9.235043643156580E-13
230
0.9999999999915035
100
AcDbArc
 50
262.4348913242569
 51
344.9988955336069
  0
LINE
  5
68
330
1F
100
AcDbEntity
  8
GNAP
100
AcDbLine
 10
-85.32089845121686
 20
595.4821521468908
 30
24.2150060457043
 11
-85.32090022487243
 21
596.4821521468996
 31
24.21500604569804
  0
ARC
  5
69
330
1F
100
AcDbEntity
  8
GNAP
100
AcDbCircle
 10
-86.63964095813654
 20
596.1286202408586
 30
24.21535776290431
 40
1.365402951269118
210
-4.122297960983259E-6
220
-1.275833025295082E-12
230
0.9999999999915035
100
AcDbArc
 50
15.00606548771402
 51
97.56001900298546
  0
LINE
  5
6A
330
1F
100
AcDbEntity
  8
GNAP
100
AcDbLine
 10
-86.81937959342471
 20
597.4821545463259
 30
24.21499986852087
 11
-146.1154921214966
 21
597.4822494934471
 31
24.21475543228145
  0
ARC
  5
6B
330
1F
100
AcDbEntity
  8
GNAP
100
AcDbCircle
 10
-146.2951328299538
 20
596.1288705906335
 30
24.21535776294887
 40
1.365262287192339
210
-4.122297815750147E-6
220
-1.173004424327449E-12
230
0.9999999999915035
100
AcDbArc
 50
82.43489132424607
 51
164.9988955336225
  0
LINE
  5
6C
330
1F
100
AcDbEntity
  8
GNAP
100
AcDbLine
 10
-147.6139679427375
 20
596.4822518928559
 30
24.21474925511667
 11
-147.6139661690818
 21
595.4822518928472
 31
24.21474925512303
  0
ARC
  5
6D
330
1F
100
AcDbEntity
  8
GNAP
100
AcDbCircle
 10
-146.2949740593821
 20
607.8357837988387
 30
24.21535776290742
 40
1.365402951269359
210
-4.122297960987150E-6
220
-1.275837976900651E-12
230
0.9999999999915035
100
AcDbArc
 50
195.0060654877312
 51
277.56001900297
  0
LINE
  5
6E
330
1F
100
AcDbEntity
  8
GNAP
100
AcDbLine
 10
-146.115435067955
 20
606.4822494933095
 30
24.2147554325269
 11
-86.819322539883
 21
606.4821545461882
 31
24.21499986876621
  0
ARC
  5
6F
330
1F
100
AcDbEntity
  8
GNAP
100
AcDbCircle
 10
-86.63948218757126
 20
607.8355334490599
 30
24.21535776293984
 40
1.36526228719307
210
-4.122297872057967E-6
220
-1.202315192423000E-12
230
0.9999999999915035
100
AcDbArc
 50
262.4348913242699
 51
344.9988955335967
  0
LINE
  5
70
330
1F
100
AcDbEntity
  8
GNAP
100
AcDbLine
 10
-85.3208467186421
 20
607.4821521467794
 30
24.2150060459311
 11
-85.32084849229769
 21
608.482152146788
 31
24.21500604592485
  0
ARC
  5
71
330
1F
100
AcDbEntity
  8
GNAP
100
AcDbCircle
 10
-86.63958922556806
 20
608.1286202407404
 30
24.21535776303854
 40
1.365402951269483
210
-4.122297712737132E-6
220
-1.017529017409989E-12
230
0.9999999999915035
100
AcDbArc
 50
15.00606548772967
 51
97.56001900297409
  0
LINE
  5
72
330
1F
100
AcDbEntity
  8
GNAP
100
AcDbLine
 10
-86.81932786085002
 20
609.4821545462144
 30
24.21499986874779
 11
-146.1154403889219
 21
609.4822494933355
 31
24.21475543250837
  0
ARC
  5
73
330
1F
100
AcDbEntity
  8
GNAP
100
AcDbCircle
 10
-146.2950810973776
 20
608.1288705905224
 30
24.21535776294498
 40
1.365262287192346
210
-4.122297877871059E-6
220
-1.193604626705075E-12
230
0.9999999999915035
100
AcDbArc
 50
82.4348913242437
 51
164.9988955336136
  0
LINE
  5
74
330
1F
100
AcDbEntity
  8
GNAP
100
AcDbLine
 10
-147.6139162101628
 20
608.4822518927444
 30
24.21474925534347
 11
-147.6139144365071
 21
607.4822518927357
 31
24.21474925534973
  0
ARC
  5
75
330
1F
100
AcDbEntity
  8
GNAP
100
AcDbCircle
 10
-146.2949481930937
 20
613.8357837987817
 30
24.21535776294621
 40
1.365402951269441
210
-4.122297999886562E-6
220
-1.220441238058801E-12
230
0.9999999999915035
100
AcDbArc
 50
195.0060654877303
 51
277.5600190029664
  0
LINE
  5
76
330
1F
100
AcDbEntity
  8
GNAP
100
AcDbLine
 10
-146.1154092016676
 20
612.4822494932537
 30
24.21475543264036
 11
-86.81929667359563
 21
612.4821545461325
 31
24.21499986887967
  0
ARC
  5
77
330
1F
100
AcDbEntity
  8
GNAP
100
AcDbCircle
 10
-86.63945632128608
 20
613.8355334490075
 30
24.21535776285767
 40
1.365262287193379
210
-4.122297790657095E-6
220
-1.324292839657407E-12
230
0.9999999999915035
100
AcDbArc
 50
262.4348913242807
 51
344.9988955335805
  0
LINE
  5
78
330
1F
100
AcDbEntity
  8
GNAP
100
AcDbLine
 10
-85.32082085235476
 20
613.4821521467236
 30
24.21500604604456
 11
-85.32082262601034
 21
614.4821521467323
 31
24.21500604603831
  0
ARC
  5
79
330
1F
100
AcDbEntity
  8
GNAP
100
AcDbCircle
 10
-86.63956335927368
 20
614.1286202406893
 30
24.21535776293908
 40
1.365402951269473
210
-4.122297999890363E-6
220
-1.220447873472360E-12
230
0.9999999999915035
100
AcDbArc
 50
15.00606548773967
 51
97.56001900297409
  0
LINE
  5
7A
330
1F
100
AcDbEntity
  8
GNAP
100
AcDbLine
 10
-86.81930199456264
 20
615.4821545461585
 30
24.21499986886102
 11
-146.1154145226346
 21
615.4822494932798
 31
24.21475543262171
  0
ARC
  5
7B
330
1F
100
AcDbEntity
  8
GNAP
100
AcDbCircle
 10
-146.2950552310911
 20
614.1288705904653
 30
24.21535776296678
 40
1.36526228719253
210
-4.122297833197559E-6
220
-1.146860071216582E-12
230
0.9999999999915035
100
AcDbArc
 50
82.43489132425796
 51
164.9988955336152
  0
LINE
  5
7C
330
1F
100
AcDbEntity
  8
GNAP
100
AcDbLine
 10
-147.6138903438754
 20
614.4822518926886
 30
24.21474925545693
 11
-147.6138885702197
 21
613.48225189268
 31
24.21474925546307
  0
ARC
  5
7D
330
1F
100
AcDbEntity
  8
GNAP
100
AcDbCircle
 10
-146.2949223268101
 20
619.8357837987229
 30
24.21535776298738
 40
1.36540295126902
210
-4.122297856310671E-6
220
-1.118983044635557E-12
230
0.9999999999915035
100
AcDbArc
 50
195.00606548771
 51
277.5600190029813
  0
LINE
  5
7E
330
1F
100
AcDbEntity
  8
GNAP
100
AcDbLine
 10
-146.1153833353802
 20
618.482249493198
 30
24.2147554327537
 11
-86.81927080730829
 21
618.4821545460767
 31
24.21499986899302
  0
ARC
  5
7F
330
1F
100
AcDbEntity
  8
GNAP
100
AcDbCircle
 10
-86.63943045499482
 20
619.8355334489485
 30
24.21535776293161
 40
1.365262287192759
210
-4.122297934176003E-6
220
-1.222919704716008E-12
230
0.9999999999915035
100
AcDbArc
 50
262.4348913242592
 51
344.9988955336081
  0
LINE
  5
80
330
1F
100
AcDbEntity
  8
GNAP
100
AcDbLine
 10
-85.32079498606738
 20
619.4821521466679
 30
24.21500604615802
 11
-85.320796759723
 21
620.4821521466765
 31
24.21500604615177
  0
ARC
  5
81
330
1F
100
AcDbEntity
  8
GNAP
100
AcDbCircle
 10
-86.6395374929885
 20
620.1286202406308
 30
24.21535776300733
 40
1.365402951269592
210
-4.122297918478539E-6
220
-1.098454166473401E-12
230
0.9999999999915035
100
AcDbArc
 50
15.00606548772844
 51
97.56001900296634
  0
LINE
  5
82
330
1F
100
AcDbEntity
  8
GNAP
100
AcDbLine
 10
-86.81927612827528
 20
621.4821545461028
 30
24.21499986897448
 11
-146.1153886563471
 21
621.482249493224
 31
24.21475543273517
  0
ARC
  5
83
330
1F
100
AcDbEntity
  8
GNAP
100
AcDbCircle
 10
-146.2950293647974
 20
620.1288705904
 30
24.21535776325489
 40
1.365262287192455
210
-4.122298100660993E-6
220
-7.460711522689177E-13
230
0.9999999999915035
100
AcDbArc
 50
82.4348913242455
 51
164.9988955336142
  0
LINE
  5
84
330
1F
100
AcDbEntity
  8
GNAP
100
AcDbLine
 10
-147.613864477588
 20
620.4822518926329
 30
24.21474925557039
 11
-147.6138627039323
 21
619.4822518926243
 31
24.21474925557653
  0
ARC
  5
85
330
1F
100
AcDbEntity
  8
GNAP
100
AcDbCircle
 10
-43.50942945482886
 20
596.8526727753892
 30
24.21535776314206
 40
0.9999999969522855
210
-4.122297646960035E-6
220
-8.488559070588287E-13
230
0.9999999999915035
100
AcDbArc
 50
179.9999854752305
 51
269.9999889536728
  0
LINE
  5
86
330
1F
100
AcDbEntity
  8
GNAP
100
AcDbLine
 10
-43.50952947016629
 20
595.8526727784165
 30
24.21517840462264
 11
-3.93862366018272
 21
595.8526628675905
 31
24.21534152768403
  0
ARC
  5
87
330
1F
100
AcDbEntity
  8
GNAP
100
AcDbCircle
 10
-3.938523527566354
 20
596.8526628629565
 30
24.21535776320411
 40
0.9999999953476415
210
-4.122298175487636E-6
220
-7.641090886086473E-13
230
0.9999999999915035
100
AcDbArc
 50
269.9999822540817
 51
359.9999859164085
  0
LINE
  5
88
330
1F
100
AcDbEntity
  8
GNAP
100
AcDbLine
 10
-2.938623355118866
 20
596.8526626171331
 30
24.21534564998423
 11
-2.938623104661426
 21
597.8526626171331
 31
24.2153456499865
  0
ARC
  5
89
330
1F
100
AcDbEntity
  8
GNAP
100
AcDbCircle
 10
-3.938523278719992
 20
597.852662870665
 30
24.21535776299418
 40
0.9999999969523996
210
-4.122297912853013E-6
220
-1.114749337403857E-12
230
0.9999999999915035
100
AcDbArc
 50
359.9999854752305
 51
89.9999889536742
  0
LINE
  5
8A
330
1F
100
AcDbEntity
  8
GNAP
100
AcDbLine
 10
-3.938622908810542
 20
598.8526628675905
 30
24.21534152769051
 11
-43.50952871879405
 21
598.8526727784164
 31
24.21517840462912
  0
ARC
  5
8B
330
1F
100
AcDbEntity
  8
GNAP
100
AcDbCircle
 10
-43.50942920596996
 20
597.8526727830939
 30
24.21535776304033
 40
0.9999999953475278
210
-4.122297901016138E-6
220
-1.038580845518354E-12
230
0.9999999999915035
100
AcDbArc
 50
89.99998225408154
 51
179.9999859164151
  0
LINE
  5
8C
330
1F
100
AcDbEntity
  8
GNAP
100
AcDbLine
 10
-44.50952902385788
 20
597.8526730288738
 30
24.21517428232893
 11
-44.50952927431526
 21
596.8526730288738
 31
24.21517428232665
  0
CIRCLE
  5
8D
330
1F
100
AcDbEntity
  8
GNAP
100
AcDbCircle
 10
54.95382919195498
 20
620.0571060274666
 30
-24.21535776295308
 40
1.650000185482212
210
4.122297881441267E-6
220
1.181008329098672E-12
230
-0.9999999999915035
  0
CIRCLE
  5
8E
330
1F
100
AcDbEntity
  8
GNAP
100
AcDbCircle
 10
-1.604007668072397
 20
600.523672902635
 30
-24.21535776300982
 40
1.299999998585617
210
4.122297901719010E-6
220
1.088644404804669E-12
230
-0.9999999999915035
  0
CIRCLE
  5
8F
330
1F
100
AcDbEntity
  8
GNAP
100
AcDbCircle
 10
-1.604646170051805
 20
593.9817880185299
 30
-24.21535776298196
 40
1.29999999858565
210
4.122297857993530E-6
220
1.135103026762415E-12
230
-0.9999999999915035
  0
CIRCLE
  5
90
330
1F
100
AcDbEntity
  8
GNAP
100
AcDbCircle
 10
39.42183892396675
 20
620.5569815154904
 30
-24.21535776295464
 40
1.300000093946665
210
4.122297863050208E-6
220
1.177461650157129E-12
230
-0.9999999999915035
  0
CIRCLE
  5
91
330
1F
100
AcDbEntity
  8
GNAP
100
AcDbCircle
 10
39.42186001501465
 20
609.982517147238
 30
-24.21535776300925
 40
1.300000093946743
210
4.122297861683411E-6
220
1.088643825332902E-12
230
-0.9999999999915035
  0
CIRCLE
  5
92
330
1F
100
AcDbEntity
  8
GNAP
100
AcDbCircle
 10
-177.9322560266299
 20
596.0573868712829
 30
24.21535776300269
 40
1.649999825023248
210
-4.122297885213102E-6
220
-1.099936405305043E-12
230
0.9999999999915035
  0
CIRCLE
  5
93
330
1F
100
AcDbEntity
  8
GNAP
100
AcDbCircle
 10
-177.9322500156525
 20
620.0573868712819
 30
24.2153577630048
 40
1.649999825023248
210
-4.122297885213097E-6
220
-1.097783174335392E-12
230
0.9999999999915035
  0
ARC
  5
94
330
1F
100
AcDbEntity
  8
GNAP
100
AcDbCircle
 10
189.4021493597169
 20
596.8530055205966
 30
-24.21535776315404
 40
0.9999999969522673
210
4.122298022965383E-6
220
8.896745570795399E-13
230
-0.9999999999915035
100
AcDbArc
 50
180.0002468302271
 51
270.0002503086747
  0
LINE
  5
95
330
1F
100
AcDbEntity
  8
GNAP
100
AcDbLine
 10
-189.4022535497396
 20
595.8530055236325
 30
24.21457699135454
 11
-228.9731593593565
 21
595.8531761157027
 31
24.21441386829316
  0
ARC
  5
96
330
1F
100
AcDbEntity
  8
GNAP
100
AcDbCircle
 10
228.9730552866057
 20
596.8531761110645
 30
-24.21535776305946
 40
0.9999999953474237
210
4.122297795013243E-6
220
9.698690715705004E-13
230
-0.9999999999915035
100
AcDbArc
 50
270.0002436090692
 51
0.000247271425092
  0
LINE
  5
97
330
1F
100
AcDbEntity
  8
GNAP
100
AcDbLine
 10
-229.9731551029058
 20
596.8531804267416
 30
24.21440974601388
 11
-229.9731507918579
 21
597.8531804267323
 31
24.21440974603287
  0
ARC
  5
98
330
1F
100
AcDbEntity
  8
GNAP
100
AcDbCircle
 10
228.9730509739471
 20
597.8531761187559
 30
-24.21535776309588
 40
0.9999999969525231
210
4.122298027524165E-6
220
9.988025943273929E-13
230
-0.9999999999915035
100
AcDbArc
 50
0.0002468302466462
 51
90.00025030866654
  0
LINE
  5
99
330
1F
100
AcDbEntity
  8
GNAP
100
AcDbLine
 10
-228.9731464262128
 20
598.8531761156748
 30
24.21441386834989
 11
-189.4022406165959
 21
598.8530055236047
 31
24.21457699141127
  0
ARC
  5
9A
330
1F
100
AcDbEntity
  8
GNAP
100
AcDbCircle
 10
189.4021450470699
 20
597.8530055282921
 30
-24.21535776299736
 40
0.999999995347651
210
4.122297790476758E-6
220
1.079018972984650E-12
230
-0.9999999999915035
100
AcDbArc
 50
90.00024360907733
 51
180.0002472714121
  0
LINE
  5
9B
330
1F
100
AcDbEntity
  8
GNAP
100
AcDbLine
 10
-188.4022448730466
 20
597.8530012125658
 30
24.21458111369044
 11
-188.4022491840946
 21
596.8530012125751
 31
24.21458111367145
  0
CIRCLE
  5
9C
330
1F
100
AcDbEntity
  8
GNAP
100
AcDbCircle
 10
193.4780170336224
 20
620.5572889513691
 30
-24.21535776298331
 40
1.300000046974589
210
4.122297880821066E-6
220
1.131003352813273E-12
230
-0.9999999999915035
  0
CIRCLE
  5
9D
330
1F
100
AcDbEntity
  8
GNAP
100
AcDbCircle
 10
193.4780381287134
 20
609.9828245831187
 30
-24.21535776297947
 40
1.300000046974646
210
4.122297878088310E-6
220
1.136469071781543E-12
230
-0.9999999999915035
  0
CIRCLE
  5
9E
330
1F
100
AcDbEntity
  8
GNAP
100
AcDbCircle
 10
234.5191754021977
 20
600.4552135998907
 30
-24.21535776297689
 40
1.299999998585492
210
4.122297857993380E-6
220
1.132370049041462E-12
230
-0.9999999999915035
  0
CIRCLE
  5
9F
330
1F
100
AcDbEntity
  8
GNAP
100
AcDbCircle
 10
234.518536909817
 20
593.9133287322076
 30
-24.21535776297693
 40
1.299999998585548
210
4.122297857993470E-6
220
1.132370049041537E-12
230
-0.9999999999915035
  0
ARC
  5
A0
330
1F
100
AcDbEntity
  8
GNAP
100
AcDbCircle
 10
-146.2949999256721
 20
601.8357837988906
 30
24.21535776298714
 40
1.365402951269357
210
-4.122297856312206E-6
220
-1.118985343323035E-12
230
0.9999999999915035
100
AcDbArc
 50
195.006065487726
 51
277.56001900297
  0
LINE
  5
A1
330
1F
100
AcDbEntity
  8
GNAP
100
AcDbLine
 10
-146.1154609342424
 20
600.4822494933652
 30
24.21475543241344
 11
-86.81934840617033
 21
600.482154546244
 31
24.21499986865286
  0
ARC
  5
A2
330
1F
100
AcDbEntity
  8
GNAP
100
AcDbCircle
 10
-86.63950805385727
 20
601.8355334491109
 30
24.21535776305058
 40
1.365262287192658
210
-4.122297914601202E-6
220
-1.024878035049626E-12
230
0.9999999999915035
100
AcDbArc
 50
262.434891324255
 51
344.9988955336069
  0
LINE
  5
A3
330
1F
100
AcDbEntity
  8
GNAP
100
AcDbLine
 10
-85.32087258492946
 20
601.4821521468351
 30
24.21500604581764
 11
-85.32087435858506
 21
602.4821521468438
 31
24.2150060458115
  0
ARC
  5
A4
330
1F
100
AcDbEntity
  8
GNAP
100
AcDbCircle
 10
-86.63961509185431
 20
602.128620240795
 30
24.21535776306987
 40
1.365402951269412
210
-4.122297757456936E-6
220
-9.708538196226160E-13
230
0.9999999999915035
100
AcDbArc
 50
15.00606548772553
 51
97.5600190029741
  0
LINE
  5
A5
330
1F
100
AcDbEntity
  8
GNAP
100
AcDbLine
 10
-86.81935372713735
 20
603.4821545462701
 30
24.21499986863433
 11
-146.1154662552092
 21
603.4822494933912
 31
24.21475543239491
  0
ARC
  5
A6
330
1F
100
AcDbEntity
  8
GNAP
100
AcDbCircle
 10
-146.2951069636636
 20
602.1288705905733
 30
24.21535776306471
 40
1.365262287192654
210
-4.122297926227799E-6
220
-1.007455701718064E-12
230
0.9999999999915035
100
AcDbArc
 50
82.43489132425505
 51
164.9988955336112
  0
LINE
  5
A7
330
1F
100
AcDbEntity
  8
GNAP
100
AcDbLine
 10
-147.6139420764501
 20
602.4822518928002
 30
24.21474925523013
 11
-147.6139403027945
 21
601.4822518927915
 31
24.21474925523627
  0
LINE
  5
A8
330
1F
100
AcDbEntity
  8
GNAP
100
AcDbLine
 10
-37.53183740358396
 20
624.5570310101234
 30
24.21520304648244
 11
-195.3875745434689
 21
624.5573459188904
 31
24.21455231811093
  0
ARC
  5
A9
330
1F
100
AcDbEntity
  8
GNAP
100
AcDbCircle
 10
-195.3874766989785
 20
623.5573459365178
 30
24.2153577629864
 40
0.9999999824019807
210
-4.122297918130051E-6
220
-1.137689117227933E-12
230
0.9999999999915035
100
AcDbArc
 50
89.99988673951312
 51
179.9998867080092
  0
LINE
  5
AA
330
1F
100
AcDbEntity
  8
GNAP
100
AcDbLine
 10
-196.3875765026289
 20
623.5573479138085
 30
24.2145481958038
 11
-196.3876093741935
 21
607.0828835456284
 31
24.21454819564964
  0
ARC
  5
AB
330
1F
100
AcDbEntity
  8
GNAP
100
AcDbCircle
 10
-195.3875095714832
 20
607.0828815322044
 30
24.21535776298976
 40
0.9999999814634255
210
-4.122297862173953E-6
220
-1.114209377291559E-12
230
0.9999999999915035
100
AcDbArc
 50
179.9998846377617
 51
269.9998846692852
  0
LINE
  5
AC
330
1F
100
AcDbEntity
  8
GNAP
100
AcDbLine
 10
-195.3876114056413
 20
606.0828815507164
 30
24.21455231793801
 11
-184.0076780724314
 21
606.0828183236598
 31
24.21459922941314
  0
LINE
  5
AD
330
1F
100
AcDbEntity
  8
GNAP
100
AcDbLine
 10
-184.0076780724314
 20
606.0828183236598
 30
24.21459922941314
 11
-184.0076796440394
 21
602.8774966591902
 31
24.21459922940302
  0
LINE
  5
AE
330
1F
100
AcDbEntity
  8
GNAP
100
AcDbLine
 10
-184.0076796440394
 20
602.8774966591902
 30
24.21459922940302
 11
-236.427712976511
 21
602.8776777600922
 31
24.21438313841044
  0
ARC
  5
AF
330
1F
100
AcDbEntity
  8
GNAP
100
AcDbCircle
 10
-236.4275753025123
 20
601.8776360533171
 30
24.21535776301314
 40
1.00004170751771
210
-4.122297889966130E-6
220
-1.084632229186549E-12
230
0.9999999999915034
100
AcDbArc
 50
90.00216873181361
 51
179.9987865525252
  0
LINE
  5
B0
330
1F
100
AcDbEntity
  8
GNAP
100
AcDbLine
 10
-237.4277168307066
 20
601.8776572328279
 30
24.21437901609557
 11
-237.4277581010403
 21
592.4826759901787
 31
24.21437901591493
  0
ARC
  5
B1
330
1F
100
AcDbEntity
  8
GNAP
100
AcDbCircle
 10
-236.4276583270665
 20
592.4826720254168
 30
24.21535776296993
 40
0.9999999530784149
210
-4.122297986251574E-6
220
-1.195560942576356E-12
230
0.9999999999915035
100
AcDbArc
 50
179.9997728342143
 51
269.9997735127512
  0
LINE
  5
B2
330
1F
100
AcDbEntity
  8
GNAP
100
AcDbLine
 10
-236.4277621009263
 20
591.4826720723173
 30
24.21438313819523
 11
3.494298445256867
 21
591.4817319645978
 31
24.2153721683983
  0
ARC
  5
B3
330
1F
100
AcDbEntity
  8
GNAP
100
AcDbCircle
 10
3.574077354502941
 20
592.3988498791796
 30
24.21535776300184
 40
0.9205726619834415
210
-4.122297921543775E-6
220
-1.101457725631772E-12
230
0.9999999999915035
100
AcDbArc
 50
265.0346180940139
 51
359.0208523186548
  0
LINE
  5
B4
330
1F
100
AcDbEntity
  8
GNAP
100
AcDbLine
 10
4.494415772058385
 20
592.3831186556336
 30
24.21537629118087
 11
4.494453053568298
 21
601.8767373903765
 31
24.21537629134515
  0
ARC
  5
B5
330
1F
100
AcDbEntity
  8
GNAP
100
AcDbCircle
 10
3.494511272449538
 20
601.8767241032731
 30
24.21535776296823
 40
1.000041604163241
210
-4.122297882013021E-6
220
-1.157826211061189E-12
230
0.9999999999915034
100
AcDbArc
 50
0.0007612648871536
 51
89.99738653931476
  0
LINE
  5
B6
330
1F
100
AcDbEntity
  8
GNAP
100
AcDbLine
 10
3.49445706489335
 20
602.8767657063679
 30
24.21537216906496
 11
-48.91187245477509
 21
602.9759035752035
 31
24.21515613456371
  0
LINE
  5
B7
330
1F
100
AcDbEntity
  8
GNAP
100
AcDbLine
 10
-48.91187245477509
 20
602.9759035752035
 30
24.21515613456371
 11
-48.91132886567689
 21
606.0825862991691
 31
24.21515613680812
  0
LINE
  5
B8
330
1F
100
AcDbEntity
  8
GNAP
100
AcDbLine
 10
-48.91132886567689
 20
606.0825862991691
 30
24.21515613680812
 11
-37.53133092013868
 21
606.0825651934398
 31
24.21520304854949
  0
ARC
  5
B9
330
1F
100
AcDbEntity
  8
GNAP
100
AcDbCircle
 10
-37.53122913580658
 20
607.0825651909012
 30
24.21535776304984
 40
0.9999999974386271
210
-4.122297917215297E-6
220
-1.024912819756176E-12
230
0.9999999999915035
100
AcDbArc
 50
269.9998876010288
 51
359.999904224929
  0
LINE
  5
BA
330
1F
100
AcDbEntity
  8
GNAP
100
AcDbLine
 10
-36.53132896097786
 20
607.0825635192862
 30
24.21520717085651
 11
-36.53183943503085
 21
623.5570293359758
 31
24.21520716877093
  0
ARC
  5
BB
330
1F
100
AcDbEntity
  8
GNAP
100
AcDbCircle
 10
-37.53173959388628
 20
623.5570310286856
 30
24.21535776307892
 40
0.999999981463428
210
-4.122297838301277E-6
220
-9.766541041083721E-13
230
0.9999999999915034
100
AcDbArc
 50
359.9999030162247
 51
89.99988466930103
  0
LINE
  5
BC
330
1F
100
AcDbEntity
  8
GNAP
100
AcDbLine
 10
-165.9745274412048
 20
595.248057181464
 30
24.21467356741961
 11
-168.6328974304851
 21
595.527462487469
 31
24.21466260882699
  0
LINE
  5
BD
330
1F
100
AcDbEntity
  8
GNAP
100
AcDbLine
 10
-168.6328974304851
 20
595.527462487469
 30
24.21466260882699
 11
-167.4745266229373
 21
597.5338241587118
 31
24.21466738397875
  0
LINE
  5
BE
330
1F
100
AcDbEntity
  8
GNAP
100
AcDbLine
 10
-167.4745266229373
 20
597.5338241587118
 30
24.21466738397875
 11
-164.4745271144979
 21
597.5338234073411
 31
24.21467975087036
  0
LINE
  5
BF
330
1F
100
AcDbEntity
  8
GNAP
100
AcDbLine
 10
-164.4745271144979
 20
597.5338234073411
 30
24.21467975087036
 11
-163.3161573119666
 21
595.5274611558544
 31
24.21468452601347
  0
LINE
  5
C0
330
1F
100
AcDbEntity
  8
GNAP
100
AcDbLine
 10
-163.3161573119666
 20
595.5274611558544
 30
24.21468452601347
 11
-165.9745274412048
 21
595.248057181464
 31
24.21467356741961
  0
LINE
  5
C1
330
1F
100
AcDbEntity
  8
GNAP
100
AcDbLine
 10
-158.6333305279242
 20
602.1112300339388
 30
24.21470383002794
 11
-161.6333300363636
 21
602.1112307853094
 31
24.21469146313633
  0
LINE
  5
C2
330
1F
100
AcDbEntity
  8
GNAP
100
AcDbLine
 10
-161.6333300363636
 20
602.1112307853094
 30
24.21469146313633
 11
-163.1333291398741
 21
604.7093146570885
 31
24.21468527969615
  0
LINE
  5
C3
330
1F
100
AcDbEntity
  8
GNAP
100
AcDbLine
 10
-163.1333291398741
 20
604.7093146570885
 30
24.21468527969615
 11
-161.633328734949
 21
607.3073825187078
 31
24.21469146314758
  0
LINE
  5
C4
330
1F
100
AcDbEntity
  8
GNAP
100
AcDbLine
 10
-161.633328734949
 20
607.3073825187078
 30
24.21469146314758
 11
-158.6333292265095
 21
607.307381767337
 31
24.21470383003919
  0
LINE
  5
C5
330
1F
100
AcDbEntity
  8
GNAP
100
AcDbLine
 10
-158.6333292265095
 20
607.307381767337
 30
24.21470383003919
 11
-157.1333301229952
 21
604.7093131543471
 31
24.21471001347937
  0
LINE
  5
C6
330
1F
100
AcDbEntity
  8
GNAP
100
AcDbLine
 10
-157.1333301229952
 20
604.7093131543471
 30
24.21471001347937
 11
-158.6333305279242
 21
602.1112300339388
 31
24.21470383002794
  0
LINE
  5
C7
330
1F
100
AcDbEntity
  8
GNAP
100
AcDbLine
 10
-163.1333308169748
 20
598.0131629236903
 30
24.2146852796816
 11
-161.8092456569004
 21
595.7197723005834
 31
24.21469073795243
  0
ARC
  5
C8
330
1F
100
AcDbEntity
  8
GNAP
100
AcDbCircle
 10
-165.9322550218135
 20
608.0573808639377
 30
24.21535776312765
 40
13.00832865611369
210
-4.122298013287096E-6
220
-9.248510498198411E-13
230
0.9999999999915034
100
AcDbArc
 50
288.4791283036881
 51
311.520782913207
  0
LINE
  5
C9
330
1F
100
AcDbEntity
  8
GNAP
100
AcDbLine
 10
-157.309242090793
 20
598.3178459221778
 30
24.2147092883106
 11
-158.6333309036102
 21
600.6112300339388
 31
24.21470383002476
  0
LINE
  5
CA
330
1F
100
AcDbEntity
  8
GNAP
100
AcDbLine
 10
-158.6333309036102
 20
600.6112300339388
 30
24.21470383002476
 11
-161.6333304120497
 21
600.6112307853095
 31
24.21469146313315
  0
LINE
  5
CB
330
1F
100
AcDbEntity
  8
GNAP
100
AcDbLine
 10
-161.6333304120497
 20
600.6112307853095
 30
24.21469146313315
 11
-163.1333308169748
 21
598.0131629236903
 31
24.2146852796816
  0
ARC
  5
CC
330
1F
100
AcDbEntity
  8
GNAP
100
AcDbCircle
 10
-165.9322572412212
 20
608.0573830845349
 30
24.21535776296906
 40
13.00833180977325
210
-4.122297870171357E-6
220
-1.152212726417753E-12
230
0.9999999999915034
100
AcDbArc
 50
318.3628856899851
 51
341.6371150118243
  0
LINE
  5
CD
330
1F
100
AcDbEntity
  8
GNAP
100
AcDbLine
 10
-153.5864058220578
 20
603.9593122659952
 30
24.21472463495708
 11
-155.8342887756439
 21
603.9593128289931
 31
24.21471536851392
  0
LINE
  5
CE
330
1F
100
AcDbEntity
  8
GNAP
100
AcDbLine
 10
-155.8342887756439
 20
603.9593128289931
 30
24.21471536851392
 11
-157.3342891805729
 21
601.3612297085848
 31
24.21470918506249
  0
LINE
  5
CF
330
1F
100
AcDbEntity
  8
GNAP
100
AcDbLine
 10
-157.3342891805729
 20
601.3612297085848
 30
24.21470918506249
 11
-156.2103479012191
 21
599.4145112044506
 31
24.21471381828099
  0
LINE
  5
D0
330
1F
100
AcDbEntity
  8
GNAP
100
AcDbLine
 10
-155.8342883999578
 20
605.4593128289931
 30
24.21471536851721
 11
-153.1861135220202
 21
605.4593121657392
 31
24.21472628508287
  0
ARC
  5
D1
330
1F
100
AcDbEntity
  8
GNAP
100
AcDbCircle
 10
-165.9402513985299
 20
608.0573835974621
 30
24.16472847487166
 40
13.00833129882687
210
0.0003263772972337817
220
-8.390963931747323E-11
230
0.9999999467389286
100
AcDbArc
 50
348.4792005928862
 51
11.52077070681182
  0
LINE
  5
D2
330
1F
100
AcDbEntity
  8
GNAP
100
AcDbLine
 10
-153.1861122206093
 20
610.6554486403485
 30
24.21472628509413
 11
-155.834287098547
 21
610.6554493036023
 31
24.21471536852836
  0
LINE
  5
D3
330
1F
100
AcDbEntity
  8
GNAP
100
AcDbLine
 10
-155.834287098547
 20
610.6554493036023
 30
24.21471536852836
 11
-157.3342875034722
 21
608.057381441983
 31
24.21470918507692
  0
LINE
  5
D4
330
1F
100
AcDbEntity
  8
GNAP
100
AcDbLine
 10
-157.3342875034722
 20
608.057381441983
 30
24.21470918507692
 11
-155.8342883999578
 21
605.4593128289931
 31
24.21471536851721
  0
LINE
  5
D5
330
1F
100
AcDbEntity
  8
GNAP
100
AcDbLine
 10
-68.41185741817739
 20
597.5336043121532
 30
24.21507574981059
 11
-65.4118572543858
 21
597.5335913790088
 31
24.21508811670493
  0
LINE
  5
D6
330
1F
100
AcDbEntity
  8
GNAP
100
AcDbLine
 10
-65.4118572543858
 20
597.5335913790088
 30
24.21508811670493
 11
-64.25349534582196
 21
595.5272244238718
 31
24.21509289181553
  0
LINE
  5
D7
330
1F
100
AcDbEntity
  8
GNAP
100
AcDbLine
 10
-64.25349534582196
 20
595.5272244238718
 30
24.21509289181553
 11
-66.9118671903309
 21
595.2478312440398
 31
24.21508193321462
  0
LINE
  5
D8
330
1F
100
AcDbEntity
  8
GNAP
100
AcDbLine
 10
-66.9118671903309
 20
595.2478312440398
 30
24.21508193321462
 11
-69.57023662578621
 21
595.5272473445981
 31
24.21507097462417
  0
LINE
  5
D9
330
1F
100
AcDbEntity
  8
GNAP
100
AcDbLine
 10
-69.57023662578621
 20
595.5272473445981
 30
24.21507097462417
 11
-68.41185741817739
 21
597.5336043121532
 31
24.21507574981059
  0
LINE
  5
DA
330
1F
100
AcDbEntity
  8
GNAP
100
AcDbLine
 10
-69.75305182217456
 20
598.0129499463721
 30
24.21507022100833
 11
-71.07714773280841
 21
595.7195653631112
 31
24.21506476268804
  0
ARC
  5
DB
330
1F
100
AcDbEntity
  8
GNAP
100
AcDbCircle
 10
66.95388222708529
 20
608.05715876078
 30
-24.21535776292906
 40
13.00833217973378
210
4.122297946276535E-6
220
1.231053737020675E-12
230
-0.9999999999915035
100
AcDbArc
 50
288.4793854886806
 51
311.5210375982862
  0
LINE
  5
DC
330
1F
100
AcDbEntity
  8
GNAP
100
AcDbLine
 10
-75.57714043081323
 20
598.3176595114708
 30
24.21504621238058
 11
-74.25304086746534
 21
600.6110375833692
 31
24.21505167071599
  0
LINE
  5
DD
330
1F
100
AcDbEntity
  8
GNAP
100
AcDbLine
 10
-74.25304086746534
 20
600.6110375833692
 30
24.21505167071599
 11
-71.25304070367376
 21
600.6110246502249
 31
24.21506403761033
  0
LINE
  5
DE
330
1F
100
AcDbEntity
  8
GNAP
100
AcDbLine
 10
-71.25304070367376
 20
600.6110246502249
 30
24.21506403761033
 11
-69.75305182217456
 21
598.0129499463721
 31
24.21507022100833
  0
LINE
  5
DF
330
1F
100
AcDbEntity
  8
GNAP
100
AcDbLine
 10
-69.7530229547437
 20
604.7091016797084
 30
24.21507022113498
 11
-71.25303423710186
 21
602.111024650211
 31
24.21506403763864
  0
LINE
  5
E0
330
1F
100
AcDbEntity
  8
GNAP
100
AcDbLine
 10
-71.25303423710186
 20
602.111024650211
 30
24.21506403763864
 11
-74.25303440089348
 21
602.1110375833554
 31
24.2150516707443
  0
LINE
  5
E1
330
1F
100
AcDbEntity
  8
GNAP
100
AcDbLine
 10
-74.25303440089348
 20
602.1110375833554
 30
24.2150516707443
 11
-75.75302328232691
 21
604.7091275459971
 31
24.2150454873463
  0
LINE
  5
E2
330
1F
100
AcDbEntity
  8
GNAP
100
AcDbLine
 10
-75.75302328232691
 20
604.7091275459971
 30
24.2150454873463
 11
-74.25301200003452
 21
607.3071893167055
 31
24.21505167084264
  0
LINE
  5
E3
330
1F
100
AcDbEntity
  8
GNAP
100
AcDbLine
 10
-74.25301200003452
 20
607.3071893167055
 30
24.21505167084264
 11
-71.25301183624289
 21
607.3071763835611
 31
24.21506403773698
  0
LINE
  5
E4
330
1F
100
AcDbEntity
  8
GNAP
100
AcDbLine
 10
-71.25301183624289
 20
607.3071763835611
 30
24.21506403773698
 11
-69.7530229547437
 21
604.7091016797084
 31
24.21507022113498
  0
ARC
  5
E5
330
1F
100
AcDbEntity
  8
GNAP
100
AcDbCircle
 10
66.95388296688859
 20
608.0571580205866
 30
-24.21535776297286
 40
13.00833112851696
210
4.122297919689295E-6
220
1.154485589735136E-12
230
-0.9999999999915034
100
AcDbArc
 50
318.3631403626216
 51
341.6373722092802
  0
LINE
  5
E6
330
1F
100
AcDbEntity
  8
GNAP
100
AcDbLine
 10
-79.29995177922156
 20
603.9591428369688
 30
24.21503086584961
 11
-77.05206833458377
 21
603.9591331462356
 31
24.2150401322947
  0
LINE
  5
E7
330
1F
100
AcDbEntity
  8
GNAP
100
AcDbLine
 10
-77.05206833458377
 20
603.9591331462356
 30
24.2150401322947
 11
-75.55207945315031
 21
601.3610431835938
 31
24.21504631569281
  0
LINE
  5
E8
330
1F
100
AcDbEntity
  8
GNAP
100
AcDbLine
 10
-75.55207945315031
 20
601.3610431835938
 30
24.21504631569281
 11
-76.6760298579954
 21
599.4143298063445
 31
24.21504168243224
  0
LINE
  5
E9
330
1F
100
AcDbEntity
  8
GNAP
100
AcDbLine
 10
-77.0520618680119
 20
605.4591331462217
 30
24.21504013232312
 11
-79.70023732444538
 21
605.4591445626329
 31
24.21502921575508
  0
ARC
  5
EA
330
1F
100
AcDbEntity
  8
GNAP
100
AcDbCircle
 10
66.94587523400487
 20
608.0571578157372
 30
-24.2416981663336
 40
13.0083312988284
210
0.0003346218930893896
220
-1.423689335907109E-9
230
-0.9999999440140928
100
AcDbArc
 50
348.4794619478757
 51
11.52103206179819
  0
LINE
  5
EB
330
1F
100
AcDbEntity
  8
GNAP
100
AcDbLine
 10
-79.7002149236522
 20
610.655281037194
 30
24.21502921585319
 11
-77.05203946721876
 21
610.6552696207827
 31
24.21504013242135
  0
LINE
  5
EC
330
1F
100
AcDbEntity
  8
GNAP
100
AcDbLine
 10
-77.05203946721876
 20
610.6552696207827
 30
24.21504013242135
 11
-75.55205058571951
 21
608.05719491693
 31
24.21504631581935
  0
LINE
  5
ED
330
1F
100
AcDbEntity
  8
GNAP
100
AcDbLine
 10
-75.55205058571951
 20
608.05719491693
 30
24.21504631581935
 11
-77.0520618680119
 21
605.4591331462217
 31
24.21504013232312
  0
LINE
  5
EE
330
1F
100
AcDbEntity
  8
GNAP
100
AcDbLine
 10
-69.75299408737867
 20
611.4052381542555
 30
24.21507022126151
 11
-71.25300536967106
 21
608.8071763835471
 31
24.21506403776528
  0
LINE
  5
EF
330
1F
100
AcDbEntity
  8
GNAP
100
AcDbLine
 10
-71.25300536967106
 20
608.8071763835471
 30
24.21506403776528
 11
-74.25300553346268
 21
608.8071893166915
 31
24.21505167087095
  0
LINE
  5
F0
330
1F
100
AcDbEntity
  8
GNAP
100
AcDbLine
 10
-74.25300553346268
 20
608.8071893166915
 30
24.21505167087095
 11
-75.75299441496188
 21
611.4052640205443
 31
24.21504548747283
  0
LINE
  5
F1
330
1F
100
AcDbEntity
  8
GNAP
100
AcDbLine
 10
-75.75299441496188
 20
611.4052640205443
 30
24.21504548747283
 11
-74.25298313260366
 21
614.0033410500417
 31
24.21505167096917
  0
LINE
  5
F2
330
1F
100
AcDbEntity
  8
GNAP
100
AcDbLine
 10
-74.25298313260366
 20
614.0033410500417
 30
24.21505167096917
 11
-71.25298296881205
 21
614.0033281168974
 31
24.21506403786351
  0
LINE
  5
F3
330
1F
100
AcDbEntity
  8
GNAP
100
AcDbLine
 10
-71.25298296881205
 20
614.0033281168974
 30
24.21506403786351
 11
-69.75299408737867
 21
611.4052381542555
 31
24.21507022126151
  0
LINE
  5
F4
330
1F
100
AcDbEntity
  8
GNAP
100
AcDbLine
 10
-63.95395284776188
 20
614.7532966504359
 30
24.21509412664069
 11
-65.45396413012011
 21
612.1552196209384
 31
24.21508794314458
  0
LINE
  5
F5
330
1F
100
AcDbEntity
  8
GNAP
100
AcDbLine
 10
-65.45396413012011
 20
612.1552196209384
 30
24.21508794314458
 11
-68.45396429391172
 21
612.1552325540829
 31
24.21507557625024
  0
LINE
  5
F6
330
1F
100
AcDbEntity
  8
GNAP
100
AcDbLine
 10
-68.45396429391172
 20
612.1552325540829
 30
24.21507557625024
 11
-69.95395317534515
 21
614.7533225167247
 31
24.21506939285201
  0
LINE
  5
F7
330
1F
100
AcDbEntity
  8
GNAP
100
AcDbLine
 10
-69.95395317534515
 20
614.7533225167247
 30
24.21506939285201
 11
-68.4539418930527
 21
617.351384287433
 31
24.21507557634835
  0
LINE
  5
F8
330
1F
100
AcDbEntity
  8
GNAP
100
AcDbLine
 10
-68.4539418930527
 20
617.351384287433
 30
24.21507557634835
 11
-65.45394172926113
 21
617.3513713542886
 31
24.21508794324269
  0
LINE
  5
F9
330
1F
100
AcDbEntity
  8
GNAP
100
AcDbLine
 10
-65.45394172926113
 20
617.3513713542886
 30
24.21508794324269
 11
-63.95395284776188
 21
614.7532966504359
 31
24.21509412664069
  0
LINE
  5
FA
330
1F
100
AcDbEntity
  8
GNAP
100
AcDbLine
 10
-63.95398171519268
 20
608.0571449170997
 30
24.21509412651416
 11
-65.45399299748512
 21
605.4590831463913
 31
24.21508794301793
  0
LINE
  5
FB
330
1F
100
AcDbEntity
  8
GNAP
100
AcDbLine
 10
-65.45399299748512
 20
605.4590831463913
 30
24.21508794301793
 11
-68.45399316127677
 21
605.4590960795357
 31
24.21507557612359
  0
LINE
  5
FC
330
1F
100
AcDbEntity
  8
GNAP
100
AcDbLine
 10
-68.45399316127677
 20
605.4590960795357
 30
24.21507557612359
 11
-69.95398204277595
 21
608.0571707833884
 31
24.21506939272548
  0
LINE
  5
FD
330
1F
100
AcDbEntity
  8
GNAP
100
AcDbLine
 10
-69.95398204277595
 20
608.0571707833884
 30
24.21506939272548
 11
-68.45397076048354
 21
610.6552325540968
 31
24.21507557622182
  0
LINE
  5
FE
330
1F
100
AcDbEntity
  8
GNAP
100
AcDbLine
 10
-68.45397076048354
 20
610.6552325540968
 30
24.21507557622182
 11
-65.45397059669193
 21
610.6552196209524
 31
24.21508794311616
  0
LINE
  5
FF
330
1F
100
AcDbEntity
  8
GNAP
100
AcDbLine
 10
-65.45397059669193
 20
610.6552196209524
 30
24.21508794311616
 11
-63.95398171519268
 21
608.0571449170997
 31
24.21509412651416
  0
LINE
  5
100
330
1F
100
AcDbEntity
  8
GNAP
100
AcDbLine
 10
-63.95401058262355
 20
601.3609931837634
 30
24.21509412638751
 11
-65.45402186491596
 21
598.7629314130551
 31
24.2150879428914
  0
LINE
  5
101
330
1F
100
AcDbEntity
  8
GNAP
100
AcDbLine
 10
-65.45402186491596
 20
598.7629314130551
 30
24.2150879428914
 11
-68.45402202870757
 21
598.7629443461994
 31
24.21507557599706
  0
LINE
  5
102
330
1F
100
AcDbEntity
  8
GNAP
100
AcDbLine
 10
-68.45402202870757
 20
598.7629443461994
 30
24.21507557599706
 11
-69.95401091020676
 21
601.3610190500522
 31
24.21506939259895
  0
LINE
  5
103
330
1F
100
AcDbEntity
  8
GNAP
100
AcDbLine
 10
-69.95401091020676
 20
601.3610190500522
 30
24.21506939259895
 11
-68.45399962784857
 21
603.9590960795496
 31
24.21507557609517
  0
LINE
  5
104
330
1F
100
AcDbEntity
  8
GNAP
100
AcDbLine
 10
-68.45399962784857
 20
603.9590960795496
 30
24.21507557609517
 11
-65.45399946405699
 21
603.9590831464052
 31
24.21508794298951
  0
LINE
  5
105
330
1F
100
AcDbEntity
  8
GNAP
100
AcDbLine
 10
-65.45399946405699
 20
603.9590831464052
 30
24.21508794298951
 11
-63.95401058262355
 21
601.3609931837634
 31
24.21509412638751
  0
ARC
  5
106
330
1F
100
AcDbEntity
  8
GNAP
100
AcDbCircle
 10
66.95388188617574
 20
608.0571587607751
 30
-24.21535776298822
 40
13.00833217973292
210
4.122297869177050E-6
220
1.122886484058228E-12
230
-0.9999999999915035
100
AcDbArc
 50
228.4794564114115
 51
251.5211085210186
  0
LINE
  5
107
330
1F
100
AcDbEntity
  8
GNAP
100
AcDbLine
 10
-62.83092240121774
 20
595.7195298132389
 30
24.21509875608536
 11
-64.15499853802088
 21
598.0129258128964
 31
24.21509329785159
  0
LINE
  5
108
330
1F
100
AcDbEntity
  8
GNAP
100
AcDbLine
 10
-64.15499853802088
 20
598.0129258128964
 30
24.21509329785159
 11
-62.65498725572846
 21
600.6109875836047
 31
24.21509948134793
  0
LINE
  5
109
330
1F
100
AcDbEntity
  8
GNAP
100
AcDbLine
 10
-62.65498725572846
 20
600.6109875836047
 30
24.21509948134793
 11
-59.65498709193684
 21
600.6109746504603
 31
24.21511184824227
  0
LINE
  5
10A
330
1F
100
AcDbEntity
  8
GNAP
100
AcDbLine
 10
-59.65498709193684
 20
600.6109746504603
 30
24.21511184824227
 11
-58.33090730236363
 21
598.3175851621338
 31
24.21511730649094
  0
ARC
  5
10B
330
1F
100
AcDbEntity
  8
GNAP
100
AcDbCircle
 10
66.95388114637993
 20
608.0571580205785
 30
-24.21535776297742
 40
13.00833112851757
210
4.122297888765904E-6
220
1.142742449225116E-12
230
-0.9999999999915034
100
AcDbArc
 50
198.3631218004181
 51
221.637353647076
  0
LINE
  5
10C
330
1F
100
AcDbEntity
  8
GNAP
100
AcDbLine
 10
-57.23200841962589
 20
599.4142459822369
 30
24.21512183648066
 11
-58.35594203967997
 21
601.3609690502218
 31
24.21511720329364
  0
LINE
  5
10D
330
1F
100
AcDbEntity
  8
GNAP
100
AcDbLine
 10
-58.35594203967997
 20
601.3609690502218
 30
24.21511720329364
 11
-56.85593075732179
 21
603.9590460797192
 31
24.21512338678998
  0
LINE
  5
10E
330
1F
100
AcDbEntity
  8
GNAP
100
AcDbLine
 10
-56.85593075732179
 20
603.9590460797192
 30
24.21512338678998
 11
-54.60804731268403
 21
603.9590363889861
 31
24.21513265323518
  0
LINE
  5
10F
330
1F
100
AcDbEntity
  8
GNAP
100
AcDbLine
 10
-58.1549693430068
 20
604.7090516799437
 30
24.2151180317668
 11
-59.65498062536498
 21
602.1109746504463
 31
24.21511184827058
  0
LINE
  5
110
330
1F
100
AcDbEntity
  8
GNAP
100
AcDbLine
 10
-59.65498062536498
 20
602.1109746504463
 30
24.21511184827058
 11
-62.65498078915658
 21
602.1109875835907
 31
24.21509948137624
  0
LINE
  5
111
330
1F
100
AcDbEntity
  8
GNAP
100
AcDbLine
 10
-62.65498078915658
 20
602.1109875835907
 30
24.21509948137624
 11
-64.15496967059003
 21
604.7090775462325
 31
24.21509329797824
  0
LINE
  5
112
330
1F
100
AcDbEntity
  8
GNAP
100
AcDbLine
 10
-64.15496967059003
 20
604.7090775462325
 30
24.21509329797824
 11
-62.6549583882976
 21
607.307139316941
 31
24.21509948147446
  0
LINE
  5
113
330
1F
100
AcDbEntity
  8
GNAP
100
AcDbLine
 10
-62.6549583882976
 20
607.307139316941
 30
24.21509948147446
 11
-59.65495822450599
 21
607.3071263837965
 31
24.2151118483688
  0
LINE
  5
114
330
1F
100
AcDbEntity
  8
GNAP
100
AcDbLine
 10
-59.65495822450599
 20
607.3071263837965
 30
24.2151118483688
 11
-58.1549693430068
 21
604.7090516799437
 31
24.2151180317668
  0
ARC
  5
115
330
1F
100
AcDbEntity
  8
GNAP
100
AcDbCircle
 10
66.94587523401562
 20
608.0571578157377
 30
-24.23327290916184
 40
13.00833129882705
210
0.000334621892614886
220
-1.423667457498884E-9
230
-0.9999999440140931
100
AcDbArc
 50
168.4794619478729
 51
191.5210320617984
  0
LINE
  5
116
330
1F
100
AcDbEntity
  8
GNAP
100
AcDbLine
 10
-54.20774883431651
 20
605.459034663294
 30
24.21513430338645
 11
-56.85592429074995
 21
605.4590460797053
 31
24.2151233868184
  0
LINE
  5
117
330
1F
100
AcDbEntity
  8
GNAP
100
AcDbLine
 10
-56.85592429074995
 20
605.4590460797053
 30
24.2151233868184
 11
-58.35591317224915
 21
608.057120783558
 31
24.21511720342029
  0
LINE
  5
118
330
1F
100
AcDbEntity
  8
GNAP
100
AcDbLine
 10
-58.35591317224915
 20
608.057120783558
 30
24.21511720342029
 11
-56.85590188995674
 21
610.6551825542664
 31
24.21512338691651
  0
LINE
  5
119
330
1F
100
AcDbEntity
  8
GNAP
100
AcDbLine
 10
-56.85590188995674
 20
610.6551825542664
 30
24.21512338691651
 11
-54.20772643352328
 21
610.6551711378552
 31
24.21513430348467
  0
LINE
  5
11A
330
1F
100
AcDbEntity
  8
GNAP
100
AcDbLine
 10
-58.15494047564174
 20
611.4051881544909
 30
24.21511803189345
 11
-59.65495175793415
 21
608.8071263837826
 31
24.21511184839711
  0
LINE
  5
11B
330
1F
100
AcDbEntity
  8
GNAP
100
AcDbLine
 10
-59.65495175793415
 20
608.8071263837826
 30
24.21511184839711
 11
-62.65495192172578
 21
608.807139316927
 31
24.21509948150277
  0
LINE
  5
11C
330
1F
100
AcDbEntity
  8
GNAP
100
AcDbLine
 10
-62.65495192172578
 20
608.807139316927
 30
24.21509948150277
 11
-64.15494080322499
 21
611.4052140207797
 31
24.21509329810477
  0
LINE
  5
11D
330
1F
100
AcDbEntity
  8
GNAP
100
AcDbLine
 10
-64.15494080322499
 20
611.4052140207797
 30
24.21509329810477
 11
-62.65492952086679
 21
614.0032910502771
 31
24.21509948160111
  0
LINE
  5
11E
330
1F
100
AcDbEntity
  8
GNAP
100
AcDbLine
 10
-62.65492952086679
 20
614.0032910502771
 30
24.21509948160111
 11
-59.65492935707518
 21
614.0032781171327
 31
24.21511184849545
  0
LINE
  5
11F
330
1F
100
AcDbEntity
  8
GNAP
100
AcDbLine
 10
-59.65492935707518
 20
614.0032781171327
 30
24.21511184849545
 11
-58.15494047564174
 21
611.4051881544909
 31
24.21511803189345
  0
LINE
  5
120
330
1F
100
AcDbEntity
  8
GNAP
100
AcDbLine
 10
-58.35588430481834
 20
614.7532725168943
 30
24.21511720354682
 11
-57.18777306722986
 21
616.7654754326235
 31
24.21512201885163
  0
ARC
  5
121
330
1F
100
AcDbEntity
  8
GNAP
100
AcDbCircle
 10
68.79617383703268
 20
607.0304223847183
 30
-24.21535776294623
 40
15.15019946555511
210
4.122298048960932E-6
220
1.207887838800809E-12
230
-0.9999999999915035
100
AcDbArc
 50
140.0163264611608
 51
160.2289250607779
  0
LINE
  5
122
330
1F
100
AcDbEntity
  8
GNAP
100
AcDbLine
 10
-54.53915335353789
 20
612.1551725666665
 30
24.21513293724594
 11
-56.85589542338489
 21
612.1551825542524
 31
24.21512338694493
  0
LINE
  5
123
330
1F
100
AcDbEntity
  8
GNAP
100
AcDbLine
 10
-56.85589542338489
 20
612.1551825542524
 30
24.21512338694493
 11
-58.35588430481834
 21
614.7532725168943
 31
24.21511720354682
  0
ARC
  5
124
330
1F
100
AcDbEntity
  8
GNAP
100
AcDbCircle
 10
66.95388188618548
 20
608.0571569397615
 30
-24.21535776309065
 40
13.00833217973278
210
4.122297783611125E-6
220
9.493113177198082E-13
230
-0.9999999999915035
100
AcDbArc
 50
108.47938548868
 51
131.5210375982873
  0
LINE
  5
125
330
1F
100
AcDbEntity
  8
GNAP
100
AcDbLine
 10
-58.33082332715549
 20
617.7966561890173
 30
24.21511730685917
 11
-59.65492289050333
 21
615.5032781171188
 31
24.21511184852364
  0
LINE
  5
126
330
1F
100
AcDbEntity
  8
GNAP
100
AcDbLine
 10
-59.65492289050333
 20
615.5032781171188
 30
24.21511184852364
 11
-62.65492305429495
 21
615.5032910502632
 31
24.21509948162942
  0
LINE
  5
127
330
1F
100
AcDbEntity
  8
GNAP
100
AcDbLine
 10
-62.65492305429495
 20
615.5032910502632
 30
24.21509948162942
 11
-64.15491193579416
 21
618.1013657541159
 31
24.21509329823131
  0
LINE
  5
128
330
1F
100
AcDbEntity
  8
GNAP
100
AcDbLine
 10
-64.15491193579416
 20
618.1013657541159
 30
24.21509329823131
 11
-62.83081602516026
 21
620.3947503373769
 31
24.21509875655171
  0
LINE
  5
129
330
1F
100
AcDbEntity
  8
GNAP
100
AcDbLine
 10
-68.45393542648088
 20
618.851384287419
 30
24.21507557637677
 11
-69.57786520746492
 21
620.7981122968516
 31
24.21507094320556
  0
ARC
  5
12A
330
1F
100
AcDbEntity
  8
GNAP
100
AcDbCircle
 10
66.95388205664092
 20
608.0571564439674
 30
-24.21535776313102
 40
13.00833270512627
210
4.122297901162403E-6
220
8.964286325510431E-13
230
-0.9999999999915035
100
AcDbArc
 50
78.3631504770088
 51
101.6373435326916
  0
LINE
  5
12B
330
1F
100
AcDbEntity
  8
GNAP
100
AcDbLine
 10
-64.3299886968716
 20
620.7980896730046
 30
24.21509257651588
 11
-65.4539352626893
 21
618.8513713542746
 31
24.21508794327111
  0
LINE
  5
12C
330
1F
100
AcDbEntity
  8
GNAP
100
AcDbLine
 10
-65.4539352626893
 20
618.8513713542746
 30
24.21508794327111
 11
-68.45393542648088
 21
618.851384287419
 31
24.21507557637677
  0
ARC
  5
12D
330
1F
100
AcDbEntity
  8
GNAP
100
AcDbCircle
 10
66.95388222708418
 20
608.0571569397489
 30
-24.21535776309928
 40
13.008332179749
210
4.122297989789543E-6
220
9.577355646744983E-13
230
-0.9999999999915035
100
AcDbArc
 50
48.47945641142599
 51
71.52110852100425
  0
LINE
  5
12E
330
1F
100
AcDbEntity
  8
GNAP
100
AcDbLine
 10
-71.07704135675095
 20
620.3947858872492
 30
24.2150647631545
 11
-69.75296521994781
 21
618.1013898875917
 31
24.21507022138816
  0
LINE
  5
12F
330
1F
100
AcDbEntity
  8
GNAP
100
AcDbLine
 10
-69.75296521994781
 20
618.1013898875917
 30
24.21507022138816
 11
-71.25297650224024
 21
615.5033281168834
 31
24.21506403789182
  0
LINE
  5
130
330
1F
100
AcDbEntity
  8
GNAP
100
AcDbLine
 10
-71.25297650224024
 20
615.5033281168834
 30
24.21506403789182
 11
-74.25297666603187
 21
615.5033410500278
 31
24.21505167099748
  0
LINE
  5
131
330
1F
100
AcDbEntity
  8
GNAP
100
AcDbLine
 10
-74.25297666603187
 20
615.5033410500278
 30
24.21505167099748
 11
-75.57705645560507
 21
617.7967305383543
 31
24.21504621274881
  0
ARC
  5
132
330
1F
100
AcDbEntity
  8
GNAP
100
AcDbCircle
 10
65.27854941530705
 20
607.0899211034673
 30
-24.21535776294918
 40
14.97295905195583
210
4.122297809625671E-6
220
1.178575250096438E-12
230
-0.9999999999915035
100
AcDbArc
 50
19.7733609454989
 51
40.22694969486567
  0
LINE
  5
133
330
1F
100
AcDbEntity
  8
GNAP
100
AcDbLine
 10
-76.71038887207384
 20
616.7597107444029
 30
24.2150415408138
 11
-75.5520217182887
 21
614.7533466502663
 31
24.21504631594588
  0
LINE
  5
134
330
1F
100
AcDbEntity
  8
GNAP
100
AcDbLine
 10
-75.5520217182887
 20
614.7533466502663
 30
24.21504631594588
 11
-77.05203300064689
 21
612.1552696207689
 31
24.21504013244977
  0
LINE
  5
135
330
1F
100
AcDbEntity
  8
GNAP
100
AcDbLine
 10
-77.05203300064689
 20
612.1552696207689
 30
24.21504013244977
 11
-79.3687750704939
 21
612.1552796083548
 31
24.21503058214877
  0
LINE
  5
136
330
1F
100
AcDbEntity
  8
GNAP
100
AcDbLine
 10
-164.432353551342
 20
612.1554514570478
 30
24.21467992473903
 11
-167.4323530597815
 21
612.1554522084185
 31
24.21466755784742
  0
LINE
  5
137
330
1F
100
AcDbEntity
  8
GNAP
100
AcDbLine
 10
-167.4323530597815
 20
612.1554522084185
 30
24.21466755784742
 11
-168.9323521632919
 21
614.7535360801976
 31
24.21466137440713
  0
LINE
  5
138
330
1F
100
AcDbEntity
  8
GNAP
100
AcDbLine
 10
-168.9323521632919
 20
614.7535360801976
 30
24.21466137440713
 11
-167.4323517583668
 21
617.3516039418168
 31
24.21466755785856
  0
LINE
  5
139
330
1F
100
AcDbEntity
  8
GNAP
100
AcDbLine
 10
-167.4323517583668
 20
617.3516039418168
 30
24.21466755785856
 11
-164.4323522499273
 21
617.3516031904461
 31
24.21467992475017
  0
LINE
  5
13A
330
1F
100
AcDbEntity
  8
GNAP
100
AcDbLine
 10
-164.4323522499273
 20
617.3516031904461
 30
24.21467992475017
 11
-162.932353146413
 21
614.7535345774561
 31
24.21468610819035
  0
LINE
  5
13B
330
1F
100
AcDbEntity
  8
GNAP
100
AcDbLine
 10
-162.932353146413
 20
614.7535345774561
 30
24.21468610819035
 11
-164.432353551342
 21
612.1554514570478
 31
24.21467992473903
  0
LINE
  5
13C
330
1F
100
AcDbEntity
  8
GNAP
100
AcDbLine
 10
-170.2313799289573
 20
608.8073846721495
 30
24.21465601942101
 11
-173.2313794373968
 21
608.8073854235203
 31
24.21464365252929
  0
LINE
  5
13D
330
1F
100
AcDbEntity
  8
GNAP
100
AcDbLine
 10
-173.2313794373968
 20
608.8073854235203
 30
24.21464365252929
 11
-174.7313785409112
 21
611.4054540365102
 31
24.21463746908911
  0
LINE
  5
13E
330
1F
100
AcDbEntity
  8
GNAP
100
AcDbLine
 10
-174.7313785409112
 20
611.4054540365102
 30
24.21463746908911
 11
-173.2313781359822
 21
614.0035371569185
 31
24.21464365254065
  0
LINE
  5
13F
330
1F
100
AcDbEntity
  8
GNAP
100
AcDbLine
 10
-173.2313781359822
 20
614.0035371569185
 30
24.21464365254065
 11
-170.2313786275427
 21
614.0035364055477
 31
24.21465601943227
  0
LINE
  5
140
330
1F
100
AcDbEntity
  8
GNAP
100
AcDbLine
 10
-170.2313786275427
 20
614.0035364055477
 30
24.21465601943227
 11
-168.7313795240323
 21
611.4054525337688
 31
24.21466220287244
  0
LINE
  5
141
330
1F
100
AcDbEntity
  8
GNAP
100
AcDbLine
 10
-168.7313795240323
 20
611.4054525337688
 30
24.21466220287244
 11
-170.2313799289573
 21
608.8073846721495
 31
24.21465601942101
  0
LINE
  5
142
330
1F
100
AcDbEntity
  8
GNAP
100
AcDbLine
 10
-164.4323518742412
 20
618.8516031904461
 30
24.21467992475347
 11
-163.3084134587943
 21
620.7983260730473
 31
24.21468455796458
  0
ARC
  5
143
330
1F
100
AcDbEntity
  8
GNAP
100
AcDbCircle
 10
-165.9322545104386
 20
608.0573878143383
 30
24.21535776312875
 40
13.00832707993988
210
-4.122297870151546E-6
220
-8.941178179716807E-13
230
0.9999999999915035
100
AcDbArc
 50
78.36288659723454
 51
101.6370847025137
  0
LINE
  5
144
330
1F
100
AcDbEntity
  8
GNAP
100
AcDbLine
 10
-168.5562888229853
 20
620.7983273874141
 30
24.21466292465915
 11
-167.4323513826807
 21
618.8516039418168
 31
24.21466755786185
  0
LINE
  5
145
330
1F
100
AcDbEntity
  8
GNAP
100
AcDbLine
 10
-167.4323513826807
 20
618.8516039418168
 30
24.21466755786185
 11
-164.4323518742412
 21
618.8516031904461
 31
24.21467992475347
  0
LINE
  5
146
330
1F
100
AcDbEntity
  8
GNAP
100
AcDbLine
 10
-164.4323569055396
 20
598.7631632490404
 30
24.21467992471004
 11
-167.432356413979
 21
598.7631640004112
 31
24.21466755781843
  0
LINE
  5
147
330
1F
100
AcDbEntity
  8
GNAP
100
AcDbLine
 10
-167.432356413979
 20
598.7631640004112
 30
24.21466755781843
 11
-168.9323555174933
 21
601.3612326134011
 31
24.21466137437814
  0
LINE
  5
148
330
1F
100
AcDbEntity
  8
GNAP
100
AcDbLine
 10
-168.9323555174933
 20
601.3612326134011
 30
24.21466137437814
 11
-167.4323551125644
 21
603.9593157338094
 31
24.21466755782957
  0
LINE
  5
149
330
1F
100
AcDbEntity
  8
GNAP
100
AcDbLine
 10
-167.4323551125644
 20
603.9593157338094
 30
24.21466755782957
 11
-164.432355604125
 21
603.9593149824387
 31
24.21467992472118
  0
LINE
  5
14A
330
1F
100
AcDbEntity
  8
GNAP
100
AcDbLine
 10
-164.432355604125
 20
603.9593149824387
 30
24.21467992472118
 11
-162.9323565006144
 21
601.3612311106597
 31
24.21468610816136
  0
LINE
  5
14B
330
1F
100
AcDbEntity
  8
GNAP
100
AcDbLine
 10
-162.9323565006144
 20
601.3612311106597
 30
24.21468610816136
 11
-164.4323569055396
 21
598.7631632490404
 31
24.21467992471004
  0
LINE
  5
14C
330
1F
100
AcDbEntity
  8
GNAP
100
AcDbLine
 10
-170.2313816060581
 20
602.1112329387513
 30
24.21465601940646
 11
-173.2313811144975
 21
602.1112336901219
 31
24.21464365251485
  0
LINE
  5
14D
330
1F
100
AcDbEntity
  8
GNAP
100
AcDbLine
 10
-173.2313811144975
 20
602.1112336901219
 30
24.21464365251485
 11
-174.731380218008
 21
604.709317561901
 31
24.21463746907467
  0
LINE
  5
14E
330
1F
100
AcDbEntity
  8
GNAP
100
AcDbLine
 10
-174.731380218008
 20
604.709317561901
 30
24.21463746907467
 11
-173.2313798130829
 21
607.3073854235203
 31
24.2146436525261
  0
LINE
  5
14F
330
1F
100
AcDbEntity
  8
GNAP
100
AcDbLine
 10
-173.2313798130829
 20
607.3073854235203
 30
24.2146436525261
 11
-170.2313803046434
 21
607.3073846721495
 31
24.21465601941783
  0
LINE
  5
150
330
1F
100
AcDbEntity
  8
GNAP
100
AcDbLine
 10
-170.2313803046434
 20
607.3073846721495
 30
24.21465601941783
 11
-168.7313812011291
 21
604.7093160591595
 31
24.21466220285789
  0
LINE
  5
151
330
1F
100
AcDbEntity
  8
GNAP
100
AcDbLine
 10
-168.7313812011291
 20
604.7093160591595
 30
24.21466220285789
 11
-170.2313816060581
 21
602.1112329387513
 31
24.21465601940646
  0
LINE
  5
152
330
1F
100
AcDbEntity
  8
GNAP
100
AcDbLine
 10
-164.4323552284388
 20
605.4593149824386
 30
24.21467992472448
 11
-167.4323547368783
 21
605.4593157338094
 31
24.21466755783286
  0
LINE
  5
153
330
1F
100
AcDbEntity
  8
GNAP
100
AcDbLine
 10
-167.4323547368783
 20
605.4593157338094
 30
24.21466755783286
 11
-168.9323538403926
 21
608.0573843467994
 31
24.21466137439257
  0
LINE
  5
154
330
1F
100
AcDbEntity
  8
GNAP
100
AcDbLine
 10
-168.9323538403926
 20
608.0573843467994
 30
24.21466137439257
 11
-167.4323534354675
 21
610.6554522084186
 31
24.21466755784401
  0
LINE
  5
155
330
1F
100
AcDbEntity
  8
GNAP
100
AcDbLine
 10
-167.4323534354675
 20
610.6554522084186
 30
24.21466755784401
 11
-164.432353927028
 21
610.6554514570479
 31
24.21467992473573
  0
LINE
  5
156
330
1F
100
AcDbEntity
  8
GNAP
100
AcDbLine
 10
-164.432353927028
 20
610.6554514570479
 30
24.21467992473573
 11
-162.9323548235137
 21
608.0573828440579
 31
24.21468610817591
  0
LINE
  5
157
330
1F
100
AcDbEntity
  8
GNAP
100
AcDbLine
 10
-162.9323548235137
 20
608.0573828440579
 30
24.21468610817591
 11
-164.4323552284388
 21
605.4593149824386
 31
24.21467992472448
  0
LINE
  5
158
330
1F
100
AcDbEntity
  8
GNAP
100
AcDbLine
 10
-158.6333288508234
 20
608.807381767337
 30
24.21470383004238
 11
-161.6333283592629
 21
608.8073825187078
 31
24.21469146315077
  0
LINE
  5
159
330
1F
100
AcDbEntity
  8
GNAP
100
AcDbLine
 10
-161.6333283592629
 20
608.8073825187078
 30
24.21469146315077
 11
-163.1333274627773
 21
611.4054511316976
 31
24.21468527971059
  0
LINE
  5
15A
330
1F
100
AcDbEntity
  8
GNAP
100
AcDbLine
 10
-163.1333274627773
 20
611.4054511316976
 30
24.21468527971059
 11
-161.6333270578483
 21
614.003534252106
 31
24.21469146316202
  0
LINE
  5
15B
330
1F
100
AcDbEntity
  8
GNAP
100
AcDbLine
 10
-161.6333270578483
 20
614.003534252106
 30
24.21469146316202
 11
-158.6333275494088
 21
614.0035335007353
 31
24.21470383005375
  0
LINE
  5
15C
330
1F
100
AcDbEntity
  8
GNAP
100
AcDbLine
 10
-158.6333275494088
 20
614.0035335007353
 30
24.21470383005375
 11
-157.1333284458983
 21
611.4054496289563
 31
24.21471001349392
  0
LINE
  5
15D
330
1F
100
AcDbEntity
  8
GNAP
100
AcDbLine
 10
-157.1333284458983
 20
611.4054496289563
 30
24.21471001349392
 11
-158.6333288508234
 21
608.807381767337
 31
24.21470383004238
  0
LINE
  5
15E
330
1F
100
AcDbEntity
  8
GNAP
100
AcDbLine
 10
-157.3342858263715
 20
614.7535331753812
 30
24.21470918509148
 11
-156.1759097736166
 21
616.7598919855998
 31
24.21471396026494
  0
ARC
  5
15F
330
1F
100
AcDbEntity
  8
GNAP
100
AcDbCircle
 10
167.6075954019652
 20
607.0901552824632
 30
-24.2153577629873
 40
14.97295984373079
210
4.122297900913435E-6
220
1.129994080781895E-12
230
-0.9999999999915035
100
AcDbArc
 50
139.7733181912239
 51
160.2269047182777
  0
LINE
  5
160
330
1F
100
AcDbEntity
  8
GNAP
100
AcDbLine
 10
-153.5175451591078
 20
612.1554487233582
 30
24.21472491883061
 11
-155.8342867228609
 21
612.1554493036023
 31
24.21471536853165
  0
LINE
  5
161
330
1F
100
AcDbEntity
  8
GNAP
100
AcDbLine
 10
-155.8342867228609
 20
612.1554493036023
 30
24.21471536853165
 11
-157.3342858263715
 21
614.7535331753812
 31
24.21470918509148
  0
ARC
  5
162
330
1F
100
AcDbEntity
  8
GNAP
100
AcDbCircle
 10
-165.9322550218019
 20
608.0573863269808
 30
24.21535776302084
 40
13.00832865610042
210
-4.122297852204021E-6
220
-1.063277293097050E-12
230
0.9999999999915034
100
AcDbArc
 50
48.4791883865211
 51
71.52084299605477
  0
LINE
  5
163
330
1F
100
AcDbEntity
  8
GNAP
100
AcDbLine
 10
-161.809239476809
 20
620.3949928249499
 30
24.21469073800587
 11
-163.1333257856765
 21
618.101602865096
 31
24.21468527972514
  0
LINE
  5
164
330
1F
100
AcDbEntity
  8
GNAP
100
AcDbLine
 10
-163.1333257856765
 20
618.101602865096
 30
24.21468527972514
 11
-161.6333266821622
 21
615.503534252106
 31
24.21469146316532
  0
LINE
  5
165
330
1F
100
AcDbEntity
  8
GNAP
100
AcDbLine
 10
-161.6333266821622
 20
615.503534252106
 30
24.21469146316532
 11
-158.6333271737227
 21
615.5035335007352
 31
24.21470383005693
  0
LINE
  5
166
330
1F
100
AcDbEntity
  8
GNAP
100
AcDbLine
 10
-158.6333271737227
 20
615.5035335007352
 30
24.21470383005693
 11
-157.3092372121155
 21
617.7969169492416
 31
24.21470928835278
  0
ARC
  5
167
330
1F
100
AcDbEntity
  8
GNAP
100
AcDbCircle
 10
-165.9322539990678
 20
608.05738632696
 30
24.21535776293138
 40
13.00832865612626
210
-4.122297850624319E-6
220
-1.206591657301830E-12
230
0.9999999999915034
100
AcDbArc
 50
108.4791283036989
 51
131.5207829131955
  0
LINE
  5
168
330
1F
100
AcDbEntity
  8
GNAP
100
AcDbLine
 10
-174.5554665731134
 20
617.7969212686795
 30
24.21463819425788
 11
-173.2313777602961
 21
615.5035371569185
 31
24.21464365254384
  0
LINE
  5
169
330
1F
100
AcDbEntity
  8
GNAP
100
AcDbLine
 10
-173.2313777602961
 20
615.5035371569185
 30
24.21464365254384
 11
-170.2313782518567
 21
615.5035364055477
 31
24.21465601943545
  0
LINE
  5
16A
330
1F
100
AcDbEntity
  8
GNAP
100
AcDbLine
 10
-170.2313782518567
 20
615.5035364055477
 30
24.21465601943545
 11
-168.7313778469315
 21
618.101604267167
 31
24.21466220288688
  0
LINE
  5
16B
330
1F
100
AcDbEntity
  8
GNAP
100
AcDbLine
 10
-168.7313778469315
 20
618.101604267167
 30
24.21466220288688
 11
-170.0554630070059
 21
620.3949948902739
 31
24.21465674461605
  0
LINE
  5
16C
330
1F
100
AcDbEntity
  8
GNAP
100
AcDbLine
 10
-174.5304194833335
 20
614.7535374822725
 30
24.214638297506
 11
-175.698521287052
 21
616.7657457263257
 31
24.21463348224473
  0
ARC
  5
16D
330
1F
100
AcDbEntity
  8
GNAP
100
AcDbCircle
 10
-164.0899635450925
 20
607.0306405189261
 30
24.21535776298506
 40
15.15020028555689
210
-4.122297869728421E-6
220
-1.125136316409003E-12
230
0.9999999999915035
100
AcDbArc
 50
140.0160716190723
 51
160.2286680059411
  0
LINE
  5
16E
330
1F
100
AcDbEntity
  8
GNAP
100
AcDbLine
 10
-178.3471614520155
 20
612.1554549421081
 30
24.21462256375584
 11
-176.0304198882624
 21
612.1554543618641
 31
24.21463211405468
  0
LINE
  5
16F
330
1F
100
AcDbEntity
  8
GNAP
100
AcDbLine
 10
-176.0304198882624
 20
612.1554543618641
 30
24.21463211405468
 11
-174.5304194833335
 21
614.7535374822725
 31
24.214638297506
  0
ARC
  5
170
330
1F
100
AcDbEntity
  8
GNAP
100
AcDbCircle
 10
-165.9402458294426
 20
608.0573835974492
 30
24.15630321960163
 40
13.00833129882947
210
0.0003263772972609633
220
-8.388775664575181E-11
230
0.9999999467389284
100
AcDbArc
 50
168.479200592889
 51
191.52077070681
  0
LINE
  5
171
330
1F
100
AcDbEntity
  8
GNAP
100
AcDbLine
 10
-178.678596443297
 20
605.4593185505088
 30
24.21462119747447
 11
-176.0304215653593
 21
605.459317887255
 31
24.21463211404012
  0
LINE
  5
172
330
1F
100
AcDbEntity
  8
GNAP
100
AcDbLine
 10
-176.0304215653593
 20
605.459317887255
 30
24.21463211404012
 11
-174.5304211604342
 21
608.0573857488743
 31
24.21463829749156
  0
LINE
  5
173
330
1F
100
AcDbEntity
  8
GNAP
100
AcDbLine
 10
-174.5304211604342
 20
608.0573857488743
 30
24.21463829749156
 11
-176.0304202639485
 21
610.6554543618641
 31
24.21463211405138
  0
LINE
  5
174
330
1F
100
AcDbEntity
  8
GNAP
100
AcDbLine
 10
-176.0304202639485
 20
610.6554543618641
 30
24.21463211405138
 11
-178.6785951418862
 21
610.655455025118
 31
24.21462119748561
  0
ARC
  5
175
330
1F
100
AcDbEntity
  8
GNAP
100
AcDbCircle
 10
-165.9322517796886
 20
608.0573830845152
 30
24.21535776300729
 40
13.00833180975543
210
-4.122297791320810E-6
220
-1.064885595852266E-12
230
0.9999999999915034
100
AcDbArc
 50
198.3628562878741
 51
221.6370856097364
  0
LINE
  5
176
330
1F
100
AcDbEntity
  8
GNAP
100
AcDbLine
 10
-175.6543650920285
 20
599.4145160743399
 30
24.21463366425008
 11
-174.5304228375349
 21
601.3612340154759
 31
24.21463829747701
  0
LINE
  5
177
330
1F
100
AcDbEntity
  8
GNAP
100
AcDbLine
 10
-174.5304228375349
 20
601.3612340154759
 30
24.21463829747701
 11
-176.0304219410454
 21
603.959317887255
 31
24.21463211403683
  0
LINE
  5
178
330
1F
100
AcDbEntity
  8
GNAP
100
AcDbLine
 10
-176.0304219410454
 20
603.959317887255
 30
24.21463211403683
 11
-178.2783048946314
 21
603.9593184502529
 31
24.21462284759367
  0
ARC
  5
179
330
1F
100
AcDbEntity
  8
GNAP
100
AcDbCircle
 10
-165.9322539990941
 20
608.057380863921
 30
24.21535776301494
 40
13.00832865609271
210
-4.122297826479260E-6
220
-1.062478670480448E-12
230
0.9999999999915034
100
AcDbArc
 50
228.4791883865142
 51
251.5208429960616
  0
LINE
  5
17A
330
1F
100
AcDbEntity
  8
GNAP
100
AcDbLine
 10
-170.0554691870973
 20
595.7197743659074
 30
24.21465674456261
 11
-168.7313828782299
 21
598.0131643257613
 31
24.21466220284345
  0
LINE
  5
17B
330
1F
100
AcDbEntity
  8
GNAP
100
AcDbLine
 10
-168.7313828782299
 20
598.0131643257613
 30
24.21466220284345
 11
-170.2313819817441
 21
600.6112329387513
 31
24.21465601940328
  0
LINE
  5
17C
330
1F
100
AcDbEntity
  8
GNAP
100
AcDbLine
 10
-170.2313819817441
 20
600.6112329387513
 30
24.21465601940328
 11
-173.2313814901836
 21
600.611233690122
 31
24.21464365251166
  0
LINE
  5
17D
330
1F
100
AcDbEntity
  8
GNAP
100
AcDbLine
 10
-173.2313814901836
 20
600.611233690122
 30
24.21464365251166
 11
-174.5554714517907
 21
598.3178502416157
 31
24.21463819421582
  0
ENDSEC
  0
SECTION
  2
OBJECTS
  0
DICTIONARY
  5
C
330
0
100
AcDbDictionary
  3
ACAD_GROUP
350
D
  3
ACAD_LAYOUT
350
1A
  3
ACAD_MATERIAL
350
43
  3
ACAD_MLEADERSTYLE
350
5B
  3
ACAD_MLINESTYLE
350
17
  3
ACAD_PLOTSETTINGS
350
19
  3
ACAD_SCALELIST
350
47
  3
ACAD_VISUALSTYLE
350
2A
  3
ACDBHEADERROUNDTRIPXREC
350
17E
  3
ACDBVARIABLEDICTIONARY
350
19F
  3
DWGPROPS
350
1A6
  0
DICTIONARY
  5
1A7
330
8
100
AcDbDictionary
280
     1
  3
ACAD_XREC_ROUNDTRIP
360
1A8
  0
DICTIONARY
  5
D
102
{ACAD_REACTORS
330
C
102
}
330
C
100
AcDbDictionary
  0
DICTIONARY
  5
1A
102
{ACAD_REACTORS
330
C
102
}
330
C
100
AcDbDictionary
  0
DICTIONARY
  5
43
102
{ACAD_REACTORS
330
C
102
}
330
C
100
AcDbDictionary
  3
BYBLOCK
350
45
  3
BYLAYER
350
44
  3
GLOBAL
350
46
  0
DICTIONARY
  5
5B
102
{ACAD_REACTORS
330
C
102
}
330
C
100
AcDbDictionary
  3
STANDARD
350
5C
  0
DICTIONARY
  5
17
102
{ACAD_REACTORS
330
C
102
}
330
C
100
AcDbDictionary
  3
STANDARD
350
18
  0
DICTIONARY
  5
19
102
{ACAD_REACTORS
330
C
102
}
330
C
100
AcDbDictionary
  0
DICTIONARY
  5
47
102
{ACAD_REACTORS
330
C
102
}
330
C
100
AcDbDictionary
  3
A0
350
48
  3
A1
350
49
  3
A2
350
4A
  3
A3
350
4B
  3
A4
350
4C
  3
A5
350
4D
  3
A6
350
4E
  3
A7
350
4F
  3
A8
350
50
  3
A9
350
51
  3
B1
350
52
  3
B2
350
53
  3
B3
350
54
  3
B4
350
55
  3
B5
350
56
  3
B6
350
57
  3
B7
350
58
  0
DICTIONARY
  5
2A
102
{ACAD_REACTORS
330
C
102
}
330
C
100
AcDbDictionary
  3
2DWIREFRAME
350
2F
  3
BASIC
350
32
  3
BRIGHTEN
350
36
  3
COLORCHANGE
350
3A
  3
CONCEPTUAL
350
34
  3
DIM
350
35
  3
EDGECOLOROFF
350
3D
  3
FACEPATTERN
350
39
  3
FLAT
350
2B
  3
FLATWITHEDGES
350
2C
  3
GOURAUD
350
2D
  3
GOURAUDWITHEDGES
350
2E
  3
HIDDEN
350
31
  3
JITTEROFF
350
3B
  3
LINEPATTERN
350
38
  3
OVERHANGOFF
350
3C
  3
REALISTIC
350
33
  3
SHADED
350
42
  3
SHADED_WITH_EDGES
350
41
  3
SHADES_OF_GRAY
350
3E
  3
SKETCHY
350
3F
  3
THICKEN
350
37
  3
WIREFRAME
350
30
  3
X-RAY
350
40
  0
DICTIONARY
  5
17E
102
{ACAD_REACTORS
330
C
102
}
330
C
100
AcDbDictionary
  3
CEPSNID
350
188
  3
CEPSNTYPE
350
187
  3
DIMSTYLEDATA
350
19E
  3
FINGERPRINTGUID
350
189
  3
HYPERLINKBASE
350
181
  3
INSUNITS
350
186
  3
LAYOUTDICT
350
183
  3
LWETCUNION
350
185
  3
PLOTSETDICT
350
184
  3
PSVPSCALE
350
18B
  3
PUCSBASE
350
18E
  3
PUCSORGBACK
350
194
  3
PUCSORGBOTTOM
350
190
  3
PUCSORGFRONT
350
193
  3
PUCSORGLEFT
350
191
  3
PUCSORGRIGHT
350
192
  3
PUCSORGTOP
350
18F
  3
PUCSORTHOREF
350
18C
  3
PUCSORTHOVIEW
350
18D
  3
STYLESHEET
350
182
  3
TSTACKALIGN
350
17F
  3
TSTACKSIZE
350
180
  3
UCSBASE
350
197
  3
UCSORGBACK
350
19D
  3
UCSORGBOTTOM
350
199
  3
UCSORGFRONT
350
19C
  3
UCSORGLEFT
350
19A
  3
UCSORGRIGHT
350
19B
  3
UCSORGTOP
350
198
  3
UCSORTHOREF
350
195
  3
UCSORTHOVIEW
350
196
  3
VERSIONGUID
350
18A
  0
DICTIONARY
  5
19F
102
{ACAD_REACTORS
330
C
102
}
330
C
100
AcDbDictionary
  3
CANNOSCALE
350
1A9
  3
CMLEADERSTYLE
350
1A1
  3
CTABLESTYLE
350
1A0
  3
DIMASSOC
350
1A4
  3
HIDETEXT
350
1A5
  3
MSLTSCALE
350
1AA
  0
XRECORD
  5
1A6
102
{ACAD_REACTORS
330
C
102
}
330
C
100
AcDbXrecord
  1
DWGPROPS COOKIE
  2

  3

  4

  6

  7

  8
Willi
  9

300
=
301
=
302
=
303
=
304
=
305
=
306
=
307
=
308
=
309
=
 40
0.0
 41
2459824.109898287
 42
2459824.109917477
  1

 90
        0
  0
XRECORD
  5
1A8
102
{ACAD_REACTORS
330
1A7
102
}
330
1A7
100
AcDbXrecord
102
VTR_0.000_0.000_1.000_1.000_VISUALSTYLE
340
2F
102
VTR_0.000_0.000_1.000_1.000_GRIDDISPLAY
 70
     3
102
VTR_0.000_0.000_1.000_1.000_GRIDMAJOR
 70
     5
102
VTR_0.000_0.000_1.000_1.000_DEFAULTLIGHTING
280
     1
102
VTR_0.000_0.000_1.000_1.000_DEFAULTLIGHTINGTYPE
 70
     1
102
VTR_0.000_0.000_1.000_1.000_BRIGHTNESS
141
0.0
102
VTR_0.000_0.000_1.000_1.000_CONTRAST
142
0.0
  0
MATERIAL
  5
45
102
{ACAD_REACTORS
330
43
102
}
102
{ACAD_XDICTIONARY
360
1AD
102
}
330
43
100
AcDbMaterial
  1
BYBLOCK
  0
MATERIAL
  5
44
102
{ACAD_REACTORS
330
43
102
}
102
{ACAD_XDICTIONARY
360
1AB
102
}
330
43
100
AcDbMaterial
  1
BYLAYER
  0
MATERIAL
  5
46
102
{ACAD_REACTORS
330
43
102
}
102
{ACAD_XDICTIONARY
360
1AF
102
}
330
43
100
AcDbMaterial
  1
GLOBAL
  0
ACAD_PROXY_OBJECT
  5
5C
102
{ACAD_REACTORS
330
5B
102
}
330
5B
100
AcDbProxyObject
 90
      499
 91
      505
 93
      610
310
40901902A4063FBFFFFFE056BD1B81E855B9FC0AD7A3703D0AD73F4214DD185B99185C9900AD7A3703D0AC73F90141901A02B5E8DC0F42B1CFC02B5E8DC0F42B1CFE5764000000000000300FC0
340
14
340
0
340
11
340
0
 94
        0
1001
ACAD_MLEADERVER
1070
     2
  0
MLINESTYLE
  5
18
102
{ACAD_REACTORS
330
17
102
}
330
17
100
AcDbMlineStyle
  2
Standard
 70
     0
  3

 62
   256
 51
90.0
 52
90.0
 71
     2
 49
0.5
 62
   256
  6
BYLAYER
 49
-0.5
 62
   256
  6
BYLAYER
  0
ACAD_PROXY_OBJECT
  5
48
102
{ACAD_REACTORS
330
47
102
}
330
47
100
AcDbProxyObject
 90
      499
 91
      503
 93
       41
310
903313A31580
  0
ACAD_PROXY_OBJECT
  5
49
102
{ACAD_REACTORS
330
47
102
}
330
47
100
AcDbProxyObject
 90
      499
 91
      503
 93
      257
310
90E312F31323822203D2031272D3022000000000000200FC000000000000284000
  0
ACAD_PROXY_OBJECT
  5
4A
102
{ACAD_REACTORS
330
47
102
}
330
47
100
AcDbProxyObject
 90
      499
 91
      503
 93
      249
310
90D312F363422203D2031272D3022000000000000240FC000000000000284000
  0
ACAD_PROXY_OBJECT
  5
4B
102
{ACAD_REACTORS
330
47
102
}
330
47
100
AcDbProxyObject
 90
      499
 91
      503
 93
      249
310
90D312F333222203D2031272D3022000000000000280FC000000000000284000
  0
ACAD_PROXY_OBJECT
  5
4C
102
{ACAD_REACTORS
330
47
102
}
330
47
100
AcDbProxyObject
 90
      499
 91
      503
 93
      249
310
90D312F313622203D2031272D30220000000000002C0FC000000000000284000
  0
ACAD_PROXY_OBJECT
  5
4D
102
{ACAD_REACTORS
330
47
102
}
330
47
100
AcDbProxyObject
 90
      499
 91
      503
 93
      249
310
90D332F333222203D2031272D30220000000000002E0FC000000000000284000
  0
ACAD_PROXY_OBJECT
  5
4E
102
{ACAD_REACTORS
330
47
102
}
330
47
100
AcDbProxyObject
 90
      499
 91
      503
 93
      241
310
90C312F3822203D2031272D3022000000000000300FC000000000000284000
  0
ACAD_PROXY_OBJECT
  5
4F
102
{ACAD_REACTORS
330
47
102
}
330
47
100
AcDbProxyObject
 90
      499
 91
      503
 93
      249
310
90D332F313622203D2031272D3022000000000000320FC000000000000284000
  0
ACAD_PROXY_OBJECT
  5
50
102
{ACAD_REACTORS
330
47
102
}
330
47
100
AcDbProxyObject
 90
      499
 91
      503
 93
      241
310
90C312F3422203D2031272D3022000000000000340FC000000000000284000
  0
ACAD_PROXY_OBJECT
  5
51
102
{ACAD_REACTORS
330
47
102
}
330
47
100
AcDbProxyObject
 90
      499
 91
      503
 93
      241
310
90C332F3822203D2031272D3022000000000000360FC000000000000284000
  0
ACAD_PROXY_OBJECT
  5
52
102
{ACAD_REACTORS
330
47
102
}
330
47
100
AcDbProxyObject
 90
      499
 91
      503
 93
      241
310
90C312F3222203D2031272D3022000000000000380FC000000000000284000
  0
ACAD_PROXY_OBJECT
  5
53
102
{ACAD_REACTORS
330
47
102
}
330
47
100
AcDbProxyObject
 90
      499
 91
      503
 93
      241
310
90C332F3422203D2031272D30220000000000003A0FC000000000000284000
  0
ACAD_PROXY_OBJECT
  5
54
102
{ACAD_REACTORS
330
47
102
}
330
47
100
AcDbProxyObject
 90
      499
 91
      503
 93
      161
310
90A3122203D2031272D30224000000000000284000
  0
ACAD_PROXY_OBJECT
  5
55
102
{ACAD_REACTORS
330
47
102
}
330
47
100
AcDbProxyObject
 90
      499
 91
      503
 93
      257
310
90E312D312F3222203D2031272D30220000000000003E0FC000000000000284000
  0
ACAD_PROXY_OBJECT
  5
56
102
{ACAD_REACTORS
330
47
102
}
330
47
100
AcDbProxyObject
 90
      499
 91
      503
 93
      225
310
90A3322203D2031272D302200000000000002100000000000000284000
  0
ACAD_PROXY_OBJECT
  5
57
102
{ACAD_REACTORS
330
47
102
}
330
47
100
AcDbProxyObject
 90
      499
 91
      503
 93
      225
310
90A3622203D2031272D302200000000000006100000000000000284000
  0
ACAD_PROXY_OBJECT
  5
58
102
{ACAD_REACTORS
330
47
102
}
330
47
100
AcDbProxyObject
 90
      499
 91
      503
 93
      249
310
90D31272D3022203D2031272D30220000000000000A100000000000000284000
  0
ACAD_PROXY_OBJECT
  5
2F
102
{ACAD_REACTORS
330
2A
102
}
330
2A
100
AcDbProxyObject
 90
      499
 91
      501
 93
      436
310
42CC9915DA5C99599C985B595049028333333333333E33F0000000000000F90107901411070040501600405405064090741402480A0340
1001
ACAD
1000
AcDbSavedByObjectVersion
1070
     0
  0
ACAD_PROXY_OBJECT
  5
32
102
{ACAD_REACTORS
330
2A
102
}
330
2A
100
AcDbProxyObject
 90
      499
 91
      501
 93
      388
310
4150985CDA58D07406404333333333333E33F0000000000000F90107A41107004050150841D405064090741402480A0350
1001
ACAD
1000
AcDbSavedByObjectVersion
1070
     0
  0
ACAD_PROXY_OBJECT
  5
36
102
{ACAD_REACTORS
330
2A
102
}
330
2A
100
AcDbProxyObject
 90
      499
 91
      501
 93
      428
310
42109C9A59DA1D195B90C409028333333333333E33F0000000000000F9010790141107004050150841D405064090741402480A029950
1001
ACAD
1000
AcDbSavedByObjectVersion
1070
     0
  0
ACAD_PROXY_OBJECT
  5
3A
102
{ACAD_REACTORS
330
2A
102
}
330
2A
100
AcDbProxyObject
 90
      499
 91
      501
 93
      452
310
42D0DBDB1BDC90DA185B99D95104090240C333333333333E33F0000000000000F90108901411070040501508421405064090741402480A0350
1001
ACAD
1000
AcDbSavedByObjectVersion
1070
     0
  0
ACAD_PROXY_OBJECT
  5
34
102
{ACAD_REACTORS
330
2A
102
}
330
2A
100
AcDbProxyObject
 90
      499
 91
      501
 93
      500
310
4290DBDB98D95C1D1D585B10940D028333333333333E33F0000000000000F90107902409070040501000000000018199010841D405064090740C02480A0340
1001
ACAD
1000
AcDbSavedByObjectVersion
1070
     0
  0
ACAD_PROXY_OBJECT
  5
35
102
{ACAD_REACTORS
330
2A
102
}
330
2A
100
AcDbProxyObject
 90
      499
 91
      501
 93
      412
310
40D11A5B50B409028333333333333E33F0000000000000F9010790141107004050150841D405064090741402480A02677FFFFFD0
1001
ACAD
1000
AcDbSavedByObjectVersion
1070
     0
  0
ACAD_PROXY_OBJECT
  5
3D
102
{ACAD_REACTORS
330
2A
102
}
330
2A
100
AcDbProxyObject
 90
      499
 91
      501
 93
      452
310
43115919D950DBDB1BDC93D999916409028333333333333E33F0000000000000F9010790141107004050150841D405064090741402480A0350
1001
ACAD
1000
AcDbSavedByObjectVersion
1070
     0
  0
ACAD_PROXY_OBJECT
  5
39
102
{ACAD_REACTORS
330
2A
102
}
330
2A
100
AcDbProxyObject
 90
      499
 91
      501
 93
      444
310
42D19858D95C185D1D195C9B90F409028333333333333E33F0000000000000F9010790141107004050150841D405064090741402480A0350
1001
ACAD
1000
AcDbSavedByObjectVersion
1070
     0
  0
ACAD_PROXY_OBJECT
  5
2B
102
{ACAD_REACTORS
330
2A
102
}
330
2A
100
AcDbProxyObject
 90
      499
 91
      501
 93
      380
310
41119B185D240901404333333333333E33F0000000000000F9010740A907004050150841D405064090741402480A1B50
1001
ACAD
1000
AcDbSavedByObjectVersion
1070
     0
  0
ACAD_PROXY_OBJECT
  5
2C
102
{ACAD_REACTORS
330
2A
102
}
330
2A
100
AcDbProxyObject
 90
      499
 91
      501
 93
      468
310
43519B185D15DA5D1A115919D95CD0140901404333333333333E33F0000000000000F90107409019070040501600405405064090741402480A1B50
1001
ACAD
1000
AcDbSavedByObjectVersion
1070
     0
  0
ACAD_PROXY_OBJECT
  5
2D
102
{ACAD_REACTORS
330
2A
102
}
330
2A
100
AcDbProxyObject
 90
      499
 91
      501
 93
      404
310
41D1DBDD5C985D5910240902404333333333333E33F0000000000000F9010740A9070040501641D405064090741402480A1B50
1001
ACAD
1000
AcDbSavedByObjectVersion
1070
     0
  0
ACAD_PROXY_OBJECT
  5
2E
102
{ACAD_REACTORS
330
2A
102
}
330
2A
100
AcDbProxyObject
 90
      499
 91
      501
 93
      492
310
4411DBDD5C985D5915DA5D1A115919D95CD0340902404333333333333E33F0000000000000F90107409019070040501600405405064090741402480A1B50
1001
ACAD
1000
AcDbSavedByObjectVersion
1070
     0
  0
ACAD_PROXY_OBJECT
  5
31
102
{ACAD_REACTORS
330
2A
102
}
330
2A
100
AcDbProxyObject
 90
      499
 91
      501
 93
      476
310
41921A5919195B90640502408333333333333E33F0000000000000F901079024090700405020000000000001110200405405064090740C02480A0340
1001
ACAD
1000
AcDbSavedByObjectVersion
1070
     0
  0
ACAD_PROXY_OBJECT
  5
3B
102
{ACAD_REACTORS
330
2A
102
}
330
2A
100
AcDbProxyObject
 90
      499
 91
      501
 93
      428
310
42529A5D1D195C93D999914409028333333333333E33F0000000000000F9010790141107004050150A41D405064090741402480A0350
1001
ACAD
1000
AcDbSavedByObjectVersion
1070
     0
  0
ACAD_PROXY_OBJECT
  5
38
102
{ACAD_REACTORS
330
2A
102
}
330
2A
100
AcDbProxyObject
 90
      499
 91
      501
 93
      444
310
42D31A5B995C185D1D195C9B90E409028333333333333E33F0000000000000F9010790141107004050750841D405064090741402483A0350
1001
ACAD
1000
AcDbSavedByObjectVersion
1070
     0
  0
ACAD_PROXY_OBJECT
  5
3C
102
{ACAD_REACTORS
330
2A
102
}
330
2A
100
AcDbProxyObject
 90
      499
 91
      501
 93
      444
310
42D3DD995C9A185B99D3D999915409028333333333333E33F0000000000000F9010790141107004050150941D405064090741402480A0350
1001
ACAD
1000
AcDbSavedByObjectVersion
1070
     0
  0
ACAD_PROXY_OBJECT
  5
33
102
{ACAD_REACTORS
330
2A
102
}
330
2A
100
AcDbProxyObject
 90
      499
 91
      501
 93
      428
310
425499585B1A5CDD1A58D08409038333333333333E33F0000000000000F9010740A907004050150800405405064090740C02480A1B40
1001
ACAD
1000
AcDbSavedByObjectVersion
1070
     0
  0
ACAD_PROXY_OBJECT
  5
42
102
{ACAD_REACTORS
330
2A
102
}
330
2A
100
AcDbProxyObject
 90
      499
 91
      501
 93
      420
310
4194DA1859195911B40902404333333333333E33F0000000000000F9010740A41107004050150800405405064090840C02480A0B40
1001
ACAD
1000
AcDbSavedByObjectVersion
1070
     0
  0
ACAD_PROXY_OBJECT
  5
41
102
{ACAD_REACTORS
330
2A
102
}
330
2A
100
AcDbProxyObject
 90
      499
 91
      501
 93
      516
310
4454DA18591959081DDA5D1A08195919D95CD1A40902404333333333333E33F0000000000000F901074090142907004050250800405405064090740C02480A0B40
1001
ACAD
1000
AcDbSavedByObjectVersion
1070
     0
  0
ACAD_PROXY_OBJECT
  5
3E
102
{ACAD_REACTORS
330
2A
102
}
330
2A
100
AcDbProxyObject
 90
      499
 91
      501
 93
      532
310
4394DA1859195CC81BD98811DC985E5174090240C333333333333E33F0000000000000F901079024090741D01000000000000111010841D405064090740C02480A0340
1001
ACAD
1000
AcDbSavedByObjectVersion
1070
     0
  0
ACAD_PROXY_OBJECT
  5
3F
102
{ACAD_REACTORS
330
2A
102
}
330
2A
100
AcDbProxyObject
 90
      499
 91
      501
 93
      476
310
41D4DAD95D18DA1E51840502408333333333333E33F0000000000000F901079024090741D01000000000000111010B41D405064090741802480A0340
1001
ACAD
1000
AcDbSavedByObjectVersion
1070
     0
  0
ACAD_PROXY_OBJECT
  5
37
102
{ACAD_REACTORS
330
2A
102
}
330
2A
100
AcDbProxyObject
 90
      499
 91
      501
 93
      412
310
41D51A1A58DAD95B90D409028333333333333E33F0000000000000F9010790141107004050150C41D405064090741402480A0350
1001
ACAD
1000
AcDbSavedByObjectVersion
1070
     0
  0
ACAD_PROXY_OBJECT
  5
30
102
{ACAD_REACTORS
330
2A
102
}
330
2A
100
AcDbProxyObject
 90
      499
 91
      501
 93
      420
310
4255DA5C99599C985B595059028333333333333E33F0000000000000F90107901411070040501600405405064090740C02480A0340
1001
ACAD
1000
AcDbSavedByObjectVersion
1070
     0
  0
ACAD_PROXY_OBJECT
  5
40
102
{ACAD_REACTORS
330
2A
102
}
330
2A
100
AcDbProxyObject
 90
      499
 91
      501
 93
      404
310
41560B54985E51940902404000000000000E03F0000000000000F9010740501907004050150841D405064090740C02480A1B40
1001
ACAD
1000
AcDbSavedByObjectVersion
1070
     0
  0
XRECORD
  5
188
102
{ACAD_REACTORS
330
17E
102
}
330
17E
100
AcDbXrecord
340
0
  0
XRECORD
  5
187
102
{ACAD_REACTORS
330
17E
102
}
330
17E
100
AcDbXrecord
 90
        0
  0
XRECORD
  5
19E
102
{ACAD_REACTORS
330
17E
102
}
330
17E
100
AcDbXrecord
1000
DSTYLE
1002
{
1070
   171
 70
     2
1070
   143
 40
25.4
1070
   274
 70
     2
1070
    41
 40
0.18
1070
   141
 40
0.09
1070
   271
 70
     4
1070
    43
 40
0.38
1070
   278
 70
    46
1070
    44
 40
0.18
1070
    42
 40
0.0625
1070
   147
 40
0.09
1070
    77
 70
     0
1070
   272
 70
     4
1070
    73
 70
     1
1070
   279
 70
     2
1070
   172
 70
     0
1070
    74
 70
     1
1070
   283
 70
     1
1070
   340
340
11
1070
   140
 40
0.18
1070
   284
 70
     0
1070
    78
 70
     0
1002
}
  0
XRECORD
  5
189
102
{ACAD_REACTORS
330
17E
102
}
330
17E
100
AcDbXrecord
  1
{a889a450-93b0-4d93-8869-a381c9549b2d}
  0
XRECORD
  5
181
102
{ACAD_REACTORS
330
17E
102
}
330
17E
100
AcDbXrecord
  1

  0
XRECORD
  5
186
102
{ACAD_REACTORS
330
17E
102
}
330
17E
100
AcDbXrecord
 90
        4
  0
XRECORD
  5
183
102
{ACAD_REACTORS
330
17E
102
}
330
17E
100
AcDbXrecord
340
1A
  0
XRECORD
  5
185
102
{ACAD_REACTORS
330
17E
102
}
330
17E
100
AcDbXrecord
 90
    10781
  0
XRECORD
  5
184
102
{ACAD_REACTORS
330
17E
102
}
330
17E
100
AcDbXrecord
340
19
  0
XRECORD
  5
18B
102
{ACAD_REACTORS
330
17E
102
}
330
17E
100
AcDbXrecord
 40
0.0
  0
XRECORD
  5
18E
102
{ACAD_REACTORS
330
17E
102
}
330
17E
100
AcDbXrecord
340
0
  0
XRECORD
  5
194
102
{ACAD_REACTORS
330
17E
102
}
330
17E
100
AcDbXrecord
 10
0.0
 20
0.0
 30
0.0
  0
XRECORD
  5
190
102
{ACAD_REACTORS
330
17E
102
}
330
17E
100
AcDbXrecord
 10
0.0
 20
0.0
 30
0.0
  0
XRECORD
  5
193
102
{ACAD_REACTORS
330
17E
102
}
330
17E
100
AcDbXrecord
 10
0.0
 20
0.0
 30
0.0
  0
XRECORD
  5
191
102
{ACAD_REACTORS
330
17E
102
}
330
17E
100
AcDbXrecord
 10
0.0
 20
0.0
 30
0.0
  0
XRECORD
  5
192
102
{ACAD_REACTORS
330
17E
102
}
330
17E
100
AcDbXrecord
 10
0.0
 20
0.0
 30
0.0
  0
XRECORD
  5
18F
102
{ACAD_REACTORS
330
17E
102
}
330
17E
100
AcDbXrecord
 10
0.0
 20
0.0
 30
0.0
  0
XRECORD
  5
18C
102
{ACAD_REACTORS
330
17E
102
}
330
17E
100
AcDbXrecord
340
0
  0
XRECORD
  5
18D
102
{ACAD_REACTORS
330
17E
102
}
330
17E
100
AcDbXrecord
 70
     0
  0
XRECORD
  5
182
102
{ACAD_REACTORS
330
17E
102
}
330
17E
100
AcDbXrecord
  1

  0
XRECORD
  5
17F
102
{ACAD_REACTORS
330
17E
102
}
330
17E
100
AcDbXrecord
 90
        1
  0
XRECORD
  5
180
102
{ACAD_REACTORS
330
17E
102
}
330
17E
100
AcDbXrecord
 90
       70
  0
XRECORD
  5
197
102
{ACAD_REACTORS
330
17E
102
}
330
17E
100
AcDbXrecord
340
0
  0
XRECORD
  5
19D
102
{ACAD_REACTORS
330
17E
102
}
330
17E
100
AcDbXrecord
 10
0.0
 20
0.0
 30
0.0
  0
XRECORD
  5
199
102
{ACAD_REACTORS
330
17E
102
}
330
17E
100
AcDbXrecord
 10
0.0
 20
0.0
 30
0.0
  0
XRECORD
  5
19C
102
{ACAD_REACTORS
330
17E
102
}
330
17E
100
AcDbXrecord
 10
0.0
 20
0.0
 30
0.0
  0
XRECORD
  5
19A
102
{ACAD_REACTORS
330
17E
102
}
330
17E
100
AcDbXrecord
 10
0.0
 20
0.0
 30
0.0
  0
XRECORD
  5
19B
102
{ACAD_REACTORS
330
17E
102
}
330
17E
100
AcDbXrecord
 10
0.0
 20
0.0
 30
0.0
  0
XRECORD
  5
198
102
{ACAD_REACTORS
330
17E
102
}
330
17E
100
AcDbXrecord
 10
0.0
 20
0.0
 30
0.0
  0
XRECORD
  5
195
102
{ACAD_REACTORS
330
17E
102
}
330
17E
100
AcDbXrecord
340
0
  0
XRECORD
  5
196
102
{ACAD_REACTORS
330
17E
102
}
330
17E
100
AcDbXrecord
 70
     0
  0
XRECORD
  5
18A
102
{ACAD_REACTORS
330
17E
102
}
330
17E
100
AcDbXrecord
  1
{FAEB1C32-E019-11D5-929B-00C0DF256EC4}
  0
DICTIONARYVAR
  5
1A9
102
{ACAD_REACTORS
330
19F
102
}
330
19F
100
DictionaryVariables
280
     0
  1
1:1
  0
DICTIONARYVAR
  5
1A1
102
{ACAD_REACTORS
330
19F
102
}
330
19F
100
DictionaryVariables
280
     0
  1
Standard
  0
DICTIONARYVAR
  5
1A0
102
{ACAD_REACTORS
330
19F
102
}
330
19F
100
DictionaryVariables
280
     0
  1
Standard
  0
DICTIONARYVAR
  5
1A4
102
{ACAD_REACTORS
330
19F
102
}
330
19F
100
DictionaryVariables
280
     0
  1
2
  0
DICTIONARYVAR
  5
1A5
102
{ACAD_REACTORS
330
19F
102
}
330
19F
100
DictionaryVariables
280
     0
  1
1
  0
DICTIONARYVAR
  5
1AA
102
{ACAD_REACTORS
330
19F
102
}
330
19F
100
DictionaryVariables
280
     0
  1
1
  0
DICTIONARY
  5
1AD
330
45
100
AcDbDictionary
280
     1
  3
ACAD_XREC_ROUNDTRIP
360
1AE
  0
DICTIONARY
  5
1AB
330
44
100
AcDbDictionary
280
     1
  3
ACAD_XREC_ROUNDTRIP
360
1AC
  0
DICTIONARY
  5
1AF
330
46
100
AcDbDictionary
280
     1
  3
ACAD_XREC_ROUNDTRIP
360
1B0
  0
XRECORD
  5
1AE
102
{ACAD_REACTORS
330
1AD
102
}
330
1AD
100
AcDbXrecord
102
MATERIAL
148
0.0
149
0.0
149
0.0
 93
        0
 94
      127
282
     0
 72
     1
 77
     1
171
     1
175
     1
179
     1
273
     0
  0
XRECORD
  5
1AC
102
{ACAD_REACTORS
330
1AB
102
}
330
1AB
100
AcDbXrecord
102
MATERIAL
148
0.0
149
0.0
149
0.0
 93
        0
 94
      127
282
     0
 72
     1
 77
     1
171
     1
175
     1
179
     1
273
     0
  0
XRECORD
  5
1B0
102
{ACAD_REACTORS
330
1AF
102
}
330
1AF
100
AcDbXrecord
102
MATERIAL
148
0.0
149
0.0
149
0.0
 93
        0
 94
      127
282
     0
 72
     1
 77
     1
171
     1
175
     1
179
     1
273
     0
  0
ENDSEC
  0
EOF
