  0
SECTION
  2
HEADER
  9
$ACADVER
  1
AC1014
  9
$ACADMAINTVER
 70
     9
  9
$DWGCODEPAGE
  3
ANSI_1252
  9
$INSBASE
 10
0.0
 20
0.0
 30
0.0
  9
$EXTMIN
 10
-251.938836649579
 20
910.9572141916518
 30
31.70050780245393
  9
$EXTMAX
 10
16.18807875042106
 20
1126.208020191652
 30
31.70050780245395
  9
$LIMMIN
 10
0.0
 20
0.0
  9
$LIMMAX
 10
12.0
 20
9.0
  9
$ORTHOMODE
 70
     0
  9
$REGENMODE
 70
     1
  9
$FILLMODE
 70
     1
  9
$QTEXTMODE
 70
     0
  9
$MIRRTEXT
 70
     1
  9
$DRAGMODE
 70
     2
  9
$LTSCALE
 40
1.0
  9
$OSMODE
 70
    37
  9
$ATTMODE
 70
     1
  9
$TEXTSIZE
 40
0.2
  9
$TRACEWID
 40
0.05
  9
$TEXTSTYLE
  7
STANDARD
  9
$CLAYER
  8
0
  9
$CELTYPE
  6
BYLAYER
  9
$CECOLOR
 62
   256
  9
$CELTSCALE
 40
1.0
  9
$DELOBJ
 70
     1
  9
$DISPSILH
 70
     0
  9
$DIMSCALE
 40
1.0
  9
$DIMASZ
 40
0.18
  9
$DIMEXO
 40
0.0625
  9
$DIMDLI
 40
0.38
  9
$DIMRND
 40
0.0
  9
$DIMDLE
 40
0.0
  9
$DIMEXE
 40
0.18
  9
$DIMTP
 40
0.0
  9
$DIMTM
 40
0.0
  9
$DIMTXT
 40
0.18
  9
$DIMCEN
 40
0.09
  9
$DIMTSZ
 40
0.0
  9
$DIMTOL
 70
     0
  9
$DIMLIM
 70
     0
  9
$DIMTIH
 70
     1
  9
$DIMTOH
 70
     1
  9
$DIMSE1
 70
     0
  9
$DIMSE2
 70
     0
  9
$DIMTAD
 70
     0
  9
$DIMZIN
 70
     0
  9
$DIMBLK
  1

  9
$DIMASO
 70
     1
  9
$DIMSHO
 70
     1
  9
$DIMPOST
  1

  9
$DIMAPOST
  1

  9
$DIMALT
 70
     0
  9
$DIMALTD
 70
     2
  9
$DIMALTF
 40
25.4
  9
$DIMLFAC
 40
1.0
  9
$DIMTOFL
 70
     0
  9
$DIMTVP
 40
0.0
  9
$DIMTIX
 70
     0
  9
$DIMSOXD
 70
     0
  9
$DIMSAH
 70
     0
  9
$DIMBLK1
  1

  9
$DIMBLK2
  1

  9
$DIMSTYLE
  2
STANDARD_ACAD
  9
$DIMCLRD
 70
     0
  9
$DIMCLRE
 70
     0
  9
$DIMCLRT
 70
     0
  9
$DIMTFAC
 40
1.0
  9
$DIMGAP
 40
0.09
  9
$DIMJUST
 70
     0
  9
$DIMSD1
 70
     0
  9
$DIMSD2
 70
     0
  9
$DIMTOLJ
 70
     1
  9
$DIMTZIN
 70
     0
  9
$DIMALTZ
 70
     0
  9
$DIMALTTZ
 70
     0
  9
$DIMFIT
 70
     5
  9
$DIMUPT
 70
     0
  9
$DIMUNIT
 70
     2
  9
$DIMDEC
 70
     4
  9
$DIMTDEC
 70
     4
  9
$DIMALTU
 70
     2
  9
$DIMALTTD
 70
     2
  9
$DIMTXSTY
  7
STANDARD
  9
$DIMAUNIT
 70
     0
  9
$LUNITS
 70
     2
  9
$LUPREC
 70
     3
  9
$SKETCHINC
 40
0.1
  9
$FILLETRAD
 40
0.0
  9
$AUNITS
 70
     0
  9
$AUPREC
 70
     0
  9
$MENU
  1
.
  9
$ELEVATION
 40
0.0
  9
$PELEVATION
 40
0.0
  9
$THICKNESS
 40
0.0
  9
$LIMCHECK
 70
     0
  9
$CHAMFERA
 40
0.0
  9
$CHAMFERB
 40
0.0
  9
$CHAMFERC
 40
0.0
  9
$CHAMFERD
 40
0.0
  9
$SKPOLY
 70
     0
  9
$TDCREATE
 40
2459823.965275498
  9
$TDUPDATE
 40
2459823.965298368
  9
$TDINDWG
 40
0.0000000116
  9
$TDUSRTIMER
 40
0.0000000116
  9
$USRTIMER
 70
     1
  9
$ANGBASE
 50
0.0
  9
$ANGDIR
 70
     0
  9
$PDMODE
 70
     0
  9
$PDSIZE
 40
0.0
  9
$PLINEWID
 40
0.0
  9
$COORDS
 70
     1
  9
$SPLFRAME
 70
     0
  9
$SPLINETYPE
 70
     6
  9
$SPLINESEGS
 70
     8
  9
$ATTDIA
 70
     0
  9
$ATTREQ
 70
     1
  9
$HANDLING
 70
     1
  9
$HANDSEED
  5
4D8
  9
$SURFTAB1
 70
     6
  9
$SURFTAB2
 70
     6
  9
$SURFTYPE
 70
     6
  9
$SURFU
 70
     6
  9
$SURFV
 70
     6
  9
$UCSNAME
  2

  9
$UCSORG
 10
0.0
 20
0.0
 30
0.0
  9
$UCSXDIR
 10
1.0
 20
0.0
 30
0.0
  9
$UCSYDIR
 10
0.0
 20
1.0
 30
0.0
  9
$PUCSNAME
  2

  9
$PUCSORG
 10
0.0
 20
0.0
 30
0.0
  9
$PUCSXDIR
 10
1.0
 20
0.0
 30
0.0
  9
$PUCSYDIR
 10
0.0
 20
1.0
 30
0.0
  9
$USERI1
 70
     0
  9
$USERI2
 70
     0
  9
$USERI3
 70
     0
  9
$USERI4
 70
     0
  9
$USERI5
 70
     0
  9
$USERR1
 40
0.0
  9
$USERR2
 40
0.0
  9
$USERR3
 40
0.0
  9
$USERR4
 40
0.0
  9
$USERR5
 40
0.0
  9
$WORLDVIEW
 70
     1
  9
$SHADEDGE
 70
     3
  9
$SHADEDIF
 70
    70
  9
$TILEMODE
 70
     1
  9
$MAXACTVP
 70
    64
  9
$PINSBASE
 10
0.0
 20
0.0
 30
0.0
  9
$PLIMCHECK
 70
     0
  9
$PEXTMIN
 10
1.000000000000000E+20
 20
1.000000000000000E+20
 30
1.000000000000000E+20
  9
$PEXTMAX
 10
-1.000000000000000E+20
 20
-1.000000000000000E+20
 30
-1.000000000000000E+20
  9
$PLIMMIN
 10
0.0
 20
0.0
  9
$PLIMMAX
 10
12.0
 20
9.0
  9
$UNITMODE
 70
     0
  9
$VISRETAIN
 70
     1
  9
$PLINEGEN
 70
     0
  9
$PSLTSCALE
 70
     1
  9
$TREEDEPTH
 70
  3020
  9
$PICKSTYLE
 70
     1
  9
$CMLSTYLE
  2
STANDARD
  9
$CMLJUST
 70
     0
  9
$CMLSCALE
 40
1.0
  9
$PROXYGRAPHICS
 70
     1
  9
$MEASUREMENT
 70
     1
  0
ENDSEC
  0
SECTION
  2
CLASSES
  0
CLASS
  1
ACDBDICTIONARYWDFLT
  2
AcDbDictionaryWithDefault
  3
ObjectDBX Classes
 90
        0
280
     0
281
     0
  0
CLASS
  1
VISUALSTYLE
  2
AcDbVisualStyle
  3
ObjectDBX Classes
 90
     4095
280
     0
281
     0
  0
CLASS
  1
MATERIAL
  2
AcDbMaterial
  3
ObjectDBX Classes
 90
     1153
280
     0
281
     0
  0
CLASS
  1
SCALE
  2
AcDbScale
  3
ObjectDBX Classes
 90
     1153
280
     0
281
     0
  0
CLASS
  1
TABLESTYLE
  2
AcDbTableStyle
  3
ObjectDBX Classes
 90
     4095
280
     0
281
     0
  0
CLASS
  1
MLEADERSTYLE
  2
AcDbMLeaderStyle
  3
ACDB_MLEADERSTYLE_CLASS
 90
     4095
280
     0
281
     0
  0
CLASS
  1
SUN
  2
AcDbSun
  3
SCENEOE
 90
     1153
280
     0
281
     0
  0
CLASS
  1
DICTIONARYVAR
  2
AcDbDictionaryVar
  3
ObjectDBX Classes
 90
        0
280
     0
281
     0
  0
CLASS
  1
XRECORD
  2
AcDbXrecord
  3
ObjectDBX Classes
 90
        0
280
     0
281
     0
  0
CLASS
  1
LWPOLYLINE
  2
AcDbPolyline
  3
ObjectDBX Classes
 90
        0
280
     0
281
     1
  0
CLASS
  1
HATCH
  2
AcDbHatch
  3
ObjectDBX Classes
 90
        0
280
     0
281
     1
  0
CLASS
  1
ACDBPLACEHOLDER
  2
AcDbPlaceHolder
  3
ObjectDBX Classes
 90
        0
280
     0
281
     0
  0
CLASS
  1
LAYOUT
  2
AcDbLayout
  3
ObjectDBX Classes
 90
        0
280
     0
281
     0
  0
ENDSEC
  0
SECTION
  2
TABLES
  0
TABLE
  2
VPORT
  5
8
102
{ACAD_XDICTIONARY
360
4CD
102
}
330
0
100
AcDbSymbolTable
 70
     1
  0
VPORT
  5
29
330
8
100
AcDbSymbolTableRecord
100
AcDbViewportTableRecord
  2
*ACTIVE
 70
     0
 10
0.0
 20
0.0
 11
1.0
 21
1.0
 12
10.42990654205607
 22
4.5
 13
0.0
 23
0.0
 14
0.5
 24
0.5
 15
0.5
 25
0.5
 16
0.0
 26
0.0
 36
1.0
 17
0.0
 27
0.0
 37
0.0
 40
9.0
 41
1.972972972850329
 42
50.0
 43
0.0
 44
0.0
 50
0.0
 51
0.0
 71
     0
 72
   100
 73
     1
 74
     3
 75
     0
 76
     0
 77
     0
 78
     0
  0
ENDTAB
  0
TABLE
  2
LTYPE
  5
5
330
0
100
AcDbSymbolTable
 70
     1
  0
LTYPE
  5
14
330
5
100
AcDbSymbolTableRecord
100
AcDbLinetypeTableRecord
  2
BYBLOCK
 70
     0
  3

 72
    65
 73
     0
 40
0.0
  0
LTYPE
  5
15
330
5
100
AcDbSymbolTableRecord
100
AcDbLinetypeTableRecord
  2
BYLAYER
 70
     0
  3

 72
    65
 73
     0
 40
0.0
  0
LTYPE
  5
16
330
5
100
AcDbSymbolTableRecord
100
AcDbLinetypeTableRecord
  2
CONTINUOUS
 70
     0
  3
Solid line
 72
    65
 73
     0
 40
0.0
  0
ENDTAB
  0
TABLE
  2
LAYER
  5
2
330
0
100
AcDbSymbolTable
 70
     2
  0
LAYER
  5
10
330
2
100
AcDbSymbolTableRecord
100
AcDbLayerTableRecord
  2
0
 70
     0
 62
     7
  6
CONTINUOUS
  0
LAYER
  5
5F
330
2
100
AcDbSymbolTableRecord
100
AcDbLayerTableRecord
  2
GNAP$WIFI_ANTENNA
 70
     0
 62
    18
  6
CONTINUOUS
  0
ENDTAB
  0
TABLE
  2
STYLE
  5
3
330
0
100
AcDbSymbolTable
 70
     1
  0
STYLE
  5
11
330
3
100
AcDbSymbolTableRecord
100
AcDbTextStyleTableRecord
  2
STANDARD
 70
     0
 40
0.0
 41
1.0
 50
0.0
 71
     0
 42
0.2
  3
txt
  4

  0
ENDTAB
  0
TABLE
  2
VIEW
  5
6
330
0
100
AcDbSymbolTable
 70
     0
  0
ENDTAB
  0
TABLE
  2
UCS
  5
7
330
0
100
AcDbSymbolTable
 70
     0
  0
ENDTAB
  0
TABLE
  2
APPID
  5
9
330
0
100
AcDbSymbolTable
 70
     3
  0
APPID
  5
12
330
9
100
AcDbSymbolTableRecord
100
AcDbRegAppTableRecord
  2
ACAD
 70
     0
  0
APPID
  5
5E
330
9
100
AcDbSymbolTableRecord
100
AcDbRegAppTableRecord
  2
RHINO
 70
     0
  0
APPID
  5
4D7
330
9
100
AcDbSymbolTableRecord
100
AcDbRegAppTableRecord
  2
ACAD_MLEADERVER
 70
     0
  0
ENDTAB
  0
TABLE
  2
DIMSTYLE
  5
A
330
0
100
AcDbSymbolTable
 70
     1
  0
DIMSTYLE
105
27
330
A
100
AcDbSymbolTableRecord
100
AcDbDimStyleTableRecord
  2
STANDARD_ACAD
 70
     0
  3

  4

  5

  6

  7

 40
1.0
 41
0.18
 42
0.0625
 43
0.38
 44
0.18
 45
0.0
 46
0.0
 47
0.0
 48
0.0
140
0.18
141
0.09
142
0.0
143
25.4
144
1.0
145
0.0
146
1.0
147
0.09
 71
     0
 72
     0
 73
     1
 74
     1
 75
     0
 76
     0
 77
     0
 78
     0
170
     0
171
     2
172
     0
173
     0
174
     0
175
     0
176
     0
177
     0
178
     0
270
     2
271
     4
272
     4
273
     2
274
     2
340
11
275
     0
280
     0
281
     0
282
     0
283
     1
284
     0
285
     0
286
     0
287
     3
288
     0
  0
ENDTAB
  0
TABLE
  2
BLOCK_RECORD
  5
1
330
0
100
AcDbSymbolTable
 70
     0
  0
BLOCK_RECORD
  5
1F
330
1
100
AcDbSymbolTableRecord
100
AcDbBlockTableRecord
  2
*MODEL_SPACE
  0
BLOCK_RECORD
  5
1B
330
1
100
AcDbSymbolTableRecord
100
AcDbBlockTableRecord
  2
*PAPER_SPACE
  0
ENDTAB
  0
ENDSEC
  0
SECTION
  2
BLOCKS
  0
BLOCK
  5
20
330
1F
100
AcDbEntity
  8
0
100
AcDbBlockBegin
  2
*MODEL_SPACE
 70
     0
 10
0.0
 20
0.0
 30
0.0
  3
*MODEL_SPACE
  1

  0
ENDBLK
  5
21
330
1F
100
AcDbEntity
  8
0
100
AcDbBlockEnd
  0
BLOCK
  5
1C
330
1B
100
AcDbEntity
 67
     1
  8
0
100
AcDbBlockBegin
  2
*PAPER_SPACE
 70
     0
 10
0.0
 20
0.0
 30
0.0
  3
*PAPER_SPACE
  1

  0
ENDBLK
  5
1D
330
1B
100
AcDbEntity
 67
     1
  8
0
100
AcDbBlockEnd
  0
ENDSEC
  0
SECTION
  2
ENTITIES
  0
POLYLINE
  5
60
330
1F
100
AcDbEntity
  8
GNAP$WIFI_ANTENNA
100
AcDb2dPolyline
 66
     1
 10
0.0
 20
0.0
 30
31.70050780245393
 70
     1
  0
VERTEX
  5
61
330
60
100
AcDbEntity
  8
GNAP$WIFI_ANTENNA
100
AcDbVertex
100
AcDb2dVertex
 10
-110.0623624461101
 20
1098.778787870521
 30
31.70050780245393
  0
VERTEX
  5
62
330
60
100
AcDbEntity
  8
GNAP$WIFI_ANTENNA
100
AcDbVertex
100
AcDb2dVertex
 10
-110.8613624461101
 20
1098.778787870521
 30
31.70050780245393
  0
VERTEX
  5
63
330
60
100
AcDbEntity
  8
GNAP$WIFI_ANTENNA
100
AcDbVertex
100
AcDb2dVertex
 10
-110.8613624461101
 20
1099.379587870521
 30
31.70050780245393
  0
VERTEX
  5
64
330
60
100
AcDbEntity
  8
GNAP$WIFI_ANTENNA
100
AcDbVertex
100
AcDb2dVertex
 10
-109.3373624461101
 20
1099.379587870521
 30
31.70050780245393
  0
VERTEX
  5
65
330
60
100
AcDbEntity
  8
GNAP$WIFI_ANTENNA
100
AcDbVertex
100
AcDb2dVertex
 10
-109.3373624461101
 20
1096.149487870521
 30
31.70050780245393
  0
VERTEX
  5
66
330
60
100
AcDbEntity
  8
GNAP$WIFI_ANTENNA
100
AcDbVertex
100
AcDb2dVertex
 10
-107.6123624461101
 20
1096.149487870521
 30
31.70050780245393
  0
VERTEX
  5
67
330
60
100
AcDbEntity
  8
GNAP$WIFI_ANTENNA
100
AcDbVertex
100
AcDb2dVertex
 10
-107.6123624461101
 20
1095.228987870521
 30
31.70050780245393
  0
VERTEX
  5
68
330
60
100
AcDbEntity
  8
GNAP$WIFI_ANTENNA
100
AcDbVertex
100
AcDb2dVertex
 10
-104.3113624461101
 20
1095.228987870521
 30
31.70050780245393
  0
VERTEX
  5
69
330
60
100
AcDbEntity
  8
GNAP$WIFI_ANTENNA
100
AcDbVertex
100
AcDb2dVertex
 10
-104.3113624461101
 20
1096.149487870521
 30
31.70050780245393
  0
VERTEX
  5
6A
330
60
100
AcDbEntity
  8
GNAP$WIFI_ANTENNA
100
AcDbVertex
100
AcDb2dVertex
 10
-102.5863624461101
 20
1096.149487870521
 30
31.70050780245393
  0
VERTEX
  5
6B
330
60
100
AcDbEntity
  8
GNAP$WIFI_ANTENNA
100
AcDbVertex
100
AcDb2dVertex
 10
-102.5863624461101
 20
1099.379587870521
 30
31.70050780245393
  0
VERTEX
  5
6C
330
60
100
AcDbEntity
  8
GNAP$WIFI_ANTENNA
100
AcDbVertex
100
AcDb2dVertex
 10
-101.7623624461101
 20
1099.379587870521
 30
31.70050780245393
  0
VERTEX
  5
6D
330
60
100
AcDbEntity
  8
GNAP$WIFI_ANTENNA
100
AcDbVertex
100
AcDb2dVertex
 10
-101.7623624461101
 20
1102.178387870521
 30
31.70050780245393
  0
VERTEX
  5
6E
330
60
100
AcDbEntity
  8
GNAP$WIFI_ANTENNA
100
AcDbVertex
100
AcDb2dVertex
 10
-102.5863624461101
 20
1102.178387870521
 30
31.70050780245393
  0
VERTEX
  5
6F
330
60
100
AcDbEntity
  8
GNAP$WIFI_ANTENNA
100
AcDbVertex
100
AcDb2dVertex
 10
-102.5863624461101
 20
1108.448487870521
 30
31.70050780245393
  0
VERTEX
  5
70
330
60
100
AcDbEntity
  8
GNAP$WIFI_ANTENNA
100
AcDbVertex
100
AcDb2dVertex
 10
-104.3113624461101
 20
1108.448487870521
 30
31.70050780245393
  0
VERTEX
  5
71
330
60
100
AcDbEntity
  8
GNAP$WIFI_ANTENNA
100
AcDbVertex
100
AcDb2dVertex
 10
-104.3113624461101
 20
1109.429587870521
 30
31.70050780245393
  0
VERTEX
  5
72
330
60
100
AcDbEntity
  8
GNAP$WIFI_ANTENNA
100
AcDbVertex
100
AcDb2dVertex
 10
-107.6123624461101
 20
1109.429587870521
 30
31.70050780245393
  0
VERTEX
  5
73
330
60
100
AcDbEntity
  8
GNAP$WIFI_ANTENNA
100
AcDbVertex
100
AcDb2dVertex
 10
-107.6123624461101
 20
1108.448487870521
 30
31.70050780245393
  0
VERTEX
  5
74
330
60
100
AcDbEntity
  8
GNAP$WIFI_ANTENNA
100
AcDbVertex
100
AcDb2dVertex
 10
-109.3373624461101
 20
1108.448487870521
 30
31.70050780245393
  0
VERTEX
  5
75
330
60
100
AcDbEntity
  8
GNAP$WIFI_ANTENNA
100
AcDbVertex
100
AcDb2dVertex
 10
-109.3373624461101
 20
1103.979487870521
 30
31.70050780245393
  0
VERTEX
  5
76
330
60
100
AcDbEntity
  8
GNAP$WIFI_ANTENNA
100
AcDbVertex
100
AcDb2dVertex
 10
-110.8613624461101
 20
1103.979487870521
 30
31.70050780245393
  0
VERTEX
  5
77
330
60
100
AcDbEntity
  8
GNAP$WIFI_ANTENNA
100
AcDbVertex
100
AcDb2dVertex
 10
-110.8613624461101
 20
1104.578987870521
 30
31.70050780245393
  0
VERTEX
  5
78
330
60
100
AcDbEntity
  8
GNAP$WIFI_ANTENNA
100
AcDbVertex
100
AcDb2dVertex
 10
-110.0623624461101
 20
1104.578987870521
 30
31.70050780245393
  0
VERTEX
  5
79
330
60
100
AcDbEntity
  8
GNAP$WIFI_ANTENNA
100
AcDbVertex
100
AcDb2dVertex
 10
-110.0623624461101
 20
1107.679487870521
 30
31.70050780245393
  0
VERTEX
  5
7A
330
60
100
AcDbEntity
  8
GNAP$WIFI_ANTENNA
100
AcDbVertex
100
AcDb2dVertex
 10
-110.8613624461101
 20
1107.679487870521
 30
31.70050780245393
  0
VERTEX
  5
7B
330
60
100
AcDbEntity
  8
GNAP$WIFI_ANTENNA
100
AcDbVertex
100
AcDb2dVertex
 10
-110.8613624461101
 20
1108.678587870521
 30
31.70050780245393
  0
VERTEX
  5
7C
330
60
100
AcDbEntity
  8
GNAP$WIFI_ANTENNA
100
AcDbVertex
100
AcDb2dVertex
 10
-124.8623624461101
 20
1108.678587870521
 30
31.70050780245393
  0
VERTEX
  5
7D
330
60
100
AcDbEntity
  8
GNAP$WIFI_ANTENNA
100
AcDbVertex
100
AcDb2dVertex
 10
-124.8623624461101
 20
1107.679487870521
 30
31.70050780245393
  0
VERTEX
  5
7E
330
60
100
AcDbEntity
  8
GNAP$WIFI_ANTENNA
100
AcDbVertex
100
AcDb2dVertex
 10
-125.6613624461101
 20
1107.679487870521
 30
31.70050780245393
  0
VERTEX
  5
7F
330
60
100
AcDbEntity
  8
GNAP$WIFI_ANTENNA
100
AcDbVertex
100
AcDb2dVertex
 10
-125.6613624461101
 20
1104.578987870521
 30
31.70050780245393
  0
VERTEX
  5
80
330
60
100
AcDbEntity
  8
GNAP$WIFI_ANTENNA
100
AcDbVertex
100
AcDb2dVertex
 10
-124.8623624461101
 20
1104.578987870521
 30
31.70050780245393
  0
VERTEX
  5
81
330
60
100
AcDbEntity
  8
GNAP$WIFI_ANTENNA
100
AcDbVertex
100
AcDb2dVertex
 10
-124.8623624461101
 20
1103.979487870521
 30
31.70050780245393
  0
VERTEX
  5
82
330
60
100
AcDbEntity
  8
GNAP$WIFI_ANTENNA
100
AcDbVertex
100
AcDb2dVertex
 10
-126.3863624461101
 20
1103.979487870521
 30
31.70050780245393
  0
VERTEX
  5
83
330
60
100
AcDbEntity
  8
GNAP$WIFI_ANTENNA
100
AcDbVertex
100
AcDb2dVertex
 10
-126.3863624461101
 20
1108.448487870521
 30
31.70050780245393
  0
VERTEX
  5
84
330
60
100
AcDbEntity
  8
GNAP$WIFI_ANTENNA
100
AcDbVertex
100
AcDb2dVertex
 10
-128.11136244611
 20
1108.448487870521
 30
31.70050780245393
  0
VERTEX
  5
85
330
60
100
AcDbEntity
  8
GNAP$WIFI_ANTENNA
100
AcDbVertex
100
AcDb2dVertex
 10
-128.11136244611
 20
1109.429587870521
 30
31.70050780245393
  0
VERTEX
  5
86
330
60
100
AcDbEntity
  8
GNAP$WIFI_ANTENNA
100
AcDbVertex
100
AcDb2dVertex
 10
-131.41236244611
 20
1109.429587870521
 30
31.70050780245393
  0
VERTEX
  5
87
330
60
100
AcDbEntity
  8
GNAP$WIFI_ANTENNA
100
AcDbVertex
100
AcDb2dVertex
 10
-131.41236244611
 20
1108.448487870521
 30
31.70050780245393
  0
VERTEX
  5
88
330
60
100
AcDbEntity
  8
GNAP$WIFI_ANTENNA
100
AcDbVertex
100
AcDb2dVertex
 10
-133.13736244611
 20
1108.448487870521
 30
31.70050780245393
  0
VERTEX
  5
89
330
60
100
AcDbEntity
  8
GNAP$WIFI_ANTENNA
100
AcDbVertex
100
AcDb2dVertex
 10
-133.13736244611
 20
1102.178387870521
 30
31.70050780245393
  0
VERTEX
  5
8A
330
60
100
AcDbEntity
  8
GNAP$WIFI_ANTENNA
100
AcDbVertex
100
AcDb2dVertex
 10
-133.9613624461101
 20
1102.178387870521
 30
31.70050780245393
  0
VERTEX
  5
8B
330
60
100
AcDbEntity
  8
GNAP$WIFI_ANTENNA
100
AcDbVertex
100
AcDb2dVertex
 10
-133.9613624461101
 20
1099.379587870521
 30
31.70050780245393
  0
VERTEX
  5
8C
330
60
100
AcDbEntity
  8
GNAP$WIFI_ANTENNA
100
AcDbVertex
100
AcDb2dVertex
 10
-133.13736244611
 20
1099.379587870521
 30
31.70050780245393
  0
VERTEX
  5
8D
330
60
100
AcDbEntity
  8
GNAP$WIFI_ANTENNA
100
AcDbVertex
100
AcDb2dVertex
 10
-133.13736244611
 20
1096.149487870521
 30
31.70050780245393
  0
VERTEX
  5
8E
330
60
100
AcDbEntity
  8
GNAP$WIFI_ANTENNA
100
AcDbVertex
100
AcDb2dVertex
 10
-131.41236244611
 20
1096.149487870521
 30
31.70050780245393
  0
VERTEX
  5
8F
330
60
100
AcDbEntity
  8
GNAP$WIFI_ANTENNA
100
AcDbVertex
100
AcDb2dVertex
 10
-131.41236244611
 20
1095.228987870521
 30
31.70050780245393
  0
VERTEX
  5
90
330
60
100
AcDbEntity
  8
GNAP$WIFI_ANTENNA
100
AcDbVertex
100
AcDb2dVertex
 10
-128.11136244611
 20
1095.228987870521
 30
31.70050780245393
  0
VERTEX
  5
91
330
60
100
AcDbEntity
  8
GNAP$WIFI_ANTENNA
100
AcDbVertex
100
AcDb2dVertex
 10
-128.11136244611
 20
1096.149487870521
 30
31.70050780245393
  0
VERTEX
  5
92
330
60
100
AcDbEntity
  8
GNAP$WIFI_ANTENNA
100
AcDbVertex
100
AcDb2dVertex
 10
-126.3863624461101
 20
1096.149487870521
 30
31.70050780245393
  0
VERTEX
  5
93
330
60
100
AcDbEntity
  8
GNAP$WIFI_ANTENNA
100
AcDbVertex
100
AcDb2dVertex
 10
-126.3863624461101
 20
1099.379587870521
 30
31.70050780245393
  0
VERTEX
  5
94
330
60
100
AcDbEntity
  8
GNAP$WIFI_ANTENNA
100
AcDbVertex
100
AcDb2dVertex
 10
-124.8623624461101
 20
1099.379587870521
 30
31.70050780245393
  0
VERTEX
  5
95
330
60
100
AcDbEntity
  8
GNAP$WIFI_ANTENNA
100
AcDbVertex
100
AcDb2dVertex
 10
-124.8623624461101
 20
1098.778787870521
 30
31.70050780245393
  0
VERTEX
  5
96
330
60
100
AcDbEntity
  8
GNAP$WIFI_ANTENNA
100
AcDbVertex
100
AcDb2dVertex
 10
-125.6613624461101
 20
1098.778787870521
 30
31.70050780245393
  0
VERTEX
  5
97
330
60
100
AcDbEntity
  8
GNAP$WIFI_ANTENNA
100
AcDbVertex
100
AcDb2dVertex
 10
-125.6613624461101
 20
1095.679587870521
 30
31.70050780245393
  0
VERTEX
  5
98
330
60
100
AcDbEntity
  8
GNAP$WIFI_ANTENNA
100
AcDbVertex
100
AcDb2dVertex
 10
-124.8623624461101
 20
1095.679587870521
 30
31.70050780245393
  0
VERTEX
  5
99
330
60
100
AcDbEntity
  8
GNAP$WIFI_ANTENNA
100
AcDbVertex
100
AcDb2dVertex
 10
-124.8623624461101
 20
1094.679087870521
 30
31.70050780245393
  0
VERTEX
  5
9A
330
60
100
AcDbEntity
  8
GNAP$WIFI_ANTENNA
100
AcDbVertex
100
AcDb2dVertex
 10
-110.8613624461101
 20
1094.679087870521
 30
31.70050780245393
  0
VERTEX
  5
9B
330
60
100
AcDbEntity
  8
GNAP$WIFI_ANTENNA
100
AcDbVertex
100
AcDb2dVertex
 10
-110.8613624461101
 20
1095.679587870521
 30
31.70050780245393
  0
VERTEX
  5
9C
330
60
100
AcDbEntity
  8
GNAP$WIFI_ANTENNA
100
AcDbVertex
100
AcDb2dVertex
 10
-110.0623624461101
 20
1095.679587870521
 30
31.70050780245393
  0
SEQEND
  5
9D
330
60
100
AcDbEntity
  8
GNAP$WIFI_ANTENNA
  0
POLYLINE
  5
9E
330
1F
100
AcDbEntity
  8
GNAP$WIFI_ANTENNA
100
AcDb2dPolyline
 66
     1
 10
0.0
 20
0.0
 30
31.70050780245393
 70
     1
  0
VERTEX
  5
9F
330
9E
100
AcDbEntity
  8
GNAP$WIFI_ANTENNA
100
AcDbVertex
100
AcDb2dVertex
 10
-0.5233624461100974
 20
1098.778787870521
 30
31.70050780245393
  0
VERTEX
  5
A0
330
9E
100
AcDbEntity
  8
GNAP$WIFI_ANTENNA
100
AcDbVertex
100
AcDb2dVertex
 10
-1.325362446110118
 20
1098.778787870521
 30
31.70050780245393
  0
VERTEX
  5
A1
330
9E
100
AcDbEntity
  8
GNAP$WIFI_ANTENNA
100
AcDbVertex
100
AcDb2dVertex
 10
-1.325362446110118
 20
1104.578987870521
 30
31.70050780245393
  0
VERTEX
  5
A2
330
9E
100
AcDbEntity
  8
GNAP$WIFI_ANTENNA
100
AcDbVertex
100
AcDb2dVertex
 10
-0.5233624461100974
 20
1104.578987870521
 30
31.70050780245393
  0
VERTEX
  5
A3
330
9E
100
AcDbEntity
  8
GNAP$WIFI_ANTENNA
100
AcDbVertex
100
AcDb2dVertex
 10
-0.5233624461100974
 20
1107.679487870521
 30
31.70050780245393
  0
VERTEX
  5
A4
330
9E
100
AcDbEntity
  8
GNAP$WIFI_ANTENNA
100
AcDbVertex
100
AcDb2dVertex
 10
-1.325362446110118
 20
1107.679487870521
 30
31.70050780245393
  0
VERTEX
  5
A5
330
9E
100
AcDbEntity
  8
GNAP$WIFI_ANTENNA
100
AcDbVertex
100
AcDb2dVertex
 10
-1.325362446110118
 20
1108.678587870521
 30
31.70050780245393
  0
VERTEX
  5
A6
330
9E
100
AcDbEntity
  8
GNAP$WIFI_ANTENNA
100
AcDbVertex
100
AcDb2dVertex
 10
-15.3248624461101
 20
1108.678587870521
 30
31.70050780245393
  0
VERTEX
  5
A7
330
9E
100
AcDbEntity
  8
GNAP$WIFI_ANTENNA
100
AcDbVertex
100
AcDb2dVertex
 10
-15.3248624461101
 20
1107.679487870521
 30
31.70050780245393
  0
VERTEX
  5
A8
330
9E
100
AcDbEntity
  8
GNAP$WIFI_ANTENNA
100
AcDbVertex
100
AcDb2dVertex
 10
-16.12406244611011
 20
1107.679487870521
 30
31.70050780245393
  0
VERTEX
  5
A9
330
9E
100
AcDbEntity
  8
GNAP$WIFI_ANTENNA
100
AcDbVertex
100
AcDb2dVertex
 10
-16.12406244611011
 20
1104.578987870521
 30
31.70050780245393
  0
VERTEX
  5
AA
330
9E
100
AcDbEntity
  8
GNAP$WIFI_ANTENNA
100
AcDbVertex
100
AcDb2dVertex
 10
-15.3248624461101
 20
1104.578987870521
 30
31.70050780245393
  0
VERTEX
  5
AB
330
9E
100
AcDbEntity
  8
GNAP$WIFI_ANTENNA
100
AcDbVertex
100
AcDb2dVertex
 10
-15.3248624461101
 20
1098.778787870521
 30
31.70050780245393
  0
VERTEX
  5
AC
330
9E
100
AcDbEntity
  8
GNAP$WIFI_ANTENNA
100
AcDbVertex
100
AcDb2dVertex
 10
-16.12406244611011
 20
1098.778787870521
 30
31.70050780245393
  0
VERTEX
  5
AD
330
9E
100
AcDbEntity
  8
GNAP$WIFI_ANTENNA
100
AcDbVertex
100
AcDb2dVertex
 10
-16.12406244611011
 20
1095.679587870521
 30
31.70050780245393
  0
VERTEX
  5
AE
330
9E
100
AcDbEntity
  8
GNAP$WIFI_ANTENNA
100
AcDbVertex
100
AcDb2dVertex
 10
-15.3248624461101
 20
1095.679587870521
 30
31.70050780245393
  0
VERTEX
  5
AF
330
9E
100
AcDbEntity
  8
GNAP$WIFI_ANTENNA
100
AcDbVertex
100
AcDb2dVertex
 10
-15.3248624461101
 20
1094.679087870521
 30
31.70050780245393
  0
VERTEX
  5
B0
330
9E
100
AcDbEntity
  8
GNAP$WIFI_ANTENNA
100
AcDbVertex
100
AcDb2dVertex
 10
-1.325362446110118
 20
1094.679087870521
 30
31.70050780245393
  0
VERTEX
  5
B1
330
9E
100
AcDbEntity
  8
GNAP$WIFI_ANTENNA
100
AcDbVertex
100
AcDb2dVertex
 10
-1.325362446110118
 20
1095.679587870521
 30
31.70050780245393
  0
VERTEX
  5
B2
330
9E
100
AcDbEntity
  8
GNAP$WIFI_ANTENNA
100
AcDbVertex
100
AcDb2dVertex
 10
-0.5233624461100974
 20
1095.679587870521
 30
31.70050780245393
  0
SEQEND
  5
B3
330
9E
100
AcDbEntity
  8
GNAP$WIFI_ANTENNA
  0
POLYLINE
  5
B4
330
1F
100
AcDbEntity
  8
GNAP$WIFI_ANTENNA
100
AcDb2dPolyline
 66
     1
 10
0.0
 20
0.0
 30
31.70050780245393
 70
     1
  0
VERTEX
  5
B5
330
B4
100
AcDbEntity
  8
GNAP$WIFI_ANTENNA
100
AcDbVertex
100
AcDb2dVertex
 10
-19.57476244611009
 20
1098.778787870521
 30
31.70050780245393
  0
VERTEX
  5
B6
330
B4
100
AcDbEntity
  8
GNAP$WIFI_ANTENNA
100
AcDbVertex
100
AcDb2dVertex
 10
-20.37526244611012
 20
1098.778787870521
 30
31.70050780245393
  0
VERTEX
  5
B7
330
B4
100
AcDbEntity
  8
GNAP$WIFI_ANTENNA
100
AcDbVertex
100
AcDb2dVertex
 10
-20.37526244611012
 20
1104.578987870521
 30
31.70050780245393
  0
VERTEX
  5
B8
330
B4
100
AcDbEntity
  8
GNAP$WIFI_ANTENNA
100
AcDbVertex
100
AcDb2dVertex
 10
-19.57476244611009
 20
1104.578987870521
 30
31.70050780245393
  0
VERTEX
  5
B9
330
B4
100
AcDbEntity
  8
GNAP$WIFI_ANTENNA
100
AcDbVertex
100
AcDb2dVertex
 10
-19.57476244611009
 20
1107.679487870521
 30
31.70050780245393
  0
VERTEX
  5
BA
330
B4
100
AcDbEntity
  8
GNAP$WIFI_ANTENNA
100
AcDbVertex
100
AcDb2dVertex
 10
-20.37526244611012
 20
1107.679487870521
 30
31.70050780245393
  0
VERTEX
  5
BB
330
B4
100
AcDbEntity
  8
GNAP$WIFI_ANTENNA
100
AcDbVertex
100
AcDb2dVertex
 10
-20.37526244611012
 20
1108.678587870521
 30
31.70050780245393
  0
VERTEX
  5
BC
330
B4
100
AcDbEntity
  8
GNAP$WIFI_ANTENNA
100
AcDbVertex
100
AcDb2dVertex
 10
-34.3748624461101
 20
1108.678587870521
 30
31.70050780245393
  0
VERTEX
  5
BD
330
B4
100
AcDbEntity
  8
GNAP$WIFI_ANTENNA
100
AcDbVertex
100
AcDb2dVertex
 10
-34.3748624461101
 20
1107.679487870521
 30
31.70050780245393
  0
VERTEX
  5
BE
330
B4
100
AcDbEntity
  8
GNAP$WIFI_ANTENNA
100
AcDbVertex
100
AcDb2dVertex
 10
-35.1753624461101
 20
1107.679487870521
 30
31.70050780245393
  0
VERTEX
  5
BF
330
B4
100
AcDbEntity
  8
GNAP$WIFI_ANTENNA
100
AcDbVertex
100
AcDb2dVertex
 10
-35.1753624461101
 20
1104.578987870521
 30
31.70050780245393
  0
VERTEX
  5
C0
330
B4
100
AcDbEntity
  8
GNAP$WIFI_ANTENNA
100
AcDbVertex
100
AcDb2dVertex
 10
-34.3748624461101
 20
1104.578987870521
 30
31.70050780245393
  0
VERTEX
  5
C1
330
B4
100
AcDbEntity
  8
GNAP$WIFI_ANTENNA
100
AcDbVertex
100
AcDb2dVertex
 10
-34.3748624461101
 20
1098.778787870521
 30
31.70050780245393
  0
VERTEX
  5
C2
330
B4
100
AcDbEntity
  8
GNAP$WIFI_ANTENNA
100
AcDbVertex
100
AcDb2dVertex
 10
-35.1753624461101
 20
1098.778787870521
 30
31.70050780245393
  0
VERTEX
  5
C3
330
B4
100
AcDbEntity
  8
GNAP$WIFI_ANTENNA
100
AcDbVertex
100
AcDb2dVertex
 10
-35.1753624461101
 20
1095.679587870521
 30
31.70050780245393
  0
VERTEX
  5
C4
330
B4
100
AcDbEntity
  8
GNAP$WIFI_ANTENNA
100
AcDbVertex
100
AcDb2dVertex
 10
-34.3748624461101
 20
1095.679587870521
 30
31.70050780245393
  0
VERTEX
  5
C5
330
B4
100
AcDbEntity
  8
GNAP$WIFI_ANTENNA
100
AcDbVertex
100
AcDb2dVertex
 10
-34.3748624461101
 20
1094.679087870521
 30
31.70050780245393
  0
VERTEX
  5
C6
330
B4
100
AcDbEntity
  8
GNAP$WIFI_ANTENNA
100
AcDbVertex
100
AcDb2dVertex
 10
-20.37526244611012
 20
1094.679087870521
 30
31.70050780245393
  0
VERTEX
  5
C7
330
B4
100
AcDbEntity
  8
GNAP$WIFI_ANTENNA
100
AcDbVertex
100
AcDb2dVertex
 10
-20.37526244611012
 20
1095.679587870521
 30
31.70050780245393
  0
VERTEX
  5
C8
330
B4
100
AcDbEntity
  8
GNAP$WIFI_ANTENNA
100
AcDbVertex
100
AcDb2dVertex
 10
-19.57476244611009
 20
1095.679587870521
 30
31.70050780245393
  0
SEQEND
  5
C9
330
B4
100
AcDbEntity
  8
GNAP$WIFI_ANTENNA
  0
POLYLINE
  5
CA
330
1F
100
AcDbEntity
  8
GNAP$WIFI_ANTENNA
100
AcDb2dPolyline
 66
     1
 10
0.0
 20
0.0
 30
31.70050780245393
 70
     1
  0
VERTEX
  5
CB
330
CA
100
AcDbEntity
  8
GNAP$WIFI_ANTENNA
100
AcDbVertex
100
AcDb2dVertex
 10
-38.6247624461101
 20
1098.778787870521
 30
31.70050780245393
  0
VERTEX
  5
CC
330
CA
100
AcDbEntity
  8
GNAP$WIFI_ANTENNA
100
AcDbVertex
100
AcDb2dVertex
 10
-39.4252624461101
 20
1098.778787870521
 30
31.70050780245393
  0
VERTEX
  5
CD
330
CA
100
AcDbEntity
  8
GNAP$WIFI_ANTENNA
100
AcDbVertex
100
AcDb2dVertex
 10
-39.4252624461101
 20
1104.578987870521
 30
31.70050780245393
  0
VERTEX
  5
CE
330
CA
100
AcDbEntity
  8
GNAP$WIFI_ANTENNA
100
AcDbVertex
100
AcDb2dVertex
 10
-38.6247624461101
 20
1104.578987870521
 30
31.70050780245393
  0
VERTEX
  5
CF
330
CA
100
AcDbEntity
  8
GNAP$WIFI_ANTENNA
100
AcDbVertex
100
AcDb2dVertex
 10
-38.6247624461101
 20
1107.679487870521
 30
31.70050780245393
  0
VERTEX
  5
D0
330
CA
100
AcDbEntity
  8
GNAP$WIFI_ANTENNA
100
AcDbVertex
100
AcDb2dVertex
 10
-39.4252624461101
 20
1107.679487870521
 30
31.70050780245393
  0
VERTEX
  5
D1
330
CA
100
AcDbEntity
  8
GNAP$WIFI_ANTENNA
100
AcDbVertex
100
AcDb2dVertex
 10
-39.4252624461101
 20
1108.678587870521
 30
31.70050780245393
  0
VERTEX
  5
D2
330
CA
100
AcDbEntity
  8
GNAP$WIFI_ANTENNA
100
AcDbVertex
100
AcDb2dVertex
 10
-53.4248624461101
 20
1108.678587870521
 30
31.70050780245393
  0
VERTEX
  5
D3
330
CA
100
AcDbEntity
  8
GNAP$WIFI_ANTENNA
100
AcDbVertex
100
AcDb2dVertex
 10
-53.4248624461101
 20
1107.679487870521
 30
31.70050780245393
  0
VERTEX
  5
D4
330
CA
100
AcDbEntity
  8
GNAP$WIFI_ANTENNA
100
AcDbVertex
100
AcDb2dVertex
 10
-54.2253624461101
 20
1107.679487870521
 30
31.70050780245393
  0
VERTEX
  5
D5
330
CA
100
AcDbEntity
  8
GNAP$WIFI_ANTENNA
100
AcDbVertex
100
AcDb2dVertex
 10
-54.2253624461101
 20
1104.578987870521
 30
31.70050780245393
  0
VERTEX
  5
D6
330
CA
100
AcDbEntity
  8
GNAP$WIFI_ANTENNA
100
AcDbVertex
100
AcDb2dVertex
 10
-53.4248624461101
 20
1104.578987870521
 30
31.70050780245393
  0
VERTEX
  5
D7
330
CA
100
AcDbEntity
  8
GNAP$WIFI_ANTENNA
100
AcDbVertex
100
AcDb2dVertex
 10
-53.4248624461101
 20
1098.778787870521
 30
31.70050780245393
  0
VERTEX
  5
D8
330
CA
100
AcDbEntity
  8
GNAP$WIFI_ANTENNA
100
AcDbVertex
100
AcDb2dVertex
 10
-54.2253624461101
 20
1098.778787870521
 30
31.70050780245393
  0
VERTEX
  5
D9
330
CA
100
AcDbEntity
  8
GNAP$WIFI_ANTENNA
100
AcDbVertex
100
AcDb2dVertex
 10
-54.2253624461101
 20
1095.679587870521
 30
31.70050780245393
  0
VERTEX
  5
DA
330
CA
100
AcDbEntity
  8
GNAP$WIFI_ANTENNA
100
AcDbVertex
100
AcDb2dVertex
 10
-53.4248624461101
 20
1095.679587870521
 30
31.70050780245393
  0
VERTEX
  5
DB
330
CA
100
AcDbEntity
  8
GNAP$WIFI_ANTENNA
100
AcDbVertex
100
AcDb2dVertex
 10
-53.4248624461101
 20
1094.679087870521
 30
31.70050780245393
  0
VERTEX
  5
DC
330
CA
100
AcDbEntity
  8
GNAP$WIFI_ANTENNA
100
AcDbVertex
100
AcDb2dVertex
 10
-39.4252624461101
 20
1094.679087870521
 30
31.70050780245393
  0
VERTEX
  5
DD
330
CA
100
AcDbEntity
  8
GNAP$WIFI_ANTENNA
100
AcDbVertex
100
AcDb2dVertex
 10
-39.4252624461101
 20
1095.679587870521
 30
31.70050780245393
  0
VERTEX
  5
DE
330
CA
100
AcDbEntity
  8
GNAP$WIFI_ANTENNA
100
AcDbVertex
100
AcDb2dVertex
 10
-38.6247624461101
 20
1095.679587870521
 30
31.70050780245393
  0
SEQEND
  5
DF
330
CA
100
AcDbEntity
  8
GNAP$WIFI_ANTENNA
  0
POLYLINE
  5
E0
330
1F
100
AcDbEntity
  8
GNAP$WIFI_ANTENNA
100
AcDb2dPolyline
 66
     1
 10
0.0
 20
0.0
 30
31.70050780245393
 70
     1
  0
VERTEX
  5
E1
330
E0
100
AcDbEntity
  8
GNAP$WIFI_ANTENNA
100
AcDbVertex
100
AcDb2dVertex
 10
-57.67476244611009
 20
1098.778787870521
 30
31.70050780245393
  0
VERTEX
  5
E2
330
E0
100
AcDbEntity
  8
GNAP$WIFI_ANTENNA
100
AcDbVertex
100
AcDb2dVertex
 10
-58.47526244611009
 20
1098.778787870521
 30
31.70050780245393
  0
VERTEX
  5
E3
330
E0
100
AcDbEntity
  8
GNAP$WIFI_ANTENNA
100
AcDbVertex
100
AcDb2dVertex
 10
-58.47526244611009
 20
1104.578987870521
 30
31.70050780245393
  0
VERTEX
  5
E4
330
E0
100
AcDbEntity
  8
GNAP$WIFI_ANTENNA
100
AcDbVertex
100
AcDb2dVertex
 10
-57.67476244611009
 20
1104.578987870521
 30
31.70050780245393
  0
VERTEX
  5
E5
330
E0
100
AcDbEntity
  8
GNAP$WIFI_ANTENNA
100
AcDbVertex
100
AcDb2dVertex
 10
-57.67476244611009
 20
1107.679487870521
 30
31.70050780245393
  0
VERTEX
  5
E6
330
E0
100
AcDbEntity
  8
GNAP$WIFI_ANTENNA
100
AcDbVertex
100
AcDb2dVertex
 10
-58.47526244611009
 20
1107.679487870521
 30
31.70050780245393
  0
VERTEX
  5
E7
330
E0
100
AcDbEntity
  8
GNAP$WIFI_ANTENNA
100
AcDbVertex
100
AcDb2dVertex
 10
-58.47526244611009
 20
1108.678587870521
 30
31.70050780245393
  0
VERTEX
  5
E8
330
E0
100
AcDbEntity
  8
GNAP$WIFI_ANTENNA
100
AcDbVertex
100
AcDb2dVertex
 10
-72.47486244611008
 20
1108.678587870521
 30
31.70050780245393
  0
VERTEX
  5
E9
330
E0
100
AcDbEntity
  8
GNAP$WIFI_ANTENNA
100
AcDbVertex
100
AcDb2dVertex
 10
-72.47486244611008
 20
1107.679487870521
 30
31.70050780245393
  0
VERTEX
  5
EA
330
E0
100
AcDbEntity
  8
GNAP$WIFI_ANTENNA
100
AcDbVertex
100
AcDb2dVertex
 10
-73.27536244611008
 20
1107.679487870521
 30
31.70050780245393
  0
VERTEX
  5
EB
330
E0
100
AcDbEntity
  8
GNAP$WIFI_ANTENNA
100
AcDbVertex
100
AcDb2dVertex
 10
-73.27536244611008
 20
1104.578987870521
 30
31.70050780245393
  0
VERTEX
  5
EC
330
E0
100
AcDbEntity
  8
GNAP$WIFI_ANTENNA
100
AcDbVertex
100
AcDb2dVertex
 10
-72.47486244611008
 20
1104.578987870521
 30
31.70050780245393
  0
VERTEX
  5
ED
330
E0
100
AcDbEntity
  8
GNAP$WIFI_ANTENNA
100
AcDbVertex
100
AcDb2dVertex
 10
-72.47486244611008
 20
1098.778787870521
 30
31.70050780245393
  0
VERTEX
  5
EE
330
E0
100
AcDbEntity
  8
GNAP$WIFI_ANTENNA
100
AcDbVertex
100
AcDb2dVertex
 10
-73.27536244611008
 20
1098.778787870521
 30
31.70050780245393
  0
VERTEX
  5
EF
330
E0
100
AcDbEntity
  8
GNAP$WIFI_ANTENNA
100
AcDbVertex
100
AcDb2dVertex
 10
-73.27536244611008
 20
1095.679587870521
 30
31.70050780245393
  0
VERTEX
  5
F0
330
E0
100
AcDbEntity
  8
GNAP$WIFI_ANTENNA
100
AcDbVertex
100
AcDb2dVertex
 10
-72.47486244611008
 20
1095.679587870521
 30
31.70050780245393
  0
VERTEX
  5
F1
330
E0
100
AcDbEntity
  8
GNAP$WIFI_ANTENNA
100
AcDbVertex
100
AcDb2dVertex
 10
-72.47486244611008
 20
1094.679087870521
 30
31.70050780245393
  0
VERTEX
  5
F2
330
E0
100
AcDbEntity
  8
GNAP$WIFI_ANTENNA
100
AcDbVertex
100
AcDb2dVertex
 10
-58.47526244611009
 20
1094.679087870521
 30
31.70050780245393
  0
VERTEX
  5
F3
330
E0
100
AcDbEntity
  8
GNAP$WIFI_ANTENNA
100
AcDbVertex
100
AcDb2dVertex
 10
-58.47526244611009
 20
1095.679587870521
 30
31.70050780245393
  0
VERTEX
  5
F4
330
E0
100
AcDbEntity
  8
GNAP$WIFI_ANTENNA
100
AcDbVertex
100
AcDb2dVertex
 10
-57.67476244611009
 20
1095.679587870521
 30
31.70050780245393
  0
SEQEND
  5
F5
330
E0
100
AcDbEntity
  8
GNAP$WIFI_ANTENNA
  0
POLYLINE
  5
F6
330
1F
100
AcDbEntity
  8
GNAP$WIFI_ANTENNA
100
AcDb2dPolyline
 66
     1
 10
0.0
 20
0.0
 30
31.70050780245393
 70
     1
  0
VERTEX
  5
F7
330
F6
100
AcDbEntity
  8
GNAP$WIFI_ANTENNA
100
AcDbVertex
100
AcDb2dVertex
 10
-79.10606244611009
 20
1098.778787870521
 30
31.70050780245393
  0
VERTEX
  5
F8
330
F6
100
AcDbEntity
  8
GNAP$WIFI_ANTENNA
100
AcDbVertex
100
AcDb2dVertex
 10
-79.90506244611008
 20
1098.778787870521
 30
31.70050780245393
  0
VERTEX
  5
F9
330
F6
100
AcDbEntity
  8
GNAP$WIFI_ANTENNA
100
AcDbVertex
100
AcDb2dVertex
 10
-79.90506244611008
 20
1104.578987870521
 30
31.70050780245393
  0
VERTEX
  5
FA
330
F6
100
AcDbEntity
  8
GNAP$WIFI_ANTENNA
100
AcDbVertex
100
AcDb2dVertex
 10
-79.10606244611009
 20
1104.578987870521
 30
31.70050780245393
  0
VERTEX
  5
FB
330
F6
100
AcDbEntity
  8
GNAP$WIFI_ANTENNA
100
AcDbVertex
100
AcDb2dVertex
 10
-79.10606244611009
 20
1107.679487870521
 30
31.70050780245393
  0
VERTEX
  5
FC
330
F6
100
AcDbEntity
  8
GNAP$WIFI_ANTENNA
100
AcDbVertex
100
AcDb2dVertex
 10
-79.90506244611008
 20
1107.679487870521
 30
31.70050780245393
  0
VERTEX
  5
FD
330
F6
100
AcDbEntity
  8
GNAP$WIFI_ANTENNA
100
AcDbVertex
100
AcDb2dVertex
 10
-79.90506244611008
 20
1108.678587870521
 30
31.70050780245393
  0
VERTEX
  5
FE
330
F6
100
AcDbEntity
  8
GNAP$WIFI_ANTENNA
100
AcDbVertex
100
AcDb2dVertex
 10
-93.90636244611008
 20
1108.678587870521
 30
31.70050780245393
  0
VERTEX
  5
FF
330
F6
100
AcDbEntity
  8
GNAP$WIFI_ANTENNA
100
AcDbVertex
100
AcDb2dVertex
 10
-93.90636244611008
 20
1107.679487870521
 30
31.70050780245393
  0
VERTEX
  5
100
330
F6
100
AcDbEntity
  8
GNAP$WIFI_ANTENNA
100
AcDbVertex
100
AcDb2dVertex
 10
-94.70536244611009
 20
1107.679487870521
 30
31.70050780245393
  0
VERTEX
  5
101
330
F6
100
AcDbEntity
  8
GNAP$WIFI_ANTENNA
100
AcDbVertex
100
AcDb2dVertex
 10
-94.70536244611009
 20
1104.578987870521
 30
31.70050780245393
  0
VERTEX
  5
102
330
F6
100
AcDbEntity
  8
GNAP$WIFI_ANTENNA
100
AcDbVertex
100
AcDb2dVertex
 10
-93.90636244611008
 20
1104.578987870521
 30
31.70050780245393
  0
VERTEX
  5
103
330
F6
100
AcDbEntity
  8
GNAP$WIFI_ANTENNA
100
AcDbVertex
100
AcDb2dVertex
 10
-93.90636244611008
 20
1098.778787870521
 30
31.70050780245393
  0
VERTEX
  5
104
330
F6
100
AcDbEntity
  8
GNAP$WIFI_ANTENNA
100
AcDbVertex
100
AcDb2dVertex
 10
-94.70536244611009
 20
1098.778787870521
 30
31.70050780245393
  0
VERTEX
  5
105
330
F6
100
AcDbEntity
  8
GNAP$WIFI_ANTENNA
100
AcDbVertex
100
AcDb2dVertex
 10
-94.70536244611009
 20
1095.679587870521
 30
31.70050780245393
  0
VERTEX
  5
106
330
F6
100
AcDbEntity
  8
GNAP$WIFI_ANTENNA
100
AcDbVertex
100
AcDb2dVertex
 10
-93.90636244611008
 20
1095.679587870521
 30
31.70050780245393
  0
VERTEX
  5
107
330
F6
100
AcDbEntity
  8
GNAP$WIFI_ANTENNA
100
AcDbVertex
100
AcDb2dVertex
 10
-93.90636244611008
 20
1094.679087870521
 30
31.70050780245393
  0
VERTEX
  5
108
330
F6
100
AcDbEntity
  8
GNAP$WIFI_ANTENNA
100
AcDbVertex
100
AcDb2dVertex
 10
-79.90506244611008
 20
1094.679087870521
 30
31.70050780245393
  0
VERTEX
  5
109
330
F6
100
AcDbEntity
  8
GNAP$WIFI_ANTENNA
100
AcDbVertex
100
AcDb2dVertex
 10
-79.90506244611008
 20
1095.679587870521
 30
31.70050780245393
  0
VERTEX
  5
10A
330
F6
100
AcDbEntity
  8
GNAP$WIFI_ANTENNA
100
AcDbVertex
100
AcDb2dVertex
 10
-79.10606244611009
 20
1095.679587870521
 30
31.70050780245393
  0
SEQEND
  5
10B
330
F6
100
AcDbEntity
  8
GNAP$WIFI_ANTENNA
  0
POLYLINE
  5
10C
330
1F
100
AcDbEntity
  8
GNAP$WIFI_ANTENNA
100
AcDb2dPolyline
 66
     1
 10
0.0
 20
0.0
 30
31.70050780245393
 70
     1
  0
VERTEX
  5
10D
330
10C
100
AcDbEntity
  8
GNAP$WIFI_ANTENNA
100
AcDbVertex
100
AcDb2dVertex
 10
-141.01836244611
 20
1098.778787870521
 30
31.70050780245393
  0
VERTEX
  5
10E
330
10C
100
AcDbEntity
  8
GNAP$WIFI_ANTENNA
100
AcDbVertex
100
AcDb2dVertex
 10
-141.8173624461101
 20
1098.778787870521
 30
31.70050780245393
  0
VERTEX
  5
10F
330
10C
100
AcDbEntity
  8
GNAP$WIFI_ANTENNA
100
AcDbVertex
100
AcDb2dVertex
 10
-141.8173624461101
 20
1104.578987870521
 30
31.70050780245393
  0
VERTEX
  5
110
330
10C
100
AcDbEntity
  8
GNAP$WIFI_ANTENNA
100
AcDbVertex
100
AcDb2dVertex
 10
-141.01836244611
 20
1104.578987870521
 30
31.70050780245393
  0
VERTEX
  5
111
330
10C
100
AcDbEntity
  8
GNAP$WIFI_ANTENNA
100
AcDbVertex
100
AcDb2dVertex
 10
-141.01836244611
 20
1107.679487870521
 30
31.70050780245393
  0
VERTEX
  5
112
330
10C
100
AcDbEntity
  8
GNAP$WIFI_ANTENNA
100
AcDbVertex
100
AcDb2dVertex
 10
-141.8173624461101
 20
1107.679487870521
 30
31.70050780245393
  0
VERTEX
  5
113
330
10C
100
AcDbEntity
  8
GNAP$WIFI_ANTENNA
100
AcDbVertex
100
AcDb2dVertex
 10
-141.8173624461101
 20
1108.678587870521
 30
31.70050780245393
  0
VERTEX
  5
114
330
10C
100
AcDbEntity
  8
GNAP$WIFI_ANTENNA
100
AcDbVertex
100
AcDb2dVertex
 10
-155.8173624461101
 20
1108.678587870521
 30
31.70050780245393
  0
VERTEX
  5
115
330
10C
100
AcDbEntity
  8
GNAP$WIFI_ANTENNA
100
AcDbVertex
100
AcDb2dVertex
 10
-155.8173624461101
 20
1107.679487870521
 30
31.70050780245393
  0
VERTEX
  5
116
330
10C
100
AcDbEntity
  8
GNAP$WIFI_ANTENNA
100
AcDbVertex
100
AcDb2dVertex
 10
-156.6173624461101
 20
1107.679487870521
 30
31.70050780245393
  0
VERTEX
  5
117
330
10C
100
AcDbEntity
  8
GNAP$WIFI_ANTENNA
100
AcDbVertex
100
AcDb2dVertex
 10
-156.6173624461101
 20
1104.578987870521
 30
31.70050780245393
  0
VERTEX
  5
118
330
10C
100
AcDbEntity
  8
GNAP$WIFI_ANTENNA
100
AcDbVertex
100
AcDb2dVertex
 10
-155.8173624461101
 20
1104.578987870521
 30
31.70050780245393
  0
VERTEX
  5
119
330
10C
100
AcDbEntity
  8
GNAP$WIFI_ANTENNA
100
AcDbVertex
100
AcDb2dVertex
 10
-155.8173624461101
 20
1098.778787870521
 30
31.70050780245393
  0
VERTEX
  5
11A
330
10C
100
AcDbEntity
  8
GNAP$WIFI_ANTENNA
100
AcDbVertex
100
AcDb2dVertex
 10
-156.6173624461101
 20
1098.778787870521
 30
31.70050780245393
  0
VERTEX
  5
11B
330
10C
100
AcDbEntity
  8
GNAP$WIFI_ANTENNA
100
AcDbVertex
100
AcDb2dVertex
 10
-156.6173624461101
 20
1095.679587870521
 30
31.70050780245393
  0
VERTEX
  5
11C
330
10C
100
AcDbEntity
  8
GNAP$WIFI_ANTENNA
100
AcDbVertex
100
AcDb2dVertex
 10
-155.8173624461101
 20
1095.679587870521
 30
31.70050780245393
  0
VERTEX
  5
11D
330
10C
100
AcDbEntity
  8
GNAP$WIFI_ANTENNA
100
AcDbVertex
100
AcDb2dVertex
 10
-155.8173624461101
 20
1094.679087870521
 30
31.70050780245393
  0
VERTEX
  5
11E
330
10C
100
AcDbEntity
  8
GNAP$WIFI_ANTENNA
100
AcDbVertex
100
AcDb2dVertex
 10
-141.8173624461101
 20
1094.679087870521
 30
31.70050780245393
  0
VERTEX
  5
11F
330
10C
100
AcDbEntity
  8
GNAP$WIFI_ANTENNA
100
AcDbVertex
100
AcDb2dVertex
 10
-141.8173624461101
 20
1095.679587870521
 30
31.70050780245393
  0
VERTEX
  5
120
330
10C
100
AcDbEntity
  8
GNAP$WIFI_ANTENNA
100
AcDbVertex
100
AcDb2dVertex
 10
-141.01836244611
 20
1095.679587870521
 30
31.70050780245393
  0
SEQEND
  5
121
330
10C
100
AcDbEntity
  8
GNAP$WIFI_ANTENNA
  0
POLYLINE
  5
122
330
1F
100
AcDbEntity
  8
GNAP$WIFI_ANTENNA
100
AcDb2dPolyline
 66
     1
 10
0.0
 20
0.0
 30
31.70050780245393
 70
     1
  0
VERTEX
  5
123
330
122
100
AcDbEntity
  8
GNAP$WIFI_ANTENNA
100
AcDbVertex
100
AcDb2dVertex
 10
-162.4493624461101
 20
1098.778787870521
 30
31.70050780245393
  0
VERTEX
  5
124
330
122
100
AcDbEntity
  8
GNAP$WIFI_ANTENNA
100
AcDbVertex
100
AcDb2dVertex
 10
-163.25036244611
 20
1098.778787870521
 30
31.70050780245393
  0
VERTEX
  5
125
330
122
100
AcDbEntity
  8
GNAP$WIFI_ANTENNA
100
AcDbVertex
100
AcDb2dVertex
 10
-163.25036244611
 20
1104.578987870521
 30
31.70050780245393
  0
VERTEX
  5
126
330
122
100
AcDbEntity
  8
GNAP$WIFI_ANTENNA
100
AcDbVertex
100
AcDb2dVertex
 10
-162.4493624461101
 20
1104.578987870521
 30
31.70050780245393
  0
VERTEX
  5
127
330
122
100
AcDbEntity
  8
GNAP$WIFI_ANTENNA
100
AcDbVertex
100
AcDb2dVertex
 10
-162.4493624461101
 20
1107.679487870521
 30
31.70050780245393
  0
VERTEX
  5
128
330
122
100
AcDbEntity
  8
GNAP$WIFI_ANTENNA
100
AcDbVertex
100
AcDb2dVertex
 10
-163.25036244611
 20
1107.679487870521
 30
31.70050780245393
  0
VERTEX
  5
129
330
122
100
AcDbEntity
  8
GNAP$WIFI_ANTENNA
100
AcDbVertex
100
AcDb2dVertex
 10
-163.25036244611
 20
1108.678587870521
 30
31.70050780245393
  0
VERTEX
  5
12A
330
122
100
AcDbEntity
  8
GNAP$WIFI_ANTENNA
100
AcDbVertex
100
AcDb2dVertex
 10
-177.25036244611
 20
1108.678587870521
 30
31.70050780245393
  0
VERTEX
  5
12B
330
122
100
AcDbEntity
  8
GNAP$WIFI_ANTENNA
100
AcDbVertex
100
AcDb2dVertex
 10
-177.25036244611
 20
1107.679487870521
 30
31.70050780245393
  0
VERTEX
  5
12C
330
122
100
AcDbEntity
  8
GNAP$WIFI_ANTENNA
100
AcDbVertex
100
AcDb2dVertex
 10
-178.0503624461101
 20
1107.679487870521
 30
31.70050780245393
  0
VERTEX
  5
12D
330
122
100
AcDbEntity
  8
GNAP$WIFI_ANTENNA
100
AcDbVertex
100
AcDb2dVertex
 10
-178.0503624461101
 20
1104.578987870521
 30
31.70050780245393
  0
VERTEX
  5
12E
330
122
100
AcDbEntity
  8
GNAP$WIFI_ANTENNA
100
AcDbVertex
100
AcDb2dVertex
 10
-177.25036244611
 20
1104.578987870521
 30
31.70050780245393
  0
VERTEX
  5
12F
330
122
100
AcDbEntity
  8
GNAP$WIFI_ANTENNA
100
AcDbVertex
100
AcDb2dVertex
 10
-177.25036244611
 20
1098.778787870521
 30
31.70050780245393
  0
VERTEX
  5
130
330
122
100
AcDbEntity
  8
GNAP$WIFI_ANTENNA
100
AcDbVertex
100
AcDb2dVertex
 10
-178.0503624461101
 20
1098.778787870521
 30
31.70050780245393
  0
VERTEX
  5
131
330
122
100
AcDbEntity
  8
GNAP$WIFI_ANTENNA
100
AcDbVertex
100
AcDb2dVertex
 10
-178.0503624461101
 20
1095.679587870521
 30
31.70050780245393
  0
VERTEX
  5
132
330
122
100
AcDbEntity
  8
GNAP$WIFI_ANTENNA
100
AcDbVertex
100
AcDb2dVertex
 10
-177.25036244611
 20
1095.679587870521
 30
31.70050780245393
  0
VERTEX
  5
133
330
122
100
AcDbEntity
  8
GNAP$WIFI_ANTENNA
100
AcDbVertex
100
AcDb2dVertex
 10
-177.25036244611
 20
1094.679087870521
 30
31.70050780245393
  0
VERTEX
  5
134
330
122
100
AcDbEntity
  8
GNAP$WIFI_ANTENNA
100
AcDbVertex
100
AcDb2dVertex
 10
-163.25036244611
 20
1094.679087870521
 30
31.70050780245393
  0
VERTEX
  5
135
330
122
100
AcDbEntity
  8
GNAP$WIFI_ANTENNA
100
AcDbVertex
100
AcDb2dVertex
 10
-163.25036244611
 20
1095.679587870521
 30
31.70050780245393
  0
VERTEX
  5
136
330
122
100
AcDbEntity
  8
GNAP$WIFI_ANTENNA
100
AcDbVertex
100
AcDb2dVertex
 10
-162.4493624461101
 20
1095.679587870521
 30
31.70050780245393
  0
SEQEND
  5
137
330
122
100
AcDbEntity
  8
GNAP$WIFI_ANTENNA
  0
POLYLINE
  5
138
330
1F
100
AcDbEntity
  8
GNAP$WIFI_ANTENNA
100
AcDb2dPolyline
 66
     1
 10
0.0
 20
0.0
 30
31.70050780245393
 70
     1
  0
VERTEX
  5
139
330
138
100
AcDbEntity
  8
GNAP$WIFI_ANTENNA
100
AcDbVertex
100
AcDb2dVertex
 10
-181.49936244611
 20
1098.778787870521
 30
31.70050780245393
  0
VERTEX
  5
13A
330
138
100
AcDbEntity
  8
GNAP$WIFI_ANTENNA
100
AcDbVertex
100
AcDb2dVertex
 10
-182.3003624461101
 20
1098.778787870521
 30
31.70050780245393
  0
VERTEX
  5
13B
330
138
100
AcDbEntity
  8
GNAP$WIFI_ANTENNA
100
AcDbVertex
100
AcDb2dVertex
 10
-182.3003624461101
 20
1104.578987870521
 30
31.70050780245393
  0
VERTEX
  5
13C
330
138
100
AcDbEntity
  8
GNAP$WIFI_ANTENNA
100
AcDbVertex
100
AcDb2dVertex
 10
-181.49936244611
 20
1104.578987870521
 30
31.70050780245393
  0
VERTEX
  5
13D
330
138
100
AcDbEntity
  8
GNAP$WIFI_ANTENNA
100
AcDbVertex
100
AcDb2dVertex
 10
-181.49936244611
 20
1107.679487870521
 30
31.70050780245393
  0
VERTEX
  5
13E
330
138
100
AcDbEntity
  8
GNAP$WIFI_ANTENNA
100
AcDbVertex
100
AcDb2dVertex
 10
-182.3003624461101
 20
1107.679487870521
 30
31.70050780245393
  0
VERTEX
  5
13F
330
138
100
AcDbEntity
  8
GNAP$WIFI_ANTENNA
100
AcDbVertex
100
AcDb2dVertex
 10
-182.3003624461101
 20
1108.678587870521
 30
31.70050780245393
  0
VERTEX
  5
140
330
138
100
AcDbEntity
  8
GNAP$WIFI_ANTENNA
100
AcDbVertex
100
AcDb2dVertex
 10
-196.3003624461101
 20
1108.678587870521
 30
31.70050780245393
  0
VERTEX
  5
141
330
138
100
AcDbEntity
  8
GNAP$WIFI_ANTENNA
100
AcDbVertex
100
AcDb2dVertex
 10
-196.3003624461101
 20
1107.679487870521
 30
31.70050780245393
  0
VERTEX
  5
142
330
138
100
AcDbEntity
  8
GNAP$WIFI_ANTENNA
100
AcDbVertex
100
AcDb2dVertex
 10
-197.10036244611
 20
1107.679487870521
 30
31.70050780245393
  0
VERTEX
  5
143
330
138
100
AcDbEntity
  8
GNAP$WIFI_ANTENNA
100
AcDbVertex
100
AcDb2dVertex
 10
-197.10036244611
 20
1104.578987870521
 30
31.70050780245393
  0
VERTEX
  5
144
330
138
100
AcDbEntity
  8
GNAP$WIFI_ANTENNA
100
AcDbVertex
100
AcDb2dVertex
 10
-196.3003624461101
 20
1104.578987870521
 30
31.70050780245393
  0
VERTEX
  5
145
330
138
100
AcDbEntity
  8
GNAP$WIFI_ANTENNA
100
AcDbVertex
100
AcDb2dVertex
 10
-196.3003624461101
 20
1098.778787870521
 30
31.70050780245393
  0
VERTEX
  5
146
330
138
100
AcDbEntity
  8
GNAP$WIFI_ANTENNA
100
AcDbVertex
100
AcDb2dVertex
 10
-197.10036244611
 20
1098.778787870521
 30
31.70050780245393
  0
VERTEX
  5
147
330
138
100
AcDbEntity
  8
GNAP$WIFI_ANTENNA
100
AcDbVertex
100
AcDb2dVertex
 10
-197.10036244611
 20
1095.679587870521
 30
31.70050780245393
  0
VERTEX
  5
148
330
138
100
AcDbEntity
  8
GNAP$WIFI_ANTENNA
100
AcDbVertex
100
AcDb2dVertex
 10
-196.3003624461101
 20
1095.679587870521
 30
31.70050780245393
  0
VERTEX
  5
149
330
138
100
AcDbEntity
  8
GNAP$WIFI_ANTENNA
100
AcDbVertex
100
AcDb2dVertex
 10
-196.3003624461101
 20
1094.679087870521
 30
31.70050780245393
  0
VERTEX
  5
14A
330
138
100
AcDbEntity
  8
GNAP$WIFI_ANTENNA
100
AcDbVertex
100
AcDb2dVertex
 10
-182.3003624461101
 20
1094.679087870521
 30
31.70050780245393
  0
VERTEX
  5
14B
330
138
100
AcDbEntity
  8
GNAP$WIFI_ANTENNA
100
AcDbVertex
100
AcDb2dVertex
 10
-182.3003624461101
 20
1095.679587870521
 30
31.70050780245393
  0
VERTEX
  5
14C
330
138
100
AcDbEntity
  8
GNAP$WIFI_ANTENNA
100
AcDbVertex
100
AcDb2dVertex
 10
-181.49936244611
 20
1095.679587870521
 30
31.70050780245393
  0
SEQEND
  5
14D
330
138
100
AcDbEntity
  8
GNAP$WIFI_ANTENNA
  0
POLYLINE
  5
14E
330
1F
100
AcDbEntity
  8
GNAP$WIFI_ANTENNA
100
AcDb2dPolyline
 66
     1
 10
0.0
 20
0.0
 30
31.70050780245393
 70
     1
  0
VERTEX
  5
14F
330
14E
100
AcDbEntity
  8
GNAP$WIFI_ANTENNA
100
AcDbVertex
100
AcDb2dVertex
 10
-200.54936244611
 20
1098.778787870521
 30
31.70050780245393
  0
VERTEX
  5
150
330
14E
100
AcDbEntity
  8
GNAP$WIFI_ANTENNA
100
AcDbVertex
100
AcDb2dVertex
 10
-201.35036244611
 20
1098.778787870521
 30
31.70050780245393
  0
VERTEX
  5
151
330
14E
100
AcDbEntity
  8
GNAP$WIFI_ANTENNA
100
AcDbVertex
100
AcDb2dVertex
 10
-201.35036244611
 20
1104.578987870521
 30
31.70050780245393
  0
VERTEX
  5
152
330
14E
100
AcDbEntity
  8
GNAP$WIFI_ANTENNA
100
AcDbVertex
100
AcDb2dVertex
 10
-200.54936244611
 20
1104.578987870521
 30
31.70050780245393
  0
VERTEX
  5
153
330
14E
100
AcDbEntity
  8
GNAP$WIFI_ANTENNA
100
AcDbVertex
100
AcDb2dVertex
 10
-200.54936244611
 20
1107.679487870521
 30
31.70050780245393
  0
VERTEX
  5
154
330
14E
100
AcDbEntity
  8
GNAP$WIFI_ANTENNA
100
AcDbVertex
100
AcDb2dVertex
 10
-201.35036244611
 20
1107.679487870521
 30
31.70050780245393
  0
VERTEX
  5
155
330
14E
100
AcDbEntity
  8
GNAP$WIFI_ANTENNA
100
AcDbVertex
100
AcDb2dVertex
 10
-201.35036244611
 20
1108.678587870521
 30
31.70050780245393
  0
VERTEX
  5
156
330
14E
100
AcDbEntity
  8
GNAP$WIFI_ANTENNA
100
AcDbVertex
100
AcDb2dVertex
 10
-215.35036244611
 20
1108.678587870521
 30
31.70050780245393
  0
VERTEX
  5
157
330
14E
100
AcDbEntity
  8
GNAP$WIFI_ANTENNA
100
AcDbVertex
100
AcDb2dVertex
 10
-215.35036244611
 20
1107.679487870521
 30
31.70050780245393
  0
VERTEX
  5
158
330
14E
100
AcDbEntity
  8
GNAP$WIFI_ANTENNA
100
AcDbVertex
100
AcDb2dVertex
 10
-216.15036244611
 20
1107.679487870521
 30
31.70050780245393
  0
VERTEX
  5
159
330
14E
100
AcDbEntity
  8
GNAP$WIFI_ANTENNA
100
AcDbVertex
100
AcDb2dVertex
 10
-216.15036244611
 20
1104.578987870521
 30
31.70050780245393
  0
VERTEX
  5
15A
330
14E
100
AcDbEntity
  8
GNAP$WIFI_ANTENNA
100
AcDbVertex
100
AcDb2dVertex
 10
-215.35036244611
 20
1104.578987870521
 30
31.70050780245393
  0
VERTEX
  5
15B
330
14E
100
AcDbEntity
  8
GNAP$WIFI_ANTENNA
100
AcDbVertex
100
AcDb2dVertex
 10
-215.35036244611
 20
1098.778787870521
 30
31.70050780245393
  0
VERTEX
  5
15C
330
14E
100
AcDbEntity
  8
GNAP$WIFI_ANTENNA
100
AcDbVertex
100
AcDb2dVertex
 10
-216.15036244611
 20
1098.778787870521
 30
31.70050780245393
  0
VERTEX
  5
15D
330
14E
100
AcDbEntity
  8
GNAP$WIFI_ANTENNA
100
AcDbVertex
100
AcDb2dVertex
 10
-216.15036244611
 20
1095.679587870521
 30
31.70050780245393
  0
VERTEX
  5
15E
330
14E
100
AcDbEntity
  8
GNAP$WIFI_ANTENNA
100
AcDbVertex
100
AcDb2dVertex
 10
-215.35036244611
 20
1095.679587870521
 30
31.70050780245393
  0
VERTEX
  5
15F
330
14E
100
AcDbEntity
  8
GNAP$WIFI_ANTENNA
100
AcDbVertex
100
AcDb2dVertex
 10
-215.35036244611
 20
1094.679087870521
 30
31.70050780245393
  0
VERTEX
  5
160
330
14E
100
AcDbEntity
  8
GNAP$WIFI_ANTENNA
100
AcDbVertex
100
AcDb2dVertex
 10
-201.35036244611
 20
1094.679087870521
 30
31.70050780245393
  0
VERTEX
  5
161
330
14E
100
AcDbEntity
  8
GNAP$WIFI_ANTENNA
100
AcDbVertex
100
AcDb2dVertex
 10
-201.35036244611
 20
1095.679587870521
 30
31.70050780245393
  0
VERTEX
  5
162
330
14E
100
AcDbEntity
  8
GNAP$WIFI_ANTENNA
100
AcDbVertex
100
AcDb2dVertex
 10
-200.54936244611
 20
1095.679587870521
 30
31.70050780245393
  0
SEQEND
  5
163
330
14E
100
AcDbEntity
  8
GNAP$WIFI_ANTENNA
  0
POLYLINE
  5
164
330
1F
100
AcDbEntity
  8
GNAP$WIFI_ANTENNA
100
AcDb2dPolyline
 66
     1
 10
0.0
 20
0.0
 30
31.70050780245393
 70
     1
  0
VERTEX
  5
165
330
164
100
AcDbEntity
  8
GNAP$WIFI_ANTENNA
100
AcDbVertex
100
AcDb2dVertex
 10
-219.59936244611
 20
1098.778787870521
 30
31.70050780245393
  0
VERTEX
  5
166
330
164
100
AcDbEntity
  8
GNAP$WIFI_ANTENNA
100
AcDbVertex
100
AcDb2dVertex
 10
-220.40036244611
 20
1098.778787870521
 30
31.70050780245393
  0
VERTEX
  5
167
330
164
100
AcDbEntity
  8
GNAP$WIFI_ANTENNA
100
AcDbVertex
100
AcDb2dVertex
 10
-220.40036244611
 20
1104.578987870521
 30
31.70050780245393
  0
VERTEX
  5
168
330
164
100
AcDbEntity
  8
GNAP$WIFI_ANTENNA
100
AcDbVertex
100
AcDb2dVertex
 10
-219.59936244611
 20
1104.578987870521
 30
31.70050780245393
  0
VERTEX
  5
169
330
164
100
AcDbEntity
  8
GNAP$WIFI_ANTENNA
100
AcDbVertex
100
AcDb2dVertex
 10
-219.59936244611
 20
1107.679487870521
 30
31.70050780245393
  0
VERTEX
  5
16A
330
164
100
AcDbEntity
  8
GNAP$WIFI_ANTENNA
100
AcDbVertex
100
AcDb2dVertex
 10
-220.40036244611
 20
1107.679487870521
 30
31.70050780245393
  0
VERTEX
  5
16B
330
164
100
AcDbEntity
  8
GNAP$WIFI_ANTENNA
100
AcDbVertex
100
AcDb2dVertex
 10
-220.40036244611
 20
1108.678587870521
 30
31.70050780245393
  0
VERTEX
  5
16C
330
164
100
AcDbEntity
  8
GNAP$WIFI_ANTENNA
100
AcDbVertex
100
AcDb2dVertex
 10
-234.40036244611
 20
1108.678587870521
 30
31.70050780245393
  0
VERTEX
  5
16D
330
164
100
AcDbEntity
  8
GNAP$WIFI_ANTENNA
100
AcDbVertex
100
AcDb2dVertex
 10
-234.40036244611
 20
1107.679487870521
 30
31.70050780245393
  0
VERTEX
  5
16E
330
164
100
AcDbEntity
  8
GNAP$WIFI_ANTENNA
100
AcDbVertex
100
AcDb2dVertex
 10
-235.1993624461101
 20
1107.679487870521
 30
31.70050780245393
  0
VERTEX
  5
16F
330
164
100
AcDbEntity
  8
GNAP$WIFI_ANTENNA
100
AcDbVertex
100
AcDb2dVertex
 10
-235.1993624461101
 20
1104.578987870521
 30
31.70050780245393
  0
VERTEX
  5
170
330
164
100
AcDbEntity
  8
GNAP$WIFI_ANTENNA
100
AcDbVertex
100
AcDb2dVertex
 10
-234.40036244611
 20
1104.578987870521
 30
31.70050780245393
  0
VERTEX
  5
171
330
164
100
AcDbEntity
  8
GNAP$WIFI_ANTENNA
100
AcDbVertex
100
AcDb2dVertex
 10
-234.40036244611
 20
1098.778787870521
 30
31.70050780245393
  0
VERTEX
  5
172
330
164
100
AcDbEntity
  8
GNAP$WIFI_ANTENNA
100
AcDbVertex
100
AcDb2dVertex
 10
-235.1993624461101
 20
1098.778787870521
 30
31.70050780245393
  0
VERTEX
  5
173
330
164
100
AcDbEntity
  8
GNAP$WIFI_ANTENNA
100
AcDbVertex
100
AcDb2dVertex
 10
-235.1993624461101
 20
1095.679587870521
 30
31.70050780245393
  0
VERTEX
  5
174
330
164
100
AcDbEntity
  8
GNAP$WIFI_ANTENNA
100
AcDbVertex
100
AcDb2dVertex
 10
-234.40036244611
 20
1095.679587870521
 30
31.70050780245393
  0
VERTEX
  5
175
330
164
100
AcDbEntity
  8
GNAP$WIFI_ANTENNA
100
AcDbVertex
100
AcDb2dVertex
 10
-234.40036244611
 20
1094.679087870521
 30
31.70050780245393
  0
VERTEX
  5
176
330
164
100
AcDbEntity
  8
GNAP$WIFI_ANTENNA
100
AcDbVertex
100
AcDb2dVertex
 10
-220.40036244611
 20
1094.679087870521
 30
31.70050780245393
  0
VERTEX
  5
177
330
164
100
AcDbEntity
  8
GNAP$WIFI_ANTENNA
100
AcDbVertex
100
AcDb2dVertex
 10
-220.40036244611
 20
1095.679587870521
 30
31.70050780245393
  0
VERTEX
  5
178
330
164
100
AcDbEntity
  8
GNAP$WIFI_ANTENNA
100
AcDbVertex
100
AcDb2dVertex
 10
-219.59936244611
 20
1095.679587870521
 30
31.70050780245393
  0
SEQEND
  5
179
330
164
100
AcDbEntity
  8
GNAP$WIFI_ANTENNA
  0
POLYLINE
  5
17A
330
1F
100
AcDbEntity
  8
GNAP$WIFI_ANTENNA
100
AcDb2dPolyline
 66
     1
 10
0.0
 20
0.0
 30
31.70050780245393
 70
     1
  0
VERTEX
  5
17B
330
17A
100
AcDbEntity
  8
GNAP$WIFI_ANTENNA
100
AcDbVertex
100
AcDb2dVertex
 10
-5.287162446110099
 20
1079.728587870521
 30
31.70050780245393
  0
VERTEX
  5
17C
330
17A
100
AcDbEntity
  8
GNAP$WIFI_ANTENNA
100
AcDbVertex
100
AcDb2dVertex
 10
-6.086462446110115
 20
1079.728587870521
 30
31.70050780245393
  0
VERTEX
  5
17D
330
17A
100
AcDbEntity
  8
GNAP$WIFI_ANTENNA
100
AcDbVertex
100
AcDb2dVertex
 10
-6.086462446110115
 20
1085.528987870521
 30
31.70050780245393
  0
VERTEX
  5
17E
330
17A
100
AcDbEntity
  8
GNAP$WIFI_ANTENNA
100
AcDbVertex
100
AcDb2dVertex
 10
-5.287162446110099
 20
1085.528987870521
 30
31.70050780245393
  0
VERTEX
  5
17F
330
17A
100
AcDbEntity
  8
GNAP$WIFI_ANTENNA
100
AcDbVertex
100
AcDb2dVertex
 10
-5.287162446110099
 20
1088.629487870521
 30
31.70050780245393
  0
VERTEX
  5
180
330
17A
100
AcDbEntity
  8
GNAP$WIFI_ANTENNA
100
AcDbVertex
100
AcDb2dVertex
 10
-6.086462446110115
 20
1088.629487870521
 30
31.70050780245393
  0
VERTEX
  5
181
330
17A
100
AcDbEntity
  8
GNAP$WIFI_ANTENNA
100
AcDbVertex
100
AcDb2dVertex
 10
-6.086462446110115
 20
1089.628587870521
 30
31.70050780245393
  0
VERTEX
  5
182
330
17A
100
AcDbEntity
  8
GNAP$WIFI_ANTENNA
100
AcDbVertex
100
AcDb2dVertex
 10
-20.08736244611011
 20
1089.628587870521
 30
31.70050780245393
  0
VERTEX
  5
183
330
17A
100
AcDbEntity
  8
GNAP$WIFI_ANTENNA
100
AcDbVertex
100
AcDb2dVertex
 10
-20.08736244611011
 20
1088.629487870521
 30
31.70050780245393
  0
VERTEX
  5
184
330
17A
100
AcDbEntity
  8
GNAP$WIFI_ANTENNA
100
AcDbVertex
100
AcDb2dVertex
 10
-20.88646244611009
 20
1088.629487870521
 30
31.70050780245393
  0
VERTEX
  5
185
330
17A
100
AcDbEntity
  8
GNAP$WIFI_ANTENNA
100
AcDbVertex
100
AcDb2dVertex
 10
-20.88646244611009
 20
1085.528987870521
 30
31.70050780245393
  0
VERTEX
  5
186
330
17A
100
AcDbEntity
  8
GNAP$WIFI_ANTENNA
100
AcDbVertex
100
AcDb2dVertex
 10
-20.08736244611011
 20
1085.528987870521
 30
31.70050780245393
  0
VERTEX
  5
187
330
17A
100
AcDbEntity
  8
GNAP$WIFI_ANTENNA
100
AcDbVertex
100
AcDb2dVertex
 10
-20.08736244611011
 20
1079.728587870521
 30
31.70050780245393
  0
VERTEX
  5
188
330
17A
100
AcDbEntity
  8
GNAP$WIFI_ANTENNA
100
AcDbVertex
100
AcDb2dVertex
 10
-20.88646244611009
 20
1079.728587870521
 30
31.70050780245393
  0
VERTEX
  5
189
330
17A
100
AcDbEntity
  8
GNAP$WIFI_ANTENNA
100
AcDbVertex
100
AcDb2dVertex
 10
-20.88646244611009
 20
1076.629487870521
 30
31.70050780245393
  0
VERTEX
  5
18A
330
17A
100
AcDbEntity
  8
GNAP$WIFI_ANTENNA
100
AcDbVertex
100
AcDb2dVertex
 10
-20.08736244611011
 20
1076.629487870521
 30
31.70050780245393
  0
VERTEX
  5
18B
330
17A
100
AcDbEntity
  8
GNAP$WIFI_ANTENNA
100
AcDbVertex
100
AcDb2dVertex
 10
-20.08736244611011
 20
1075.628987870521
 30
31.70050780245393
  0
VERTEX
  5
18C
330
17A
100
AcDbEntity
  8
GNAP$WIFI_ANTENNA
100
AcDbVertex
100
AcDb2dVertex
 10
-6.086462446110115
 20
1075.628987870521
 30
31.70050780245393
  0
VERTEX
  5
18D
330
17A
100
AcDbEntity
  8
GNAP$WIFI_ANTENNA
100
AcDbVertex
100
AcDb2dVertex
 10
-6.086462446110115
 20
1076.629487870521
 30
31.70050780245393
  0
VERTEX
  5
18E
330
17A
100
AcDbEntity
  8
GNAP$WIFI_ANTENNA
100
AcDbVertex
100
AcDb2dVertex
 10
-5.287162446110099
 20
1076.629487870521
 30
31.70050780245393
  0
SEQEND
  5
18F
330
17A
100
AcDbEntity
  8
GNAP$WIFI_ANTENNA
  0
POLYLINE
  5
190
330
1F
100
AcDbEntity
  8
GNAP$WIFI_ANTENNA
100
AcDb2dPolyline
 66
     1
 10
0.0
 20
0.0
 30
31.70050780245393
 70
     1
  0
VERTEX
  5
191
330
190
100
AcDbEntity
  8
GNAP$WIFI_ANTENNA
100
AcDbVertex
100
AcDb2dVertex
 10
-29.0997624461101
 20
1079.728587870521
 30
31.70050780245393
  0
VERTEX
  5
192
330
190
100
AcDbEntity
  8
GNAP$WIFI_ANTENNA
100
AcDbVertex
100
AcDb2dVertex
 10
-29.9002624461101
 20
1079.728587870521
 30
31.70050780245393
  0
VERTEX
  5
193
330
190
100
AcDbEntity
  8
GNAP$WIFI_ANTENNA
100
AcDbVertex
100
AcDb2dVertex
 10
-29.9002624461101
 20
1085.528987870521
 30
31.70050780245393
  0
VERTEX
  5
194
330
190
100
AcDbEntity
  8
GNAP$WIFI_ANTENNA
100
AcDbVertex
100
AcDb2dVertex
 10
-29.0997624461101
 20
1085.528987870521
 30
31.70050780245393
  0
VERTEX
  5
195
330
190
100
AcDbEntity
  8
GNAP$WIFI_ANTENNA
100
AcDbVertex
100
AcDb2dVertex
 10
-29.0997624461101
 20
1088.629487870521
 30
31.70050780245393
  0
VERTEX
  5
196
330
190
100
AcDbEntity
  8
GNAP$WIFI_ANTENNA
100
AcDbVertex
100
AcDb2dVertex
 10
-29.9002624461101
 20
1088.629487870521
 30
31.70050780245393
  0
VERTEX
  5
197
330
190
100
AcDbEntity
  8
GNAP$WIFI_ANTENNA
100
AcDbVertex
100
AcDb2dVertex
 10
-29.9002624461101
 20
1089.628587870521
 30
31.70050780245393
  0
VERTEX
  5
198
330
190
100
AcDbEntity
  8
GNAP$WIFI_ANTENNA
100
AcDbVertex
100
AcDb2dVertex
 10
-43.89846244611009
 20
1089.628587870521
 30
31.70050780245393
  0
VERTEX
  5
199
330
190
100
AcDbEntity
  8
GNAP$WIFI_ANTENNA
100
AcDbVertex
100
AcDb2dVertex
 10
-43.89846244611009
 20
1088.629487870521
 30
31.70050780245393
  0
VERTEX
  5
19A
330
190
100
AcDbEntity
  8
GNAP$WIFI_ANTENNA
100
AcDbVertex
100
AcDb2dVertex
 10
-44.70036244611011
 20
1088.629487870521
 30
31.70050780245393
  0
VERTEX
  5
19B
330
190
100
AcDbEntity
  8
GNAP$WIFI_ANTENNA
100
AcDbVertex
100
AcDb2dVertex
 10
-44.70036244611011
 20
1085.528987870521
 30
31.70050780245393
  0
VERTEX
  5
19C
330
190
100
AcDbEntity
  8
GNAP$WIFI_ANTENNA
100
AcDbVertex
100
AcDb2dVertex
 10
-43.89846244611009
 20
1085.528987870521
 30
31.70050780245393
  0
VERTEX
  5
19D
330
190
100
AcDbEntity
  8
GNAP$WIFI_ANTENNA
100
AcDbVertex
100
AcDb2dVertex
 10
-43.89846244611009
 20
1079.728587870521
 30
31.70050780245393
  0
VERTEX
  5
19E
330
190
100
AcDbEntity
  8
GNAP$WIFI_ANTENNA
100
AcDbVertex
100
AcDb2dVertex
 10
-44.70036244611011
 20
1079.728587870521
 30
31.70050780245393
  0
VERTEX
  5
19F
330
190
100
AcDbEntity
  8
GNAP$WIFI_ANTENNA
100
AcDbVertex
100
AcDb2dVertex
 10
-44.70036244611011
 20
1076.629487870521
 30
31.70050780245393
  0
VERTEX
  5
1A0
330
190
100
AcDbEntity
  8
GNAP$WIFI_ANTENNA
100
AcDbVertex
100
AcDb2dVertex
 10
-43.89846244611009
 20
1076.629487870521
 30
31.70050780245393
  0
VERTEX
  5
1A1
330
190
100
AcDbEntity
  8
GNAP$WIFI_ANTENNA
100
AcDbVertex
100
AcDb2dVertex
 10
-43.89846244611009
 20
1075.628987870521
 30
31.70050780245393
  0
VERTEX
  5
1A2
330
190
100
AcDbEntity
  8
GNAP$WIFI_ANTENNA
100
AcDbVertex
100
AcDb2dVertex
 10
-29.9002624461101
 20
1075.628987870521
 30
31.70050780245393
  0
VERTEX
  5
1A3
330
190
100
AcDbEntity
  8
GNAP$WIFI_ANTENNA
100
AcDbVertex
100
AcDb2dVertex
 10
-29.9002624461101
 20
1076.629487870521
 30
31.70050780245393
  0
VERTEX
  5
1A4
330
190
100
AcDbEntity
  8
GNAP$WIFI_ANTENNA
100
AcDbVertex
100
AcDb2dVertex
 10
-29.0997624461101
 20
1076.629487870521
 30
31.70050780245393
  0
SEQEND
  5
1A5
330
190
100
AcDbEntity
  8
GNAP$WIFI_ANTENNA
  0
POLYLINE
  5
1A6
330
1F
100
AcDbEntity
  8
GNAP$WIFI_ANTENNA
100
AcDb2dPolyline
 66
     1
 10
0.0
 20
0.0
 30
31.70050780245393
 70
     1
  0
VERTEX
  5
1A7
330
1A6
100
AcDbEntity
  8
GNAP$WIFI_ANTENNA
100
AcDbVertex
100
AcDb2dVertex
 10
-48.1497624461101
 20
1079.728587870521
 30
31.70050780245393
  0
VERTEX
  5
1A8
330
1A6
100
AcDbEntity
  8
GNAP$WIFI_ANTENNA
100
AcDbVertex
100
AcDb2dVertex
 10
-48.9502624461101
 20
1079.728587870521
 30
31.70050780245393
  0
VERTEX
  5
1A9
330
1A6
100
AcDbEntity
  8
GNAP$WIFI_ANTENNA
100
AcDbVertex
100
AcDb2dVertex
 10
-48.9502624461101
 20
1085.528987870521
 30
31.70050780245393
  0
VERTEX
  5
1AA
330
1A6
100
AcDbEntity
  8
GNAP$WIFI_ANTENNA
100
AcDbVertex
100
AcDb2dVertex
 10
-48.1497624461101
 20
1085.528987870521
 30
31.70050780245393
  0
VERTEX
  5
1AB
330
1A6
100
AcDbEntity
  8
GNAP$WIFI_ANTENNA
100
AcDbVertex
100
AcDb2dVertex
 10
-48.1497624461101
 20
1088.629487870521
 30
31.70050780245393
  0
VERTEX
  5
1AC
330
1A6
100
AcDbEntity
  8
GNAP$WIFI_ANTENNA
100
AcDbVertex
100
AcDb2dVertex
 10
-48.9502624461101
 20
1088.629487870521
 30
31.70050780245393
  0
VERTEX
  5
1AD
330
1A6
100
AcDbEntity
  8
GNAP$WIFI_ANTENNA
100
AcDbVertex
100
AcDb2dVertex
 10
-48.9502624461101
 20
1089.628587870521
 30
31.70050780245393
  0
VERTEX
  5
1AE
330
1A6
100
AcDbEntity
  8
GNAP$WIFI_ANTENNA
100
AcDbVertex
100
AcDb2dVertex
 10
-62.9498624461101
 20
1089.628587870521
 30
31.70050780245393
  0
VERTEX
  5
1AF
330
1A6
100
AcDbEntity
  8
GNAP$WIFI_ANTENNA
100
AcDbVertex
100
AcDb2dVertex
 10
-62.9498624461101
 20
1088.629487870521
 30
31.70050780245393
  0
VERTEX
  5
1B0
330
1A6
100
AcDbEntity
  8
GNAP$WIFI_ANTENNA
100
AcDbVertex
100
AcDb2dVertex
 10
-63.7503624461101
 20
1088.629487870521
 30
31.70050780245393
  0
VERTEX
  5
1B1
330
1A6
100
AcDbEntity
  8
GNAP$WIFI_ANTENNA
100
AcDbVertex
100
AcDb2dVertex
 10
-63.7503624461101
 20
1085.528987870521
 30
31.70050780245393
  0
VERTEX
  5
1B2
330
1A6
100
AcDbEntity
  8
GNAP$WIFI_ANTENNA
100
AcDbVertex
100
AcDb2dVertex
 10
-62.9498624461101
 20
1085.528987870521
 30
31.70050780245393
  0
VERTEX
  5
1B3
330
1A6
100
AcDbEntity
  8
GNAP$WIFI_ANTENNA
100
AcDbVertex
100
AcDb2dVertex
 10
-62.9498624461101
 20
1079.728587870521
 30
31.70050780245393
  0
VERTEX
  5
1B4
330
1A6
100
AcDbEntity
  8
GNAP$WIFI_ANTENNA
100
AcDbVertex
100
AcDb2dVertex
 10
-63.7503624461101
 20
1079.728587870521
 30
31.70050780245393
  0
VERTEX
  5
1B5
330
1A6
100
AcDbEntity
  8
GNAP$WIFI_ANTENNA
100
AcDbVertex
100
AcDb2dVertex
 10
-63.7503624461101
 20
1076.629487870521
 30
31.70050780245393
  0
VERTEX
  5
1B6
330
1A6
100
AcDbEntity
  8
GNAP$WIFI_ANTENNA
100
AcDbVertex
100
AcDb2dVertex
 10
-62.9498624461101
 20
1076.629487870521
 30
31.70050780245393
  0
VERTEX
  5
1B7
330
1A6
100
AcDbEntity
  8
GNAP$WIFI_ANTENNA
100
AcDbVertex
100
AcDb2dVertex
 10
-62.9498624461101
 20
1075.628987870521
 30
31.70050780245393
  0
VERTEX
  5
1B8
330
1A6
100
AcDbEntity
  8
GNAP$WIFI_ANTENNA
100
AcDbVertex
100
AcDb2dVertex
 10
-48.9502624461101
 20
1075.628987870521
 30
31.70050780245393
  0
VERTEX
  5
1B9
330
1A6
100
AcDbEntity
  8
GNAP$WIFI_ANTENNA
100
AcDbVertex
100
AcDb2dVertex
 10
-48.9502624461101
 20
1076.629487870521
 30
31.70050780245393
  0
VERTEX
  5
1BA
330
1A6
100
AcDbEntity
  8
GNAP$WIFI_ANTENNA
100
AcDbVertex
100
AcDb2dVertex
 10
-48.1497624461101
 20
1076.629487870521
 30
31.70050780245393
  0
SEQEND
  5
1BB
330
1A6
100
AcDbEntity
  8
GNAP$WIFI_ANTENNA
  0
POLYLINE
  5
1BC
330
1F
100
AcDbEntity
  8
GNAP$WIFI_ANTENNA
100
AcDb2dPolyline
 66
     1
 10
0.0
 20
0.0
 30
31.70050780245393
 70
     1
  0
VERTEX
  5
1BD
330
1BC
100
AcDbEntity
  8
GNAP$WIFI_ANTENNA
100
AcDbVertex
100
AcDb2dVertex
 10
-67.19976244611009
 20
1079.728587870521
 30
31.70050780245393
  0
VERTEX
  5
1BE
330
1BC
100
AcDbEntity
  8
GNAP$WIFI_ANTENNA
100
AcDbVertex
100
AcDb2dVertex
 10
-68.00026244611009
 20
1079.728587870521
 30
31.70050780245393
  0
VERTEX
  5
1BF
330
1BC
100
AcDbEntity
  8
GNAP$WIFI_ANTENNA
100
AcDbVertex
100
AcDb2dVertex
 10
-68.00026244611009
 20
1085.528987870521
 30
31.70050780245393
  0
VERTEX
  5
1C0
330
1BC
100
AcDbEntity
  8
GNAP$WIFI_ANTENNA
100
AcDbVertex
100
AcDb2dVertex
 10
-67.19976244611009
 20
1085.528987870521
 30
31.70050780245393
  0
VERTEX
  5
1C1
330
1BC
100
AcDbEntity
  8
GNAP$WIFI_ANTENNA
100
AcDbVertex
100
AcDb2dVertex
 10
-67.19976244611009
 20
1088.629487870521
 30
31.70050780245393
  0
VERTEX
  5
1C2
330
1BC
100
AcDbEntity
  8
GNAP$WIFI_ANTENNA
100
AcDbVertex
100
AcDb2dVertex
 10
-68.00026244611009
 20
1088.629487870521
 30
31.70050780245393
  0
VERTEX
  5
1C3
330
1BC
100
AcDbEntity
  8
GNAP$WIFI_ANTENNA
100
AcDbVertex
100
AcDb2dVertex
 10
-68.00026244611009
 20
1089.628587870521
 30
31.70050780245393
  0
VERTEX
  5
1C4
330
1BC
100
AcDbEntity
  8
GNAP$WIFI_ANTENNA
100
AcDbVertex
100
AcDb2dVertex
 10
-81.99986244611009
 20
1089.628587870521
 30
31.70050780245393
  0
VERTEX
  5
1C5
330
1BC
100
AcDbEntity
  8
GNAP$WIFI_ANTENNA
100
AcDbVertex
100
AcDb2dVertex
 10
-81.99986244611009
 20
1088.629487870521
 30
31.70050780245393
  0
VERTEX
  5
1C6
330
1BC
100
AcDbEntity
  8
GNAP$WIFI_ANTENNA
100
AcDbVertex
100
AcDb2dVertex
 10
-82.80036244611009
 20
1088.629487870521
 30
31.70050780245393
  0
VERTEX
  5
1C7
330
1BC
100
AcDbEntity
  8
GNAP$WIFI_ANTENNA
100
AcDbVertex
100
AcDb2dVertex
 10
-82.80036244611009
 20
1085.528987870521
 30
31.70050780245393
  0
VERTEX
  5
1C8
330
1BC
100
AcDbEntity
  8
GNAP$WIFI_ANTENNA
100
AcDbVertex
100
AcDb2dVertex
 10
-81.99986244611009
 20
1085.528987870521
 30
31.70050780245393
  0
VERTEX
  5
1C9
330
1BC
100
AcDbEntity
  8
GNAP$WIFI_ANTENNA
100
AcDbVertex
100
AcDb2dVertex
 10
-81.99986244611009
 20
1079.728587870521
 30
31.70050780245393
  0
VERTEX
  5
1CA
330
1BC
100
AcDbEntity
  8
GNAP$WIFI_ANTENNA
100
AcDbVertex
100
AcDb2dVertex
 10
-82.80036244611009
 20
1079.728587870521
 30
31.70050780245393
  0
VERTEX
  5
1CB
330
1BC
100
AcDbEntity
  8
GNAP$WIFI_ANTENNA
100
AcDbVertex
100
AcDb2dVertex
 10
-82.80036244611009
 20
1076.629487870521
 30
31.70050780245393
  0
VERTEX
  5
1CC
330
1BC
100
AcDbEntity
  8
GNAP$WIFI_ANTENNA
100
AcDbVertex
100
AcDb2dVertex
 10
-81.99986244611009
 20
1076.629487870521
 30
31.70050780245393
  0
VERTEX
  5
1CD
330
1BC
100
AcDbEntity
  8
GNAP$WIFI_ANTENNA
100
AcDbVertex
100
AcDb2dVertex
 10
-81.99986244611009
 20
1075.628987870521
 30
31.70050780245393
  0
VERTEX
  5
1CE
330
1BC
100
AcDbEntity
  8
GNAP$WIFI_ANTENNA
100
AcDbVertex
100
AcDb2dVertex
 10
-68.00026244611009
 20
1075.628987870521
 30
31.70050780245393
  0
VERTEX
  5
1CF
330
1BC
100
AcDbEntity
  8
GNAP$WIFI_ANTENNA
100
AcDbVertex
100
AcDb2dVertex
 10
-68.00026244611009
 20
1076.629487870521
 30
31.70050780245393
  0
VERTEX
  5
1D0
330
1BC
100
AcDbEntity
  8
GNAP$WIFI_ANTENNA
100
AcDbVertex
100
AcDb2dVertex
 10
-67.19976244611009
 20
1076.629487870521
 30
31.70050780245393
  0
SEQEND
  5
1D1
330
1BC
100
AcDbEntity
  8
GNAP$WIFI_ANTENNA
  0
POLYLINE
  5
1D2
330
1F
100
AcDbEntity
  8
GNAP$WIFI_ANTENNA
100
AcDb2dPolyline
 66
     1
 10
0.0
 20
0.0
 30
31.70050780245393
 70
     1
  0
VERTEX
  5
1D3
330
1D2
100
AcDbEntity
  8
GNAP$WIFI_ANTENNA
100
AcDbVertex
100
AcDb2dVertex
 10
-86.24936244611008
 20
1079.728587870521
 30
31.70050780245393
  0
VERTEX
  5
1D4
330
1D2
100
AcDbEntity
  8
GNAP$WIFI_ANTENNA
100
AcDbVertex
100
AcDb2dVertex
 10
-87.05036244611009
 20
1079.728587870521
 30
31.70050780245393
  0
VERTEX
  5
1D5
330
1D2
100
AcDbEntity
  8
GNAP$WIFI_ANTENNA
100
AcDbVertex
100
AcDb2dVertex
 10
-87.05036244611009
 20
1085.528987870521
 30
31.70050780245393
  0
VERTEX
  5
1D6
330
1D2
100
AcDbEntity
  8
GNAP$WIFI_ANTENNA
100
AcDbVertex
100
AcDb2dVertex
 10
-86.24936244611008
 20
1085.528987870521
 30
31.70050780245393
  0
VERTEX
  5
1D7
330
1D2
100
AcDbEntity
  8
GNAP$WIFI_ANTENNA
100
AcDbVertex
100
AcDb2dVertex
 10
-86.24936244611008
 20
1088.629487870521
 30
31.70050780245393
  0
VERTEX
  5
1D8
330
1D2
100
AcDbEntity
  8
GNAP$WIFI_ANTENNA
100
AcDbVertex
100
AcDb2dVertex
 10
-87.05036244611009
 20
1088.629487870521
 30
31.70050780245393
  0
VERTEX
  5
1D9
330
1D2
100
AcDbEntity
  8
GNAP$WIFI_ANTENNA
100
AcDbVertex
100
AcDb2dVertex
 10
-87.05036244611009
 20
1089.628587870521
 30
31.70050780245393
  0
VERTEX
  5
1DA
330
1D2
100
AcDbEntity
  8
GNAP$WIFI_ANTENNA
100
AcDbVertex
100
AcDb2dVertex
 10
-101.0503624461101
 20
1089.628587870521
 30
31.70050780245393
  0
VERTEX
  5
1DB
330
1D2
100
AcDbEntity
  8
GNAP$WIFI_ANTENNA
100
AcDbVertex
100
AcDb2dVertex
 10
-101.0503624461101
 20
1088.629487870521
 30
31.70050780245393
  0
VERTEX
  5
1DC
330
1D2
100
AcDbEntity
  8
GNAP$WIFI_ANTENNA
100
AcDbVertex
100
AcDb2dVertex
 10
-101.8503624461101
 20
1088.629487870521
 30
31.70050780245393
  0
VERTEX
  5
1DD
330
1D2
100
AcDbEntity
  8
GNAP$WIFI_ANTENNA
100
AcDbVertex
100
AcDb2dVertex
 10
-101.8503624461101
 20
1085.528987870521
 30
31.70050780245393
  0
VERTEX
  5
1DE
330
1D2
100
AcDbEntity
  8
GNAP$WIFI_ANTENNA
100
AcDbVertex
100
AcDb2dVertex
 10
-101.0503624461101
 20
1085.528987870521
 30
31.70050780245393
  0
VERTEX
  5
1DF
330
1D2
100
AcDbEntity
  8
GNAP$WIFI_ANTENNA
100
AcDbVertex
100
AcDb2dVertex
 10
-101.0503624461101
 20
1079.728587870521
 30
31.70050780245393
  0
VERTEX
  5
1E0
330
1D2
100
AcDbEntity
  8
GNAP$WIFI_ANTENNA
100
AcDbVertex
100
AcDb2dVertex
 10
-101.8503624461101
 20
1079.728587870521
 30
31.70050780245393
  0
VERTEX
  5
1E1
330
1D2
100
AcDbEntity
  8
GNAP$WIFI_ANTENNA
100
AcDbVertex
100
AcDb2dVertex
 10
-101.8503624461101
 20
1076.629487870521
 30
31.70050780245393
  0
VERTEX
  5
1E2
330
1D2
100
AcDbEntity
  8
GNAP$WIFI_ANTENNA
100
AcDbVertex
100
AcDb2dVertex
 10
-101.0503624461101
 20
1076.629487870521
 30
31.70050780245393
  0
VERTEX
  5
1E3
330
1D2
100
AcDbEntity
  8
GNAP$WIFI_ANTENNA
100
AcDbVertex
100
AcDb2dVertex
 10
-101.0503624461101
 20
1075.628987870521
 30
31.70050780245393
  0
VERTEX
  5
1E4
330
1D2
100
AcDbEntity
  8
GNAP$WIFI_ANTENNA
100
AcDbVertex
100
AcDb2dVertex
 10
-87.05036244611009
 20
1075.628987870521
 30
31.70050780245393
  0
VERTEX
  5
1E5
330
1D2
100
AcDbEntity
  8
GNAP$WIFI_ANTENNA
100
AcDbVertex
100
AcDb2dVertex
 10
-87.05036244611009
 20
1076.629487870521
 30
31.70050780245393
  0
VERTEX
  5
1E6
330
1D2
100
AcDbEntity
  8
GNAP$WIFI_ANTENNA
100
AcDbVertex
100
AcDb2dVertex
 10
-86.24936244611008
 20
1076.629487870521
 30
31.70050780245393
  0
SEQEND
  5
1E7
330
1D2
100
AcDbEntity
  8
GNAP$WIFI_ANTENNA
  0
POLYLINE
  5
1E8
330
1F
100
AcDbEntity
  8
GNAP$WIFI_ANTENNA
100
AcDb2dPolyline
 66
     1
 10
0.0
 20
0.0
 30
31.70050780245393
 70
     1
  0
VERTEX
  5
1E9
330
1E8
100
AcDbEntity
  8
GNAP$WIFI_ANTENNA
100
AcDbVertex
100
AcDb2dVertex
 10
-105.2993624461101
 20
1079.728587870521
 30
31.70050780245393
  0
VERTEX
  5
1EA
330
1E8
100
AcDbEntity
  8
GNAP$WIFI_ANTENNA
100
AcDbVertex
100
AcDb2dVertex
 10
-106.1003624461101
 20
1079.728587870521
 30
31.70050780245393
  0
VERTEX
  5
1EB
330
1E8
100
AcDbEntity
  8
GNAP$WIFI_ANTENNA
100
AcDbVertex
100
AcDb2dVertex
 10
-106.1003624461101
 20
1085.528987870521
 30
31.70050780245393
  0
VERTEX
  5
1EC
330
1E8
100
AcDbEntity
  8
GNAP$WIFI_ANTENNA
100
AcDbVertex
100
AcDb2dVertex
 10
-105.2993624461101
 20
1085.528987870521
 30
31.70050780245393
  0
VERTEX
  5
1ED
330
1E8
100
AcDbEntity
  8
GNAP$WIFI_ANTENNA
100
AcDbVertex
100
AcDb2dVertex
 10
-105.2993624461101
 20
1088.629487870521
 30
31.70050780245393
  0
VERTEX
  5
1EE
330
1E8
100
AcDbEntity
  8
GNAP$WIFI_ANTENNA
100
AcDbVertex
100
AcDb2dVertex
 10
-106.1003624461101
 20
1088.629487870521
 30
31.70050780245393
  0
VERTEX
  5
1EF
330
1E8
100
AcDbEntity
  8
GNAP$WIFI_ANTENNA
100
AcDbVertex
100
AcDb2dVertex
 10
-106.1003624461101
 20
1089.628587870521
 30
31.70050780245393
  0
VERTEX
  5
1F0
330
1E8
100
AcDbEntity
  8
GNAP$WIFI_ANTENNA
100
AcDbVertex
100
AcDb2dVertex
 10
-120.1003624461101
 20
1089.628587870521
 30
31.70050780245393
  0
VERTEX
  5
1F1
330
1E8
100
AcDbEntity
  8
GNAP$WIFI_ANTENNA
100
AcDbVertex
100
AcDb2dVertex
 10
-120.1003624461101
 20
1088.629487870521
 30
31.70050780245393
  0
VERTEX
  5
1F2
330
1E8
100
AcDbEntity
  8
GNAP$WIFI_ANTENNA
100
AcDbVertex
100
AcDb2dVertex
 10
-120.9003624461101
 20
1088.629487870521
 30
31.70050780245393
  0
VERTEX
  5
1F3
330
1E8
100
AcDbEntity
  8
GNAP$WIFI_ANTENNA
100
AcDbVertex
100
AcDb2dVertex
 10
-120.9003624461101
 20
1085.528987870521
 30
31.70050780245393
  0
VERTEX
  5
1F4
330
1E8
100
AcDbEntity
  8
GNAP$WIFI_ANTENNA
100
AcDbVertex
100
AcDb2dVertex
 10
-120.1003624461101
 20
1085.528987870521
 30
31.70050780245393
  0
VERTEX
  5
1F5
330
1E8
100
AcDbEntity
  8
GNAP$WIFI_ANTENNA
100
AcDbVertex
100
AcDb2dVertex
 10
-120.1003624461101
 20
1079.728587870521
 30
31.70050780245393
  0
VERTEX
  5
1F6
330
1E8
100
AcDbEntity
  8
GNAP$WIFI_ANTENNA
100
AcDbVertex
100
AcDb2dVertex
 10
-120.9003624461101
 20
1079.728587870521
 30
31.70050780245393
  0
VERTEX
  5
1F7
330
1E8
100
AcDbEntity
  8
GNAP$WIFI_ANTENNA
100
AcDbVertex
100
AcDb2dVertex
 10
-120.9003624461101
 20
1076.629487870521
 30
31.70050780245393
  0
VERTEX
  5
1F8
330
1E8
100
AcDbEntity
  8
GNAP$WIFI_ANTENNA
100
AcDbVertex
100
AcDb2dVertex
 10
-120.1003624461101
 20
1076.629487870521
 30
31.70050780245393
  0
VERTEX
  5
1F9
330
1E8
100
AcDbEntity
  8
GNAP$WIFI_ANTENNA
100
AcDbVertex
100
AcDb2dVertex
 10
-120.1003624461101
 20
1075.628987870521
 30
31.70050780245393
  0
VERTEX
  5
1FA
330
1E8
100
AcDbEntity
  8
GNAP$WIFI_ANTENNA
100
AcDbVertex
100
AcDb2dVertex
 10
-106.1003624461101
 20
1075.628987870521
 30
31.70050780245393
  0
VERTEX
  5
1FB
330
1E8
100
AcDbEntity
  8
GNAP$WIFI_ANTENNA
100
AcDbVertex
100
AcDb2dVertex
 10
-106.1003624461101
 20
1076.629487870521
 30
31.70050780245393
  0
VERTEX
  5
1FC
330
1E8
100
AcDbEntity
  8
GNAP$WIFI_ANTENNA
100
AcDbVertex
100
AcDb2dVertex
 10
-105.2993624461101
 20
1076.629487870521
 30
31.70050780245393
  0
SEQEND
  5
1FD
330
1E8
100
AcDbEntity
  8
GNAP$WIFI_ANTENNA
  0
POLYLINE
  5
1FE
330
1F
100
AcDbEntity
  8
GNAP$WIFI_ANTENNA
100
AcDb2dPolyline
 66
     1
 10
0.0
 20
0.0
 30
31.70050780245393
 70
     1
  0
VERTEX
  5
1FF
330
1FE
100
AcDbEntity
  8
GNAP$WIFI_ANTENNA
100
AcDbVertex
100
AcDb2dVertex
 10
-124.3493624461101
 20
1079.728587870521
 30
31.70050780245393
  0
VERTEX
  5
200
330
1FE
100
AcDbEntity
  8
GNAP$WIFI_ANTENNA
100
AcDbVertex
100
AcDb2dVertex
 10
-125.1503624461101
 20
1079.728587870521
 30
31.70050780245393
  0
VERTEX
  5
201
330
1FE
100
AcDbEntity
  8
GNAP$WIFI_ANTENNA
100
AcDbVertex
100
AcDb2dVertex
 10
-125.1503624461101
 20
1085.528987870521
 30
31.70050780245393
  0
VERTEX
  5
202
330
1FE
100
AcDbEntity
  8
GNAP$WIFI_ANTENNA
100
AcDbVertex
100
AcDb2dVertex
 10
-124.3493624461101
 20
1085.528987870521
 30
31.70050780245393
  0
VERTEX
  5
203
330
1FE
100
AcDbEntity
  8
GNAP$WIFI_ANTENNA
100
AcDbVertex
100
AcDb2dVertex
 10
-124.3493624461101
 20
1088.629487870521
 30
31.70050780245393
  0
VERTEX
  5
204
330
1FE
100
AcDbEntity
  8
GNAP$WIFI_ANTENNA
100
AcDbVertex
100
AcDb2dVertex
 10
-125.1503624461101
 20
1088.629487870521
 30
31.70050780245393
  0
VERTEX
  5
205
330
1FE
100
AcDbEntity
  8
GNAP$WIFI_ANTENNA
100
AcDbVertex
100
AcDb2dVertex
 10
-125.1503624461101
 20
1089.628587870521
 30
31.70050780245393
  0
VERTEX
  5
206
330
1FE
100
AcDbEntity
  8
GNAP$WIFI_ANTENNA
100
AcDbVertex
100
AcDb2dVertex
 10
-139.15036244611
 20
1089.628587870521
 30
31.70050780245393
  0
VERTEX
  5
207
330
1FE
100
AcDbEntity
  8
GNAP$WIFI_ANTENNA
100
AcDbVertex
100
AcDb2dVertex
 10
-139.15036244611
 20
1088.629487870521
 30
31.70050780245393
  0
VERTEX
  5
208
330
1FE
100
AcDbEntity
  8
GNAP$WIFI_ANTENNA
100
AcDbVertex
100
AcDb2dVertex
 10
-139.95036244611
 20
1088.629487870521
 30
31.70050780245393
  0
VERTEX
  5
209
330
1FE
100
AcDbEntity
  8
GNAP$WIFI_ANTENNA
100
AcDbVertex
100
AcDb2dVertex
 10
-139.95036244611
 20
1085.528987870521
 30
31.70050780245393
  0
VERTEX
  5
20A
330
1FE
100
AcDbEntity
  8
GNAP$WIFI_ANTENNA
100
AcDbVertex
100
AcDb2dVertex
 10
-139.15036244611
 20
1085.528987870521
 30
31.70050780245393
  0
VERTEX
  5
20B
330
1FE
100
AcDbEntity
  8
GNAP$WIFI_ANTENNA
100
AcDbVertex
100
AcDb2dVertex
 10
-139.15036244611
 20
1079.728587870521
 30
31.70050780245393
  0
VERTEX
  5
20C
330
1FE
100
AcDbEntity
  8
GNAP$WIFI_ANTENNA
100
AcDbVertex
100
AcDb2dVertex
 10
-139.95036244611
 20
1079.728587870521
 30
31.70050780245393
  0
VERTEX
  5
20D
330
1FE
100
AcDbEntity
  8
GNAP$WIFI_ANTENNA
100
AcDbVertex
100
AcDb2dVertex
 10
-139.95036244611
 20
1076.629487870521
 30
31.70050780245393
  0
VERTEX
  5
20E
330
1FE
100
AcDbEntity
  8
GNAP$WIFI_ANTENNA
100
AcDbVertex
100
AcDb2dVertex
 10
-139.15036244611
 20
1076.629487870521
 30
31.70050780245393
  0
VERTEX
  5
20F
330
1FE
100
AcDbEntity
  8
GNAP$WIFI_ANTENNA
100
AcDbVertex
100
AcDb2dVertex
 10
-139.15036244611
 20
1075.628987870521
 30
31.70050780245393
  0
VERTEX
  5
210
330
1FE
100
AcDbEntity
  8
GNAP$WIFI_ANTENNA
100
AcDbVertex
100
AcDb2dVertex
 10
-125.1503624461101
 20
1075.628987870521
 30
31.70050780245393
  0
VERTEX
  5
211
330
1FE
100
AcDbEntity
  8
GNAP$WIFI_ANTENNA
100
AcDbVertex
100
AcDb2dVertex
 10
-125.1503624461101
 20
1076.629487870521
 30
31.70050780245393
  0
VERTEX
  5
212
330
1FE
100
AcDbEntity
  8
GNAP$WIFI_ANTENNA
100
AcDbVertex
100
AcDb2dVertex
 10
-124.3493624461101
 20
1076.629487870521
 30
31.70050780245393
  0
SEQEND
  5
213
330
1FE
100
AcDbEntity
  8
GNAP$WIFI_ANTENNA
  0
POLYLINE
  5
214
330
1F
100
AcDbEntity
  8
GNAP$WIFI_ANTENNA
100
AcDb2dPolyline
 66
     1
 10
0.0
 20
0.0
 30
31.70050780245393
 70
     1
  0
VERTEX
  5
215
330
214
100
AcDbEntity
  8
GNAP$WIFI_ANTENNA
100
AcDbVertex
100
AcDb2dVertex
 10
-143.39936244611
 20
1079.728587870521
 30
31.70050780245393
  0
VERTEX
  5
216
330
214
100
AcDbEntity
  8
GNAP$WIFI_ANTENNA
100
AcDbVertex
100
AcDb2dVertex
 10
-144.20036244611
 20
1079.728587870521
 30
31.70050780245393
  0
VERTEX
  5
217
330
214
100
AcDbEntity
  8
GNAP$WIFI_ANTENNA
100
AcDbVertex
100
AcDb2dVertex
 10
-144.20036244611
 20
1085.528987870521
 30
31.70050780245393
  0
VERTEX
  5
218
330
214
100
AcDbEntity
  8
GNAP$WIFI_ANTENNA
100
AcDbVertex
100
AcDb2dVertex
 10
-143.39936244611
 20
1085.528987870521
 30
31.70050780245393
  0
VERTEX
  5
219
330
214
100
AcDbEntity
  8
GNAP$WIFI_ANTENNA
100
AcDbVertex
100
AcDb2dVertex
 10
-143.39936244611
 20
1088.629487870521
 30
31.70050780245393
  0
VERTEX
  5
21A
330
214
100
AcDbEntity
  8
GNAP$WIFI_ANTENNA
100
AcDbVertex
100
AcDb2dVertex
 10
-144.20036244611
 20
1088.629487870521
 30
31.70050780245393
  0
VERTEX
  5
21B
330
214
100
AcDbEntity
  8
GNAP$WIFI_ANTENNA
100
AcDbVertex
100
AcDb2dVertex
 10
-144.20036244611
 20
1089.628587870521
 30
31.70050780245393
  0
VERTEX
  5
21C
330
214
100
AcDbEntity
  8
GNAP$WIFI_ANTENNA
100
AcDbVertex
100
AcDb2dVertex
 10
-158.20036244611
 20
1089.628587870521
 30
31.70050780245393
  0
VERTEX
  5
21D
330
214
100
AcDbEntity
  8
GNAP$WIFI_ANTENNA
100
AcDbVertex
100
AcDb2dVertex
 10
-158.20036244611
 20
1088.629487870521
 30
31.70050780245393
  0
VERTEX
  5
21E
330
214
100
AcDbEntity
  8
GNAP$WIFI_ANTENNA
100
AcDbVertex
100
AcDb2dVertex
 10
-159.00036244611
 20
1088.629487870521
 30
31.70050780245393
  0
VERTEX
  5
21F
330
214
100
AcDbEntity
  8
GNAP$WIFI_ANTENNA
100
AcDbVertex
100
AcDb2dVertex
 10
-159.00036244611
 20
1085.528987870521
 30
31.70050780245393
  0
VERTEX
  5
220
330
214
100
AcDbEntity
  8
GNAP$WIFI_ANTENNA
100
AcDbVertex
100
AcDb2dVertex
 10
-158.20036244611
 20
1085.528987870521
 30
31.70050780245393
  0
VERTEX
  5
221
330
214
100
AcDbEntity
  8
GNAP$WIFI_ANTENNA
100
AcDbVertex
100
AcDb2dVertex
 10
-158.20036244611
 20
1079.728587870521
 30
31.70050780245393
  0
VERTEX
  5
222
330
214
100
AcDbEntity
  8
GNAP$WIFI_ANTENNA
100
AcDbVertex
100
AcDb2dVertex
 10
-159.00036244611
 20
1079.728587870521
 30
31.70050780245393
  0
VERTEX
  5
223
330
214
100
AcDbEntity
  8
GNAP$WIFI_ANTENNA
100
AcDbVertex
100
AcDb2dVertex
 10
-159.00036244611
 20
1076.629487870521
 30
31.70050780245393
  0
VERTEX
  5
224
330
214
100
AcDbEntity
  8
GNAP$WIFI_ANTENNA
100
AcDbVertex
100
AcDb2dVertex
 10
-158.20036244611
 20
1076.629487870521
 30
31.70050780245393
  0
VERTEX
  5
225
330
214
100
AcDbEntity
  8
GNAP$WIFI_ANTENNA
100
AcDbVertex
100
AcDb2dVertex
 10
-158.20036244611
 20
1075.628987870521
 30
31.70050780245393
  0
VERTEX
  5
226
330
214
100
AcDbEntity
  8
GNAP$WIFI_ANTENNA
100
AcDbVertex
100
AcDb2dVertex
 10
-144.20036244611
 20
1075.628987870521
 30
31.70050780245393
  0
VERTEX
  5
227
330
214
100
AcDbEntity
  8
GNAP$WIFI_ANTENNA
100
AcDbVertex
100
AcDb2dVertex
 10
-144.20036244611
 20
1076.629487870521
 30
31.70050780245393
  0
VERTEX
  5
228
330
214
100
AcDbEntity
  8
GNAP$WIFI_ANTENNA
100
AcDbVertex
100
AcDb2dVertex
 10
-143.39936244611
 20
1076.629487870521
 30
31.70050780245393
  0
SEQEND
  5
229
330
214
100
AcDbEntity
  8
GNAP$WIFI_ANTENNA
  0
POLYLINE
  5
22A
330
1F
100
AcDbEntity
  8
GNAP$WIFI_ANTENNA
100
AcDb2dPolyline
 66
     1
 10
0.0
 20
0.0
 30
31.70050780245393
 70
     1
  0
VERTEX
  5
22B
330
22A
100
AcDbEntity
  8
GNAP$WIFI_ANTENNA
100
AcDbVertex
100
AcDb2dVertex
 10
-162.4493624461101
 20
1079.728587870521
 30
31.70050780245393
  0
VERTEX
  5
22C
330
22A
100
AcDbEntity
  8
GNAP$WIFI_ANTENNA
100
AcDbVertex
100
AcDb2dVertex
 10
-163.25036244611
 20
1079.728587870521
 30
31.70050780245393
  0
VERTEX
  5
22D
330
22A
100
AcDbEntity
  8
GNAP$WIFI_ANTENNA
100
AcDbVertex
100
AcDb2dVertex
 10
-163.25036244611
 20
1085.528987870521
 30
31.70050780245393
  0
VERTEX
  5
22E
330
22A
100
AcDbEntity
  8
GNAP$WIFI_ANTENNA
100
AcDbVertex
100
AcDb2dVertex
 10
-162.4493624461101
 20
1085.528987870521
 30
31.70050780245393
  0
VERTEX
  5
22F
330
22A
100
AcDbEntity
  8
GNAP$WIFI_ANTENNA
100
AcDbVertex
100
AcDb2dVertex
 10
-162.4493624461101
 20
1088.629487870521
 30
31.70050780245393
  0
VERTEX
  5
230
330
22A
100
AcDbEntity
  8
GNAP$WIFI_ANTENNA
100
AcDbVertex
100
AcDb2dVertex
 10
-163.25036244611
 20
1088.629487870521
 30
31.70050780245393
  0
VERTEX
  5
231
330
22A
100
AcDbEntity
  8
GNAP$WIFI_ANTENNA
100
AcDbVertex
100
AcDb2dVertex
 10
-163.25036244611
 20
1089.628587870521
 30
31.70050780245393
  0
VERTEX
  5
232
330
22A
100
AcDbEntity
  8
GNAP$WIFI_ANTENNA
100
AcDbVertex
100
AcDb2dVertex
 10
-177.25036244611
 20
1089.628587870521
 30
31.70050780245393
  0
VERTEX
  5
233
330
22A
100
AcDbEntity
  8
GNAP$WIFI_ANTENNA
100
AcDbVertex
100
AcDb2dVertex
 10
-177.25036244611
 20
1088.629487870521
 30
31.70050780245393
  0
VERTEX
  5
234
330
22A
100
AcDbEntity
  8
GNAP$WIFI_ANTENNA
100
AcDbVertex
100
AcDb2dVertex
 10
-178.0503624461101
 20
1088.629487870521
 30
31.70050780245393
  0
VERTEX
  5
235
330
22A
100
AcDbEntity
  8
GNAP$WIFI_ANTENNA
100
AcDbVertex
100
AcDb2dVertex
 10
-178.0503624461101
 20
1085.528987870521
 30
31.70050780245393
  0
VERTEX
  5
236
330
22A
100
AcDbEntity
  8
GNAP$WIFI_ANTENNA
100
AcDbVertex
100
AcDb2dVertex
 10
-177.25036244611
 20
1085.528987870521
 30
31.70050780245393
  0
VERTEX
  5
237
330
22A
100
AcDbEntity
  8
GNAP$WIFI_ANTENNA
100
AcDbVertex
100
AcDb2dVertex
 10
-177.25036244611
 20
1079.728587870521
 30
31.70050780245393
  0
VERTEX
  5
238
330
22A
100
AcDbEntity
  8
GNAP$WIFI_ANTENNA
100
AcDbVertex
100
AcDb2dVertex
 10
-178.0503624461101
 20
1079.728587870521
 30
31.70050780245393
  0
VERTEX
  5
239
330
22A
100
AcDbEntity
  8
GNAP$WIFI_ANTENNA
100
AcDbVertex
100
AcDb2dVertex
 10
-178.0503624461101
 20
1076.629487870521
 30
31.70050780245393
  0
VERTEX
  5
23A
330
22A
100
AcDbEntity
  8
GNAP$WIFI_ANTENNA
100
AcDbVertex
100
AcDb2dVertex
 10
-177.25036244611
 20
1076.629487870521
 30
31.70050780245393
  0
VERTEX
  5
23B
330
22A
100
AcDbEntity
  8
GNAP$WIFI_ANTENNA
100
AcDbVertex
100
AcDb2dVertex
 10
-177.25036244611
 20
1075.628987870521
 30
31.70050780245393
  0
VERTEX
  5
23C
330
22A
100
AcDbEntity
  8
GNAP$WIFI_ANTENNA
100
AcDbVertex
100
AcDb2dVertex
 10
-163.25036244611
 20
1075.628987870521
 30
31.70050780245393
  0
VERTEX
  5
23D
330
22A
100
AcDbEntity
  8
GNAP$WIFI_ANTENNA
100
AcDbVertex
100
AcDb2dVertex
 10
-163.25036244611
 20
1076.629487870521
 30
31.70050780245393
  0
VERTEX
  5
23E
330
22A
100
AcDbEntity
  8
GNAP$WIFI_ANTENNA
100
AcDbVertex
100
AcDb2dVertex
 10
-162.4493624461101
 20
1076.629487870521
 30
31.70050780245393
  0
SEQEND
  5
23F
330
22A
100
AcDbEntity
  8
GNAP$WIFI_ANTENNA
  0
POLYLINE
  5
240
330
1F
100
AcDbEntity
  8
GNAP$WIFI_ANTENNA
100
AcDb2dPolyline
 66
     1
 10
0.0
 20
0.0
 30
31.70050780245393
 70
     1
  0
VERTEX
  5
241
330
240
100
AcDbEntity
  8
GNAP$WIFI_ANTENNA
100
AcDbVertex
100
AcDb2dVertex
 10
-181.49936244611
 20
1079.728587870521
 30
31.70050780245393
  0
VERTEX
  5
242
330
240
100
AcDbEntity
  8
GNAP$WIFI_ANTENNA
100
AcDbVertex
100
AcDb2dVertex
 10
-182.3003624461101
 20
1079.728587870521
 30
31.70050780245393
  0
VERTEX
  5
243
330
240
100
AcDbEntity
  8
GNAP$WIFI_ANTENNA
100
AcDbVertex
100
AcDb2dVertex
 10
-182.3003624461101
 20
1085.528987870521
 30
31.70050780245393
  0
VERTEX
  5
244
330
240
100
AcDbEntity
  8
GNAP$WIFI_ANTENNA
100
AcDbVertex
100
AcDb2dVertex
 10
-181.49936244611
 20
1085.528987870521
 30
31.70050780245393
  0
VERTEX
  5
245
330
240
100
AcDbEntity
  8
GNAP$WIFI_ANTENNA
100
AcDbVertex
100
AcDb2dVertex
 10
-181.49936244611
 20
1088.629487870521
 30
31.70050780245393
  0
VERTEX
  5
246
330
240
100
AcDbEntity
  8
GNAP$WIFI_ANTENNA
100
AcDbVertex
100
AcDb2dVertex
 10
-182.3003624461101
 20
1088.629487870521
 30
31.70050780245393
  0
VERTEX
  5
247
330
240
100
AcDbEntity
  8
GNAP$WIFI_ANTENNA
100
AcDbVertex
100
AcDb2dVertex
 10
-182.3003624461101
 20
1089.628587870521
 30
31.70050780245393
  0
VERTEX
  5
248
330
240
100
AcDbEntity
  8
GNAP$WIFI_ANTENNA
100
AcDbVertex
100
AcDb2dVertex
 10
-196.3003624461101
 20
1089.628587870521
 30
31.70050780245393
  0
VERTEX
  5
249
330
240
100
AcDbEntity
  8
GNAP$WIFI_ANTENNA
100
AcDbVertex
100
AcDb2dVertex
 10
-196.3003624461101
 20
1088.629487870521
 30
31.70050780245393
  0
VERTEX
  5
24A
330
240
100
AcDbEntity
  8
GNAP$WIFI_ANTENNA
100
AcDbVertex
100
AcDb2dVertex
 10
-197.10036244611
 20
1088.629487870521
 30
31.70050780245393
  0
VERTEX
  5
24B
330
240
100
AcDbEntity
  8
GNAP$WIFI_ANTENNA
100
AcDbVertex
100
AcDb2dVertex
 10
-197.10036244611
 20
1085.528987870521
 30
31.70050780245393
  0
VERTEX
  5
24C
330
240
100
AcDbEntity
  8
GNAP$WIFI_ANTENNA
100
AcDbVertex
100
AcDb2dVertex
 10
-196.3003624461101
 20
1085.528987870521
 30
31.70050780245393
  0
VERTEX
  5
24D
330
240
100
AcDbEntity
  8
GNAP$WIFI_ANTENNA
100
AcDbVertex
100
AcDb2dVertex
 10
-196.3003624461101
 20
1079.728587870521
 30
31.70050780245393
  0
VERTEX
  5
24E
330
240
100
AcDbEntity
  8
GNAP$WIFI_ANTENNA
100
AcDbVertex
100
AcDb2dVertex
 10
-197.10036244611
 20
1079.728587870521
 30
31.70050780245393
  0
VERTEX
  5
24F
330
240
100
AcDbEntity
  8
GNAP$WIFI_ANTENNA
100
AcDbVertex
100
AcDb2dVertex
 10
-197.10036244611
 20
1076.629487870521
 30
31.70050780245393
  0
VERTEX
  5
250
330
240
100
AcDbEntity
  8
GNAP$WIFI_ANTENNA
100
AcDbVertex
100
AcDb2dVertex
 10
-196.3003624461101
 20
1076.629487870521
 30
31.70050780245393
  0
VERTEX
  5
251
330
240
100
AcDbEntity
  8
GNAP$WIFI_ANTENNA
100
AcDbVertex
100
AcDb2dVertex
 10
-196.3003624461101
 20
1075.628987870521
 30
31.70050780245393
  0
VERTEX
  5
252
330
240
100
AcDbEntity
  8
GNAP$WIFI_ANTENNA
100
AcDbVertex
100
AcDb2dVertex
 10
-182.3003624461101
 20
1075.628987870521
 30
31.70050780245393
  0
VERTEX
  5
253
330
240
100
AcDbEntity
  8
GNAP$WIFI_ANTENNA
100
AcDbVertex
100
AcDb2dVertex
 10
-182.3003624461101
 20
1076.629487870521
 30
31.70050780245393
  0
VERTEX
  5
254
330
240
100
AcDbEntity
  8
GNAP$WIFI_ANTENNA
100
AcDbVertex
100
AcDb2dVertex
 10
-181.49936244611
 20
1076.629487870521
 30
31.70050780245393
  0
SEQEND
  5
255
330
240
100
AcDbEntity
  8
GNAP$WIFI_ANTENNA
  0
POLYLINE
  5
256
330
1F
100
AcDbEntity
  8
GNAP$WIFI_ANTENNA
100
AcDb2dPolyline
 66
     1
 10
0.0
 20
0.0
 30
31.70050780245393
 70
     1
  0
VERTEX
  5
257
330
256
100
AcDbEntity
  8
GNAP$WIFI_ANTENNA
100
AcDbVertex
100
AcDb2dVertex
 10
-200.54936244611
 20
1079.728587870521
 30
31.70050780245393
  0
VERTEX
  5
258
330
256
100
AcDbEntity
  8
GNAP$WIFI_ANTENNA
100
AcDbVertex
100
AcDb2dVertex
 10
-201.35036244611
 20
1079.728587870521
 30
31.70050780245393
  0
VERTEX
  5
259
330
256
100
AcDbEntity
  8
GNAP$WIFI_ANTENNA
100
AcDbVertex
100
AcDb2dVertex
 10
-201.35036244611
 20
1085.528987870521
 30
31.70050780245393
  0
VERTEX
  5
25A
330
256
100
AcDbEntity
  8
GNAP$WIFI_ANTENNA
100
AcDbVertex
100
AcDb2dVertex
 10
-200.54936244611
 20
1085.528987870521
 30
31.70050780245393
  0
VERTEX
  5
25B
330
256
100
AcDbEntity
  8
GNAP$WIFI_ANTENNA
100
AcDbVertex
100
AcDb2dVertex
 10
-200.54936244611
 20
1088.629487870521
 30
31.70050780245393
  0
VERTEX
  5
25C
330
256
100
AcDbEntity
  8
GNAP$WIFI_ANTENNA
100
AcDbVertex
100
AcDb2dVertex
 10
-201.35036244611
 20
1088.629487870521
 30
31.70050780245393
  0
VERTEX
  5
25D
330
256
100
AcDbEntity
  8
GNAP$WIFI_ANTENNA
100
AcDbVertex
100
AcDb2dVertex
 10
-201.35036244611
 20
1089.628587870521
 30
31.70050780245393
  0
VERTEX
  5
25E
330
256
100
AcDbEntity
  8
GNAP$WIFI_ANTENNA
100
AcDbVertex
100
AcDb2dVertex
 10
-215.35036244611
 20
1089.628587870521
 30
31.70050780245393
  0
VERTEX
  5
25F
330
256
100
AcDbEntity
  8
GNAP$WIFI_ANTENNA
100
AcDbVertex
100
AcDb2dVertex
 10
-215.35036244611
 20
1088.629487870521
 30
31.70050780245393
  0
VERTEX
  5
260
330
256
100
AcDbEntity
  8
GNAP$WIFI_ANTENNA
100
AcDbVertex
100
AcDb2dVertex
 10
-216.15036244611
 20
1088.629487870521
 30
31.70050780245393
  0
VERTEX
  5
261
330
256
100
AcDbEntity
  8
GNAP$WIFI_ANTENNA
100
AcDbVertex
100
AcDb2dVertex
 10
-216.15036244611
 20
1085.528987870521
 30
31.70050780245393
  0
VERTEX
  5
262
330
256
100
AcDbEntity
  8
GNAP$WIFI_ANTENNA
100
AcDbVertex
100
AcDb2dVertex
 10
-215.35036244611
 20
1085.528987870521
 30
31.70050780245393
  0
VERTEX
  5
263
330
256
100
AcDbEntity
  8
GNAP$WIFI_ANTENNA
100
AcDbVertex
100
AcDb2dVertex
 10
-215.35036244611
 20
1079.728587870521
 30
31.70050780245393
  0
VERTEX
  5
264
330
256
100
AcDbEntity
  8
GNAP$WIFI_ANTENNA
100
AcDbVertex
100
AcDb2dVertex
 10
-216.15036244611
 20
1079.728587870521
 30
31.70050780245393
  0
VERTEX
  5
265
330
256
100
AcDbEntity
  8
GNAP$WIFI_ANTENNA
100
AcDbVertex
100
AcDb2dVertex
 10
-216.15036244611
 20
1076.629487870521
 30
31.70050780245393
  0
VERTEX
  5
266
330
256
100
AcDbEntity
  8
GNAP$WIFI_ANTENNA
100
AcDbVertex
100
AcDb2dVertex
 10
-215.35036244611
 20
1076.629487870521
 30
31.70050780245393
  0
VERTEX
  5
267
330
256
100
AcDbEntity
  8
GNAP$WIFI_ANTENNA
100
AcDbVertex
100
AcDb2dVertex
 10
-215.35036244611
 20
1075.628987870521
 30
31.70050780245393
  0
VERTEX
  5
268
330
256
100
AcDbEntity
  8
GNAP$WIFI_ANTENNA
100
AcDbVertex
100
AcDb2dVertex
 10
-201.35036244611
 20
1075.628987870521
 30
31.70050780245393
  0
VERTEX
  5
269
330
256
100
AcDbEntity
  8
GNAP$WIFI_ANTENNA
100
AcDbVertex
100
AcDb2dVertex
 10
-201.35036244611
 20
1076.629487870521
 30
31.70050780245393
  0
VERTEX
  5
26A
330
256
100
AcDbEntity
  8
GNAP$WIFI_ANTENNA
100
AcDbVertex
100
AcDb2dVertex
 10
-200.54936244611
 20
1076.629487870521
 30
31.70050780245393
  0
SEQEND
  5
26B
330
256
100
AcDbEntity
  8
GNAP$WIFI_ANTENNA
  0
POLYLINE
  5
26C
330
1F
100
AcDbEntity
  8
GNAP$WIFI_ANTENNA
100
AcDb2dPolyline
 66
     1
 10
0.0
 20
0.0
 30
31.70050780245393
 70
     1
  0
VERTEX
  5
26D
330
26C
100
AcDbEntity
  8
GNAP$WIFI_ANTENNA
100
AcDbVertex
100
AcDb2dVertex
 10
-219.59936244611
 20
1079.728587870521
 30
31.70050780245393
  0
VERTEX
  5
26E
330
26C
100
AcDbEntity
  8
GNAP$WIFI_ANTENNA
100
AcDbVertex
100
AcDb2dVertex
 10
-220.40036244611
 20
1079.728587870521
 30
31.70050780245393
  0
VERTEX
  5
26F
330
26C
100
AcDbEntity
  8
GNAP$WIFI_ANTENNA
100
AcDbVertex
100
AcDb2dVertex
 10
-220.40036244611
 20
1085.528987870521
 30
31.70050780245393
  0
VERTEX
  5
270
330
26C
100
AcDbEntity
  8
GNAP$WIFI_ANTENNA
100
AcDbVertex
100
AcDb2dVertex
 10
-219.59936244611
 20
1085.528987870521
 30
31.70050780245393
  0
VERTEX
  5
271
330
26C
100
AcDbEntity
  8
GNAP$WIFI_ANTENNA
100
AcDbVertex
100
AcDb2dVertex
 10
-219.59936244611
 20
1088.629487870521
 30
31.70050780245393
  0
VERTEX
  5
272
330
26C
100
AcDbEntity
  8
GNAP$WIFI_ANTENNA
100
AcDbVertex
100
AcDb2dVertex
 10
-220.40036244611
 20
1088.629487870521
 30
31.70050780245393
  0
VERTEX
  5
273
330
26C
100
AcDbEntity
  8
GNAP$WIFI_ANTENNA
100
AcDbVertex
100
AcDb2dVertex
 10
-220.40036244611
 20
1089.628587870521
 30
31.70050780245393
  0
VERTEX
  5
274
330
26C
100
AcDbEntity
  8
GNAP$WIFI_ANTENNA
100
AcDbVertex
100
AcDb2dVertex
 10
-234.40036244611
 20
1089.628587870521
 30
31.70050780245393
  0
VERTEX
  5
275
330
26C
100
AcDbEntity
  8
GNAP$WIFI_ANTENNA
100
AcDbVertex
100
AcDb2dVertex
 10
-234.40036244611
 20
1088.629487870521
 30
31.70050780245393
  0
VERTEX
  5
276
330
26C
100
AcDbEntity
  8
GNAP$WIFI_ANTENNA
100
AcDbVertex
100
AcDb2dVertex
 10
-235.1993624461101
 20
1088.629487870521
 30
31.70050780245393
  0
VERTEX
  5
277
330
26C
100
AcDbEntity
  8
GNAP$WIFI_ANTENNA
100
AcDbVertex
100
AcDb2dVertex
 10
-235.1993624461101
 20
1085.528987870521
 30
31.70050780245393
  0
VERTEX
  5
278
330
26C
100
AcDbEntity
  8
GNAP$WIFI_ANTENNA
100
AcDbVertex
100
AcDb2dVertex
 10
-234.40036244611
 20
1085.528987870521
 30
31.70050780245393
  0
VERTEX
  5
279
330
26C
100
AcDbEntity
  8
GNAP$WIFI_ANTENNA
100
AcDbVertex
100
AcDb2dVertex
 10
-234.40036244611
 20
1079.728587870521
 30
31.70050780245393
  0
VERTEX
  5
27A
330
26C
100
AcDbEntity
  8
GNAP$WIFI_ANTENNA
100
AcDbVertex
100
AcDb2dVertex
 10
-235.1993624461101
 20
1079.728587870521
 30
31.70050780245393
  0
VERTEX
  5
27B
330
26C
100
AcDbEntity
  8
GNAP$WIFI_ANTENNA
100
AcDbVertex
100
AcDb2dVertex
 10
-235.1993624461101
 20
1076.629487870521
 30
31.70050780245393
  0
VERTEX
  5
27C
330
26C
100
AcDbEntity
  8
GNAP$WIFI_ANTENNA
100
AcDbVertex
100
AcDb2dVertex
 10
-234.40036244611
 20
1076.629487870521
 30
31.70050780245393
  0
VERTEX
  5
27D
330
26C
100
AcDbEntity
  8
GNAP$WIFI_ANTENNA
100
AcDbVertex
100
AcDb2dVertex
 10
-234.40036244611
 20
1075.628987870521
 30
31.70050780245393
  0
VERTEX
  5
27E
330
26C
100
AcDbEntity
  8
GNAP$WIFI_ANTENNA
100
AcDbVertex
100
AcDb2dVertex
 10
-220.40036244611
 20
1075.628987870521
 30
31.70050780245393
  0
VERTEX
  5
27F
330
26C
100
AcDbEntity
  8
GNAP$WIFI_ANTENNA
100
AcDbVertex
100
AcDb2dVertex
 10
-220.40036244611
 20
1076.629487870521
 30
31.70050780245393
  0
VERTEX
  5
280
330
26C
100
AcDbEntity
  8
GNAP$WIFI_ANTENNA
100
AcDbVertex
100
AcDb2dVertex
 10
-219.59936244611
 20
1076.629487870521
 30
31.70050780245393
  0
SEQEND
  5
281
330
26C
100
AcDbEntity
  8
GNAP$WIFI_ANTENNA
  0
POLYLINE
  5
282
330
1F
100
AcDbEntity
  8
GNAP$WIFI_ANTENNA
100
AcDb2dPolyline
 66
     1
 10
0.0
 20
0.0
 30
31.70050780245393
 70
     1
  0
VERTEX
  5
283
330
282
100
AcDbEntity
  8
GNAP$WIFI_ANTENNA
100
AcDbVertex
100
AcDb2dVertex
 10
-2.905962446110093
 20
1060.678587870521
 30
31.70050780245393
  0
VERTEX
  5
284
330
282
100
AcDbEntity
  8
GNAP$WIFI_ANTENNA
100
AcDbVertex
100
AcDb2dVertex
 10
-3.705162446110107
 20
1060.678587870521
 30
31.70050780245393
  0
VERTEX
  5
285
330
282
100
AcDbEntity
  8
GNAP$WIFI_ANTENNA
100
AcDbVertex
100
AcDb2dVertex
 10
-3.705162446110107
 20
1066.478987870521
 30
31.70050780245393
  0
VERTEX
  5
286
330
282
100
AcDbEntity
  8
GNAP$WIFI_ANTENNA
100
AcDbVertex
100
AcDb2dVertex
 10
-2.905962446110093
 20
1066.478987870521
 30
31.70050780245393
  0
VERTEX
  5
287
330
282
100
AcDbEntity
  8
GNAP$WIFI_ANTENNA
100
AcDbVertex
100
AcDb2dVertex
 10
-2.905962446110093
 20
1069.579487870521
 30
31.70050780245393
  0
VERTEX
  5
288
330
282
100
AcDbEntity
  8
GNAP$WIFI_ANTENNA
100
AcDbVertex
100
AcDb2dVertex
 10
-3.705162446110107
 20
1069.579487870521
 30
31.70050780245393
  0
VERTEX
  5
289
330
282
100
AcDbEntity
  8
GNAP$WIFI_ANTENNA
100
AcDbVertex
100
AcDb2dVertex
 10
-3.705162446110107
 20
1070.578587870521
 30
31.70050780245393
  0
VERTEX
  5
28A
330
282
100
AcDbEntity
  8
GNAP$WIFI_ANTENNA
100
AcDbVertex
100
AcDb2dVertex
 10
-17.7060624461101
 20
1070.578587870521
 30
31.70050780245393
  0
VERTEX
  5
28B
330
282
100
AcDbEntity
  8
GNAP$WIFI_ANTENNA
100
AcDbVertex
100
AcDb2dVertex
 10
-17.7060624461101
 20
1069.579487870521
 30
31.70050780245393
  0
VERTEX
  5
28C
330
282
100
AcDbEntity
  8
GNAP$WIFI_ANTENNA
100
AcDbVertex
100
AcDb2dVertex
 10
-18.50536244611009
 20
1069.579487870521
 30
31.70050780245393
  0
VERTEX
  5
28D
330
282
100
AcDbEntity
  8
GNAP$WIFI_ANTENNA
100
AcDbVertex
100
AcDb2dVertex
 10
-18.50536244611009
 20
1066.478987870521
 30
31.70050780245393
  0
VERTEX
  5
28E
330
282
100
AcDbEntity
  8
GNAP$WIFI_ANTENNA
100
AcDbVertex
100
AcDb2dVertex
 10
-17.7060624461101
 20
1066.478987870521
 30
31.70050780245393
  0
VERTEX
  5
28F
330
282
100
AcDbEntity
  8
GNAP$WIFI_ANTENNA
100
AcDbVertex
100
AcDb2dVertex
 10
-17.7060624461101
 20
1060.678587870521
 30
31.70050780245393
  0
VERTEX
  5
290
330
282
100
AcDbEntity
  8
GNAP$WIFI_ANTENNA
100
AcDbVertex
100
AcDb2dVertex
 10
-18.50536244611009
 20
1060.678587870521
 30
31.70050780245393
  0
VERTEX
  5
291
330
282
100
AcDbEntity
  8
GNAP$WIFI_ANTENNA
100
AcDbVertex
100
AcDb2dVertex
 10
-18.50536244611009
 20
1057.579487870521
 30
31.70050780245393
  0
VERTEX
  5
292
330
282
100
AcDbEntity
  8
GNAP$WIFI_ANTENNA
100
AcDbVertex
100
AcDb2dVertex
 10
-17.7060624461101
 20
1057.579487870521
 30
31.70050780245393
  0
VERTEX
  5
293
330
282
100
AcDbEntity
  8
GNAP$WIFI_ANTENNA
100
AcDbVertex
100
AcDb2dVertex
 10
-17.7060624461101
 20
1056.578987870521
 30
31.70050780245393
  0
VERTEX
  5
294
330
282
100
AcDbEntity
  8
GNAP$WIFI_ANTENNA
100
AcDbVertex
100
AcDb2dVertex
 10
-3.705162446110107
 20
1056.578987870521
 30
31.70050780245393
  0
VERTEX
  5
295
330
282
100
AcDbEntity
  8
GNAP$WIFI_ANTENNA
100
AcDbVertex
100
AcDb2dVertex
 10
-3.705162446110107
 20
1057.579487870521
 30
31.70050780245393
  0
VERTEX
  5
296
330
282
100
AcDbEntity
  8
GNAP$WIFI_ANTENNA
100
AcDbVertex
100
AcDb2dVertex
 10
-2.905962446110093
 20
1057.579487870521
 30
31.70050780245393
  0
SEQEND
  5
297
330
282
100
AcDbEntity
  8
GNAP$WIFI_ANTENNA
  0
POLYLINE
  5
298
330
1F
100
AcDbEntity
  8
GNAP$WIFI_ANTENNA
100
AcDb2dPolyline
 66
     1
 10
0.0
 20
0.0
 30
31.70050780245393
 70
     1
  0
VERTEX
  5
299
330
298
100
AcDbEntity
  8
GNAP$WIFI_ANTENNA
100
AcDbVertex
100
AcDb2dVertex
 10
-24.33726244611011
 20
1060.678587870521
 30
31.70050780245393
  0
VERTEX
  5
29A
330
298
100
AcDbEntity
  8
GNAP$WIFI_ANTENNA
100
AcDbVertex
100
AcDb2dVertex
 10
-25.13636244611012
 20
1060.678587870521
 30
31.70050780245393
  0
VERTEX
  5
29B
330
298
100
AcDbEntity
  8
GNAP$WIFI_ANTENNA
100
AcDbVertex
100
AcDb2dVertex
 10
-25.13636244611012
 20
1066.478987870521
 30
31.70050780245393
  0
VERTEX
  5
29C
330
298
100
AcDbEntity
  8
GNAP$WIFI_ANTENNA
100
AcDbVertex
100
AcDb2dVertex
 10
-24.33726244611011
 20
1066.478987870521
 30
31.70050780245393
  0
VERTEX
  5
29D
330
298
100
AcDbEntity
  8
GNAP$WIFI_ANTENNA
100
AcDbVertex
100
AcDb2dVertex
 10
-24.33726244611011
 20
1069.579487870521
 30
31.70050780245393
  0
VERTEX
  5
29E
330
298
100
AcDbEntity
  8
GNAP$WIFI_ANTENNA
100
AcDbVertex
100
AcDb2dVertex
 10
-25.13636244611012
 20
1069.579487870521
 30
31.70050780245393
  0
VERTEX
  5
29F
330
298
100
AcDbEntity
  8
GNAP$WIFI_ANTENNA
100
AcDbVertex
100
AcDb2dVertex
 10
-25.13636244611012
 20
1070.578587870521
 30
31.70050780245393
  0
VERTEX
  5
2A0
330
298
100
AcDbEntity
  8
GNAP$WIFI_ANTENNA
100
AcDbVertex
100
AcDb2dVertex
 10
-39.13736244611009
 20
1070.578587870521
 30
31.70050780245393
  0
VERTEX
  5
2A1
330
298
100
AcDbEntity
  8
GNAP$WIFI_ANTENNA
100
AcDbVertex
100
AcDb2dVertex
 10
-39.13736244611009
 20
1069.579487870521
 30
31.70050780245393
  0
VERTEX
  5
2A2
330
298
100
AcDbEntity
  8
GNAP$WIFI_ANTENNA
100
AcDbVertex
100
AcDb2dVertex
 10
-39.9364624461101
 20
1069.579487870521
 30
31.70050780245393
  0
VERTEX
  5
2A3
330
298
100
AcDbEntity
  8
GNAP$WIFI_ANTENNA
100
AcDbVertex
100
AcDb2dVertex
 10
-39.9364624461101
 20
1066.478987870521
 30
31.70050780245393
  0
VERTEX
  5
2A4
330
298
100
AcDbEntity
  8
GNAP$WIFI_ANTENNA
100
AcDbVertex
100
AcDb2dVertex
 10
-39.13736244611009
 20
1066.478987870521
 30
31.70050780245393
  0
VERTEX
  5
2A5
330
298
100
AcDbEntity
  8
GNAP$WIFI_ANTENNA
100
AcDbVertex
100
AcDb2dVertex
 10
-39.13736244611009
 20
1060.678587870521
 30
31.70050780245393
  0
VERTEX
  5
2A6
330
298
100
AcDbEntity
  8
GNAP$WIFI_ANTENNA
100
AcDbVertex
100
AcDb2dVertex
 10
-39.9364624461101
 20
1060.678587870521
 30
31.70050780245393
  0
VERTEX
  5
2A7
330
298
100
AcDbEntity
  8
GNAP$WIFI_ANTENNA
100
AcDbVertex
100
AcDb2dVertex
 10
-39.9364624461101
 20
1057.579487870521
 30
31.70050780245393
  0
VERTEX
  5
2A8
330
298
100
AcDbEntity
  8
GNAP$WIFI_ANTENNA
100
AcDbVertex
100
AcDb2dVertex
 10
-39.13736244611009
 20
1057.579487870521
 30
31.70050780245393
  0
VERTEX
  5
2A9
330
298
100
AcDbEntity
  8
GNAP$WIFI_ANTENNA
100
AcDbVertex
100
AcDb2dVertex
 10
-39.13736244611009
 20
1056.578987870521
 30
31.70050780245393
  0
VERTEX
  5
2AA
330
298
100
AcDbEntity
  8
GNAP$WIFI_ANTENNA
100
AcDbVertex
100
AcDb2dVertex
 10
-25.13636244611012
 20
1056.578987870521
 30
31.70050780245393
  0
VERTEX
  5
2AB
330
298
100
AcDbEntity
  8
GNAP$WIFI_ANTENNA
100
AcDbVertex
100
AcDb2dVertex
 10
-25.13636244611012
 20
1057.579487870521
 30
31.70050780245393
  0
VERTEX
  5
2AC
330
298
100
AcDbEntity
  8
GNAP$WIFI_ANTENNA
100
AcDbVertex
100
AcDb2dVertex
 10
-24.33726244611011
 20
1057.579487870521
 30
31.70050780245393
  0
SEQEND
  5
2AD
330
298
100
AcDbEntity
  8
GNAP$WIFI_ANTENNA
  0
POLYLINE
  5
2AE
330
1F
100
AcDbEntity
  8
GNAP$WIFI_ANTENNA
100
AcDb2dPolyline
 66
     1
 10
0.0
 20
0.0
 30
31.70050780245393
 70
     1
  0
VERTEX
  5
2AF
330
2AE
100
AcDbEntity
  8
GNAP$WIFI_ANTENNA
100
AcDbVertex
100
AcDb2dVertex
 10
-43.38726244611009
 20
1060.678587870521
 30
31.70050780245393
  0
VERTEX
  5
2B0
330
2AE
100
AcDbEntity
  8
GNAP$WIFI_ANTENNA
100
AcDbVertex
100
AcDb2dVertex
 10
-44.1863624461101
 20
1060.678587870521
 30
31.70050780245393
  0
VERTEX
  5
2B1
330
2AE
100
AcDbEntity
  8
GNAP$WIFI_ANTENNA
100
AcDbVertex
100
AcDb2dVertex
 10
-44.1863624461101
 20
1066.478987870521
 30
31.70050780245393
  0
VERTEX
  5
2B2
330
2AE
100
AcDbEntity
  8
GNAP$WIFI_ANTENNA
100
AcDbVertex
100
AcDb2dVertex
 10
-43.38726244611009
 20
1066.478987870521
 30
31.70050780245393
  0
VERTEX
  5
2B3
330
2AE
100
AcDbEntity
  8
GNAP$WIFI_ANTENNA
100
AcDbVertex
100
AcDb2dVertex
 10
-43.38726244611009
 20
1069.579487870521
 30
31.70050780245393
  0
VERTEX
  5
2B4
330
2AE
100
AcDbEntity
  8
GNAP$WIFI_ANTENNA
100
AcDbVertex
100
AcDb2dVertex
 10
-44.1863624461101
 20
1069.579487870521
 30
31.70050780245393
  0
VERTEX
  5
2B5
330
2AE
100
AcDbEntity
  8
GNAP$WIFI_ANTENNA
100
AcDbVertex
100
AcDb2dVertex
 10
-44.1863624461101
 20
1070.578587870521
 30
31.70050780245393
  0
VERTEX
  5
2B6
330
2AE
100
AcDbEntity
  8
GNAP$WIFI_ANTENNA
100
AcDbVertex
100
AcDb2dVertex
 10
-58.1873624461101
 20
1070.578587870521
 30
31.70050780245393
  0
VERTEX
  5
2B7
330
2AE
100
AcDbEntity
  8
GNAP$WIFI_ANTENNA
100
AcDbVertex
100
AcDb2dVertex
 10
-58.1873624461101
 20
1069.579487870521
 30
31.70050780245393
  0
VERTEX
  5
2B8
330
2AE
100
AcDbEntity
  8
GNAP$WIFI_ANTENNA
100
AcDbVertex
100
AcDb2dVertex
 10
-58.9864624461101
 20
1069.579487870521
 30
31.70050780245393
  0
VERTEX
  5
2B9
330
2AE
100
AcDbEntity
  8
GNAP$WIFI_ANTENNA
100
AcDbVertex
100
AcDb2dVertex
 10
-58.9864624461101
 20
1066.478987870521
 30
31.70050780245393
  0
VERTEX
  5
2BA
330
2AE
100
AcDbEntity
  8
GNAP$WIFI_ANTENNA
100
AcDbVertex
100
AcDb2dVertex
 10
-58.1873624461101
 20
1066.478987870521
 30
31.70050780245393
  0
VERTEX
  5
2BB
330
2AE
100
AcDbEntity
  8
GNAP$WIFI_ANTENNA
100
AcDbVertex
100
AcDb2dVertex
 10
-58.1873624461101
 20
1060.678587870521
 30
31.70050780245393
  0
VERTEX
  5
2BC
330
2AE
100
AcDbEntity
  8
GNAP$WIFI_ANTENNA
100
AcDbVertex
100
AcDb2dVertex
 10
-58.9864624461101
 20
1060.678587870521
 30
31.70050780245393
  0
VERTEX
  5
2BD
330
2AE
100
AcDbEntity
  8
GNAP$WIFI_ANTENNA
100
AcDbVertex
100
AcDb2dVertex
 10
-58.9864624461101
 20
1057.579487870521
 30
31.70050780245393
  0
VERTEX
  5
2BE
330
2AE
100
AcDbEntity
  8
GNAP$WIFI_ANTENNA
100
AcDbVertex
100
AcDb2dVertex
 10
-58.1873624461101
 20
1057.579487870521
 30
31.70050780245393
  0
VERTEX
  5
2BF
330
2AE
100
AcDbEntity
  8
GNAP$WIFI_ANTENNA
100
AcDbVertex
100
AcDb2dVertex
 10
-58.1873624461101
 20
1056.578987870521
 30
31.70050780245393
  0
VERTEX
  5
2C0
330
2AE
100
AcDbEntity
  8
GNAP$WIFI_ANTENNA
100
AcDbVertex
100
AcDb2dVertex
 10
-44.1863624461101
 20
1056.578987870521
 30
31.70050780245393
  0
VERTEX
  5
2C1
330
2AE
100
AcDbEntity
  8
GNAP$WIFI_ANTENNA
100
AcDbVertex
100
AcDb2dVertex
 10
-44.1863624461101
 20
1057.579487870521
 30
31.70050780245393
  0
VERTEX
  5
2C2
330
2AE
100
AcDbEntity
  8
GNAP$WIFI_ANTENNA
100
AcDbVertex
100
AcDb2dVertex
 10
-43.38726244611009
 20
1057.579487870521
 30
31.70050780245393
  0
SEQEND
  5
2C3
330
2AE
100
AcDbEntity
  8
GNAP$WIFI_ANTENNA
  0
POLYLINE
  5
2C4
330
1F
100
AcDbEntity
  8
GNAP$WIFI_ANTENNA
100
AcDb2dPolyline
 66
     1
 10
0.0
 20
0.0
 30
31.70050780245393
 70
     1
  0
VERTEX
  5
2C5
330
2C4
100
AcDbEntity
  8
GNAP$WIFI_ANTENNA
100
AcDbVertex
100
AcDb2dVertex
 10
-62.4372624461101
 20
1060.678587870521
 30
31.70050780245393
  0
VERTEX
  5
2C6
330
2C4
100
AcDbEntity
  8
GNAP$WIFI_ANTENNA
100
AcDbVertex
100
AcDb2dVertex
 10
-63.23636244611009
 20
1060.678587870521
 30
31.70050780245393
  0
VERTEX
  5
2C7
330
2C4
100
AcDbEntity
  8
GNAP$WIFI_ANTENNA
100
AcDbVertex
100
AcDb2dVertex
 10
-63.23636244611009
 20
1066.478987870521
 30
31.70050780245393
  0
VERTEX
  5
2C8
330
2C4
100
AcDbEntity
  8
GNAP$WIFI_ANTENNA
100
AcDbVertex
100
AcDb2dVertex
 10
-62.4372624461101
 20
1066.478987870521
 30
31.70050780245393
  0
VERTEX
  5
2C9
330
2C4
100
AcDbEntity
  8
GNAP$WIFI_ANTENNA
100
AcDbVertex
100
AcDb2dVertex
 10
-62.4372624461101
 20
1069.579487870521
 30
31.70050780245393
  0
VERTEX
  5
2CA
330
2C4
100
AcDbEntity
  8
GNAP$WIFI_ANTENNA
100
AcDbVertex
100
AcDb2dVertex
 10
-63.23636244611009
 20
1069.579487870521
 30
31.70050780245393
  0
VERTEX
  5
2CB
330
2C4
100
AcDbEntity
  8
GNAP$WIFI_ANTENNA
100
AcDbVertex
100
AcDb2dVertex
 10
-63.23636244611009
 20
1070.578587870521
 30
31.70050780245393
  0
VERTEX
  5
2CC
330
2C4
100
AcDbEntity
  8
GNAP$WIFI_ANTENNA
100
AcDbVertex
100
AcDb2dVertex
 10
-77.23736244611008
 20
1070.578587870521
 30
31.70050780245393
  0
VERTEX
  5
2CD
330
2C4
100
AcDbEntity
  8
GNAP$WIFI_ANTENNA
100
AcDbVertex
100
AcDb2dVertex
 10
-77.23736244611008
 20
1069.579487870521
 30
31.70050780245393
  0
VERTEX
  5
2CE
330
2C4
100
AcDbEntity
  8
GNAP$WIFI_ANTENNA
100
AcDbVertex
100
AcDb2dVertex
 10
-78.03646244611008
 20
1069.579487870521
 30
31.70050780245393
  0
VERTEX
  5
2CF
330
2C4
100
AcDbEntity
  8
GNAP$WIFI_ANTENNA
100
AcDbVertex
100
AcDb2dVertex
 10
-78.03646244611008
 20
1066.478987870521
 30
31.70050780245393
  0
VERTEX
  5
2D0
330
2C4
100
AcDbEntity
  8
GNAP$WIFI_ANTENNA
100
AcDbVertex
100
AcDb2dVertex
 10
-77.23736244611008
 20
1066.478987870521
 30
31.70050780245393
  0
VERTEX
  5
2D1
330
2C4
100
AcDbEntity
  8
GNAP$WIFI_ANTENNA
100
AcDbVertex
100
AcDb2dVertex
 10
-77.23736244611008
 20
1060.678587870521
 30
31.70050780245393
  0
VERTEX
  5
2D2
330
2C4
100
AcDbEntity
  8
GNAP$WIFI_ANTENNA
100
AcDbVertex
100
AcDb2dVertex
 10
-78.03646244611008
 20
1060.678587870521
 30
31.70050780245393
  0
VERTEX
  5
2D3
330
2C4
100
AcDbEntity
  8
GNAP$WIFI_ANTENNA
100
AcDbVertex
100
AcDb2dVertex
 10
-78.03646244611008
 20
1057.579487870521
 30
31.70050780245393
  0
VERTEX
  5
2D4
330
2C4
100
AcDbEntity
  8
GNAP$WIFI_ANTENNA
100
AcDbVertex
100
AcDb2dVertex
 10
-77.23736244611008
 20
1057.579487870521
 30
31.70050780245393
  0
VERTEX
  5
2D5
330
2C4
100
AcDbEntity
  8
GNAP$WIFI_ANTENNA
100
AcDbVertex
100
AcDb2dVertex
 10
-77.23736244611008
 20
1056.578987870521
 30
31.70050780245393
  0
VERTEX
  5
2D6
330
2C4
100
AcDbEntity
  8
GNAP$WIFI_ANTENNA
100
AcDbVertex
100
AcDb2dVertex
 10
-63.23636244611009
 20
1056.578987870521
 30
31.70050780245393
  0
VERTEX
  5
2D7
330
2C4
100
AcDbEntity
  8
GNAP$WIFI_ANTENNA
100
AcDbVertex
100
AcDb2dVertex
 10
-63.23636244611009
 20
1057.579487870521
 30
31.70050780245393
  0
VERTEX
  5
2D8
330
2C4
100
AcDbEntity
  8
GNAP$WIFI_ANTENNA
100
AcDbVertex
100
AcDb2dVertex
 10
-62.4372624461101
 20
1057.579487870521
 30
31.70050780245393
  0
SEQEND
  5
2D9
330
2C4
100
AcDbEntity
  8
GNAP$WIFI_ANTENNA
  0
POLYLINE
  5
2DA
330
1F
100
AcDbEntity
  8
GNAP$WIFI_ANTENNA
100
AcDb2dPolyline
 66
     1
 10
0.0
 20
0.0
 30
31.70050780245393
 70
     1
  0
VERTEX
  5
2DB
330
2DA
100
AcDbEntity
  8
GNAP$WIFI_ANTENNA
100
AcDbVertex
100
AcDb2dVertex
 10
-81.48726244611008
 20
1060.678587870521
 30
31.70050780245393
  0
VERTEX
  5
2DC
330
2DA
100
AcDbEntity
  8
GNAP$WIFI_ANTENNA
100
AcDbVertex
100
AcDb2dVertex
 10
-82.28636244611008
 20
1060.678587870521
 30
31.70050780245393
  0
VERTEX
  5
2DD
330
2DA
100
AcDbEntity
  8
GNAP$WIFI_ANTENNA
100
AcDbVertex
100
AcDb2dVertex
 10
-82.28636244611008
 20
1066.478987870521
 30
31.70050780245393
  0
VERTEX
  5
2DE
330
2DA
100
AcDbEntity
  8
GNAP$WIFI_ANTENNA
100
AcDbVertex
100
AcDb2dVertex
 10
-81.48726244611008
 20
1066.478987870521
 30
31.70050780245393
  0
VERTEX
  5
2DF
330
2DA
100
AcDbEntity
  8
GNAP$WIFI_ANTENNA
100
AcDbVertex
100
AcDb2dVertex
 10
-81.48726244611008
 20
1069.579487870521
 30
31.70050780245393
  0
VERTEX
  5
2E0
330
2DA
100
AcDbEntity
  8
GNAP$WIFI_ANTENNA
100
AcDbVertex
100
AcDb2dVertex
 10
-82.28636244611008
 20
1069.579487870521
 30
31.70050780245393
  0
VERTEX
  5
2E1
330
2DA
100
AcDbEntity
  8
GNAP$WIFI_ANTENNA
100
AcDbVertex
100
AcDb2dVertex
 10
-82.28636244611008
 20
1070.578587870521
 30
31.70050780245393
  0
VERTEX
  5
2E2
330
2DA
100
AcDbEntity
  8
GNAP$WIFI_ANTENNA
100
AcDbVertex
100
AcDb2dVertex
 10
-96.28736244611008
 20
1070.578587870521
 30
31.70050780245393
  0
VERTEX
  5
2E3
330
2DA
100
AcDbEntity
  8
GNAP$WIFI_ANTENNA
100
AcDbVertex
100
AcDb2dVertex
 10
-96.28736244611008
 20
1069.579487870521
 30
31.70050780245393
  0
VERTEX
  5
2E4
330
2DA
100
AcDbEntity
  8
GNAP$WIFI_ANTENNA
100
AcDbVertex
100
AcDb2dVertex
 10
-97.08636244611009
 20
1069.579487870521
 30
31.70050780245393
  0
VERTEX
  5
2E5
330
2DA
100
AcDbEntity
  8
GNAP$WIFI_ANTENNA
100
AcDbVertex
100
AcDb2dVertex
 10
-97.08636244611009
 20
1066.478987870521
 30
31.70050780245393
  0
VERTEX
  5
2E6
330
2DA
100
AcDbEntity
  8
GNAP$WIFI_ANTENNA
100
AcDbVertex
100
AcDb2dVertex
 10
-96.28736244611008
 20
1066.478987870521
 30
31.70050780245393
  0
VERTEX
  5
2E7
330
2DA
100
AcDbEntity
  8
GNAP$WIFI_ANTENNA
100
AcDbVertex
100
AcDb2dVertex
 10
-96.28736244611008
 20
1060.678587870521
 30
31.70050780245393
  0
VERTEX
  5
2E8
330
2DA
100
AcDbEntity
  8
GNAP$WIFI_ANTENNA
100
AcDbVertex
100
AcDb2dVertex
 10
-97.08636244611009
 20
1060.678587870521
 30
31.70050780245393
  0
VERTEX
  5
2E9
330
2DA
100
AcDbEntity
  8
GNAP$WIFI_ANTENNA
100
AcDbVertex
100
AcDb2dVertex
 10
-97.08636244611009
 20
1057.579487870521
 30
31.70050780245393
  0
VERTEX
  5
2EA
330
2DA
100
AcDbEntity
  8
GNAP$WIFI_ANTENNA
100
AcDbVertex
100
AcDb2dVertex
 10
-96.28736244611008
 20
1057.579487870521
 30
31.70050780245393
  0
VERTEX
  5
2EB
330
2DA
100
AcDbEntity
  8
GNAP$WIFI_ANTENNA
100
AcDbVertex
100
AcDb2dVertex
 10
-96.28736244611008
 20
1056.578987870521
 30
31.70050780245393
  0
VERTEX
  5
2EC
330
2DA
100
AcDbEntity
  8
GNAP$WIFI_ANTENNA
100
AcDbVertex
100
AcDb2dVertex
 10
-82.28636244611008
 20
1056.578987870521
 30
31.70050780245393
  0
VERTEX
  5
2ED
330
2DA
100
AcDbEntity
  8
GNAP$WIFI_ANTENNA
100
AcDbVertex
100
AcDb2dVertex
 10
-82.28636244611008
 20
1057.579487870521
 30
31.70050780245393
  0
VERTEX
  5
2EE
330
2DA
100
AcDbEntity
  8
GNAP$WIFI_ANTENNA
100
AcDbVertex
100
AcDb2dVertex
 10
-81.48726244611008
 20
1057.579487870521
 30
31.70050780245393
  0
SEQEND
  5
2EF
330
2DA
100
AcDbEntity
  8
GNAP$WIFI_ANTENNA
  0
POLYLINE
  5
2F0
330
1F
100
AcDbEntity
  8
GNAP$WIFI_ANTENNA
100
AcDb2dPolyline
 66
     1
 10
0.0
 20
0.0
 30
31.70050780245393
 70
     1
  0
VERTEX
  5
2F1
330
2F0
100
AcDbEntity
  8
GNAP$WIFI_ANTENNA
100
AcDbVertex
100
AcDb2dVertex
 10
-100.5373624461101
 20
1060.678587870521
 30
31.70050780245393
  0
VERTEX
  5
2F2
330
2F0
100
AcDbEntity
  8
GNAP$WIFI_ANTENNA
100
AcDbVertex
100
AcDb2dVertex
 10
-101.3363624461101
 20
1060.678587870521
 30
31.70050780245393
  0
VERTEX
  5
2F3
330
2F0
100
AcDbEntity
  8
GNAP$WIFI_ANTENNA
100
AcDbVertex
100
AcDb2dVertex
 10
-101.3363624461101
 20
1066.478987870521
 30
31.70050780245393
  0
VERTEX
  5
2F4
330
2F0
100
AcDbEntity
  8
GNAP$WIFI_ANTENNA
100
AcDbVertex
100
AcDb2dVertex
 10
-100.5373624461101
 20
1066.478987870521
 30
31.70050780245393
  0
VERTEX
  5
2F5
330
2F0
100
AcDbEntity
  8
GNAP$WIFI_ANTENNA
100
AcDbVertex
100
AcDb2dVertex
 10
-100.5373624461101
 20
1069.579487870521
 30
31.70050780245393
  0
VERTEX
  5
2F6
330
2F0
100
AcDbEntity
  8
GNAP$WIFI_ANTENNA
100
AcDbVertex
100
AcDb2dVertex
 10
-101.3363624461101
 20
1069.579487870521
 30
31.70050780245393
  0
VERTEX
  5
2F7
330
2F0
100
AcDbEntity
  8
GNAP$WIFI_ANTENNA
100
AcDbVertex
100
AcDb2dVertex
 10
-101.3363624461101
 20
1070.578587870521
 30
31.70050780245393
  0
VERTEX
  5
2F8
330
2F0
100
AcDbEntity
  8
GNAP$WIFI_ANTENNA
100
AcDbVertex
100
AcDb2dVertex
 10
-115.3373624461101
 20
1070.578587870521
 30
31.70050780245393
  0
VERTEX
  5
2F9
330
2F0
100
AcDbEntity
  8
GNAP$WIFI_ANTENNA
100
AcDbVertex
100
AcDb2dVertex
 10
-115.3373624461101
 20
1069.579487870521
 30
31.70050780245393
  0
VERTEX
  5
2FA
330
2F0
100
AcDbEntity
  8
GNAP$WIFI_ANTENNA
100
AcDbVertex
100
AcDb2dVertex
 10
-116.1363624461101
 20
1069.579487870521
 30
31.70050780245393
  0
VERTEX
  5
2FB
330
2F0
100
AcDbEntity
  8
GNAP$WIFI_ANTENNA
100
AcDbVertex
100
AcDb2dVertex
 10
-116.1363624461101
 20
1066.478987870521
 30
31.70050780245393
  0
VERTEX
  5
2FC
330
2F0
100
AcDbEntity
  8
GNAP$WIFI_ANTENNA
100
AcDbVertex
100
AcDb2dVertex
 10
-115.3373624461101
 20
1066.478987870521
 30
31.70050780245393
  0
VERTEX
  5
2FD
330
2F0
100
AcDbEntity
  8
GNAP$WIFI_ANTENNA
100
AcDbVertex
100
AcDb2dVertex
 10
-115.3373624461101
 20
1060.678587870521
 30
31.70050780245393
  0
VERTEX
  5
2FE
330
2F0
100
AcDbEntity
  8
GNAP$WIFI_ANTENNA
100
AcDbVertex
100
AcDb2dVertex
 10
-116.1363624461101
 20
1060.678587870521
 30
31.70050780245393
  0
VERTEX
  5
2FF
330
2F0
100
AcDbEntity
  8
GNAP$WIFI_ANTENNA
100
AcDbVertex
100
AcDb2dVertex
 10
-116.1363624461101
 20
1057.579487870521
 30
31.70050780245393
  0
VERTEX
  5
300
330
2F0
100
AcDbEntity
  8
GNAP$WIFI_ANTENNA
100
AcDbVertex
100
AcDb2dVertex
 10
-115.3373624461101
 20
1057.579487870521
 30
31.70050780245393
  0
VERTEX
  5
301
330
2F0
100
AcDbEntity
  8
GNAP$WIFI_ANTENNA
100
AcDbVertex
100
AcDb2dVertex
 10
-115.3373624461101
 20
1056.578987870521
 30
31.70050780245393
  0
VERTEX
  5
302
330
2F0
100
AcDbEntity
  8
GNAP$WIFI_ANTENNA
100
AcDbVertex
100
AcDb2dVertex
 10
-101.3363624461101
 20
1056.578987870521
 30
31.70050780245393
  0
VERTEX
  5
303
330
2F0
100
AcDbEntity
  8
GNAP$WIFI_ANTENNA
100
AcDbVertex
100
AcDb2dVertex
 10
-101.3363624461101
 20
1057.579487870521
 30
31.70050780245393
  0
VERTEX
  5
304
330
2F0
100
AcDbEntity
  8
GNAP$WIFI_ANTENNA
100
AcDbVertex
100
AcDb2dVertex
 10
-100.5373624461101
 20
1057.579487870521
 30
31.70050780245393
  0
SEQEND
  5
305
330
2F0
100
AcDbEntity
  8
GNAP$WIFI_ANTENNA
  0
POLYLINE
  5
306
330
1F
100
AcDbEntity
  8
GNAP$WIFI_ANTENNA
100
AcDb2dPolyline
 66
     1
 10
0.0
 20
0.0
 30
31.70050780245393
 70
     1
  0
VERTEX
  5
307
330
306
100
AcDbEntity
  8
GNAP$WIFI_ANTENNA
100
AcDbVertex
100
AcDb2dVertex
 10
-119.5873624461101
 20
1060.678587870521
 30
31.70050780245393
  0
VERTEX
  5
308
330
306
100
AcDbEntity
  8
GNAP$WIFI_ANTENNA
100
AcDbVertex
100
AcDb2dVertex
 10
-120.3863624461101
 20
1060.678587870521
 30
31.70050780245393
  0
VERTEX
  5
309
330
306
100
AcDbEntity
  8
GNAP$WIFI_ANTENNA
100
AcDbVertex
100
AcDb2dVertex
 10
-120.3863624461101
 20
1066.478987870521
 30
31.70050780245393
  0
VERTEX
  5
30A
330
306
100
AcDbEntity
  8
GNAP$WIFI_ANTENNA
100
AcDbVertex
100
AcDb2dVertex
 10
-119.5873624461101
 20
1066.478987870521
 30
31.70050780245393
  0
VERTEX
  5
30B
330
306
100
AcDbEntity
  8
GNAP$WIFI_ANTENNA
100
AcDbVertex
100
AcDb2dVertex
 10
-119.5873624461101
 20
1069.579487870521
 30
31.70050780245393
  0
VERTEX
  5
30C
330
306
100
AcDbEntity
  8
GNAP$WIFI_ANTENNA
100
AcDbVertex
100
AcDb2dVertex
 10
-120.3863624461101
 20
1069.579487870521
 30
31.70050780245393
  0
VERTEX
  5
30D
330
306
100
AcDbEntity
  8
GNAP$WIFI_ANTENNA
100
AcDbVertex
100
AcDb2dVertex
 10
-120.3863624461101
 20
1070.578587870521
 30
31.70050780245393
  0
VERTEX
  5
30E
330
306
100
AcDbEntity
  8
GNAP$WIFI_ANTENNA
100
AcDbVertex
100
AcDb2dVertex
 10
-134.38736244611
 20
1070.578587870521
 30
31.70050780245393
  0
VERTEX
  5
30F
330
306
100
AcDbEntity
  8
GNAP$WIFI_ANTENNA
100
AcDbVertex
100
AcDb2dVertex
 10
-134.38736244611
 20
1069.579487870521
 30
31.70050780245393
  0
VERTEX
  5
310
330
306
100
AcDbEntity
  8
GNAP$WIFI_ANTENNA
100
AcDbVertex
100
AcDb2dVertex
 10
-135.18636244611
 20
1069.579487870521
 30
31.70050780245393
  0
VERTEX
  5
311
330
306
100
AcDbEntity
  8
GNAP$WIFI_ANTENNA
100
AcDbVertex
100
AcDb2dVertex
 10
-135.18636244611
 20
1066.478987870521
 30
31.70050780245393
  0
VERTEX
  5
312
330
306
100
AcDbEntity
  8
GNAP$WIFI_ANTENNA
100
AcDbVertex
100
AcDb2dVertex
 10
-134.38736244611
 20
1066.478987870521
 30
31.70050780245393
  0
VERTEX
  5
313
330
306
100
AcDbEntity
  8
GNAP$WIFI_ANTENNA
100
AcDbVertex
100
AcDb2dVertex
 10
-134.38736244611
 20
1060.678587870521
 30
31.70050780245393
  0
VERTEX
  5
314
330
306
100
AcDbEntity
  8
GNAP$WIFI_ANTENNA
100
AcDbVertex
100
AcDb2dVertex
 10
-135.18636244611
 20
1060.678587870521
 30
31.70050780245393
  0
VERTEX
  5
315
330
306
100
AcDbEntity
  8
GNAP$WIFI_ANTENNA
100
AcDbVertex
100
AcDb2dVertex
 10
-135.18636244611
 20
1057.579487870521
 30
31.70050780245393
  0
VERTEX
  5
316
330
306
100
AcDbEntity
  8
GNAP$WIFI_ANTENNA
100
AcDbVertex
100
AcDb2dVertex
 10
-134.38736244611
 20
1057.579487870521
 30
31.70050780245393
  0
VERTEX
  5
317
330
306
100
AcDbEntity
  8
GNAP$WIFI_ANTENNA
100
AcDbVertex
100
AcDb2dVertex
 10
-134.38736244611
 20
1056.578987870521
 30
31.70050780245393
  0
VERTEX
  5
318
330
306
100
AcDbEntity
  8
GNAP$WIFI_ANTENNA
100
AcDbVertex
100
AcDb2dVertex
 10
-120.3863624461101
 20
1056.578987870521
 30
31.70050780245393
  0
VERTEX
  5
319
330
306
100
AcDbEntity
  8
GNAP$WIFI_ANTENNA
100
AcDbVertex
100
AcDb2dVertex
 10
-120.3863624461101
 20
1057.579487870521
 30
31.70050780245393
  0
VERTEX
  5
31A
330
306
100
AcDbEntity
  8
GNAP$WIFI_ANTENNA
100
AcDbVertex
100
AcDb2dVertex
 10
-119.5873624461101
 20
1057.579487870521
 30
31.70050780245393
  0
SEQEND
  5
31B
330
306
100
AcDbEntity
  8
GNAP$WIFI_ANTENNA
  0
POLYLINE
  5
31C
330
1F
100
AcDbEntity
  8
GNAP$WIFI_ANTENNA
100
AcDb2dPolyline
 66
     1
 10
0.0
 20
0.0
 30
31.70050780245393
 70
     1
  0
VERTEX
  5
31D
330
31C
100
AcDbEntity
  8
GNAP$WIFI_ANTENNA
100
AcDbVertex
100
AcDb2dVertex
 10
-138.63736244611
 20
1060.678587870521
 30
31.70050780245393
  0
VERTEX
  5
31E
330
31C
100
AcDbEntity
  8
GNAP$WIFI_ANTENNA
100
AcDbVertex
100
AcDb2dVertex
 10
-139.43636244611
 20
1060.678587870521
 30
31.70050780245393
  0
VERTEX
  5
31F
330
31C
100
AcDbEntity
  8
GNAP$WIFI_ANTENNA
100
AcDbVertex
100
AcDb2dVertex
 10
-139.43636244611
 20
1066.478987870521
 30
31.70050780245393
  0
VERTEX
  5
320
330
31C
100
AcDbEntity
  8
GNAP$WIFI_ANTENNA
100
AcDbVertex
100
AcDb2dVertex
 10
-138.63736244611
 20
1066.478987870521
 30
31.70050780245393
  0
VERTEX
  5
321
330
31C
100
AcDbEntity
  8
GNAP$WIFI_ANTENNA
100
AcDbVertex
100
AcDb2dVertex
 10
-138.63736244611
 20
1069.579487870521
 30
31.70050780245393
  0
VERTEX
  5
322
330
31C
100
AcDbEntity
  8
GNAP$WIFI_ANTENNA
100
AcDbVertex
100
AcDb2dVertex
 10
-139.43636244611
 20
1069.579487870521
 30
31.70050780245393
  0
VERTEX
  5
323
330
31C
100
AcDbEntity
  8
GNAP$WIFI_ANTENNA
100
AcDbVertex
100
AcDb2dVertex
 10
-139.43636244611
 20
1070.578587870521
 30
31.70050780245393
  0
VERTEX
  5
324
330
31C
100
AcDbEntity
  8
GNAP$WIFI_ANTENNA
100
AcDbVertex
100
AcDb2dVertex
 10
-153.4373624461101
 20
1070.578587870521
 30
31.70050780245393
  0
VERTEX
  5
325
330
31C
100
AcDbEntity
  8
GNAP$WIFI_ANTENNA
100
AcDbVertex
100
AcDb2dVertex
 10
-153.4373624461101
 20
1069.579487870521
 30
31.70050780245393
  0
VERTEX
  5
326
330
31C
100
AcDbEntity
  8
GNAP$WIFI_ANTENNA
100
AcDbVertex
100
AcDb2dVertex
 10
-154.23636244611
 20
1069.579487870521
 30
31.70050780245393
  0
VERTEX
  5
327
330
31C
100
AcDbEntity
  8
GNAP$WIFI_ANTENNA
100
AcDbVertex
100
AcDb2dVertex
 10
-154.23636244611
 20
1066.478987870521
 30
31.70050780245393
  0
VERTEX
  5
328
330
31C
100
AcDbEntity
  8
GNAP$WIFI_ANTENNA
100
AcDbVertex
100
AcDb2dVertex
 10
-153.4373624461101
 20
1066.478987870521
 30
31.70050780245393
  0
VERTEX
  5
329
330
31C
100
AcDbEntity
  8
GNAP$WIFI_ANTENNA
100
AcDbVertex
100
AcDb2dVertex
 10
-153.4373624461101
 20
1060.678587870521
 30
31.70050780245393
  0
VERTEX
  5
32A
330
31C
100
AcDbEntity
  8
GNAP$WIFI_ANTENNA
100
AcDbVertex
100
AcDb2dVertex
 10
-154.23636244611
 20
1060.678587870521
 30
31.70050780245393
  0
VERTEX
  5
32B
330
31C
100
AcDbEntity
  8
GNAP$WIFI_ANTENNA
100
AcDbVertex
100
AcDb2dVertex
 10
-154.23636244611
 20
1057.579487870521
 30
31.70050780245393
  0
VERTEX
  5
32C
330
31C
100
AcDbEntity
  8
GNAP$WIFI_ANTENNA
100
AcDbVertex
100
AcDb2dVertex
 10
-153.4373624461101
 20
1057.579487870521
 30
31.70050780245393
  0
VERTEX
  5
32D
330
31C
100
AcDbEntity
  8
GNAP$WIFI_ANTENNA
100
AcDbVertex
100
AcDb2dVertex
 10
-153.4373624461101
 20
1056.578987870521
 30
31.70050780245393
  0
VERTEX
  5
32E
330
31C
100
AcDbEntity
  8
GNAP$WIFI_ANTENNA
100
AcDbVertex
100
AcDb2dVertex
 10
-139.43636244611
 20
1056.578987870521
 30
31.70050780245393
  0
VERTEX
  5
32F
330
31C
100
AcDbEntity
  8
GNAP$WIFI_ANTENNA
100
AcDbVertex
100
AcDb2dVertex
 10
-139.43636244611
 20
1057.579487870521
 30
31.70050780245393
  0
VERTEX
  5
330
330
31C
100
AcDbEntity
  8
GNAP$WIFI_ANTENNA
100
AcDbVertex
100
AcDb2dVertex
 10
-138.63736244611
 20
1057.579487870521
 30
31.70050780245393
  0
SEQEND
  5
331
330
31C
100
AcDbEntity
  8
GNAP$WIFI_ANTENNA
  0
POLYLINE
  5
332
330
1F
100
AcDbEntity
  8
GNAP$WIFI_ANTENNA
100
AcDb2dPolyline
 66
     1
 10
0.0
 20
0.0
 30
31.70050780245393
 70
     1
  0
VERTEX
  5
333
330
332
100
AcDbEntity
  8
GNAP$WIFI_ANTENNA
100
AcDbVertex
100
AcDb2dVertex
 10
-157.6873624461101
 20
1060.678587870521
 30
31.70050780245393
  0
VERTEX
  5
334
330
332
100
AcDbEntity
  8
GNAP$WIFI_ANTENNA
100
AcDbVertex
100
AcDb2dVertex
 10
-158.48636244611
 20
1060.678587870521
 30
31.70050780245393
  0
VERTEX
  5
335
330
332
100
AcDbEntity
  8
GNAP$WIFI_ANTENNA
100
AcDbVertex
100
AcDb2dVertex
 10
-158.48636244611
 20
1066.478987870521
 30
31.70050780245393
  0
VERTEX
  5
336
330
332
100
AcDbEntity
  8
GNAP$WIFI_ANTENNA
100
AcDbVertex
100
AcDb2dVertex
 10
-157.6873624461101
 20
1066.478987870521
 30
31.70050780245393
  0
VERTEX
  5
337
330
332
100
AcDbEntity
  8
GNAP$WIFI_ANTENNA
100
AcDbVertex
100
AcDb2dVertex
 10
-157.6873624461101
 20
1069.579487870521
 30
31.70050780245393
  0
VERTEX
  5
338
330
332
100
AcDbEntity
  8
GNAP$WIFI_ANTENNA
100
AcDbVertex
100
AcDb2dVertex
 10
-158.48636244611
 20
1069.579487870521
 30
31.70050780245393
  0
VERTEX
  5
339
330
332
100
AcDbEntity
  8
GNAP$WIFI_ANTENNA
100
AcDbVertex
100
AcDb2dVertex
 10
-158.48636244611
 20
1070.578587870521
 30
31.70050780245393
  0
VERTEX
  5
33A
330
332
100
AcDbEntity
  8
GNAP$WIFI_ANTENNA
100
AcDbVertex
100
AcDb2dVertex
 10
-172.48736244611
 20
1070.578587870521
 30
31.70050780245393
  0
VERTEX
  5
33B
330
332
100
AcDbEntity
  8
GNAP$WIFI_ANTENNA
100
AcDbVertex
100
AcDb2dVertex
 10
-172.48736244611
 20
1069.579487870521
 30
31.70050780245393
  0
VERTEX
  5
33C
330
332
100
AcDbEntity
  8
GNAP$WIFI_ANTENNA
100
AcDbVertex
100
AcDb2dVertex
 10
-173.28636244611
 20
1069.579487870521
 30
31.70050780245393
  0
VERTEX
  5
33D
330
332
100
AcDbEntity
  8
GNAP$WIFI_ANTENNA
100
AcDbVertex
100
AcDb2dVertex
 10
-173.28636244611
 20
1066.478987870521
 30
31.70050780245393
  0
VERTEX
  5
33E
330
332
100
AcDbEntity
  8
GNAP$WIFI_ANTENNA
100
AcDbVertex
100
AcDb2dVertex
 10
-172.48736244611
 20
1066.478987870521
 30
31.70050780245393
  0
VERTEX
  5
33F
330
332
100
AcDbEntity
  8
GNAP$WIFI_ANTENNA
100
AcDbVertex
100
AcDb2dVertex
 10
-172.48736244611
 20
1060.678587870521
 30
31.70050780245393
  0
VERTEX
  5
340
330
332
100
AcDbEntity
  8
GNAP$WIFI_ANTENNA
100
AcDbVertex
100
AcDb2dVertex
 10
-173.28636244611
 20
1060.678587870521
 30
31.70050780245393
  0
VERTEX
  5
341
330
332
100
AcDbEntity
  8
GNAP$WIFI_ANTENNA
100
AcDbVertex
100
AcDb2dVertex
 10
-173.28636244611
 20
1057.579487870521
 30
31.70050780245393
  0
VERTEX
  5
342
330
332
100
AcDbEntity
  8
GNAP$WIFI_ANTENNA
100
AcDbVertex
100
AcDb2dVertex
 10
-172.48736244611
 20
1057.579487870521
 30
31.70050780245393
  0
VERTEX
  5
343
330
332
100
AcDbEntity
  8
GNAP$WIFI_ANTENNA
100
AcDbVertex
100
AcDb2dVertex
 10
-172.48736244611
 20
1056.578987870521
 30
31.70050780245393
  0
VERTEX
  5
344
330
332
100
AcDbEntity
  8
GNAP$WIFI_ANTENNA
100
AcDbVertex
100
AcDb2dVertex
 10
-158.48636244611
 20
1056.578987870521
 30
31.70050780245393
  0
VERTEX
  5
345
330
332
100
AcDbEntity
  8
GNAP$WIFI_ANTENNA
100
AcDbVertex
100
AcDb2dVertex
 10
-158.48636244611
 20
1057.579487870521
 30
31.70050780245393
  0
VERTEX
  5
346
330
332
100
AcDbEntity
  8
GNAP$WIFI_ANTENNA
100
AcDbVertex
100
AcDb2dVertex
 10
-157.6873624461101
 20
1057.579487870521
 30
31.70050780245393
  0
SEQEND
  5
347
330
332
100
AcDbEntity
  8
GNAP$WIFI_ANTENNA
  0
POLYLINE
  5
348
330
1F
100
AcDbEntity
  8
GNAP$WIFI_ANTENNA
100
AcDb2dPolyline
 66
     1
 10
0.0
 20
0.0
 30
31.70050780245393
 70
     1
  0
VERTEX
  5
349
330
348
100
AcDbEntity
  8
GNAP$WIFI_ANTENNA
100
AcDbVertex
100
AcDb2dVertex
 10
-176.73736244611
 20
1060.678587870521
 30
31.70050780245393
  0
VERTEX
  5
34A
330
348
100
AcDbEntity
  8
GNAP$WIFI_ANTENNA
100
AcDbVertex
100
AcDb2dVertex
 10
-177.53636244611
 20
1060.678587870521
 30
31.70050780245393
  0
VERTEX
  5
34B
330
348
100
AcDbEntity
  8
GNAP$WIFI_ANTENNA
100
AcDbVertex
100
AcDb2dVertex
 10
-177.53636244611
 20
1066.478987870521
 30
31.70050780245393
  0
VERTEX
  5
34C
330
348
100
AcDbEntity
  8
GNAP$WIFI_ANTENNA
100
AcDbVertex
100
AcDb2dVertex
 10
-176.73736244611
 20
1066.478987870521
 30
31.70050780245393
  0
VERTEX
  5
34D
330
348
100
AcDbEntity
  8
GNAP$WIFI_ANTENNA
100
AcDbVertex
100
AcDb2dVertex
 10
-176.73736244611
 20
1069.579487870521
 30
31.70050780245393
  0
VERTEX
  5
34E
330
348
100
AcDbEntity
  8
GNAP$WIFI_ANTENNA
100
AcDbVertex
100
AcDb2dVertex
 10
-177.53636244611
 20
1069.579487870521
 30
31.70050780245393
  0
VERTEX
  5
34F
330
348
100
AcDbEntity
  8
GNAP$WIFI_ANTENNA
100
AcDbVertex
100
AcDb2dVertex
 10
-177.53636244611
 20
1070.578587870521
 30
31.70050780245393
  0
VERTEX
  5
350
330
348
100
AcDbEntity
  8
GNAP$WIFI_ANTENNA
100
AcDbVertex
100
AcDb2dVertex
 10
-191.53736244611
 20
1070.578587870521
 30
31.70050780245393
  0
VERTEX
  5
351
330
348
100
AcDbEntity
  8
GNAP$WIFI_ANTENNA
100
AcDbVertex
100
AcDb2dVertex
 10
-191.53736244611
 20
1069.579487870521
 30
31.70050780245393
  0
VERTEX
  5
352
330
348
100
AcDbEntity
  8
GNAP$WIFI_ANTENNA
100
AcDbVertex
100
AcDb2dVertex
 10
-192.3363624461101
 20
1069.579487870521
 30
31.70050780245393
  0
VERTEX
  5
353
330
348
100
AcDbEntity
  8
GNAP$WIFI_ANTENNA
100
AcDbVertex
100
AcDb2dVertex
 10
-192.3363624461101
 20
1066.478987870521
 30
31.70050780245393
  0
VERTEX
  5
354
330
348
100
AcDbEntity
  8
GNAP$WIFI_ANTENNA
100
AcDbVertex
100
AcDb2dVertex
 10
-191.53736244611
 20
1066.478987870521
 30
31.70050780245393
  0
VERTEX
  5
355
330
348
100
AcDbEntity
  8
GNAP$WIFI_ANTENNA
100
AcDbVertex
100
AcDb2dVertex
 10
-191.53736244611
 20
1060.678587870521
 30
31.70050780245393
  0
VERTEX
  5
356
330
348
100
AcDbEntity
  8
GNAP$WIFI_ANTENNA
100
AcDbVertex
100
AcDb2dVertex
 10
-192.3363624461101
 20
1060.678587870521
 30
31.70050780245393
  0
VERTEX
  5
357
330
348
100
AcDbEntity
  8
GNAP$WIFI_ANTENNA
100
AcDbVertex
100
AcDb2dVertex
 10
-192.3363624461101
 20
1057.579487870521
 30
31.70050780245393
  0
VERTEX
  5
358
330
348
100
AcDbEntity
  8
GNAP$WIFI_ANTENNA
100
AcDbVertex
100
AcDb2dVertex
 10
-191.53736244611
 20
1057.579487870521
 30
31.70050780245393
  0
VERTEX
  5
359
330
348
100
AcDbEntity
  8
GNAP$WIFI_ANTENNA
100
AcDbVertex
100
AcDb2dVertex
 10
-191.53736244611
 20
1056.578987870521
 30
31.70050780245393
  0
VERTEX
  5
35A
330
348
100
AcDbEntity
  8
GNAP$WIFI_ANTENNA
100
AcDbVertex
100
AcDb2dVertex
 10
-177.53636244611
 20
1056.578987870521
 30
31.70050780245393
  0
VERTEX
  5
35B
330
348
100
AcDbEntity
  8
GNAP$WIFI_ANTENNA
100
AcDbVertex
100
AcDb2dVertex
 10
-177.53636244611
 20
1057.579487870521
 30
31.70050780245393
  0
VERTEX
  5
35C
330
348
100
AcDbEntity
  8
GNAP$WIFI_ANTENNA
100
AcDbVertex
100
AcDb2dVertex
 10
-176.73736244611
 20
1057.579487870521
 30
31.70050780245393
  0
SEQEND
  5
35D
330
348
100
AcDbEntity
  8
GNAP$WIFI_ANTENNA
  0
POLYLINE
  5
35E
330
1F
100
AcDbEntity
  8
GNAP$WIFI_ANTENNA
100
AcDb2dPolyline
 66
     1
 10
0.0
 20
0.0
 30
31.70050780245393
 70
     1
  0
VERTEX
  5
35F
330
35E
100
AcDbEntity
  8
GNAP$WIFI_ANTENNA
100
AcDbVertex
100
AcDb2dVertex
 10
-195.78736244611
 20
1060.678587870521
 30
31.70050780245393
  0
VERTEX
  5
360
330
35E
100
AcDbEntity
  8
GNAP$WIFI_ANTENNA
100
AcDbVertex
100
AcDb2dVertex
 10
-196.5863624461101
 20
1060.678587870521
 30
31.70050780245393
  0
VERTEX
  5
361
330
35E
100
AcDbEntity
  8
GNAP$WIFI_ANTENNA
100
AcDbVertex
100
AcDb2dVertex
 10
-196.5863624461101
 20
1066.478987870521
 30
31.70050780245393
  0
VERTEX
  5
362
330
35E
100
AcDbEntity
  8
GNAP$WIFI_ANTENNA
100
AcDbVertex
100
AcDb2dVertex
 10
-195.78736244611
 20
1066.478987870521
 30
31.70050780245393
  0
VERTEX
  5
363
330
35E
100
AcDbEntity
  8
GNAP$WIFI_ANTENNA
100
AcDbVertex
100
AcDb2dVertex
 10
-195.78736244611
 20
1069.579487870521
 30
31.70050780245393
  0
VERTEX
  5
364
330
35E
100
AcDbEntity
  8
GNAP$WIFI_ANTENNA
100
AcDbVertex
100
AcDb2dVertex
 10
-196.5863624461101
 20
1069.579487870521
 30
31.70050780245393
  0
VERTEX
  5
365
330
35E
100
AcDbEntity
  8
GNAP$WIFI_ANTENNA
100
AcDbVertex
100
AcDb2dVertex
 10
-196.5863624461101
 20
1070.578587870521
 30
31.70050780245393
  0
VERTEX
  5
366
330
35E
100
AcDbEntity
  8
GNAP$WIFI_ANTENNA
100
AcDbVertex
100
AcDb2dVertex
 10
-210.58736244611
 20
1070.578587870521
 30
31.70050780245393
  0
VERTEX
  5
367
330
35E
100
AcDbEntity
  8
GNAP$WIFI_ANTENNA
100
AcDbVertex
100
AcDb2dVertex
 10
-210.58736244611
 20
1069.579487870521
 30
31.70050780245393
  0
VERTEX
  5
368
330
35E
100
AcDbEntity
  8
GNAP$WIFI_ANTENNA
100
AcDbVertex
100
AcDb2dVertex
 10
-211.38636244611
 20
1069.579487870521
 30
31.70050780245393
  0
VERTEX
  5
369
330
35E
100
AcDbEntity
  8
GNAP$WIFI_ANTENNA
100
AcDbVertex
100
AcDb2dVertex
 10
-211.38636244611
 20
1066.478987870521
 30
31.70050780245393
  0
VERTEX
  5
36A
330
35E
100
AcDbEntity
  8
GNAP$WIFI_ANTENNA
100
AcDbVertex
100
AcDb2dVertex
 10
-210.58736244611
 20
1066.478987870521
 30
31.70050780245393
  0
VERTEX
  5
36B
330
35E
100
AcDbEntity
  8
GNAP$WIFI_ANTENNA
100
AcDbVertex
100
AcDb2dVertex
 10
-210.58736244611
 20
1060.678587870521
 30
31.70050780245393
  0
VERTEX
  5
36C
330
35E
100
AcDbEntity
  8
GNAP$WIFI_ANTENNA
100
AcDbVertex
100
AcDb2dVertex
 10
-211.38636244611
 20
1060.678587870521
 30
31.70050780245393
  0
VERTEX
  5
36D
330
35E
100
AcDbEntity
  8
GNAP$WIFI_ANTENNA
100
AcDbVertex
100
AcDb2dVertex
 10
-211.38636244611
 20
1057.579487870521
 30
31.70050780245393
  0
VERTEX
  5
36E
330
35E
100
AcDbEntity
  8
GNAP$WIFI_ANTENNA
100
AcDbVertex
100
AcDb2dVertex
 10
-210.58736244611
 20
1057.579487870521
 30
31.70050780245393
  0
VERTEX
  5
36F
330
35E
100
AcDbEntity
  8
GNAP$WIFI_ANTENNA
100
AcDbVertex
100
AcDb2dVertex
 10
-210.58736244611
 20
1056.578987870521
 30
31.70050780245393
  0
VERTEX
  5
370
330
35E
100
AcDbEntity
  8
GNAP$WIFI_ANTENNA
100
AcDbVertex
100
AcDb2dVertex
 10
-196.5863624461101
 20
1056.578987870521
 30
31.70050780245393
  0
VERTEX
  5
371
330
35E
100
AcDbEntity
  8
GNAP$WIFI_ANTENNA
100
AcDbVertex
100
AcDb2dVertex
 10
-196.5863624461101
 20
1057.579487870521
 30
31.70050780245393
  0
VERTEX
  5
372
330
35E
100
AcDbEntity
  8
GNAP$WIFI_ANTENNA
100
AcDbVertex
100
AcDb2dVertex
 10
-195.78736244611
 20
1057.579487870521
 30
31.70050780245393
  0
SEQEND
  5
373
330
35E
100
AcDbEntity
  8
GNAP$WIFI_ANTENNA
  0
POLYLINE
  5
374
330
1F
100
AcDbEntity
  8
GNAP$WIFI_ANTENNA
100
AcDb2dPolyline
 66
     1
 10
0.0
 20
0.0
 30
31.70050780245393
 70
     1
  0
VERTEX
  5
375
330
374
100
AcDbEntity
  8
GNAP$WIFI_ANTENNA
100
AcDbVertex
100
AcDb2dVertex
 10
-217.2183624461101
 20
1060.678587870521
 30
31.70050780245393
  0
VERTEX
  5
376
330
374
100
AcDbEntity
  8
GNAP$WIFI_ANTENNA
100
AcDbVertex
100
AcDb2dVertex
 10
-218.01736244611
 20
1060.678587870521
 30
31.70050780245393
  0
VERTEX
  5
377
330
374
100
AcDbEntity
  8
GNAP$WIFI_ANTENNA
100
AcDbVertex
100
AcDb2dVertex
 10
-218.01736244611
 20
1066.478987870521
 30
31.70050780245393
  0
VERTEX
  5
378
330
374
100
AcDbEntity
  8
GNAP$WIFI_ANTENNA
100
AcDbVertex
100
AcDb2dVertex
 10
-217.2183624461101
 20
1066.478987870521
 30
31.70050780245393
  0
VERTEX
  5
379
330
374
100
AcDbEntity
  8
GNAP$WIFI_ANTENNA
100
AcDbVertex
100
AcDb2dVertex
 10
-217.2183624461101
 20
1069.579487870521
 30
31.70050780245393
  0
VERTEX
  5
37A
330
374
100
AcDbEntity
  8
GNAP$WIFI_ANTENNA
100
AcDbVertex
100
AcDb2dVertex
 10
-218.01736244611
 20
1069.579487870521
 30
31.70050780245393
  0
VERTEX
  5
37B
330
374
100
AcDbEntity
  8
GNAP$WIFI_ANTENNA
100
AcDbVertex
100
AcDb2dVertex
 10
-218.01736244611
 20
1070.578587870521
 30
31.70050780245393
  0
VERTEX
  5
37C
330
374
100
AcDbEntity
  8
GNAP$WIFI_ANTENNA
100
AcDbVertex
100
AcDb2dVertex
 10
-232.01736244611
 20
1070.578587870521
 30
31.70050780245393
  0
VERTEX
  5
37D
330
374
100
AcDbEntity
  8
GNAP$WIFI_ANTENNA
100
AcDbVertex
100
AcDb2dVertex
 10
-232.01736244611
 20
1069.579487870521
 30
31.70050780245393
  0
VERTEX
  5
37E
330
374
100
AcDbEntity
  8
GNAP$WIFI_ANTENNA
100
AcDbVertex
100
AcDb2dVertex
 10
-232.8173624461101
 20
1069.579487870521
 30
31.70050780245393
  0
VERTEX
  5
37F
330
374
100
AcDbEntity
  8
GNAP$WIFI_ANTENNA
100
AcDbVertex
100
AcDb2dVertex
 10
-232.8173624461101
 20
1066.478987870521
 30
31.70050780245393
  0
VERTEX
  5
380
330
374
100
AcDbEntity
  8
GNAP$WIFI_ANTENNA
100
AcDbVertex
100
AcDb2dVertex
 10
-232.01736244611
 20
1066.478987870521
 30
31.70050780245393
  0
VERTEX
  5
381
330
374
100
AcDbEntity
  8
GNAP$WIFI_ANTENNA
100
AcDbVertex
100
AcDb2dVertex
 10
-232.01736244611
 20
1060.678587870521
 30
31.70050780245393
  0
VERTEX
  5
382
330
374
100
AcDbEntity
  8
GNAP$WIFI_ANTENNA
100
AcDbVertex
100
AcDb2dVertex
 10
-232.8173624461101
 20
1060.678587870521
 30
31.70050780245393
  0
VERTEX
  5
383
330
374
100
AcDbEntity
  8
GNAP$WIFI_ANTENNA
100
AcDbVertex
100
AcDb2dVertex
 10
-232.8173624461101
 20
1057.579487870521
 30
31.70050780245393
  0
VERTEX
  5
384
330
374
100
AcDbEntity
  8
GNAP$WIFI_ANTENNA
100
AcDbVertex
100
AcDb2dVertex
 10
-232.01736244611
 20
1057.579487870521
 30
31.70050780245393
  0
VERTEX
  5
385
330
374
100
AcDbEntity
  8
GNAP$WIFI_ANTENNA
100
AcDbVertex
100
AcDb2dVertex
 10
-232.01736244611
 20
1056.578987870521
 30
31.70050780245393
  0
VERTEX
  5
386
330
374
100
AcDbEntity
  8
GNAP$WIFI_ANTENNA
100
AcDbVertex
100
AcDb2dVertex
 10
-218.01736244611
 20
1056.578987870521
 30
31.70050780245393
  0
VERTEX
  5
387
330
374
100
AcDbEntity
  8
GNAP$WIFI_ANTENNA
100
AcDbVertex
100
AcDb2dVertex
 10
-218.01736244611
 20
1057.579487870521
 30
31.70050780245393
  0
VERTEX
  5
388
330
374
100
AcDbEntity
  8
GNAP$WIFI_ANTENNA
100
AcDbVertex
100
AcDb2dVertex
 10
-217.2183624461101
 20
1057.579487870521
 30
31.70050780245393
  0
SEQEND
  5
389
330
374
100
AcDbEntity
  8
GNAP$WIFI_ANTENNA
  0
POLYLINE
  5
38A
330
1F
100
AcDbEntity
  8
GNAP$WIFI_ANTENNA
100
AcDb2dPolyline
 66
     1
 10
0.0
 20
0.0
 30
31.70050780245393
 70
     1
  0
VERTEX
  5
38B
330
38A
100
AcDbEntity
  8
GNAP$WIFI_ANTENNA
100
AcDbVertex
100
AcDb2dVertex
 10
-0.5233624461100972
 20
1041.627587870521
 30
31.70050780245393
  0
VERTEX
  5
38C
330
38A
100
AcDbEntity
  8
GNAP$WIFI_ANTENNA
100
AcDbVertex
100
AcDb2dVertex
 10
-1.325362446110118
 20
1041.627587870521
 30
31.70050780245393
  0
VERTEX
  5
38D
330
38A
100
AcDbEntity
  8
GNAP$WIFI_ANTENNA
100
AcDbVertex
100
AcDb2dVertex
 10
-1.325362446110118
 20
1047.428987870521
 30
31.70050780245393
  0
VERTEX
  5
38E
330
38A
100
AcDbEntity
  8
GNAP$WIFI_ANTENNA
100
AcDbVertex
100
AcDb2dVertex
 10
-0.5233624461100972
 20
1047.428987870521
 30
31.70050780245393
  0
VERTEX
  5
38F
330
38A
100
AcDbEntity
  8
GNAP$WIFI_ANTENNA
100
AcDbVertex
100
AcDb2dVertex
 10
-0.5233624461100972
 20
1050.529487870521
 30
31.70050780245393
  0
VERTEX
  5
390
330
38A
100
AcDbEntity
  8
GNAP$WIFI_ANTENNA
100
AcDbVertex
100
AcDb2dVertex
 10
-1.325362446110118
 20
1050.529487870521
 30
31.70050780245393
  0
VERTEX
  5
391
330
38A
100
AcDbEntity
  8
GNAP$WIFI_ANTENNA
100
AcDbVertex
100
AcDb2dVertex
 10
-1.325362446110118
 20
1051.528587870521
 30
31.70050780245393
  0
VERTEX
  5
392
330
38A
100
AcDbEntity
  8
GNAP$WIFI_ANTENNA
100
AcDbVertex
100
AcDb2dVertex
 10
-15.3248624461101
 20
1051.528587870521
 30
31.70050780245393
  0
VERTEX
  5
393
330
38A
100
AcDbEntity
  8
GNAP$WIFI_ANTENNA
100
AcDbVertex
100
AcDb2dVertex
 10
-15.3248624461101
 20
1050.529487870521
 30
31.70050780245393
  0
VERTEX
  5
394
330
38A
100
AcDbEntity
  8
GNAP$WIFI_ANTENNA
100
AcDbVertex
100
AcDb2dVertex
 10
-16.12406244611011
 20
1050.529487870521
 30
31.70050780245393
  0
VERTEX
  5
395
330
38A
100
AcDbEntity
  8
GNAP$WIFI_ANTENNA
100
AcDbVertex
100
AcDb2dVertex
 10
-16.12406244611011
 20
1047.428987870521
 30
31.70050780245393
  0
VERTEX
  5
396
330
38A
100
AcDbEntity
  8
GNAP$WIFI_ANTENNA
100
AcDbVertex
100
AcDb2dVertex
 10
-15.3248624461101
 20
1047.428987870521
 30
31.70050780245393
  0
VERTEX
  5
397
330
38A
100
AcDbEntity
  8
GNAP$WIFI_ANTENNA
100
AcDbVertex
100
AcDb2dVertex
 10
-15.3248624461101
 20
1041.627587870521
 30
31.70050780245393
  0
VERTEX
  5
398
330
38A
100
AcDbEntity
  8
GNAP$WIFI_ANTENNA
100
AcDbVertex
100
AcDb2dVertex
 10
-16.12406244611011
 20
1041.627587870521
 30
31.70050780245393
  0
VERTEX
  5
399
330
38A
100
AcDbEntity
  8
GNAP$WIFI_ANTENNA
100
AcDbVertex
100
AcDb2dVertex
 10
-16.12406244611011
 20
1038.529487870521
 30
31.70050780245393
  0
VERTEX
  5
39A
330
38A
100
AcDbEntity
  8
GNAP$WIFI_ANTENNA
100
AcDbVertex
100
AcDb2dVertex
 10
-15.3248624461101
 20
1038.529487870521
 30
31.70050780245393
  0
VERTEX
  5
39B
330
38A
100
AcDbEntity
  8
GNAP$WIFI_ANTENNA
100
AcDbVertex
100
AcDb2dVertex
 10
-15.3248624461101
 20
1037.528987870521
 30
31.70050780245393
  0
VERTEX
  5
39C
330
38A
100
AcDbEntity
  8
GNAP$WIFI_ANTENNA
100
AcDbVertex
100
AcDb2dVertex
 10
-1.325362446110118
 20
1037.528987870521
 30
31.70050780245393
  0
VERTEX
  5
39D
330
38A
100
AcDbEntity
  8
GNAP$WIFI_ANTENNA
100
AcDbVertex
100
AcDb2dVertex
 10
-1.325362446110118
 20
1038.529487870521
 30
31.70050780245393
  0
VERTEX
  5
39E
330
38A
100
AcDbEntity
  8
GNAP$WIFI_ANTENNA
100
AcDbVertex
100
AcDb2dVertex
 10
-0.5233624461100972
 20
1038.529487870521
 30
31.70050780245393
  0
SEQEND
  5
39F
330
38A
100
AcDbEntity
  8
GNAP$WIFI_ANTENNA
  0
POLYLINE
  5
3A0
330
1F
100
AcDbEntity
  8
GNAP$WIFI_ANTENNA
100
AcDb2dPolyline
 66
     1
 10
0.0
 20
0.0
 30
31.70050780245393
 70
     1
  0
VERTEX
  5
3A1
330
3A0
100
AcDbEntity
  8
GNAP$WIFI_ANTENNA
100
AcDbVertex
100
AcDb2dVertex
 10
-19.57476244611009
 20
1041.627587870521
 30
31.70050780245393
  0
VERTEX
  5
3A2
330
3A0
100
AcDbEntity
  8
GNAP$WIFI_ANTENNA
100
AcDbVertex
100
AcDb2dVertex
 10
-20.37526244611012
 20
1041.627587870521
 30
31.70050780245393
  0
VERTEX
  5
3A3
330
3A0
100
AcDbEntity
  8
GNAP$WIFI_ANTENNA
100
AcDbVertex
100
AcDb2dVertex
 10
-20.37526244611012
 20
1047.428987870521
 30
31.70050780245393
  0
VERTEX
  5
3A4
330
3A0
100
AcDbEntity
  8
GNAP$WIFI_ANTENNA
100
AcDbVertex
100
AcDb2dVertex
 10
-19.57476244611009
 20
1047.428987870521
 30
31.70050780245393
  0
VERTEX
  5
3A5
330
3A0
100
AcDbEntity
  8
GNAP$WIFI_ANTENNA
100
AcDbVertex
100
AcDb2dVertex
 10
-19.57476244611009
 20
1050.529487870521
 30
31.70050780245393
  0
VERTEX
  5
3A6
330
3A0
100
AcDbEntity
  8
GNAP$WIFI_ANTENNA
100
AcDbVertex
100
AcDb2dVertex
 10
-20.37526244611012
 20
1050.529487870521
 30
31.70050780245393
  0
VERTEX
  5
3A7
330
3A0
100
AcDbEntity
  8
GNAP$WIFI_ANTENNA
100
AcDbVertex
100
AcDb2dVertex
 10
-20.37526244611012
 20
1051.528587870521
 30
31.70050780245393
  0
VERTEX
  5
3A8
330
3A0
100
AcDbEntity
  8
GNAP$WIFI_ANTENNA
100
AcDbVertex
100
AcDb2dVertex
 10
-34.3748624461101
 20
1051.528587870521
 30
31.70050780245393
  0
VERTEX
  5
3A9
330
3A0
100
AcDbEntity
  8
GNAP$WIFI_ANTENNA
100
AcDbVertex
100
AcDb2dVertex
 10
-34.3748624461101
 20
1050.529487870521
 30
31.70050780245393
  0
VERTEX
  5
3AA
330
3A0
100
AcDbEntity
  8
GNAP$WIFI_ANTENNA
100
AcDbVertex
100
AcDb2dVertex
 10
-35.1753624461101
 20
1050.529487870521
 30
31.70050780245393
  0
VERTEX
  5
3AB
330
3A0
100
AcDbEntity
  8
GNAP$WIFI_ANTENNA
100
AcDbVertex
100
AcDb2dVertex
 10
-35.1753624461101
 20
1047.428987870521
 30
31.70050780245393
  0
VERTEX
  5
3AC
330
3A0
100
AcDbEntity
  8
GNAP$WIFI_ANTENNA
100
AcDbVertex
100
AcDb2dVertex
 10
-34.3748624461101
 20
1047.428987870521
 30
31.70050780245393
  0
VERTEX
  5
3AD
330
3A0
100
AcDbEntity
  8
GNAP$WIFI_ANTENNA
100
AcDbVertex
100
AcDb2dVertex
 10
-34.3748624461101
 20
1041.627587870521
 30
31.70050780245393
  0
VERTEX
  5
3AE
330
3A0
100
AcDbEntity
  8
GNAP$WIFI_ANTENNA
100
AcDbVertex
100
AcDb2dVertex
 10
-35.1753624461101
 20
1041.627587870521
 30
31.70050780245393
  0
VERTEX
  5
3AF
330
3A0
100
AcDbEntity
  8
GNAP$WIFI_ANTENNA
100
AcDbVertex
100
AcDb2dVertex
 10
-35.1753624461101
 20
1038.529487870521
 30
31.70050780245393
  0
VERTEX
  5
3B0
330
3A0
100
AcDbEntity
  8
GNAP$WIFI_ANTENNA
100
AcDbVertex
100
AcDb2dVertex
 10
-34.3748624461101
 20
1038.529487870521
 30
31.70050780245393
  0
VERTEX
  5
3B1
330
3A0
100
AcDbEntity
  8
GNAP$WIFI_ANTENNA
100
AcDbVertex
100
AcDb2dVertex
 10
-34.3748624461101
 20
1037.528987870521
 30
31.70050780245393
  0
VERTEX
  5
3B2
330
3A0
100
AcDbEntity
  8
GNAP$WIFI_ANTENNA
100
AcDbVertex
100
AcDb2dVertex
 10
-20.37526244611012
 20
1037.528987870521
 30
31.70050780245393
  0
VERTEX
  5
3B3
330
3A0
100
AcDbEntity
  8
GNAP$WIFI_ANTENNA
100
AcDbVertex
100
AcDb2dVertex
 10
-20.37526244611012
 20
1038.529487870521
 30
31.70050780245393
  0
VERTEX
  5
3B4
330
3A0
100
AcDbEntity
  8
GNAP$WIFI_ANTENNA
100
AcDbVertex
100
AcDb2dVertex
 10
-19.57476244611009
 20
1038.529487870521
 30
31.70050780245393
  0
SEQEND
  5
3B5
330
3A0
100
AcDbEntity
  8
GNAP$WIFI_ANTENNA
  0
POLYLINE
  5
3B6
330
1F
100
AcDbEntity
  8
GNAP$WIFI_ANTENNA
100
AcDb2dPolyline
 66
     1
 10
0.0
 20
0.0
 30
31.70050780245393
 70
     1
  0
VERTEX
  5
3B7
330
3B6
100
AcDbEntity
  8
GNAP$WIFI_ANTENNA
100
AcDbVertex
100
AcDb2dVertex
 10
-38.6247624461101
 20
1041.627587870521
 30
31.70050780245393
  0
VERTEX
  5
3B8
330
3B6
100
AcDbEntity
  8
GNAP$WIFI_ANTENNA
100
AcDbVertex
100
AcDb2dVertex
 10
-39.4252624461101
 20
1041.627587870521
 30
31.70050780245393
  0
VERTEX
  5
3B9
330
3B6
100
AcDbEntity
  8
GNAP$WIFI_ANTENNA
100
AcDbVertex
100
AcDb2dVertex
 10
-39.4252624461101
 20
1047.428987870521
 30
31.70050780245393
  0
VERTEX
  5
3BA
330
3B6
100
AcDbEntity
  8
GNAP$WIFI_ANTENNA
100
AcDbVertex
100
AcDb2dVertex
 10
-38.6247624461101
 20
1047.428987870521
 30
31.70050780245393
  0
VERTEX
  5
3BB
330
3B6
100
AcDbEntity
  8
GNAP$WIFI_ANTENNA
100
AcDbVertex
100
AcDb2dVertex
 10
-38.6247624461101
 20
1050.529487870521
 30
31.70050780245393
  0
VERTEX
  5
3BC
330
3B6
100
AcDbEntity
  8
GNAP$WIFI_ANTENNA
100
AcDbVertex
100
AcDb2dVertex
 10
-39.4252624461101
 20
1050.529487870521
 30
31.70050780245393
  0
VERTEX
  5
3BD
330
3B6
100
AcDbEntity
  8
GNAP$WIFI_ANTENNA
100
AcDbVertex
100
AcDb2dVertex
 10
-39.4252624461101
 20
1051.528587870521
 30
31.70050780245393
  0
VERTEX
  5
3BE
330
3B6
100
AcDbEntity
  8
GNAP$WIFI_ANTENNA
100
AcDbVertex
100
AcDb2dVertex
 10
-53.4248624461101
 20
1051.528587870521
 30
31.70050780245393
  0
VERTEX
  5
3BF
330
3B6
100
AcDbEntity
  8
GNAP$WIFI_ANTENNA
100
AcDbVertex
100
AcDb2dVertex
 10
-53.4248624461101
 20
1050.529487870521
 30
31.70050780245393
  0
VERTEX
  5
3C0
330
3B6
100
AcDbEntity
  8
GNAP$WIFI_ANTENNA
100
AcDbVertex
100
AcDb2dVertex
 10
-54.2253624461101
 20
1050.529487870521
 30
31.70050780245393
  0
VERTEX
  5
3C1
330
3B6
100
AcDbEntity
  8
GNAP$WIFI_ANTENNA
100
AcDbVertex
100
AcDb2dVertex
 10
-54.2253624461101
 20
1047.428987870521
 30
31.70050780245393
  0
VERTEX
  5
3C2
330
3B6
100
AcDbEntity
  8
GNAP$WIFI_ANTENNA
100
AcDbVertex
100
AcDb2dVertex
 10
-53.4248624461101
 20
1047.428987870521
 30
31.70050780245393
  0
VERTEX
  5
3C3
330
3B6
100
AcDbEntity
  8
GNAP$WIFI_ANTENNA
100
AcDbVertex
100
AcDb2dVertex
 10
-53.4248624461101
 20
1041.627587870521
 30
31.70050780245393
  0
VERTEX
  5
3C4
330
3B6
100
AcDbEntity
  8
GNAP$WIFI_ANTENNA
100
AcDbVertex
100
AcDb2dVertex
 10
-54.2253624461101
 20
1041.627587870521
 30
31.70050780245393
  0
VERTEX
  5
3C5
330
3B6
100
AcDbEntity
  8
GNAP$WIFI_ANTENNA
100
AcDbVertex
100
AcDb2dVertex
 10
-54.2253624461101
 20
1038.529487870521
 30
31.70050780245393
  0
VERTEX
  5
3C6
330
3B6
100
AcDbEntity
  8
GNAP$WIFI_ANTENNA
100
AcDbVertex
100
AcDb2dVertex
 10
-53.4248624461101
 20
1038.529487870521
 30
31.70050780245393
  0
VERTEX
  5
3C7
330
3B6
100
AcDbEntity
  8
GNAP$WIFI_ANTENNA
100
AcDbVertex
100
AcDb2dVertex
 10
-53.4248624461101
 20
1037.528987870521
 30
31.70050780245393
  0
VERTEX
  5
3C8
330
3B6
100
AcDbEntity
  8
GNAP$WIFI_ANTENNA
100
AcDbVertex
100
AcDb2dVertex
 10
-39.4252624461101
 20
1037.528987870521
 30
31.70050780245393
  0
VERTEX
  5
3C9
330
3B6
100
AcDbEntity
  8
GNAP$WIFI_ANTENNA
100
AcDbVertex
100
AcDb2dVertex
 10
-39.4252624461101
 20
1038.529487870521
 30
31.70050780245393
  0
VERTEX
  5
3CA
330
3B6
100
AcDbEntity
  8
GNAP$WIFI_ANTENNA
100
AcDbVertex
100
AcDb2dVertex
 10
-38.6247624461101
 20
1038.529487870521
 30
31.70050780245393
  0
SEQEND
  5
3CB
330
3B6
100
AcDbEntity
  8
GNAP$WIFI_ANTENNA
  0
POLYLINE
  5
3CC
330
1F
100
AcDbEntity
  8
GNAP$WIFI_ANTENNA
100
AcDb2dPolyline
 66
     1
 10
0.0
 20
0.0
 30
31.70050780245393
 70
     1
  0
VERTEX
  5
3CD
330
3CC
100
AcDbEntity
  8
GNAP$WIFI_ANTENNA
100
AcDbVertex
100
AcDb2dVertex
 10
-57.67476244611009
 20
1041.627587870521
 30
31.70050780245393
  0
VERTEX
  5
3CE
330
3CC
100
AcDbEntity
  8
GNAP$WIFI_ANTENNA
100
AcDbVertex
100
AcDb2dVertex
 10
-58.47526244611009
 20
1041.627587870521
 30
31.70050780245393
  0
VERTEX
  5
3CF
330
3CC
100
AcDbEntity
  8
GNAP$WIFI_ANTENNA
100
AcDbVertex
100
AcDb2dVertex
 10
-58.47526244611009
 20
1047.428987870521
 30
31.70050780245393
  0
VERTEX
  5
3D0
330
3CC
100
AcDbEntity
  8
GNAP$WIFI_ANTENNA
100
AcDbVertex
100
AcDb2dVertex
 10
-57.67476244611009
 20
1047.428987870521
 30
31.70050780245393
  0
VERTEX
  5
3D1
330
3CC
100
AcDbEntity
  8
GNAP$WIFI_ANTENNA
100
AcDbVertex
100
AcDb2dVertex
 10
-57.67476244611009
 20
1050.529487870521
 30
31.70050780245393
  0
VERTEX
  5
3D2
330
3CC
100
AcDbEntity
  8
GNAP$WIFI_ANTENNA
100
AcDbVertex
100
AcDb2dVertex
 10
-58.47526244611009
 20
1050.529487870521
 30
31.70050780245393
  0
VERTEX
  5
3D3
330
3CC
100
AcDbEntity
  8
GNAP$WIFI_ANTENNA
100
AcDbVertex
100
AcDb2dVertex
 10
-58.47526244611009
 20
1051.528587870521
 30
31.70050780245393
  0
VERTEX
  5
3D4
330
3CC
100
AcDbEntity
  8
GNAP$WIFI_ANTENNA
100
AcDbVertex
100
AcDb2dVertex
 10
-72.47486244611008
 20
1051.528587870521
 30
31.70050780245393
  0
VERTEX
  5
3D5
330
3CC
100
AcDbEntity
  8
GNAP$WIFI_ANTENNA
100
AcDbVertex
100
AcDb2dVertex
 10
-72.47486244611008
 20
1050.529487870521
 30
31.70050780245393
  0
VERTEX
  5
3D6
330
3CC
100
AcDbEntity
  8
GNAP$WIFI_ANTENNA
100
AcDbVertex
100
AcDb2dVertex
 10
-73.27536244611008
 20
1050.529487870521
 30
31.70050780245393
  0
VERTEX
  5
3D7
330
3CC
100
AcDbEntity
  8
GNAP$WIFI_ANTENNA
100
AcDbVertex
100
AcDb2dVertex
 10
-73.27536244611008
 20
1047.428987870521
 30
31.70050780245393
  0
VERTEX
  5
3D8
330
3CC
100
AcDbEntity
  8
GNAP$WIFI_ANTENNA
100
AcDbVertex
100
AcDb2dVertex
 10
-72.47486244611008
 20
1047.428987870521
 30
31.70050780245393
  0
VERTEX
  5
3D9
330
3CC
100
AcDbEntity
  8
GNAP$WIFI_ANTENNA
100
AcDbVertex
100
AcDb2dVertex
 10
-72.47486244611008
 20
1041.627587870521
 30
31.70050780245393
  0
VERTEX
  5
3DA
330
3CC
100
AcDbEntity
  8
GNAP$WIFI_ANTENNA
100
AcDbVertex
100
AcDb2dVertex
 10
-73.27536244611008
 20
1041.627587870521
 30
31.70050780245393
  0
VERTEX
  5
3DB
330
3CC
100
AcDbEntity
  8
GNAP$WIFI_ANTENNA
100
AcDbVertex
100
AcDb2dVertex
 10
-73.27536244611008
 20
1038.529487870521
 30
31.70050780245393
  0
VERTEX
  5
3DC
330
3CC
100
AcDbEntity
  8
GNAP$WIFI_ANTENNA
100
AcDbVertex
100
AcDb2dVertex
 10
-72.47486244611008
 20
1038.529487870521
 30
31.70050780245393
  0
VERTEX
  5
3DD
330
3CC
100
AcDbEntity
  8
GNAP$WIFI_ANTENNA
100
AcDbVertex
100
AcDb2dVertex
 10
-72.47486244611008
 20
1037.528987870521
 30
31.70050780245393
  0
VERTEX
  5
3DE
330
3CC
100
AcDbEntity
  8
GNAP$WIFI_ANTENNA
100
AcDbVertex
100
AcDb2dVertex
 10
-58.47526244611009
 20
1037.528987870521
 30
31.70050780245393
  0
VERTEX
  5
3DF
330
3CC
100
AcDbEntity
  8
GNAP$WIFI_ANTENNA
100
AcDbVertex
100
AcDb2dVertex
 10
-58.47526244611009
 20
1038.529487870521
 30
31.70050780245393
  0
VERTEX
  5
3E0
330
3CC
100
AcDbEntity
  8
GNAP$WIFI_ANTENNA
100
AcDbVertex
100
AcDb2dVertex
 10
-57.67476244611009
 20
1038.529487870521
 30
31.70050780245393
  0
SEQEND
  5
3E1
330
3CC
100
AcDbEntity
  8
GNAP$WIFI_ANTENNA
  0
POLYLINE
  5
3E2
330
1F
100
AcDbEntity
  8
GNAP$WIFI_ANTENNA
100
AcDb2dPolyline
 66
     1
 10
0.0
 20
0.0
 30
31.70050780245393
 70
     1
  0
VERTEX
  5
3E3
330
3E2
100
AcDbEntity
  8
GNAP$WIFI_ANTENNA
100
AcDbVertex
100
AcDb2dVertex
 10
-76.72476244611008
 20
1041.627587870521
 30
31.70050780245393
  0
VERTEX
  5
3E4
330
3E2
100
AcDbEntity
  8
GNAP$WIFI_ANTENNA
100
AcDbVertex
100
AcDb2dVertex
 10
-77.52526244611008
 20
1041.627587870521
 30
31.70050780245393
  0
VERTEX
  5
3E5
330
3E2
100
AcDbEntity
  8
GNAP$WIFI_ANTENNA
100
AcDbVertex
100
AcDb2dVertex
 10
-77.52526244611008
 20
1047.428987870521
 30
31.70050780245393
  0
VERTEX
  5
3E6
330
3E2
100
AcDbEntity
  8
GNAP$WIFI_ANTENNA
100
AcDbVertex
100
AcDb2dVertex
 10
-76.72476244611008
 20
1047.428987870521
 30
31.70050780245393
  0
VERTEX
  5
3E7
330
3E2
100
AcDbEntity
  8
GNAP$WIFI_ANTENNA
100
AcDbVertex
100
AcDb2dVertex
 10
-76.72476244611008
 20
1050.529487870521
 30
31.70050780245393
  0
VERTEX
  5
3E8
330
3E2
100
AcDbEntity
  8
GNAP$WIFI_ANTENNA
100
AcDbVertex
100
AcDb2dVertex
 10
-77.52526244611008
 20
1050.529487870521
 30
31.70050780245393
  0
VERTEX
  5
3E9
330
3E2
100
AcDbEntity
  8
GNAP$WIFI_ANTENNA
100
AcDbVertex
100
AcDb2dVertex
 10
-77.52526244611008
 20
1051.528587870521
 30
31.70050780245393
  0
VERTEX
  5
3EA
330
3E2
100
AcDbEntity
  8
GNAP$WIFI_ANTENNA
100
AcDbVertex
100
AcDb2dVertex
 10
-91.52536244611008
 20
1051.528587870521
 30
31.70050780245393
  0
VERTEX
  5
3EB
330
3E2
100
AcDbEntity
  8
GNAP$WIFI_ANTENNA
100
AcDbVertex
100
AcDb2dVertex
 10
-91.52536244611008
 20
1050.529487870521
 30
31.70050780245393
  0
VERTEX
  5
3EC
330
3E2
100
AcDbEntity
  8
GNAP$WIFI_ANTENNA
100
AcDbVertex
100
AcDb2dVertex
 10
-92.32436244611009
 20
1050.529487870521
 30
31.70050780245393
  0
VERTEX
  5
3ED
330
3E2
100
AcDbEntity
  8
GNAP$WIFI_ANTENNA
100
AcDbVertex
100
AcDb2dVertex
 10
-92.32436244611009
 20
1047.428987870521
 30
31.70050780245393
  0
VERTEX
  5
3EE
330
3E2
100
AcDbEntity
  8
GNAP$WIFI_ANTENNA
100
AcDbVertex
100
AcDb2dVertex
 10
-91.52536244611008
 20
1047.428987870521
 30
31.70050780245393
  0
VERTEX
  5
3EF
330
3E2
100
AcDbEntity
  8
GNAP$WIFI_ANTENNA
100
AcDbVertex
100
AcDb2dVertex
 10
-91.52536244611008
 20
1041.627587870521
 30
31.70050780245393
  0
VERTEX
  5
3F0
330
3E2
100
AcDbEntity
  8
GNAP$WIFI_ANTENNA
100
AcDbVertex
100
AcDb2dVertex
 10
-92.32436244611009
 20
1041.627587870521
 30
31.70050780245393
  0
VERTEX
  5
3F1
330
3E2
100
AcDbEntity
  8
GNAP$WIFI_ANTENNA
100
AcDbVertex
100
AcDb2dVertex
 10
-92.32436244611009
 20
1038.529487870521
 30
31.70050780245393
  0
VERTEX
  5
3F2
330
3E2
100
AcDbEntity
  8
GNAP$WIFI_ANTENNA
100
AcDbVertex
100
AcDb2dVertex
 10
-91.52536244611008
 20
1038.529487870521
 30
31.70050780245393
  0
VERTEX
  5
3F3
330
3E2
100
AcDbEntity
  8
GNAP$WIFI_ANTENNA
100
AcDbVertex
100
AcDb2dVertex
 10
-91.52536244611008
 20
1037.528987870521
 30
31.70050780245393
  0
VERTEX
  5
3F4
330
3E2
100
AcDbEntity
  8
GNAP$WIFI_ANTENNA
100
AcDbVertex
100
AcDb2dVertex
 10
-77.52526244611008
 20
1037.528987870521
 30
31.70050780245393
  0
VERTEX
  5
3F5
330
3E2
100
AcDbEntity
  8
GNAP$WIFI_ANTENNA
100
AcDbVertex
100
AcDb2dVertex
 10
-77.52526244611008
 20
1038.529487870521
 30
31.70050780245393
  0
VERTEX
  5
3F6
330
3E2
100
AcDbEntity
  8
GNAP$WIFI_ANTENNA
100
AcDbVertex
100
AcDb2dVertex
 10
-76.72476244611008
 20
1038.529487870521
 30
31.70050780245393
  0
SEQEND
  5
3F7
330
3E2
100
AcDbEntity
  8
GNAP$WIFI_ANTENNA
  0
POLYLINE
  5
3F8
330
1F
100
AcDbEntity
  8
GNAP$WIFI_ANTENNA
100
AcDb2dPolyline
 66
     1
 10
0.0
 20
0.0
 30
31.70050780245393
 70
     1
  0
VERTEX
  5
3F9
330
3F8
100
AcDbEntity
  8
GNAP$WIFI_ANTENNA
100
AcDbVertex
100
AcDb2dVertex
 10
-95.77436244611008
 20
1041.627587870521
 30
31.70050780245393
  0
VERTEX
  5
3FA
330
3F8
100
AcDbEntity
  8
GNAP$WIFI_ANTENNA
100
AcDbVertex
100
AcDb2dVertex
 10
-96.57336244611008
 20
1041.627587870521
 30
31.70050780245393
  0
VERTEX
  5
3FB
330
3F8
100
AcDbEntity
  8
GNAP$WIFI_ANTENNA
100
AcDbVertex
100
AcDb2dVertex
 10
-96.57336244611008
 20
1047.428987870521
 30
31.70050780245393
  0
VERTEX
  5
3FC
330
3F8
100
AcDbEntity
  8
GNAP$WIFI_ANTENNA
100
AcDbVertex
100
AcDb2dVertex
 10
-95.77436244611008
 20
1047.428987870521
 30
31.70050780245393
  0
VERTEX
  5
3FD
330
3F8
100
AcDbEntity
  8
GNAP$WIFI_ANTENNA
100
AcDbVertex
100
AcDb2dVertex
 10
-95.77436244611008
 20
1050.529487870521
 30
31.70050780245393
  0
VERTEX
  5
3FE
330
3F8
100
AcDbEntity
  8
GNAP$WIFI_ANTENNA
100
AcDbVertex
100
AcDb2dVertex
 10
-96.57336244611008
 20
1050.529487870521
 30
31.70050780245393
  0
VERTEX
  5
3FF
330
3F8
100
AcDbEntity
  8
GNAP$WIFI_ANTENNA
100
AcDbVertex
100
AcDb2dVertex
 10
-96.57336244611008
 20
1051.528587870521
 30
31.70050780245393
  0
VERTEX
  5
400
330
3F8
100
AcDbEntity
  8
GNAP$WIFI_ANTENNA
100
AcDbVertex
100
AcDb2dVertex
 10
-110.5733624461101
 20
1051.528587870521
 30
31.70050780245393
  0
VERTEX
  5
401
330
3F8
100
AcDbEntity
  8
GNAP$WIFI_ANTENNA
100
AcDbVertex
100
AcDb2dVertex
 10
-110.5733624461101
 20
1050.529487870521
 30
31.70050780245393
  0
VERTEX
  5
402
330
3F8
100
AcDbEntity
  8
GNAP$WIFI_ANTENNA
100
AcDbVertex
100
AcDb2dVertex
 10
-111.3753624461101
 20
1050.529487870521
 30
31.70050780245393
  0
VERTEX
  5
403
330
3F8
100
AcDbEntity
  8
GNAP$WIFI_ANTENNA
100
AcDbVertex
100
AcDb2dVertex
 10
-111.3753624461101
 20
1047.428987870521
 30
31.70050780245393
  0
VERTEX
  5
404
330
3F8
100
AcDbEntity
  8
GNAP$WIFI_ANTENNA
100
AcDbVertex
100
AcDb2dVertex
 10
-110.5733624461101
 20
1047.428987870521
 30
31.70050780245393
  0
VERTEX
  5
405
330
3F8
100
AcDbEntity
  8
GNAP$WIFI_ANTENNA
100
AcDbVertex
100
AcDb2dVertex
 10
-110.5733624461101
 20
1041.627587870521
 30
31.70050780245393
  0
VERTEX
  5
406
330
3F8
100
AcDbEntity
  8
GNAP$WIFI_ANTENNA
100
AcDbVertex
100
AcDb2dVertex
 10
-111.3753624461101
 20
1041.627587870521
 30
31.70050780245393
  0
VERTEX
  5
407
330
3F8
100
AcDbEntity
  8
GNAP$WIFI_ANTENNA
100
AcDbVertex
100
AcDb2dVertex
 10
-111.3753624461101
 20
1038.529487870521
 30
31.70050780245393
  0
VERTEX
  5
408
330
3F8
100
AcDbEntity
  8
GNAP$WIFI_ANTENNA
100
AcDbVertex
100
AcDb2dVertex
 10
-110.5733624461101
 20
1038.529487870521
 30
31.70050780245393
  0
VERTEX
  5
409
330
3F8
100
AcDbEntity
  8
GNAP$WIFI_ANTENNA
100
AcDbVertex
100
AcDb2dVertex
 10
-110.5733624461101
 20
1037.528987870521
 30
31.70050780245393
  0
VERTEX
  5
40A
330
3F8
100
AcDbEntity
  8
GNAP$WIFI_ANTENNA
100
AcDbVertex
100
AcDb2dVertex
 10
-96.57336244611008
 20
1037.528987870521
 30
31.70050780245393
  0
VERTEX
  5
40B
330
3F8
100
AcDbEntity
  8
GNAP$WIFI_ANTENNA
100
AcDbVertex
100
AcDb2dVertex
 10
-96.57336244611008
 20
1038.529487870521
 30
31.70050780245393
  0
VERTEX
  5
40C
330
3F8
100
AcDbEntity
  8
GNAP$WIFI_ANTENNA
100
AcDbVertex
100
AcDb2dVertex
 10
-95.77436244611008
 20
1038.529487870521
 30
31.70050780245393
  0
SEQEND
  5
40D
330
3F8
100
AcDbEntity
  8
GNAP$WIFI_ANTENNA
  0
POLYLINE
  5
40E
330
1F
100
AcDbEntity
  8
GNAP$WIFI_ANTENNA
100
AcDb2dPolyline
 66
     1
 10
0.0
 20
0.0
 30
31.70050780245393
 70
     1
  0
VERTEX
  5
40F
330
40E
100
AcDbEntity
  8
GNAP$WIFI_ANTENNA
100
AcDbVertex
100
AcDb2dVertex
 10
-114.8233624461101
 20
1041.627587870521
 30
31.70050780245393
  0
VERTEX
  5
410
330
40E
100
AcDbEntity
  8
GNAP$WIFI_ANTENNA
100
AcDbVertex
100
AcDb2dVertex
 10
-115.6253624461101
 20
1041.627587870521
 30
31.70050780245393
  0
VERTEX
  5
411
330
40E
100
AcDbEntity
  8
GNAP$WIFI_ANTENNA
100
AcDbVertex
100
AcDb2dVertex
 10
-115.6253624461101
 20
1047.428987870521
 30
31.70050780245393
  0
VERTEX
  5
412
330
40E
100
AcDbEntity
  8
GNAP$WIFI_ANTENNA
100
AcDbVertex
100
AcDb2dVertex
 10
-114.8233624461101
 20
1047.428987870521
 30
31.70050780245393
  0
VERTEX
  5
413
330
40E
100
AcDbEntity
  8
GNAP$WIFI_ANTENNA
100
AcDbVertex
100
AcDb2dVertex
 10
-114.8233624461101
 20
1050.529487870521
 30
31.70050780245393
  0
VERTEX
  5
414
330
40E
100
AcDbEntity
  8
GNAP$WIFI_ANTENNA
100
AcDbVertex
100
AcDb2dVertex
 10
-115.6253624461101
 20
1050.529487870521
 30
31.70050780245393
  0
VERTEX
  5
415
330
40E
100
AcDbEntity
  8
GNAP$WIFI_ANTENNA
100
AcDbVertex
100
AcDb2dVertex
 10
-115.6253624461101
 20
1051.528587870521
 30
31.70050780245393
  0
VERTEX
  5
416
330
40E
100
AcDbEntity
  8
GNAP$WIFI_ANTENNA
100
AcDbVertex
100
AcDb2dVertex
 10
-129.62536244611
 20
1051.528587870521
 30
31.70050780245393
  0
VERTEX
  5
417
330
40E
100
AcDbEntity
  8
GNAP$WIFI_ANTENNA
100
AcDbVertex
100
AcDb2dVertex
 10
-129.62536244611
 20
1050.529487870521
 30
31.70050780245393
  0
VERTEX
  5
418
330
40E
100
AcDbEntity
  8
GNAP$WIFI_ANTENNA
100
AcDbVertex
100
AcDb2dVertex
 10
-130.4253624461101
 20
1050.529487870521
 30
31.70050780245393
  0
VERTEX
  5
419
330
40E
100
AcDbEntity
  8
GNAP$WIFI_ANTENNA
100
AcDbVertex
100
AcDb2dVertex
 10
-130.4253624461101
 20
1047.428987870521
 30
31.70050780245393
  0
VERTEX
  5
41A
330
40E
100
AcDbEntity
  8
GNAP$WIFI_ANTENNA
100
AcDbVertex
100
AcDb2dVertex
 10
-129.62536244611
 20
1047.428987870521
 30
31.70050780245393
  0
VERTEX
  5
41B
330
40E
100
AcDbEntity
  8
GNAP$WIFI_ANTENNA
100
AcDbVertex
100
AcDb2dVertex
 10
-129.62536244611
 20
1041.627587870521
 30
31.70050780245393
  0
VERTEX
  5
41C
330
40E
100
AcDbEntity
  8
GNAP$WIFI_ANTENNA
100
AcDbVertex
100
AcDb2dVertex
 10
-130.4253624461101
 20
1041.627587870521
 30
31.70050780245393
  0
VERTEX
  5
41D
330
40E
100
AcDbEntity
  8
GNAP$WIFI_ANTENNA
100
AcDbVertex
100
AcDb2dVertex
 10
-130.4253624461101
 20
1038.529487870521
 30
31.70050780245393
  0
VERTEX
  5
41E
330
40E
100
AcDbEntity
  8
GNAP$WIFI_ANTENNA
100
AcDbVertex
100
AcDb2dVertex
 10
-129.62536244611
 20
1038.529487870521
 30
31.70050780245393
  0
VERTEX
  5
41F
330
40E
100
AcDbEntity
  8
GNAP$WIFI_ANTENNA
100
AcDbVertex
100
AcDb2dVertex
 10
-129.62536244611
 20
1037.528987870521
 30
31.70050780245393
  0
VERTEX
  5
420
330
40E
100
AcDbEntity
  8
GNAP$WIFI_ANTENNA
100
AcDbVertex
100
AcDb2dVertex
 10
-115.6253624461101
 20
1037.528987870521
 30
31.70050780245393
  0
VERTEX
  5
421
330
40E
100
AcDbEntity
  8
GNAP$WIFI_ANTENNA
100
AcDbVertex
100
AcDb2dVertex
 10
-115.6253624461101
 20
1038.529487870521
 30
31.70050780245393
  0
VERTEX
  5
422
330
40E
100
AcDbEntity
  8
GNAP$WIFI_ANTENNA
100
AcDbVertex
100
AcDb2dVertex
 10
-114.8233624461101
 20
1038.529487870521
 30
31.70050780245393
  0
SEQEND
  5
423
330
40E
100
AcDbEntity
  8
GNAP$WIFI_ANTENNA
  0
POLYLINE
  5
424
330
1F
100
AcDbEntity
  8
GNAP$WIFI_ANTENNA
100
AcDb2dPolyline
 66
     1
 10
0.0
 20
0.0
 30
31.70050780245393
 70
     1
  0
VERTEX
  5
425
330
424
100
AcDbEntity
  8
GNAP$WIFI_ANTENNA
100
AcDbVertex
100
AcDb2dVertex
 10
-133.87436244611
 20
1041.627587870521
 30
31.70050780245393
  0
VERTEX
  5
426
330
424
100
AcDbEntity
  8
GNAP$WIFI_ANTENNA
100
AcDbVertex
100
AcDb2dVertex
 10
-134.6753624461101
 20
1041.627587870521
 30
31.70050780245393
  0
VERTEX
  5
427
330
424
100
AcDbEntity
  8
GNAP$WIFI_ANTENNA
100
AcDbVertex
100
AcDb2dVertex
 10
-134.6753624461101
 20
1047.428987870521
 30
31.70050780245393
  0
VERTEX
  5
428
330
424
100
AcDbEntity
  8
GNAP$WIFI_ANTENNA
100
AcDbVertex
100
AcDb2dVertex
 10
-133.87436244611
 20
1047.428987870521
 30
31.70050780245393
  0
VERTEX
  5
429
330
424
100
AcDbEntity
  8
GNAP$WIFI_ANTENNA
100
AcDbVertex
100
AcDb2dVertex
 10
-133.87436244611
 20
1050.529487870521
 30
31.70050780245393
  0
VERTEX
  5
42A
330
424
100
AcDbEntity
  8
GNAP$WIFI_ANTENNA
100
AcDbVertex
100
AcDb2dVertex
 10
-134.6753624461101
 20
1050.529487870521
 30
31.70050780245393
  0
VERTEX
  5
42B
330
424
100
AcDbEntity
  8
GNAP$WIFI_ANTENNA
100
AcDbVertex
100
AcDb2dVertex
 10
-134.6753624461101
 20
1051.528587870521
 30
31.70050780245393
  0
VERTEX
  5
42C
330
424
100
AcDbEntity
  8
GNAP$WIFI_ANTENNA
100
AcDbVertex
100
AcDb2dVertex
 10
-148.6753624461101
 20
1051.528587870521
 30
31.70050780245393
  0
VERTEX
  5
42D
330
424
100
AcDbEntity
  8
GNAP$WIFI_ANTENNA
100
AcDbVertex
100
AcDb2dVertex
 10
-148.6753624461101
 20
1050.529487870521
 30
31.70050780245393
  0
VERTEX
  5
42E
330
424
100
AcDbEntity
  8
GNAP$WIFI_ANTENNA
100
AcDbVertex
100
AcDb2dVertex
 10
-149.47536244611
 20
1050.529487870521
 30
31.70050780245393
  0
VERTEX
  5
42F
330
424
100
AcDbEntity
  8
GNAP$WIFI_ANTENNA
100
AcDbVertex
100
AcDb2dVertex
 10
-149.47536244611
 20
1047.428987870521
 30
31.70050780245393
  0
VERTEX
  5
430
330
424
100
AcDbEntity
  8
GNAP$WIFI_ANTENNA
100
AcDbVertex
100
AcDb2dVertex
 10
-148.6753624461101
 20
1047.428987870521
 30
31.70050780245393
  0
VERTEX
  5
431
330
424
100
AcDbEntity
  8
GNAP$WIFI_ANTENNA
100
AcDbVertex
100
AcDb2dVertex
 10
-148.6753624461101
 20
1041.627587870521
 30
31.70050780245393
  0
VERTEX
  5
432
330
424
100
AcDbEntity
  8
GNAP$WIFI_ANTENNA
100
AcDbVertex
100
AcDb2dVertex
 10
-149.47536244611
 20
1041.627587870521
 30
31.70050780245393
  0
VERTEX
  5
433
330
424
100
AcDbEntity
  8
GNAP$WIFI_ANTENNA
100
AcDbVertex
100
AcDb2dVertex
 10
-149.47536244611
 20
1038.529487870521
 30
31.70050780245393
  0
VERTEX
  5
434
330
424
100
AcDbEntity
  8
GNAP$WIFI_ANTENNA
100
AcDbVertex
100
AcDb2dVertex
 10
-148.6753624461101
 20
1038.529487870521
 30
31.70050780245393
  0
VERTEX
  5
435
330
424
100
AcDbEntity
  8
GNAP$WIFI_ANTENNA
100
AcDbVertex
100
AcDb2dVertex
 10
-148.6753624461101
 20
1037.528987870521
 30
31.70050780245393
  0
VERTEX
  5
436
330
424
100
AcDbEntity
  8
GNAP$WIFI_ANTENNA
100
AcDbVertex
100
AcDb2dVertex
 10
-134.6753624461101
 20
1037.528987870521
 30
31.70050780245393
  0
VERTEX
  5
437
330
424
100
AcDbEntity
  8
GNAP$WIFI_ANTENNA
100
AcDbVertex
100
AcDb2dVertex
 10
-134.6753624461101
 20
1038.529487870521
 30
31.70050780245393
  0
VERTEX
  5
438
330
424
100
AcDbEntity
  8
GNAP$WIFI_ANTENNA
100
AcDbVertex
100
AcDb2dVertex
 10
-133.87436244611
 20
1038.529487870521
 30
31.70050780245393
  0
SEQEND
  5
439
330
424
100
AcDbEntity
  8
GNAP$WIFI_ANTENNA
  0
POLYLINE
  5
43A
330
1F
100
AcDbEntity
  8
GNAP$WIFI_ANTENNA
100
AcDb2dPolyline
 66
     1
 10
0.0
 20
0.0
 30
31.70050780245393
 70
     1
  0
VERTEX
  5
43B
330
43A
100
AcDbEntity
  8
GNAP$WIFI_ANTENNA
100
AcDbVertex
100
AcDb2dVertex
 10
-152.92436244611
 20
1041.627587870521
 30
31.70050780245393
  0
VERTEX
  5
43C
330
43A
100
AcDbEntity
  8
GNAP$WIFI_ANTENNA
100
AcDbVertex
100
AcDb2dVertex
 10
-153.72536244611
 20
1041.627587870521
 30
31.70050780245393
  0
VERTEX
  5
43D
330
43A
100
AcDbEntity
  8
GNAP$WIFI_ANTENNA
100
AcDbVertex
100
AcDb2dVertex
 10
-153.72536244611
 20
1047.428987870521
 30
31.70050780245393
  0
VERTEX
  5
43E
330
43A
100
AcDbEntity
  8
GNAP$WIFI_ANTENNA
100
AcDbVertex
100
AcDb2dVertex
 10
-152.92436244611
 20
1047.428987870521
 30
31.70050780245393
  0
VERTEX
  5
43F
330
43A
100
AcDbEntity
  8
GNAP$WIFI_ANTENNA
100
AcDbVertex
100
AcDb2dVertex
 10
-152.92436244611
 20
1050.529487870521
 30
31.70050780245393
  0
VERTEX
  5
440
330
43A
100
AcDbEntity
  8
GNAP$WIFI_ANTENNA
100
AcDbVertex
100
AcDb2dVertex
 10
-153.72536244611
 20
1050.529487870521
 30
31.70050780245393
  0
VERTEX
  5
441
330
43A
100
AcDbEntity
  8
GNAP$WIFI_ANTENNA
100
AcDbVertex
100
AcDb2dVertex
 10
-153.72536244611
 20
1051.528587870521
 30
31.70050780245393
  0
VERTEX
  5
442
330
43A
100
AcDbEntity
  8
GNAP$WIFI_ANTENNA
100
AcDbVertex
100
AcDb2dVertex
 10
-167.72536244611
 20
1051.528587870521
 30
31.70050780245393
  0
VERTEX
  5
443
330
43A
100
AcDbEntity
  8
GNAP$WIFI_ANTENNA
100
AcDbVertex
100
AcDb2dVertex
 10
-167.72536244611
 20
1050.529487870521
 30
31.70050780245393
  0
VERTEX
  5
444
330
43A
100
AcDbEntity
  8
GNAP$WIFI_ANTENNA
100
AcDbVertex
100
AcDb2dVertex
 10
-168.52536244611
 20
1050.529487870521
 30
31.70050780245393
  0
VERTEX
  5
445
330
43A
100
AcDbEntity
  8
GNAP$WIFI_ANTENNA
100
AcDbVertex
100
AcDb2dVertex
 10
-168.52536244611
 20
1047.428987870521
 30
31.70050780245393
  0
VERTEX
  5
446
330
43A
100
AcDbEntity
  8
GNAP$WIFI_ANTENNA
100
AcDbVertex
100
AcDb2dVertex
 10
-167.72536244611
 20
1047.428987870521
 30
31.70050780245393
  0
VERTEX
  5
447
330
43A
100
AcDbEntity
  8
GNAP$WIFI_ANTENNA
100
AcDbVertex
100
AcDb2dVertex
 10
-167.72536244611
 20
1041.627587870521
 30
31.70050780245393
  0
VERTEX
  5
448
330
43A
100
AcDbEntity
  8
GNAP$WIFI_ANTENNA
100
AcDbVertex
100
AcDb2dVertex
 10
-168.52536244611
 20
1041.627587870521
 30
31.70050780245393
  0
VERTEX
  5
449
330
43A
100
AcDbEntity
  8
GNAP$WIFI_ANTENNA
100
AcDbVertex
100
AcDb2dVertex
 10
-168.52536244611
 20
1038.529487870521
 30
31.70050780245393
  0
VERTEX
  5
44A
330
43A
100
AcDbEntity
  8
GNAP$WIFI_ANTENNA
100
AcDbVertex
100
AcDb2dVertex
 10
-167.72536244611
 20
1038.529487870521
 30
31.70050780245393
  0
VERTEX
  5
44B
330
43A
100
AcDbEntity
  8
GNAP$WIFI_ANTENNA
100
AcDbVertex
100
AcDb2dVertex
 10
-167.72536244611
 20
1037.528987870521
 30
31.70050780245393
  0
VERTEX
  5
44C
330
43A
100
AcDbEntity
  8
GNAP$WIFI_ANTENNA
100
AcDbVertex
100
AcDb2dVertex
 10
-153.72536244611
 20
1037.528987870521
 30
31.70050780245393
  0
VERTEX
  5
44D
330
43A
100
AcDbEntity
  8
GNAP$WIFI_ANTENNA
100
AcDbVertex
100
AcDb2dVertex
 10
-153.72536244611
 20
1038.529487870521
 30
31.70050780245393
  0
VERTEX
  5
44E
330
43A
100
AcDbEntity
  8
GNAP$WIFI_ANTENNA
100
AcDbVertex
100
AcDb2dVertex
 10
-152.92436244611
 20
1038.529487870521
 30
31.70050780245393
  0
SEQEND
  5
44F
330
43A
100
AcDbEntity
  8
GNAP$WIFI_ANTENNA
  0
POLYLINE
  5
450
330
1F
100
AcDbEntity
  8
GNAP$WIFI_ANTENNA
100
AcDb2dPolyline
 66
     1
 10
0.0
 20
0.0
 30
31.70050780245393
 70
     1
  0
VERTEX
  5
451
330
450
100
AcDbEntity
  8
GNAP$WIFI_ANTENNA
100
AcDbVertex
100
AcDb2dVertex
 10
-171.97436244611
 20
1041.627587870521
 30
31.70050780245393
  0
VERTEX
  5
452
330
450
100
AcDbEntity
  8
GNAP$WIFI_ANTENNA
100
AcDbVertex
100
AcDb2dVertex
 10
-172.77536244611
 20
1041.627587870521
 30
31.70050780245393
  0
VERTEX
  5
453
330
450
100
AcDbEntity
  8
GNAP$WIFI_ANTENNA
100
AcDbVertex
100
AcDb2dVertex
 10
-172.77536244611
 20
1047.428987870521
 30
31.70050780245393
  0
VERTEX
  5
454
330
450
100
AcDbEntity
  8
GNAP$WIFI_ANTENNA
100
AcDbVertex
100
AcDb2dVertex
 10
-171.97436244611
 20
1047.428987870521
 30
31.70050780245393
  0
VERTEX
  5
455
330
450
100
AcDbEntity
  8
GNAP$WIFI_ANTENNA
100
AcDbVertex
100
AcDb2dVertex
 10
-171.97436244611
 20
1050.529487870521
 30
31.70050780245393
  0
VERTEX
  5
456
330
450
100
AcDbEntity
  8
GNAP$WIFI_ANTENNA
100
AcDbVertex
100
AcDb2dVertex
 10
-172.77536244611
 20
1050.529487870521
 30
31.70050780245393
  0
VERTEX
  5
457
330
450
100
AcDbEntity
  8
GNAP$WIFI_ANTENNA
100
AcDbVertex
100
AcDb2dVertex
 10
-172.77536244611
 20
1051.528587870521
 30
31.70050780245393
  0
VERTEX
  5
458
330
450
100
AcDbEntity
  8
GNAP$WIFI_ANTENNA
100
AcDbVertex
100
AcDb2dVertex
 10
-186.77536244611
 20
1051.528587870521
 30
31.70050780245393
  0
VERTEX
  5
459
330
450
100
AcDbEntity
  8
GNAP$WIFI_ANTENNA
100
AcDbVertex
100
AcDb2dVertex
 10
-186.77536244611
 20
1050.529487870521
 30
31.70050780245393
  0
VERTEX
  5
45A
330
450
100
AcDbEntity
  8
GNAP$WIFI_ANTENNA
100
AcDbVertex
100
AcDb2dVertex
 10
-187.57536244611
 20
1050.529487870521
 30
31.70050780245393
  0
VERTEX
  5
45B
330
450
100
AcDbEntity
  8
GNAP$WIFI_ANTENNA
100
AcDbVertex
100
AcDb2dVertex
 10
-187.57536244611
 20
1047.428987870521
 30
31.70050780245393
  0
VERTEX
  5
45C
330
450
100
AcDbEntity
  8
GNAP$WIFI_ANTENNA
100
AcDbVertex
100
AcDb2dVertex
 10
-186.77536244611
 20
1047.428987870521
 30
31.70050780245393
  0
VERTEX
  5
45D
330
450
100
AcDbEntity
  8
GNAP$WIFI_ANTENNA
100
AcDbVertex
100
AcDb2dVertex
 10
-186.77536244611
 20
1041.627587870521
 30
31.70050780245393
  0
VERTEX
  5
45E
330
450
100
AcDbEntity
  8
GNAP$WIFI_ANTENNA
100
AcDbVertex
100
AcDb2dVertex
 10
-187.57536244611
 20
1041.627587870521
 30
31.70050780245393
  0
VERTEX
  5
45F
330
450
100
AcDbEntity
  8
GNAP$WIFI_ANTENNA
100
AcDbVertex
100
AcDb2dVertex
 10
-187.57536244611
 20
1038.529487870521
 30
31.70050780245393
  0
VERTEX
  5
460
330
450
100
AcDbEntity
  8
GNAP$WIFI_ANTENNA
100
AcDbVertex
100
AcDb2dVertex
 10
-186.77536244611
 20
1038.529487870521
 30
31.70050780245393
  0
VERTEX
  5
461
330
450
100
AcDbEntity
  8
GNAP$WIFI_ANTENNA
100
AcDbVertex
100
AcDb2dVertex
 10
-186.77536244611
 20
1037.528987870521
 30
31.70050780245393
  0
VERTEX
  5
462
330
450
100
AcDbEntity
  8
GNAP$WIFI_ANTENNA
100
AcDbVertex
100
AcDb2dVertex
 10
-172.77536244611
 20
1037.528987870521
 30
31.70050780245393
  0
VERTEX
  5
463
330
450
100
AcDbEntity
  8
GNAP$WIFI_ANTENNA
100
AcDbVertex
100
AcDb2dVertex
 10
-172.77536244611
 20
1038.529487870521
 30
31.70050780245393
  0
VERTEX
  5
464
330
450
100
AcDbEntity
  8
GNAP$WIFI_ANTENNA
100
AcDbVertex
100
AcDb2dVertex
 10
-171.97436244611
 20
1038.529487870521
 30
31.70050780245393
  0
SEQEND
  5
465
330
450
100
AcDbEntity
  8
GNAP$WIFI_ANTENNA
  0
POLYLINE
  5
466
330
1F
100
AcDbEntity
  8
GNAP$WIFI_ANTENNA
100
AcDb2dPolyline
 66
     1
 10
0.0
 20
0.0
 30
31.70050780245393
 70
     1
  0
VERTEX
  5
467
330
466
100
AcDbEntity
  8
GNAP$WIFI_ANTENNA
100
AcDbVertex
100
AcDb2dVertex
 10
-191.02436244611
 20
1041.627587870521
 30
31.70050780245393
  0
VERTEX
  5
468
330
466
100
AcDbEntity
  8
GNAP$WIFI_ANTENNA
100
AcDbVertex
100
AcDb2dVertex
 10
-191.82536244611
 20
1041.627587870521
 30
31.70050780245393
  0
VERTEX
  5
469
330
466
100
AcDbEntity
  8
GNAP$WIFI_ANTENNA
100
AcDbVertex
100
AcDb2dVertex
 10
-191.82536244611
 20
1047.428987870521
 30
31.70050780245393
  0
VERTEX
  5
46A
330
466
100
AcDbEntity
  8
GNAP$WIFI_ANTENNA
100
AcDbVertex
100
AcDb2dVertex
 10
-191.02436244611
 20
1047.428987870521
 30
31.70050780245393
  0
VERTEX
  5
46B
330
466
100
AcDbEntity
  8
GNAP$WIFI_ANTENNA
100
AcDbVertex
100
AcDb2dVertex
 10
-191.02436244611
 20
1050.529487870521
 30
31.70050780245393
  0
VERTEX
  5
46C
330
466
100
AcDbEntity
  8
GNAP$WIFI_ANTENNA
100
AcDbVertex
100
AcDb2dVertex
 10
-191.82536244611
 20
1050.529487870521
 30
31.70050780245393
  0
VERTEX
  5
46D
330
466
100
AcDbEntity
  8
GNAP$WIFI_ANTENNA
100
AcDbVertex
100
AcDb2dVertex
 10
-191.82536244611
 20
1051.528587870521
 30
31.70050780245393
  0
VERTEX
  5
46E
330
466
100
AcDbEntity
  8
GNAP$WIFI_ANTENNA
100
AcDbVertex
100
AcDb2dVertex
 10
-205.82536244611
 20
1051.528587870521
 30
31.70050780245393
  0
VERTEX
  5
46F
330
466
100
AcDbEntity
  8
GNAP$WIFI_ANTENNA
100
AcDbVertex
100
AcDb2dVertex
 10
-205.82536244611
 20
1050.529487870521
 30
31.70050780245393
  0
VERTEX
  5
470
330
466
100
AcDbEntity
  8
GNAP$WIFI_ANTENNA
100
AcDbVertex
100
AcDb2dVertex
 10
-206.62536244611
 20
1050.529487870521
 30
31.70050780245393
  0
VERTEX
  5
471
330
466
100
AcDbEntity
  8
GNAP$WIFI_ANTENNA
100
AcDbVertex
100
AcDb2dVertex
 10
-206.62536244611
 20
1047.428987870521
 30
31.70050780245393
  0
VERTEX
  5
472
330
466
100
AcDbEntity
  8
GNAP$WIFI_ANTENNA
100
AcDbVertex
100
AcDb2dVertex
 10
-205.82536244611
 20
1047.428987870521
 30
31.70050780245393
  0
VERTEX
  5
473
330
466
100
AcDbEntity
  8
GNAP$WIFI_ANTENNA
100
AcDbVertex
100
AcDb2dVertex
 10
-205.82536244611
 20
1041.627587870521
 30
31.70050780245393
  0
VERTEX
  5
474
330
466
100
AcDbEntity
  8
GNAP$WIFI_ANTENNA
100
AcDbVertex
100
AcDb2dVertex
 10
-206.62536244611
 20
1041.627587870521
 30
31.70050780245393
  0
VERTEX
  5
475
330
466
100
AcDbEntity
  8
GNAP$WIFI_ANTENNA
100
AcDbVertex
100
AcDb2dVertex
 10
-206.62536244611
 20
1038.529487870521
 30
31.70050780245393
  0
VERTEX
  5
476
330
466
100
AcDbEntity
  8
GNAP$WIFI_ANTENNA
100
AcDbVertex
100
AcDb2dVertex
 10
-205.82536244611
 20
1038.529487870521
 30
31.70050780245393
  0
VERTEX
  5
477
330
466
100
AcDbEntity
  8
GNAP$WIFI_ANTENNA
100
AcDbVertex
100
AcDb2dVertex
 10
-205.82536244611
 20
1037.528987870521
 30
31.70050780245393
  0
VERTEX
  5
478
330
466
100
AcDbEntity
  8
GNAP$WIFI_ANTENNA
100
AcDbVertex
100
AcDb2dVertex
 10
-191.82536244611
 20
1037.528987870521
 30
31.70050780245393
  0
VERTEX
  5
479
330
466
100
AcDbEntity
  8
GNAP$WIFI_ANTENNA
100
AcDbVertex
100
AcDb2dVertex
 10
-191.82536244611
 20
1038.529487870521
 30
31.70050780245393
  0
VERTEX
  5
47A
330
466
100
AcDbEntity
  8
GNAP$WIFI_ANTENNA
100
AcDbVertex
100
AcDb2dVertex
 10
-191.02436244611
 20
1038.529487870521
 30
31.70050780245393
  0
SEQEND
  5
47B
330
466
100
AcDbEntity
  8
GNAP$WIFI_ANTENNA
  0
POLYLINE
  5
47C
330
1F
100
AcDbEntity
  8
GNAP$WIFI_ANTENNA
100
AcDb2dPolyline
 66
     1
 10
0.0
 20
0.0
 30
31.70050780245393
 70
     1
  0
VERTEX
  5
47D
330
47C
100
AcDbEntity
  8
GNAP$WIFI_ANTENNA
100
AcDbVertex
100
AcDb2dVertex
 10
-214.83736244611
 20
1041.627587870521
 30
31.70050780245393
  0
VERTEX
  5
47E
330
47C
100
AcDbEntity
  8
GNAP$WIFI_ANTENNA
100
AcDbVertex
100
AcDb2dVertex
 10
-215.63636244611
 20
1041.627587870521
 30
31.70050780245393
  0
VERTEX
  5
47F
330
47C
100
AcDbEntity
  8
GNAP$WIFI_ANTENNA
100
AcDbVertex
100
AcDb2dVertex
 10
-215.63636244611
 20
1047.428987870521
 30
31.70050780245393
  0
VERTEX
  5
480
330
47C
100
AcDbEntity
  8
GNAP$WIFI_ANTENNA
100
AcDbVertex
100
AcDb2dVertex
 10
-214.83736244611
 20
1047.428987870521
 30
31.70050780245393
  0
VERTEX
  5
481
330
47C
100
AcDbEntity
  8
GNAP$WIFI_ANTENNA
100
AcDbVertex
100
AcDb2dVertex
 10
-214.83736244611
 20
1050.529487870521
 30
31.70050780245393
  0
VERTEX
  5
482
330
47C
100
AcDbEntity
  8
GNAP$WIFI_ANTENNA
100
AcDbVertex
100
AcDb2dVertex
 10
-215.63636244611
 20
1050.529487870521
 30
31.70050780245393
  0
VERTEX
  5
483
330
47C
100
AcDbEntity
  8
GNAP$WIFI_ANTENNA
100
AcDbVertex
100
AcDb2dVertex
 10
-215.63636244611
 20
1051.528587870521
 30
31.70050780245393
  0
VERTEX
  5
484
330
47C
100
AcDbEntity
  8
GNAP$WIFI_ANTENNA
100
AcDbVertex
100
AcDb2dVertex
 10
-229.63736244611
 20
1051.528587870521
 30
31.70050780245393
  0
VERTEX
  5
485
330
47C
100
AcDbEntity
  8
GNAP$WIFI_ANTENNA
100
AcDbVertex
100
AcDb2dVertex
 10
-229.63736244611
 20
1050.529487870521
 30
31.70050780245393
  0
VERTEX
  5
486
330
47C
100
AcDbEntity
  8
GNAP$WIFI_ANTENNA
100
AcDbVertex
100
AcDb2dVertex
 10
-230.43636244611
 20
1050.529487870521
 30
31.70050780245393
  0
VERTEX
  5
487
330
47C
100
AcDbEntity
  8
GNAP$WIFI_ANTENNA
100
AcDbVertex
100
AcDb2dVertex
 10
-230.43636244611
 20
1047.428987870521
 30
31.70050780245393
  0
VERTEX
  5
488
330
47C
100
AcDbEntity
  8
GNAP$WIFI_ANTENNA
100
AcDbVertex
100
AcDb2dVertex
 10
-229.63736244611
 20
1047.428987870521
 30
31.70050780245393
  0
VERTEX
  5
489
330
47C
100
AcDbEntity
  8
GNAP$WIFI_ANTENNA
100
AcDbVertex
100
AcDb2dVertex
 10
-229.63736244611
 20
1041.627587870521
 30
31.70050780245393
  0
VERTEX
  5
48A
330
47C
100
AcDbEntity
  8
GNAP$WIFI_ANTENNA
100
AcDbVertex
100
AcDb2dVertex
 10
-230.43636244611
 20
1041.627587870521
 30
31.70050780245393
  0
VERTEX
  5
48B
330
47C
100
AcDbEntity
  8
GNAP$WIFI_ANTENNA
100
AcDbVertex
100
AcDb2dVertex
 10
-230.43636244611
 20
1038.529487870521
 30
31.70050780245393
  0
VERTEX
  5
48C
330
47C
100
AcDbEntity
  8
GNAP$WIFI_ANTENNA
100
AcDbVertex
100
AcDb2dVertex
 10
-229.63736244611
 20
1038.529487870521
 30
31.70050780245393
  0
VERTEX
  5
48D
330
47C
100
AcDbEntity
  8
GNAP$WIFI_ANTENNA
100
AcDbVertex
100
AcDb2dVertex
 10
-229.63736244611
 20
1037.528987870521
 30
31.70050780245393
  0
VERTEX
  5
48E
330
47C
100
AcDbEntity
  8
GNAP$WIFI_ANTENNA
100
AcDbVertex
100
AcDb2dVertex
 10
-215.63636244611
 20
1037.528987870521
 30
31.70050780245393
  0
VERTEX
  5
48F
330
47C
100
AcDbEntity
  8
GNAP$WIFI_ANTENNA
100
AcDbVertex
100
AcDb2dVertex
 10
-215.63636244611
 20
1038.529487870521
 30
31.70050780245393
  0
VERTEX
  5
490
330
47C
100
AcDbEntity
  8
GNAP$WIFI_ANTENNA
100
AcDbVertex
100
AcDb2dVertex
 10
-214.83736244611
 20
1038.529487870521
 30
31.70050780245393
  0
SEQEND
  5
491
330
47C
100
AcDbEntity
  8
GNAP$WIFI_ANTENNA
  0
POLYLINE
  5
492
330
1F
100
AcDbEntity
  8
GNAP$WIFI_ANTENNA
100
AcDb2dPolyline
 66
     1
 10
0.0
 20
0.0
 30
31.70050780245393
 70
     1
  0
VERTEX
  5
493
330
492
100
AcDbEntity
  8
GNAP$WIFI_ANTENNA
100
AcDbVertex
100
AcDb2dVertex
 10
-200.36236244611
 20
924.4526878705208
 30
31.70050780245393
  0
VERTEX
  5
494
330
492
100
AcDbEntity
  8
GNAP$WIFI_ANTENNA
100
AcDbVertex
100
AcDb2dVertex
 10
-35.36306244611011
 20
924.4526878705208
 30
31.70050780245393
  0
VERTEX
  5
495
330
492
100
AcDbEntity
  8
GNAP$WIFI_ANTENNA
100
AcDbVertex
100
AcDb2dVertex
 10
-35.36306244611011
 20
1025.453687870521
 30
31.70050780245393
  0
VERTEX
  5
496
330
492
100
AcDbEntity
  8
GNAP$WIFI_ANTENNA
100
AcDbVertex
100
AcDb2dVertex
 10
-200.36236244611
 20
1025.453687870521
 30
31.70050780245393
  0
SEQEND
  5
497
330
492
100
AcDbEntity
  8
GNAP$WIFI_ANTENNA
  0
LINE
  5
498
330
1F
100
AcDbEntity
  8
GNAP$WIFI_ANTENNA
100
AcDbLine
 10
-245.9387027694335
 20
1126.208020191652
 30
31.70050780245393
 11
10.18794487027549
 21
1126.208020191652
 31
31.70050780245393
  0
ARC
  5
499
330
1F
100
AcDbEntity
  8
GNAP$WIFI_ANTENNA
100
AcDbCircle
 10
-10.18794487027574
 20
1120.207886311507
 30
-31.70050780245393
 40
6.000133880145313
210
0.0
220
0.0
230
-1.0
100
AcDbArc
 50
89.99999999999756
 51
180.0000000000043
  0
LINE
  5
49A
330
1F
100
AcDbEntity
  8
GNAP$WIFI_ANTENNA
100
AcDbLine
 10
16.18807875042096
 20
1120.207886311506
 30
31.70050780245393
 11
16.18807875042105
 21
916.9573480717972
 31
31.70050780245393
  0
ARC
  5
49B
330
1F
100
AcDbEntity
  8
GNAP$WIFI_ANTENNA
100
AcDbCircle
 10
-10.18794487027537
 20
916.9573480717975
 30
-31.70050780245393
 40
6.000133880145675
210
0.0
220
0.0
230
-1.0
100
AcDbArc
 50
180.0000000000022
 51
269.9999999999989
  0
LINE
  5
49C
330
1F
100
AcDbEntity
  8
GNAP$WIFI_ANTENNA
100
AcDbLine
 10
10.18794487027549
 20
910.9572141916518
 30
31.70050780245393
 11
-245.9387027694335
 21
910.9572141916518
 31
31.70050780245393
  0
ARC
  5
49D
330
1F
100
AcDbEntity
  8
GNAP$WIFI_ANTENNA
100
AcDbCircle
 10
245.9387027694337
 20
916.957348071797
 30
-31.70050780245395
 40
6.000133880145199
210
0.0
220
0.0
230
-1.0
100
AcDbArc
 50
269.9999999999984
 51
0.0000000000032568
  0
LINE
  5
49E
330
1F
100
AcDbEntity
  8
GNAP$WIFI_ANTENNA
100
AcDbLine
 10
-251.9388366495789
 20
916.9573480717972
 30
31.70050780245393
 11
-251.938836649579
 21
1120.207886311506
 31
31.70050780245393
  0
ARC
  5
49F
330
1F
100
AcDbEntity
  8
GNAP$WIFI_ANTENNA
100
AcDbCircle
 10
245.9387027694329
 20
1120.207886311506
 30
-31.70050780245395
 40
6.00013388014608
210
0.0
220
0.0
230
-1.0
100
AcDbArc
 50
0.0000000000021712
 51
89.9999999999943
  0
CIRCLE
  5
4A0
330
1F
100
AcDbEntity
  8
GNAP$WIFI_ANTENNA
100
AcDbCircle
 10
8.687403350421077
 20
1118.708724191652
 30
31.70050780245393
 40
3.500000000000112
  0
CIRCLE
  5
4A1
330
1F
100
AcDbEntity
  8
GNAP$WIFI_ANTENNA
100
AcDbCircle
 10
-244.438836649579
 20
1118.708724191652
 30
31.70050780245393
 40
3.499999999999943
  0
CIRCLE
  5
4A2
330
1F
100
AcDbEntity
  8
GNAP$WIFI_ANTENNA
100
AcDbCircle
 10
-244.4456658277876
 20
918.414714191652
 30
31.70050780245393
 40
3.500000000000057
  0
CIRCLE
  5
4A3
330
1F
100
AcDbEntity
  8
GNAP$WIFI_ANTENNA
100
AcDbCircle
 10
8.687403350420997
 20
918.4577141916517
 30
31.70050780245393
 40
3.500000000000032
  0
ENDSEC
  0
SECTION
  2
OBJECTS
  0
DICTIONARY
  5
C
330
0
100
AcDbDictionary
  3
ACAD_GROUP
350
D
  3
ACAD_LAYOUT
350
1A
  3
ACAD_MATERIAL
350
43
  3
ACAD_MLEADERSTYLE
350
5B
  3
ACAD_MLINESTYLE
350
17
  3
ACAD_PLOTSETTINGS
350
19
  3
ACAD_SCALELIST
350
47
  3
ACAD_VISUALSTYLE
350
2A
  3
ACDBHEADERROUNDTRIPXREC
350
4A4
  3
ACDBVARIABLEDICTIONARY
350
4C5
  3
DWGPROPS
350
4CC
  0
DICTIONARY
  5
4CD
330
8
100
AcDbDictionary
280
     1
  3
ACAD_XREC_ROUNDTRIP
360
4CE
  0
DICTIONARY
  5
D
102
{ACAD_REACTORS
330
C
102
}
330
C
100
AcDbDictionary
  0
DICTIONARY
  5
1A
102
{ACAD_REACTORS
330
C
102
}
330
C
100
AcDbDictionary
  0
DICTIONARY
  5
43
102
{ACAD_REACTORS
330
C
102
}
330
C
100
AcDbDictionary
  3
BYBLOCK
350
45
  3
BYLAYER
350
44
  3
GLOBAL
350
46
  0
DICTIONARY
  5
5B
102
{ACAD_REACTORS
330
C
102
}
330
C
100
AcDbDictionary
  3
STANDARD
350
5C
  0
DICTIONARY
  5
17
102
{ACAD_REACTORS
330
C
102
}
330
C
100
AcDbDictionary
  3
STANDARD
350
18
  0
DICTIONARY
  5
19
102
{ACAD_REACTORS
330
C
102
}
330
C
100
AcDbDictionary
  0
DICTIONARY
  5
47
102
{ACAD_REACTORS
330
C
102
}
330
C
100
AcDbDictionary
  3
A0
350
48
  3
A1
350
49
  3
A2
350
4A
  3
A3
350
4B
  3
A4
350
4C
  3
A5
350
4D
  3
A6
350
4E
  3
A7
350
4F
  3
A8
350
50
  3
A9
350
51
  3
B1
350
52
  3
B2
350
53
  3
B3
350
54
  3
B4
350
55
  3
B5
350
56
  3
B6
350
57
  3
B7
350
58
  0
DICTIONARY
  5
2A
102
{ACAD_REACTORS
330
C
102
}
330
C
100
AcDbDictionary
  3
2DWIREFRAME
350
2F
  3
BASIC
350
32
  3
BRIGHTEN
350
36
  3
COLORCHANGE
350
3A
  3
CONCEPTUAL
350
34
  3
DIM
350
35
  3
EDGECOLOROFF
350
3D
  3
FACEPATTERN
350
39
  3
FLAT
350
2B
  3
FLATWITHEDGES
350
2C
  3
GOURAUD
350
2D
  3
GOURAUDWITHEDGES
350
2E
  3
HIDDEN
350
31
  3
JITTEROFF
350
3B
  3
LINEPATTERN
350
38
  3
OVERHANGOFF
350
3C
  3
REALISTIC
350
33
  3
SHADED
350
42
  3
SHADED_WITH_EDGES
350
41
  3
SHADES_OF_GRAY
350
3E
  3
SKETCHY
350
3F
  3
THICKEN
350
37
  3
WIREFRAME
350
30
  3
X-RAY
350
40
  0
DICTIONARY
  5
4A4
102
{ACAD_REACTORS
330
C
102
}
330
C
100
AcDbDictionary
  3
CEPSNID
350
4AE
  3
CEPSNTYPE
350
4AD
  3
DIMSTYLEDATA
350
4C4
  3
FINGERPRINTGUID
350
4AF
  3
HYPERLINKBASE
350
4A7
  3
INSUNITS
350
4AC
  3
LAYOUTDICT
350
4A9
  3
LWETCUNION
350
4AB
  3
PLOTSETDICT
350
4AA
  3
PSVPSCALE
350
4B1
  3
PUCSBASE
350
4B4
  3
PUCSORGBACK
350
4BA
  3
PUCSORGBOTTOM
350
4B6
  3
PUCSORGFRONT
350
4B9
  3
PUCSORGLEFT
350
4B7
  3
PUCSORGRIGHT
350
4B8
  3
PUCSORGTOP
350
4B5
  3
PUCSORTHOREF
350
4B2
  3
PUCSORTHOVIEW
350
4B3
  3
STYLESHEET
350
4A8
  3
TSTACKALIGN
350
4A5
  3
TSTACKSIZE
350
4A6
  3
UCSBASE
350
4BD
  3
UCSORGBACK
350
4C3
  3
UCSORGBOTTOM
350
4BF
  3
UCSORGFRONT
350
4C2
  3
UCSORGLEFT
350
4C0
  3
UCSORGRIGHT
350
4C1
  3
UCSORGTOP
350
4BE
  3
UCSORTHOREF
350
4BB
  3
UCSORTHOVIEW
350
4BC
  3
VERSIONGUID
350
4B0
  0
DICTIONARY
  5
4C5
102
{ACAD_REACTORS
330
C
102
}
330
C
100
AcDbDictionary
  3
CANNOSCALE
350
4CF
  3
CMLEADERSTYLE
350
4C7
  3
CTABLESTYLE
350
4C6
  3
DIMASSOC
350
4CA
  3
HIDETEXT
350
4CB
  3
MSLTSCALE
350
4D0
  0
XRECORD
  5
4CC
102
{ACAD_REACTORS
330
C
102
}
330
C
100
AcDbXrecord
  1
DWGPROPS COOKIE
  2

  3

  4

  6

  7

  8
Willi
  9

300
=
301
=
302
=
303
=
304
=
305
=
306
=
307
=
308
=
309
=
 40
0.0
 41
2459824.131942164
 42
2459824.131965035
  1

 90
        0
  0
XRECORD
  5
4CE
102
{ACAD_REACTORS
330
4CD
102
}
330
4CD
100
AcDbXrecord
102
VTR_0.000_0.000_1.000_1.000_VISUALSTYLE
340
2F
102
VTR_0.000_0.000_1.000_1.000_GRIDDISPLAY
 70
     3
102
VTR_0.000_0.000_1.000_1.000_GRIDMAJOR
 70
     5
102
VTR_0.000_0.000_1.000_1.000_DEFAULTLIGHTING
280
     1
102
VTR_0.000_0.000_1.000_1.000_DEFAULTLIGHTINGTYPE
 70
     1
102
VTR_0.000_0.000_1.000_1.000_BRIGHTNESS
141
0.0
102
VTR_0.000_0.000_1.000_1.000_CONTRAST
142
0.0
  0
MATERIAL
  5
45
102
{ACAD_REACTORS
330
43
102
}
102
{ACAD_XDICTIONARY
360
4D3
102
}
330
43
100
AcDbMaterial
  1
BYBLOCK
  0
MATERIAL
  5
44
102
{ACAD_REACTORS
330
43
102
}
102
{ACAD_XDICTIONARY
360
4D1
102
}
330
43
100
AcDbMaterial
  1
BYLAYER
  0
MATERIAL
  5
46
102
{ACAD_REACTORS
330
43
102
}
102
{ACAD_XDICTIONARY
360
4D5
102
}
330
43
100
AcDbMaterial
  1
GLOBAL
  0
ACAD_PROXY_OBJECT
  5
5C
102
{ACAD_REACTORS
330
5B
102
}
330
5B
100
AcDbProxyObject
 90
      499
 91
      505
 93
      610
310
40901902A4063FBFFFFFE056BD1B81E855B9FC0AD7A3703D0AD73F4214DD185B99185C9900AD7A3703D0AC73F90141901A02B5E8DC0F42B1CFC02B5E8DC0F42B1CFE5764000000000000300FC0
340
14
340
0
340
11
340
0
 94
        0
1001
ACAD_MLEADERVER
1070
     2
  0
MLINESTYLE
  5
18
102
{ACAD_REACTORS
330
17
102
}
330
17
100
AcDbMlineStyle
  2
Standard
 70
     0
  3

 62
   256
 51
90.0
 52
90.0
 71
     2
 49
0.5
 62
   256
  6
BYLAYER
 49
-0.5
 62
   256
  6
BYLAYER
  0
ACAD_PROXY_OBJECT
  5
48
102
{ACAD_REACTORS
330
47
102
}
330
47
100
AcDbProxyObject
 90
      499
 91
      503
 93
       41
310
903313A31580
  0
ACAD_PROXY_OBJECT
  5
49
102
{ACAD_REACTORS
330
47
102
}
330
47
100
AcDbProxyObject
 90
      499
 91
      503
 93
      257
310
90E312F31323822203D2031272D3022000000000000200FC000000000000284000
  0
ACAD_PROXY_OBJECT
  5
4A
102
{ACAD_REACTORS
330
47
102
}
330
47
100
AcDbProxyObject
 90
      499
 91
      503
 93
      249
310
90D312F363422203D2031272D3022000000000000240FC000000000000284000
  0
ACAD_PROXY_OBJECT
  5
4B
102
{ACAD_REACTORS
330
47
102
}
330
47
100
AcDbProxyObject
 90
      499
 91
      503
 93
      249
310
90D312F333222203D2031272D3022000000000000280FC000000000000284000
  0
ACAD_PROXY_OBJECT
  5
4C
102
{ACAD_REACTORS
330
47
102
}
330
47
100
AcDbProxyObject
 90
      499
 91
      503
 93
      249
310
90D312F313622203D2031272D30220000000000002C0FC000000000000284000
  0
ACAD_PROXY_OBJECT
  5
4D
102
{ACAD_REACTORS
330
47
102
}
330
47
100
AcDbProxyObject
 90
      499
 91
      503
 93
      249
310
90D332F333222203D2031272D30220000000000002E0FC000000000000284000
  0
ACAD_PROXY_OBJECT
  5
4E
102
{ACAD_REACTORS
330
47
102
}
330
47
100
AcDbProxyObject
 90
      499
 91
      503
 93
      241
310
90C312F3822203D2031272D3022000000000000300FC000000000000284000
  0
ACAD_PROXY_OBJECT
  5
4F
102
{ACAD_REACTORS
330
47
102
}
330
47
100
AcDbProxyObject
 90
      499
 91
      503
 93
      249
310
90D332F313622203D2031272D3022000000000000320FC000000000000284000
  0
ACAD_PROXY_OBJECT
  5
50
102
{ACAD_REACTORS
330
47
102
}
330
47
100
AcDbProxyObject
 90
      499
 91
      503
 93
      241
310
90C312F3422203D2031272D3022000000000000340FC000000000000284000
  0
ACAD_PROXY_OBJECT
  5
51
102
{ACAD_REACTORS
330
47
102
}
330
47
100
AcDbProxyObject
 90
      499
 91
      503
 93
      241
310
90C332F3822203D2031272D3022000000000000360FC000000000000284000
  0
ACAD_PROXY_OBJECT
  5
52
102
{ACAD_REACTORS
330
47
102
}
330
47
100
AcDbProxyObject
 90
      499
 91
      503
 93
      241
310
90C312F3222203D2031272D3022000000000000380FC000000000000284000
  0
ACAD_PROXY_OBJECT
  5
53
102
{ACAD_REACTORS
330
47
102
}
330
47
100
AcDbProxyObject
 90
      499
 91
      503
 93
      241
310
90C332F3422203D2031272D30220000000000003A0FC000000000000284000
  0
ACAD_PROXY_OBJECT
  5
54
102
{ACAD_REACTORS
330
47
102
}
330
47
100
AcDbProxyObject
 90
      499
 91
      503
 93
      161
310
90A3122203D2031272D30224000000000000284000
  0
ACAD_PROXY_OBJECT
  5
55
102
{ACAD_REACTORS
330
47
102
}
330
47
100
AcDbProxyObject
 90
      499
 91
      503
 93
      257
310
90E312D312F3222203D2031272D30220000000000003E0FC000000000000284000
  0
ACAD_PROXY_OBJECT
  5
56
102
{ACAD_REACTORS
330
47
102
}
330
47
100
AcDbProxyObject
 90
      499
 91
      503
 93
      225
310
90A3322203D2031272D302200000000000002100000000000000284000
  0
ACAD_PROXY_OBJECT
  5
57
102
{ACAD_REACTORS
330
47
102
}
330
47
100
AcDbProxyObject
 90
      499
 91
      503
 93
      225
310
90A3622203D2031272D302200000000000006100000000000000284000
  0
ACAD_PROXY_OBJECT
  5
58
102
{ACAD_REACTORS
330
47
102
}
330
47
100
AcDbProxyObject
 90
      499
 91
      503
 93
      249
310
90D31272D3022203D2031272D30220000000000000A100000000000000284000
  0
ACAD_PROXY_OBJECT
  5
2F
102
{ACAD_REACTORS
330
2A
102
}
330
2A
100
AcDbProxyObject
 90
      499
 91
      501
 93
      436
310
42CC9915DA5C99599C985B595049028333333333333E33F0000000000000F90107901411070040501600405405064090741402480A0340
1001
ACAD
1000
AcDbSavedByObjectVersion
1070
     0
  0
ACAD_PROXY_OBJECT
  5
32
102
{ACAD_REACTORS
330
2A
102
}
330
2A
100
AcDbProxyObject
 90
      499
 91
      501
 93
      388
310
4150985CDA58D07406404333333333333E33F0000000000000F90107A41107004050150841D405064090741402480A0350
1001
ACAD
1000
AcDbSavedByObjectVersion
1070
     0
  0
ACAD_PROXY_OBJECT
  5
36
102
{ACAD_REACTORS
330
2A
102
}
330
2A
100
AcDbProxyObject
 90
      499
 91
      501
 93
      428
310
42109C9A59DA1D195B90C409028333333333333E33F0000000000000F9010790141107004050150841D405064090741402480A029950
1001
ACAD
1000
AcDbSavedByObjectVersion
1070
     0
  0
ACAD_PROXY_OBJECT
  5
3A
102
{ACAD_REACTORS
330
2A
102
}
330
2A
100
AcDbProxyObject
 90
      499
 91
      501
 93
      452
310
42D0DBDB1BDC90DA185B99D95104090240C333333333333E33F0000000000000F90108901411070040501508421405064090741402480A0350
1001
ACAD
1000
AcDbSavedByObjectVersion
1070
     0
  0
ACAD_PROXY_OBJECT
  5
34
102
{ACAD_REACTORS
330
2A
102
}
330
2A
100
AcDbProxyObject
 90
      499
 91
      501
 93
      500
310
4290DBDB98D95C1D1D585B10940D028333333333333E33F0000000000000F90107902409070040501000000000018199010841D405064090740C02480A0340
1001
ACAD
1000
AcDbSavedByObjectVersion
1070
     0
  0
ACAD_PROXY_OBJECT
  5
35
102
{ACAD_REACTORS
330
2A
102
}
330
2A
100
AcDbProxyObject
 90
      499
 91
      501
 93
      412
310
40D11A5B50B409028333333333333E33F0000000000000F9010790141107004050150841D405064090741402480A02677FFFFFD0
1001
ACAD
1000
AcDbSavedByObjectVersion
1070
     0
  0
ACAD_PROXY_OBJECT
  5
3D
102
{ACAD_REACTORS
330
2A
102
}
330
2A
100
AcDbProxyObject
 90
      499
 91
      501
 93
      452
310
43115919D950DBDB1BDC93D999916409028333333333333E33F0000000000000F9010790141107004050150841D405064090741402480A0350
1001
ACAD
1000
AcDbSavedByObjectVersion
1070
     0
  0
ACAD_PROXY_OBJECT
  5
39
102
{ACAD_REACTORS
330
2A
102
}
330
2A
100
AcDbProxyObject
 90
      499
 91
      501
 93
      444
310
42D19858D95C185D1D195C9B90F409028333333333333E33F0000000000000F9010790141107004050150841D405064090741402480A0350
1001
ACAD
1000
AcDbSavedByObjectVersion
1070
     0
  0
ACAD_PROXY_OBJECT
  5
2B
102
{ACAD_REACTORS
330
2A
102
}
330
2A
100
AcDbProxyObject
 90
      499
 91
      501
 93
      380
310
41119B185D240901404333333333333E33F0000000000000F9010740A907004050150841D405064090741402480A1B50
1001
ACAD
1000
AcDbSavedByObjectVersion
1070
     0
  0
ACAD_PROXY_OBJECT
  5
2C
102
{ACAD_REACTORS
330
2A
102
}
330
2A
100
AcDbProxyObject
 90
      499
 91
      501
 93
      468
310
43519B185D15DA5D1A115919D95CD0140901404333333333333E33F0000000000000F90107409019070040501600405405064090741402480A1B50
1001
ACAD
1000
AcDbSavedByObjectVersion
1070
     0
  0
ACAD_PROXY_OBJECT
  5
2D
102
{ACAD_REACTORS
330
2A
102
}
330
2A
100
AcDbProxyObject
 90
      499
 91
      501
 93
      404
310
41D1DBDD5C985D5910240902404333333333333E33F0000000000000F9010740A9070040501641D405064090741402480A1B50
1001
ACAD
1000
AcDbSavedByObjectVersion
1070
     0
  0
ACAD_PROXY_OBJECT
  5
2E
102
{ACAD_REACTORS
330
2A
102
}
330
2A
100
AcDbProxyObject
 90
      499
 91
      501
 93
      492
310
4411DBDD5C985D5915DA5D1A115919D95CD0340902404333333333333E33F0000000000000F90107409019070040501600405405064090741402480A1B50
1001
ACAD
1000
AcDbSavedByObjectVersion
1070
     0
  0
ACAD_PROXY_OBJECT
  5
31
102
{ACAD_REACTORS
330
2A
102
}
330
2A
100
AcDbProxyObject
 90
      499
 91
      501
 93
      476
310
41921A5919195B90640502408333333333333E33F0000000000000F901079024090700405020000000000001110200405405064090740C02480A0340
1001
ACAD
1000
AcDbSavedByObjectVersion
1070
     0
  0
ACAD_PROXY_OBJECT
  5
3B
102
{ACAD_REACTORS
330
2A
102
}
330
2A
100
AcDbProxyObject
 90
      499
 91
      501
 93
      428
310
42529A5D1D195C93D999914409028333333333333E33F0000000000000F9010790141107004050150A41D405064090741402480A0350
1001
ACAD
1000
AcDbSavedByObjectVersion
1070
     0
  0
ACAD_PROXY_OBJECT
  5
38
102
{ACAD_REACTORS
330
2A
102
}
330
2A
100
AcDbProxyObject
 90
      499
 91
      501
 93
      444
310
42D31A5B995C185D1D195C9B90E409028333333333333E33F0000000000000F9010790141107004050750841D405064090741402483A0350
1001
ACAD
1000
AcDbSavedByObjectVersion
1070
     0
  0
ACAD_PROXY_OBJECT
  5
3C
102
{ACAD_REACTORS
330
2A
102
}
330
2A
100
AcDbProxyObject
 90
      499
 91
      501
 93
      444
310
42D3DD995C9A185B99D3D999915409028333333333333E33F0000000000000F9010790141107004050150941D405064090741402480A0350
1001
ACAD
1000
AcDbSavedByObjectVersion
1070
     0
  0
ACAD_PROXY_OBJECT
  5
33
102
{ACAD_REACTORS
330
2A
102
}
330
2A
100
AcDbProxyObject
 90
      499
 91
      501
 93
      428
310
425499585B1A5CDD1A58D08409038333333333333E33F0000000000000F9010740A907004050150800405405064090740C02480A1B40
1001
ACAD
1000
AcDbSavedByObjectVersion
1070
     0
  0
ACAD_PROXY_OBJECT
  5
42
102
{ACAD_REACTORS
330
2A
102
}
330
2A
100
AcDbProxyObject
 90
      499
 91
      501
 93
      420
310
4194DA1859195911B40902404333333333333E33F0000000000000F9010740A41107004050150800405405064090840C02480A0B40
1001
ACAD
1000
AcDbSavedByObjectVersion
1070
     0
  0
ACAD_PROXY_OBJECT
  5
41
102
{ACAD_REACTORS
330
2A
102
}
330
2A
100
AcDbProxyObject
 90
      499
 91
      501
 93
      516
310
4454DA18591959081DDA5D1A08195919D95CD1A40902404333333333333E33F0000000000000F901074090142907004050250800405405064090740C02480A0B40
1001
ACAD
1000
AcDbSavedByObjectVersion
1070
     0
  0
ACAD_PROXY_OBJECT
  5
3E
102
{ACAD_REACTORS
330
2A
102
}
330
2A
100
AcDbProxyObject
 90
      499
 91
      501
 93
      532
310
4394DA1859195CC81BD98811DC985E5174090240C333333333333E33F0000000000000F901079024090741D01000000000000111010841D405064090740C02480A0340
1001
ACAD
1000
AcDbSavedByObjectVersion
1070
     0
  0
ACAD_PROXY_OBJECT
  5
3F
102
{ACAD_REACTORS
330
2A
102
}
330
2A
100
AcDbProxyObject
 90
      499
 91
      501
 93
      476
310
41D4DAD95D18DA1E51840502408333333333333E33F0000000000000F901079024090741D01000000000000111010B41D405064090741802480A0340
1001
ACAD
1000
AcDbSavedByObjectVersion
1070
     0
  0
ACAD_PROXY_OBJECT
  5
37
102
{ACAD_REACTORS
330
2A
102
}
330
2A
100
AcDbProxyObject
 90
      499
 91
      501
 93
      412
310
41D51A1A58DAD95B90D409028333333333333E33F0000000000000F9010790141107004050150C41D405064090741402480A0350
1001
ACAD
1000
AcDbSavedByObjectVersion
1070
     0
  0
ACAD_PROXY_OBJECT
  5
30
102
{ACAD_REACTORS
330
2A
102
}
330
2A
100
AcDbProxyObject
 90
      499
 91
      501
 93
      420
310
4255DA5C99599C985B595059028333333333333E33F0000000000000F90107901411070040501600405405064090740C02480A0340
1001
ACAD
1000
AcDbSavedByObjectVersion
1070
     0
  0
ACAD_PROXY_OBJECT
  5
40
102
{ACAD_REACTORS
330
2A
102
}
330
2A
100
AcDbProxyObject
 90
      499
 91
      501
 93
      404
310
41560B54985E51940902404000000000000E03F0000000000000F9010740501907004050150841D405064090740C02480A1B40
1001
ACAD
1000
AcDbSavedByObjectVersion
1070
     0
  0
XRECORD
  5
4AE
102
{ACAD_REACTORS
330
4A4
102
}
330
4A4
100
AcDbXrecord
340
0
  0
XRECORD
  5
4AD
102
{ACAD_REACTORS
330
4A4
102
}
330
4A4
100
AcDbXrecord
 90
        0
  0
XRECORD
  5
4C4
102
{ACAD_REACTORS
330
4A4
102
}
330
4A4
100
AcDbXrecord
1000
DSTYLE
1002
{
1070
   171
 70
     2
1070
   143
 40
25.4
1070
   274
 70
     2
1070
    41
 40
0.18
1070
   141
 40
0.09
1070
   271
 70
     4
1070
    43
 40
0.38
1070
   278
 70
    46
1070
    44
 40
0.18
1070
    42
 40
0.0625
1070
   147
 40
0.09
1070
    77
 70
     0
1070
   272
 70
     4
1070
    73
 70
     1
1070
   279
 70
     2
1070
   172
 70
     0
1070
    74
 70
     1
1070
   283
 70
     1
1070
   340
340
11
1070
   140
 40
0.18
1070
   284
 70
     0
1070
    78
 70
     0
1002
}
  0
XRECORD
  5
4AF
102
{ACAD_REACTORS
330
4A4
102
}
330
4A4
100
AcDbXrecord
  1
{dc6dd219-d866-49b8-8f69-58b411bdd5df}
  0
XRECORD
  5
4A7
102
{ACAD_REACTORS
330
4A4
102
}
330
4A4
100
AcDbXrecord
  1

  0
XRECORD
  5
4AC
102
{ACAD_REACTORS
330
4A4
102
}
330
4A4
100
AcDbXrecord
 90
        4
  0
XRECORD
  5
4A9
102
{ACAD_REACTORS
330
4A4
102
}
330
4A4
100
AcDbXrecord
340
1A
  0
XRECORD
  5
4AB
102
{ACAD_REACTORS
330
4A4
102
}
330
4A4
100
AcDbXrecord
 90
    10781
  0
XRECORD
  5
4AA
102
{ACAD_REACTORS
330
4A4
102
}
330
4A4
100
AcDbXrecord
340
19
  0
XRECORD
  5
4B1
102
{ACAD_REACTORS
330
4A4
102
}
330
4A4
100
AcDbXrecord
 40
0.0
  0
XRECORD
  5
4B4
102
{ACAD_REACTORS
330
4A4
102
}
330
4A4
100
AcDbXrecord
340
0
  0
XRECORD
  5
4BA
102
{ACAD_REACTORS
330
4A4
102
}
330
4A4
100
AcDbXrecord
 10
0.0
 20
0.0
 30
0.0
  0
XRECORD
  5
4B6
102
{ACAD_REACTORS
330
4A4
102
}
330
4A4
100
AcDbXrecord
 10
0.0
 20
0.0
 30
0.0
  0
XRECORD
  5
4B9
102
{ACAD_REACTORS
330
4A4
102
}
330
4A4
100
AcDbXrecord
 10
0.0
 20
0.0
 30
0.0
  0
XRECORD
  5
4B7
102
{ACAD_REACTORS
330
4A4
102
}
330
4A4
100
AcDbXrecord
 10
0.0
 20
0.0
 30
0.0
  0
XRECORD
  5
4B8
102
{ACAD_REACTORS
330
4A4
102
}
330
4A4
100
AcDbXrecord
 10
0.0
 20
0.0
 30
0.0
  0
XRECORD
  5
4B5
102
{ACAD_REACTORS
330
4A4
102
}
330
4A4
100
AcDbXrecord
 10
0.0
 20
0.0
 30
0.0
  0
XRECORD
  5
4B2
102
{ACAD_REACTORS
330
4A4
102
}
330
4A4
100
AcDbXrecord
340
0
  0
XRECORD
  5
4B3
102
{ACAD_REACTORS
330
4A4
102
}
330
4A4
100
AcDbXrecord
 70
     0
  0
XRECORD
  5
4A8
102
{ACAD_REACTORS
330
4A4
102
}
330
4A4
100
AcDbXrecord
  1

  0
XRECORD
  5
4A5
102
{ACAD_REACTORS
330
4A4
102
}
330
4A4
100
AcDbXrecord
 90
        1
  0
XRECORD
  5
4A6
102
{ACAD_REACTORS
330
4A4
102
}
330
4A4
100
AcDbXrecord
 90
       70
  0
XRECORD
  5
4BD
102
{ACAD_REACTORS
330
4A4
102
}
330
4A4
100
AcDbXrecord
340
0
  0
XRECORD
  5
4C3
102
{ACAD_REACTORS
330
4A4
102
}
330
4A4
100
AcDbXrecord
 10
0.0
 20
0.0
 30
0.0
  0
XRECORD
  5
4BF
102
{ACAD_REACTORS
330
4A4
102
}
330
4A4
100
AcDbXrecord
 10
0.0
 20
0.0
 30
0.0
  0
XRECORD
  5
4C2
102
{ACAD_REACTORS
330
4A4
102
}
330
4A4
100
AcDbXrecord
 10
0.0
 20
0.0
 30
0.0
  0
XRECORD
  5
4C0
102
{ACAD_REACTORS
330
4A4
102
}
330
4A4
100
AcDbXrecord
 10
0.0
 20
0.0
 30
0.0
  0
XRECORD
  5
4C1
102
{ACAD_REACTORS
330
4A4
102
}
330
4A4
100
AcDbXrecord
 10
0.0
 20
0.0
 30
0.0
  0
XRECORD
  5
4BE
102
{ACAD_REACTORS
330
4A4
102
}
330
4A4
100
AcDbXrecord
 10
0.0
 20
0.0
 30
0.0
  0
XRECORD
  5
4BB
102
{ACAD_REACTORS
330
4A4
102
}
330
4A4
100
AcDbXrecord
340
0
  0
XRECORD
  5
4BC
102
{ACAD_REACTORS
330
4A4
102
}
330
4A4
100
AcDbXrecord
 70
     0
  0
XRECORD
  5
4B0
102
{ACAD_REACTORS
330
4A4
102
}
330
4A4
100
AcDbXrecord
  1
{FAEB1C32-E019-11D5-929B-00C0DF256EC4}
  0
DICTIONARYVAR
  5
4CF
102
{ACAD_REACTORS
330
4C5
102
}
330
4C5
100
DictionaryVariables
280
     0
  1
1:1
  0
DICTIONARYVAR
  5
4C7
102
{ACAD_REACTORS
330
4C5
102
}
330
4C5
100
DictionaryVariables
280
     0
  1
Standard
  0
DICTIONARYVAR
  5
4C6
102
{ACAD_REACTORS
330
4C5
102
}
330
4C5
100
DictionaryVariables
280
     0
  1
Standard
  0
DICTIONARYVAR
  5
4CA
102
{ACAD_REACTORS
330
4C5
102
}
330
4C5
100
DictionaryVariables
280
     0
  1
2
  0
DICTIONARYVAR
  5
4CB
102
{ACAD_REACTORS
330
4C5
102
}
330
4C5
100
DictionaryVariables
280
     0
  1
1
  0
DICTIONARYVAR
  5
4D0
102
{ACAD_REACTORS
330
4C5
102
}
330
4C5
100
DictionaryVariables
280
     0
  1
1
  0
DICTIONARY
  5
4D3
330
45
100
AcDbDictionary
280
     1
  3
ACAD_XREC_ROUNDTRIP
360
4D4
  0
DICTIONARY
  5
4D1
330
44
100
AcDbDictionary
280
     1
  3
ACAD_XREC_ROUNDTRIP
360
4D2
  0
DICTIONARY
  5
4D5
330
46
100
AcDbDictionary
280
     1
  3
ACAD_XREC_ROUNDTRIP
360
4D6
  0
XRECORD
  5
4D4
102
{ACAD_REACTORS
330
4D3
102
}
330
4D3
100
AcDbXrecord
102
MATERIAL
148
0.0
149
0.0
149
0.0
 93
        0
 94
      127
282
     0
 72
     1
 77
     1
171
     1
175
     1
179
     1
273
     0
  0
XRECORD
  5
4D2
102
{ACAD_REACTORS
330
4D1
102
}
330
4D1
100
AcDbXrecord
102
MATERIAL
148
0.0
149
0.0
149
0.0
 93
        0
 94
      127
282
     0
 72
     1
 77
     1
171
     1
175
     1
179
     1
273
     0
  0
XRECORD
  5
4D6
102
{ACAD_REACTORS
330
4D5
102
}
330
4D5
100
AcDbXrecord
102
MATERIAL
148
0.0
149
0.0
149
0.0
 93
        0
 94
      127
282
     0
 72
     1
 77
     1
171
     1
175
     1
179
     1
273
     0
  0
ENDSEC
  0
EOF
