999
FreeCAD v0.21 33668 +7 (Git)
  0
SECTION
  2
HEADER
  9
$ACADVER
  1
AC1014
  9
$ACADMAINTVER
 70
     9
  9
$DWGCODEPAGE
  3
ANSI_1252
  9
$TEXTSTYLE
  7
STANDARD
  9
$DIMSTYLE
  2
STANDARD
  9
$DIMTXSTY
  7
STANDARD
  9
$CMLSTYLE
  2
STANDARD
  9
$LUNITS
 70
2
  9
$INSUNITS
 70
4
  9
$PEXTMAX
 10
50
 20
50
 30
50
  9
$PEXTMIN
 10
0
 20
0
 30
0
  9
$HANDSEED
  5
FFFF
  0
ENDSEC
  0
SECTION
  2
CLASSES
  0
CLASS
  1
ACDBDICTIONARYWDFLT
  2
AcDbDictionaryWithDefault
  3
ObjectDBX Classes
 90
        0
280
     0
281
     0
  0
CLASS
  1
XRECORD
  2
AcDbXrecord
  3
ObjectDBX Classes
 90
        0
280
     0
281
     0
  0
CLASS
  1
LWPOLYLINE
  2
AcDbPolyline
  3
ObjectDBX Classes
 90
        0
280
     0
281
     1
  0
ENDSEC
  0
SECTION
  2
TABLES
  0
TABLE
  2
VPORT
  5
20
330
0
100
AcDbSymbolTable
 70
     1
  0
VPORT
  5
21
330
20
100
AcDbSymbolTableRecord
100
AcDbViewportTableRecord
  2
*ACTIVE
 70
     0
  0
ENDTAB
  0
TABLE
  2
LTYPE
  5
22
330
0
100
AcDbSymbolTable
 70
     1
  0
LTYPE
  5
23
330
21
100
AcDbSymbolTableRecord
100
AcDbLinetypeTableRecord
  2
BYBLOCK
 70
     0
  3

 72
    65
 73
     0
 40
0.0
  0
LTYPE
  5
24
330
21
100
AcDbSymbolTableRecord
100
AcDbLinetypeTableRecord
  2
BYLAYER
 70
     0
  3

 72
    65
 73
     0
 40
0.0
  0
LTYPE
  5
25
330
21
100
AcDbSymbolTableRecord
100
AcDbLinetypeTableRecord
  2
CONTINUOUS
 70
     0
  3
Solid line
 72
    65
 73
     0
 40
0.0
  0
ENDTAB
  0
TABLE
  2
LAYER
  5
B2E
330
0
100
AcDbSymbolTable
 70
13
  0
LAYER
  5
B2F
330
B2E
100
AcDbSymbolTableRecord
100
AcDbLayerTableRecord
  2
0
 70
   0
 62
   7
  6
CONTINUOUS
  0
LAYER
  5
B30
330
B2E
100
AcDbSymbolTableRecord
100
AcDbLayerTableRecord
  2
View
 70
    0
 62
    7
  6
CONTINUOUS
  0
LAYER
  5
B31
330
B2E
100
AcDbSymbolTableRecord
100
AcDbLayerTableRecord
  2
View001
 70
    0
 62
    7
  6
CONTINUOUS
  0
LAYER
  5
B32
330
B2E
100
AcDbSymbolTableRecord
100
AcDbLayerTableRecord
  2
View002
 70
    0
 62
    7
  6
CONTINUOUS
  0
LAYER
  5
B33
330
B2E
100
AcDbSymbolTableRecord
100
AcDbLayerTableRecord
  2
View003
 70
    0
 62
    7
  6
CONTINUOUS
  0
LAYER
  5
B34
330
B2E
100
AcDbSymbolTableRecord
100
AcDbLayerTableRecord
  2
View004
 70
    0
 62
    7
  6
CONTINUOUS
  0
LAYER
  5
B35
330
B2E
100
AcDbSymbolTableRecord
100
AcDbLayerTableRecord
  2
View005
 70
    0
 62
    7
  6
CONTINUOUS
  0
LAYER
  5
B36
330
B2E
100
AcDbSymbolTableRecord
100
AcDbLayerTableRecord
  2
View006
 70
    0
 62
    7
  6
CONTINUOUS
  0
LAYER
  5
B37
330
B2E
100
AcDbSymbolTableRecord
100
AcDbLayerTableRecord
  2
View007
 70
    0
 62
    7
  6
CONTINUOUS
  0
LAYER
  5
B38
330
B2E
100
AcDbSymbolTableRecord
100
AcDbLayerTableRecord
  2
View008
 70
    0
 62
    7
  6
CONTINUOUS
  0
LAYER
  5
B39
330
B2E
100
AcDbSymbolTableRecord
100
AcDbLayerTableRecord
  2
View009
 70
    0
 62
    7
  6
CONTINUOUS
  0
LAYER
  5
B3A
330
B2E
100
AcDbSymbolTableRecord
100
AcDbLayerTableRecord
  2
View010
 70
    0
 62
    7
  6
CONTINUOUS
  0
LAYER
  5
B3B
330
B2E
100
AcDbSymbolTableRecord
100
AcDbLayerTableRecord
  2
View011
 70
    0
 62
    7
  6
CONTINUOUS
  0
ENDTAB
  0
TABLE
  2
STYLE
  5
70
330
0
100
AcDbSymbolTable
 70
     2
  0
STYLE
  5
71
330
70
100
AcDbSymbolTableRecord
100
AcDbTextStyleTableRecord
  2
STANDARD
 70
     0
 40
0.0
 41
1.0
 50
0.0
 71
     0
 42
2.5
  3
arial.ttf
  4

  0
STYLE
  5
72
330
70
100
AcDbSymbolTableRecord
100
AcDbTextStyleTableRecord
  2
ANNOTATIVE
 70
     0
 40
0.0
 41
1.0
 50
0.0
 71
     0
 42
2.5
  3
arial.ttf
  4

  0
ENDTAB
  0
TABLE
  2
VIEW
  5
73
330
0
100
AcDbSymbolTable
 70
     0
  0
ENDTAB
  0
TABLE
  2
UCS
  5
74
330
0
100
AcDbSymbolTable
 70
     0
  0
ENDTAB
  0
TABLE
  2
APPID
  5
75
330
0
100
AcDbSymbolTable
 70
     2
  0
APPID
  5
76
330
75
100
AcDbSymbolTableRecord
100
AcDbRegAppTableRecord
  2
ACAD
 70
     0
  0
APPID
  5
77
330
75
100
AcDbSymbolTableRecord
100
AcDbRegAppTableRecord
  2
ACADANNOTATIVE
 70
     0
  0
ENDTAB
  0
TABLE
  2
DIMSTYLE
  5
78
330
0
100
AcDbSymbolTable
 70
     2
  0
DIMSTYLE
105
79
330
78
100
AcDbSymbolTableRecord
100
AcDbDimStyleTableRecord
  2
STANDARD
 70
     0
  3

  4

  5

  6

  7

 40
0.0
 41
2.5
 42
0.625
 43
3.75
 44
1.25
 45
0.0
 46
0.0
 47
0.0
 48
0.0
140
2.5
141
2.5
142
0.0
143
0.03937007874016
144
1.0
145
0.0
146
1.0
147
0.625
 71
     0
 72
     0
 73
     0
 74
     0
 75
     0
 76
     0
 77
     1
 78
     8
170
     0
171
     3
172
     1
173
     0
174
     0
175
     0
176
     0
177
     0
178
     0
270
     2
271
     2
272
     2
273
     2
274
     3
340
71
275
     0
280
     0
281
     0
282
     0
283
     0
284
     8
285
     0
286
     0
287
     3
288
     0
  0
ENDTAB
  0
TABLE
  2
BLOCK_RECORD
  5
A01
330
0
100
AcDbSymbolTable
  70
5
  0
BLOCK_RECORD
  5
A02
330
A01
100
AcDbSymbolTableRecord
100
AcDbBlockTableRecord
  2
*MODEL_SPACE
  0
BLOCK_RECORD
  5
A03
330
A01
100
AcDbSymbolTableRecord
100
AcDbBlockTableRecord
  2
*PAPER_SPACE
  0
ENDTAB
  0
ENDSEC
  0
SECTION
  2
BLOCKS
  0
BLOCK
  5
A04
330
A02
100
AcDbEntity
  8
0
100
AcDbBlockBegin
  2
*MODEL_SPACE
 70
   0
 10
0
 20
0
 30
0
  3
*MODEL_SPACE
  1
 
  0
ENDBLK
  5
A05
330
A02
100
AcDbEntity
  8
0
100
AcDbBlockEnd
  0
BLOCK
  5
A06
330
A03
100
AcDbEntity
 67
1
  8
0
100
AcDbBlockBegin
  2
*PAPER_SPACE
 70
   0
 10
0
 20
0
 30
0
  3
*PAPER_SPACE
  1
 
  0
ENDBLK
  5
A07
330
A03
100
AcDbEntity
 67
    1
  8
0
100
AcDbBlockEnd
  0
ENDSEC
  0
SECTION
  2
ENTITIES
  0
LINE
  5
A08
330
A02
100
AcDbEntity
  8
View
100
AcDbLine
 10
531.472
 20
447.843
 30
0
 11
511.472
 21
427.843
 31
0
  0
LINE
  5
A09
330
A02
100
AcDbEntity
  8
View
100
AcDbLine
 10
511.472
 20
427.843
 30
0
 11
511.472
 21
395.843
 31
0
  0
LINE
  5
A0A
330
A02
100
AcDbEntity
  8
View
100
AcDbLine
 10
511.472
 20
395.843
 30
0
 11
514.472
 21
392.843
 31
0
  0
LINE
  5
A0B
330
A02
100
AcDbEntity
  8
View
100
AcDbLine
 10
514.472
 20
392.843
 30
0
 11
538.472
 21
392.843
 31
0
  0
LINE
  5
A0C
330
A02
100
AcDbEntity
  8
View
100
AcDbLine
 10
538.472
 20
389.843
 30
0
 11
538.472
 21
392.843
 31
0
  0
LINE
  5
A0D
330
A02
100
AcDbEntity
  8
View
100
AcDbLine
 10
574.472
 20
389.843
 30
0
 11
538.472
 21
389.843
 31
0
  0
LINE
  5
A0E
330
A02
100
AcDbEntity
  8
View
100
AcDbLine
 10
574.472
 20
392.843
 30
0
 11
574.472
 21
389.843
 31
0
  0
LINE
  5
A0F
330
A02
100
AcDbEntity
  8
View
100
AcDbLine
 10
574.472
 20
392.843
 30
0
 11
607.472
 21
392.843
 31
0
  0
LINE
  5
A10
330
A02
100
AcDbEntity
  8
View
100
AcDbLine
 10
607.472
 20
392.843
 30
0
 11
647.565
 21
432.936
 31
0
  0
ARC
  5
A11
330
A02
100
AcDbEntity
  8
View
100
AcDbCircle
 10
643.322
 20
437.178
 30
0
 40
6
100
AcDbArc
 50
-45
 51
0
  0
LINE
  5
A12
330
A02
100
AcDbEntity
  8
View
100
AcDbLine
 10
649.322
 20
437.178
 30
0
 11
649.322
 21
450.843
 31
0
  0
LINE
  5
A13
330
A02
100
AcDbEntity
  8
View
100
AcDbLine
 10
643.322
 20
450.843
 30
0
 11
649.322
 21
450.843
 31
0
  0
LINE
  5
A14
330
A02
100
AcDbEntity
  8
View
100
AcDbLine
 10
643.322
 20
453.843
 30
0
 11
643.322
 21
450.843
 31
0
  0
LINE
  5
A15
330
A02
100
AcDbEntity
  8
View
100
AcDbLine
 10
637.322
 20
453.843
 30
0
 11
643.322
 21
453.843
 31
0
  0
LINE
  5
A16
330
A02
100
AcDbEntity
  8
View
100
AcDbLine
 10
637.322
 20
450.843
 30
0
 11
637.322
 21
453.843
 31
0
  0
LINE
  5
A17
330
A02
100
AcDbEntity
  8
View
100
AcDbLine
 10
631.322
 20
450.843
 30
0
 11
637.322
 21
450.843
 31
0
  0
LINE
  5
A18
330
A02
100
AcDbEntity
  8
View
100
AcDbLine
 10
631.322
 20
450.843
 30
0
 11
631.322
 21
453.843
 31
0
  0
LINE
  5
A19
330
A02
100
AcDbEntity
  8
View
100
AcDbLine
 10
631.322
 20
453.843
 30
0
 11
625.322
 21
453.843
 31
0
  0
LINE
  5
A1A
330
A02
100
AcDbEntity
  8
View
100
AcDbLine
 10
619.322
 20
447.843
 30
0
 11
625.322
 21
453.843
 31
0
  0
LINE
  5
A1B
330
A02
100
AcDbEntity
  8
View
100
AcDbLine
 10
547.322
 20
447.843
 30
0
 11
619.322
 21
447.843
 31
0
  0
ARC
  5
A1C
330
A02
100
AcDbEntity
  8
View
100
AcDbCircle
 10
709.572
 20
417.843
 30
0
 40
165
100
AcDbArc
 50
169.524
 51
180
  0
LINE
  5
A1D
330
A02
100
AcDbEntity
  8
View
100
AcDbLine
 10
544.572
 20
453.843
 30
0
 11
544.572
 21
417.843
 31
0
  0
LINE
  5
A1E
330
A02
100
AcDbEntity
  8
View
100
AcDbLine
 10
540.572
 20
453.843
 30
0
 11
544.572
 21
453.843
 31
0
  0
LINE
  5
A1F
330
A02
100
AcDbEntity
  8
View
100
AcDbLine
 10
538.572
 20
451.843
 30
0
 11
540.572
 21
453.843
 31
0
  0
LINE
  5
A20
330
A02
100
AcDbEntity
  8
View
100
AcDbLine
 10
538.572
 20
451.343
 30
0
 11
538.572
 21
451.843
 31
0
  0
LINE
  5
A21
330
A02
100
AcDbEntity
  8
View
100
AcDbLine
 10
541.572
 20
450.843
 30
0
 11
538.572
 21
451.343
 31
0
  0
LINE
  5
A22
330
A02
100
AcDbEntity
  8
View
100
AcDbLine
 10
541.572
 20
450.843
 30
0
 11
541.572
 21
413.843
 31
0
  0
ARC
  5
A23
330
A02
100
AcDbEntity
  8
View
100
AcDbCircle
 10
541.522
 20
413.843
 30
0
 40
0.05
100
AcDbArc
 50
-180
 51
-1.95413e-10
  0
LINE
  5
A24
330
A02
100
AcDbEntity
  8
View
100
AcDbLine
 10
541.472
 20
447.843
 30
0
 11
541.472
 21
413.843
 31
0
  0
LINE
  5
A25
330
A02
100
AcDbEntity
  8
View
100
AcDbLine
 10
531.472
 20
447.843
 30
0
 11
541.472
 21
447.843
 31
0
  0
CIRCLE
  5
A26
330
A02
100
AcDbEntity
  8
View
100
AcDbCircle
 10
601.972
 20
404.343
 40
8.5
  0
LINE
  5
A27
330
A02
100
AcDbEntity
  8
View
100
AcDbLine
 10
584.472
 20
427.843
 30
0
 11
602.972
 21
427.843
 31
0
  0
LINE
  5
A28
330
A02
100
AcDbEntity
  8
View
100
AcDbLine
 10
602.972
 20
427.843
 30
0
 11
602.972
 21
424.843
 31
0
  0
LINE
  5
A29
330
A02
100
AcDbEntity
  8
View
100
AcDbLine
 10
602.972
 20
424.843
 30
0
 11
584.472
 21
424.843
 31
0
  0
LINE
  5
A2A
330
A02
100
AcDbEntity
  8
View
100
AcDbLine
 10
584.472
 20
424.843
 30
0
 11
584.472
 21
427.843
 31
0
  0
LINE
  5
A2B
330
A02
100
AcDbEntity
  8
View
100
AcDbLine
 10
546.972
 20
427.843
 30
0
 11
565.472
 21
427.843
 31
0
  0
LINE
  5
A2C
330
A02
100
AcDbEntity
  8
View
100
AcDbLine
 10
565.472
 20
427.843
 30
0
 11
565.472
 21
424.843
 31
0
  0
LINE
  5
A2D
330
A02
100
AcDbEntity
  8
View
100
AcDbLine
 10
565.472
 20
424.843
 30
0
 11
546.972
 21
424.843
 31
0
  0
LINE
  5
A2E
330
A02
100
AcDbEntity
  8
View
100
AcDbLine
 10
546.972
 20
424.843
 30
0
 11
546.972
 21
427.843
 31
0
  0
LINE
  5
A2F
330
A02
100
AcDbEntity
  8
View
100
AcDbLine
 10
514.472
 20
415.843
 30
0
 11
517.472
 21
415.843
 31
0
  0
LINE
  5
A30
330
A02
100
AcDbEntity
  8
View
100
AcDbLine
 10
517.472
 20
415.843
 30
0
 11
517.472
 21
401.843
 31
0
  0
LINE
  5
A31
330
A02
100
AcDbEntity
  8
View
100
AcDbLine
 10
517.472
 20
401.843
 30
0
 11
514.472
 21
401.843
 31
0
  0
LINE
  5
A32
330
A02
100
AcDbEntity
  8
View
100
AcDbLine
 10
514.472
 20
401.843
 30
0
 11
514.472
 21
415.843
 31
0
  0
LINE
  5
A33
330
A02
100
AcDbEntity
  8
View
100
AcDbLine
 10
522.987
 20
435.115
 30
0
 11
525.108
 21
432.994
 31
0
  0
LINE
  5
A34
330
A02
100
AcDbEntity
  8
View
100
AcDbLine
 10
525.108
 20
432.994
 30
0
 11
532.179
 21
440.065
 31
0
  0
LINE
  5
A35
330
A02
100
AcDbEntity
  8
View
100
AcDbLine
 10
532.179
 20
440.065
 30
0
 11
530.058
 21
442.186
 31
0
  0
LINE
  5
A36
330
A02
100
AcDbEntity
  8
View
100
AcDbLine
 10
530.058
 20
442.186
 30
0
 11
522.987
 21
435.115
 31
0
  0
LINE
  5
A37
330
A02
100
AcDbEntity
  8
View
100
AcDbLine
 10
620.357
 20
426.97
 30
0
 11
624.599
 21
422.728
 31
0
  0
LINE
  5
A38
330
A02
100
AcDbEntity
  8
View
100
AcDbLine
 10
627.428
 20
425.556
 30
0
 11
624.599
 21
422.728
 31
0
  0
LINE
  5
A39
330
A02
100
AcDbEntity
  8
View
100
AcDbLine
 10
623.185
 20
429.799
 30
0
 11
627.428
 21
425.556
 31
0
  0
LINE
  5
A3A
330
A02
100
AcDbEntity
  8
View
100
AcDbLine
 10
620.357
 20
426.97
 30
0
 11
623.185
 21
429.799
 31
0
  0
CIRCLE
  5
A3B
330
A02
100
AcDbEntity
  8
View
100
AcDbCircle
 10
521.972
 20
404.343
 40
2
  0
CIRCLE
  5
A3C
330
A02
100
AcDbEntity
  8
View
100
AcDbCircle
 10
625.822
 20
449.343
 40
1.95
  0
CIRCLE
  5
A3D
330
A02
100
AcDbEntity
  8
View
100
AcDbCircle
 10
610.104
 20
412.475
 40
1.95
  0
CIRCLE
  5
A3E
330
A02
100
AcDbEntity
  8
View
100
AcDbCircle
 10
622.301
 20
412.298
 40
1.3
  0
CIRCLE
  5
A3F
330
A02
100
AcDbEntity
  8
View
100
AcDbCircle
 10
609.927
 20
424.672
 40
1.3
  0
LINE
  5
A40
330
A02
100
AcDbEntity
  8
View001
100
AcDbLine
 10
763.465
 20
471.948
 30
0
 11
681.465
 21
471.948
 31
0
  0
LINE
  5
A41
330
A02
100
AcDbEntity
  8
View001
100
AcDbLine
 10
681.465
 20
471.948
 30
0
 11
681.465
 21
477.448
 31
0
  0
LINE
  5
A42
330
A02
100
AcDbEntity
  8
View001
100
AcDbLine
 10
681.465
 20
477.448
 30
0
 11
672.465
 21
477.448
 31
0
  0
LINE
  5
A43
330
A02
100
AcDbEntity
  8
View001
100
AcDbLine
 10
672.465
 20
477.448
 30
0
 11
672.465
 21
473.948
 31
0
  0
LINE
  5
A44
330
A02
100
AcDbEntity
  8
View001
100
AcDbLine
 10
672.465
 20
473.948
 30
0
 11
669.465
 21
473.948
 31
0
  0
LINE
  5
A45
330
A02
100
AcDbEntity
  8
View001
100
AcDbLine
 10
669.465
 20
473.948
 30
0
 11
669.465
 21
539.948
 31
0
  0
LINE
  5
A46
330
A02
100
AcDbEntity
  8
View001
100
AcDbLine
 10
672.465
 20
539.948
 30
0
 11
669.465
 21
539.948
 31
0
  0
LINE
  5
A47
330
A02
100
AcDbEntity
  8
View001
100
AcDbLine
 10
672.465
 20
536.448
 30
0
 11
672.465
 21
539.948
 31
0
  0
LINE
  5
A48
330
A02
100
AcDbEntity
  8
View001
100
AcDbLine
 10
672.465
 20
536.448
 30
0
 11
681.465
 21
536.448
 31
0
  0
LINE
  5
A49
330
A02
100
AcDbEntity
  8
View001
100
AcDbLine
 10
681.465
 20
536.448
 30
0
 11
681.465
 21
541.948
 31
0
  0
LINE
  5
A4A
330
A02
100
AcDbEntity
  8
View001
100
AcDbLine
 10
681.465
 20
541.948
 30
0
 11
763.465
 21
541.948
 31
0
  0
LINE
  5
A4B
330
A02
100
AcDbEntity
  8
View001
100
AcDbLine
 10
765.465
 20
539.948
 30
0
 11
763.465
 21
541.948
 31
0
  0
LINE
  5
A4C
330
A02
100
AcDbEntity
  8
View001
100
AcDbLine
 10
765.465
 20
539.948
 30
0
 11
765.465
 21
473.948
 31
0
  0
LINE
  5
A4D
330
A02
100
AcDbEntity
  8
View001
100
AcDbLine
 10
763.465
 20
471.948
 30
0
 11
765.465
 21
473.948
 31
0
  0
LINE
  5
A4E
330
A02
100
AcDbEntity
  8
View001
100
AcDbLine
 10
755.965
 20
473.848
 30
0
 11
748.465
 21
473.848
 31
0
  0
LINE
  5
A4F
330
A02
100
AcDbEntity
  8
View001
100
AcDbLine
 10
748.465
 20
473.848
 30
0
 11
748.465
 21
477.048
 31
0
  0
LINE
  5
A50
330
A02
100
AcDbEntity
  8
View001
100
AcDbLine
 10
748.465
 20
477.048
 30
0
 11
755.965
 21
477.048
 31
0
  0
LINE
  5
A51
330
A02
100
AcDbEntity
  8
View001
100
AcDbLine
 10
755.965
 20
477.048
 30
0
 11
755.965
 21
473.848
 31
0
  0
LINE
  5
A52
330
A02
100
AcDbEntity
  8
View001
100
AcDbLine
 10
755.965
 20
536.848
 30
0
 11
748.465
 21
536.848
 31
0
  0
LINE
  5
A53
330
A02
100
AcDbEntity
  8
View001
100
AcDbLine
 10
748.465
 20
536.848
 30
0
 11
748.465
 21
540.048
 31
0
  0
LINE
  5
A54
330
A02
100
AcDbEntity
  8
View001
100
AcDbLine
 10
748.465
 20
540.048
 30
0
 11
755.965
 21
540.048
 31
0
  0
LINE
  5
A55
330
A02
100
AcDbEntity
  8
View001
100
AcDbLine
 10
755.965
 20
540.048
 30
0
 11
755.965
 21
536.848
 31
0
  0
LINE
  5
A56
330
A02
100
AcDbEntity
  8
View002
100
AcDbLine
 10
403.971
 20
542.485
 30
0
 11
403.971
 21
476.485
 31
0
  0
LINE
  5
A57
330
A02
100
AcDbEntity
  8
View002
100
AcDbLine
 10
405.971
 20
474.485
 30
0
 11
403.971
 21
476.485
 31
0
  0
LINE
  5
A58
330
A02
100
AcDbEntity
  8
View002
100
AcDbLine
 10
405.971
 20
474.485
 30
0
 11
482.971
 21
474.485
 31
0
  0
LINE
  5
A59
330
A02
100
AcDbEntity
  8
View002
100
AcDbLine
 10
482.971
 20
474.485
 30
0
 11
482.971
 21
487.485
 31
0
  0
LINE
  5
A5A
330
A02
100
AcDbEntity
  8
View002
100
AcDbLine
 10
474.971
 20
487.485
 30
0
 11
482.971
 21
487.485
 31
0
  0
LINE
  5
A5B
330
A02
100
AcDbEntity
  8
View002
100
AcDbLine
 10
474.971
 20
493.485
 30
0
 11
474.971
 21
487.485
 31
0
  0
LINE
  5
A5C
330
A02
100
AcDbEntity
  8
View002
100
AcDbLine
 10
482.971
 20
493.485
 30
0
 11
474.971
 21
493.485
 31
0
  0
LINE
  5
A5D
330
A02
100
AcDbEntity
  8
View002
100
AcDbLine
 10
482.971
 20
493.485
 30
0
 11
482.971
 21
525.485
 31
0
  0
LINE
  5
A5E
330
A02
100
AcDbEntity
  8
View002
100
AcDbLine
 10
474.971
 20
525.485
 30
0
 11
482.971
 21
525.485
 31
0
  0
LINE
  5
A5F
330
A02
100
AcDbEntity
  8
View002
100
AcDbLine
 10
474.971
 20
531.485
 30
0
 11
474.971
 21
525.485
 31
0
  0
LINE
  5
A60
330
A02
100
AcDbEntity
  8
View002
100
AcDbLine
 10
482.971
 20
531.485
 30
0
 11
474.971
 21
531.485
 31
0
  0
LINE
  5
A61
330
A02
100
AcDbEntity
  8
View002
100
AcDbLine
 10
482.971
 20
531.485
 30
0
 11
482.971
 21
544.485
 31
0
  0
LINE
  5
A62
330
A02
100
AcDbEntity
  8
View002
100
AcDbLine
 10
482.971
 20
544.485
 30
0
 11
405.971
 21
544.485
 31
0
  0
LINE
  5
A63
330
A02
100
AcDbEntity
  8
View002
100
AcDbLine
 10
403.971
 20
542.485
 30
0
 11
405.971
 21
544.485
 31
0
  0
LINE
  5
A64
330
A02
100
AcDbEntity
  8
View002
100
AcDbLine
 10
424.971
 20
539.485
 30
0
 11
460.971
 21
539.485
 31
0
  0
LINE
  5
A65
330
A02
100
AcDbEntity
  8
View002
100
AcDbLine
 10
460.971
 20
539.485
 30
0
 11
460.971
 21
542.485
 31
0
  0
LINE
  5
A66
330
A02
100
AcDbEntity
  8
View002
100
AcDbLine
 10
460.971
 20
542.485
 30
0
 11
424.971
 21
542.485
 31
0
  0
LINE
  5
A67
330
A02
100
AcDbEntity
  8
View002
100
AcDbLine
 10
424.971
 20
542.485
 30
0
 11
424.971
 21
539.485
 31
0
  0
LINE
  5
A68
330
A02
100
AcDbEntity
  8
View002
100
AcDbLine
 10
424.971
 20
476.485
 30
0
 11
460.971
 21
476.485
 31
0
  0
LINE
  5
A69
330
A02
100
AcDbEntity
  8
View002
100
AcDbLine
 10
460.971
 20
476.485
 30
0
 11
460.971
 21
479.485
 31
0
  0
LINE
  5
A6A
330
A02
100
AcDbEntity
  8
View002
100
AcDbLine
 10
460.971
 20
479.485
 30
0
 11
424.971
 21
479.485
 31
0
  0
LINE
  5
A6B
330
A02
100
AcDbEntity
  8
View002
100
AcDbLine
 10
424.971
 20
479.485
 30
0
 11
424.971
 21
476.485
 31
0
  0
CIRCLE
  5
A6C
330
A02
100
AcDbEntity
  8
View002
100
AcDbCircle
 10
407.971
 20
509.485
 40
1.5
  0
CIRCLE
  5
A6D
330
A02
100
AcDbEntity
  8
View002
100
AcDbCircle
 10
416.471
 20
482.985
 40
1.5
  0
CIRCLE
  5
A6E
330
A02
100
AcDbEntity
  8
View002
100
AcDbCircle
 10
416.471
 20
535.985
 40
1.5
  0
CIRCLE
  5
A6F
330
A02
100
AcDbEntity
  8
View002
100
AcDbCircle
 10
478.471
 20
509.485
 40
1.5
  0
CIRCLE
  5
A70
330
A02
100
AcDbEntity
  8
View002
100
AcDbCircle
 10
410.971
 20
487.485
 40
1.5
  0
CIRCLE
  5
A71
330
A02
100
AcDbEntity
  8
View002
100
AcDbCircle
 10
410.971
 20
531.485
 40
1.5
  0
LINE
  5
A72
330
A02
100
AcDbEntity
  8
View003
100
AcDbLine
 10
530.297
 20
483.184
 30
0
 11
510.297
 21
503.184
 31
0
  0
LINE
  5
A73
330
A02
100
AcDbEntity
  8
View003
100
AcDbLine
 10
510.297
 20
503.184
 30
0
 11
510.297
 21
535.184
 31
0
  0
LINE
  5
A74
330
A02
100
AcDbEntity
  8
View003
100
AcDbLine
 10
510.297
 20
535.184
 30
0
 11
513.297
 21
538.184
 31
0
  0
LINE
  5
A75
330
A02
100
AcDbEntity
  8
View003
100
AcDbLine
 10
513.297
 20
538.184
 30
0
 11
537.297
 21
538.184
 31
0
  0
LINE
  5
A76
330
A02
100
AcDbEntity
  8
View003
100
AcDbLine
 10
537.297
 20
541.184
 30
0
 11
537.297
 21
538.184
 31
0
  0
LINE
  5
A77
330
A02
100
AcDbEntity
  8
View003
100
AcDbLine
 10
573.297
 20
541.184
 30
0
 11
537.297
 21
541.184
 31
0
  0
LINE
  5
A78
330
A02
100
AcDbEntity
  8
View003
100
AcDbLine
 10
573.297
 20
538.184
 30
0
 11
573.297
 21
541.184
 31
0
  0
LINE
  5
A79
330
A02
100
AcDbEntity
  8
View003
100
AcDbLine
 10
573.297
 20
538.184
 30
0
 11
606.297
 21
538.184
 31
0
  0
LINE
  5
A7A
330
A02
100
AcDbEntity
  8
View003
100
AcDbLine
 10
606.297
 20
538.184
 30
0
 11
646.39
 21
498.091
 31
0
  0
ARC
  5
A7B
330
A02
100
AcDbEntity
  8
View003
100
AcDbCircle
 10
642.148
 20
493.849
 30
0
 40
6
100
AcDbArc
 50
0
 51
45
  0
LINE
  5
A7C
330
A02
100
AcDbEntity
  8
View003
100
AcDbLine
 10
648.148
 20
493.849
 30
0
 11
648.148
 21
480.184
 31
0
  0
LINE
  5
A7D
330
A02
100
AcDbEntity
  8
View003
100
AcDbLine
 10
642.148
 20
480.184
 30
0
 11
648.148
 21
480.184
 31
0
  0
LINE
  5
A7E
330
A02
100
AcDbEntity
  8
View003
100
AcDbLine
 10
642.148
 20
477.184
 30
0
 11
642.148
 21
480.184
 31
0
  0
LINE
  5
A7F
330
A02
100
AcDbEntity
  8
View003
100
AcDbLine
 10
636.148
 20
477.184
 30
0
 11
642.148
 21
477.184
 31
0
  0
LINE
  5
A80
330
A02
100
AcDbEntity
  8
View003
100
AcDbLine
 10
636.148
 20
480.184
 30
0
 11
636.148
 21
477.184
 31
0
  0
LINE
  5
A81
330
A02
100
AcDbEntity
  8
View003
100
AcDbLine
 10
630.148
 20
480.184
 30
0
 11
636.148
 21
480.184
 31
0
  0
LINE
  5
A82
330
A02
100
AcDbEntity
  8
View003
100
AcDbLine
 10
630.148
 20
480.184
 30
0
 11
630.148
 21
477.184
 31
0
  0
LINE
  5
A83
330
A02
100
AcDbEntity
  8
View003
100
AcDbLine
 10
630.148
 20
477.184
 30
0
 11
624.148
 21
477.184
 31
0
  0
LINE
  5
A84
330
A02
100
AcDbEntity
  8
View003
100
AcDbLine
 10
618.148
 20
483.184
 30
0
 11
624.148
 21
477.184
 31
0
  0
LINE
  5
A85
330
A02
100
AcDbEntity
  8
View003
100
AcDbLine
 10
546.148
 20
483.184
 30
0
 11
618.148
 21
483.184
 31
0
  0
ARC
  5
A86
330
A02
100
AcDbEntity
  8
View003
100
AcDbCircle
 10
708.397
 20
513.184
 30
0
 40
165
100
AcDbArc
 50
180
 51
-169.524
  0
LINE
  5
A87
330
A02
100
AcDbEntity
  8
View003
100
AcDbLine
 10
543.397
 20
477.184
 30
0
 11
543.397
 21
513.184
 31
0
  0
LINE
  5
A88
330
A02
100
AcDbEntity
  8
View003
100
AcDbLine
 10
539.397
 20
477.184
 30
0
 11
543.397
 21
477.184
 31
0
  0
LINE
  5
A89
330
A02
100
AcDbEntity
  8
View003
100
AcDbLine
 10
537.397
 20
479.184
 30
0
 11
539.397
 21
477.184
 31
0
  0
LINE
  5
A8A
330
A02
100
AcDbEntity
  8
View003
100
AcDbLine
 10
537.397
 20
479.684
 30
0
 11
537.397
 21
479.184
 31
0
  0
LINE
  5
A8B
330
A02
100
AcDbEntity
  8
View003
100
AcDbLine
 10
540.397
 20
480.184
 30
0
 11
537.397
 21
479.684
 31
0
  0
LINE
  5
A8C
330
A02
100
AcDbEntity
  8
View003
100
AcDbLine
 10
540.397
 20
480.184
 30
0
 11
540.397
 21
517.184
 31
0
  0
ARC
  5
A8D
330
A02
100
AcDbEntity
  8
View003
100
AcDbCircle
 10
540.347
 20
517.184
 30
0
 40
0.05
100
AcDbArc
 50
1.30276e-10
 51
180
  0
LINE
  5
A8E
330
A02
100
AcDbEntity
  8
View003
100
AcDbLine
 10
540.297
 20
483.184
 30
0
 11
540.297
 21
517.184
 31
0
  0
LINE
  5
A8F
330
A02
100
AcDbEntity
  8
View003
100
AcDbLine
 10
530.297
 20
483.184
 30
0
 11
540.297
 21
483.184
 31
0
  0
CIRCLE
  5
A90
330
A02
100
AcDbEntity
  8
View003
100
AcDbCircle
 10
600.797
 20
526.684
 40
8.5
  0
LINE
  5
A91
330
A02
100
AcDbEntity
  8
View003
100
AcDbLine
 10
583.297
 20
503.184
 30
0
 11
601.797
 21
503.184
 31
0
  0
LINE
  5
A92
330
A02
100
AcDbEntity
  8
View003
100
AcDbLine
 10
601.797
 20
503.184
 30
0
 11
601.797
 21
506.184
 31
0
  0
LINE
  5
A93
330
A02
100
AcDbEntity
  8
View003
100
AcDbLine
 10
601.797
 20
506.184
 30
0
 11
583.297
 21
506.184
 31
0
  0
LINE
  5
A94
330
A02
100
AcDbEntity
  8
View003
100
AcDbLine
 10
583.297
 20
506.184
 30
0
 11
583.297
 21
503.184
 31
0
  0
LINE
  5
A95
330
A02
100
AcDbEntity
  8
View003
100
AcDbLine
 10
545.797
 20
503.184
 30
0
 11
564.297
 21
503.184
 31
0
  0
LINE
  5
A96
330
A02
100
AcDbEntity
  8
View003
100
AcDbLine
 10
564.297
 20
503.184
 30
0
 11
564.297
 21
506.184
 31
0
  0
LINE
  5
A97
330
A02
100
AcDbEntity
  8
View003
100
AcDbLine
 10
564.297
 20
506.184
 30
0
 11
545.797
 21
506.184
 31
0
  0
LINE
  5
A98
330
A02
100
AcDbEntity
  8
View003
100
AcDbLine
 10
545.797
 20
506.184
 30
0
 11
545.797
 21
503.184
 31
0
  0
LINE
  5
A99
330
A02
100
AcDbEntity
  8
View003
100
AcDbLine
 10
513.297
 20
515.184
 30
0
 11
516.297
 21
515.184
 31
0
  0
LINE
  5
A9A
330
A02
100
AcDbEntity
  8
View003
100
AcDbLine
 10
516.297
 20
515.184
 30
0
 11
516.297
 21
529.184
 31
0
  0
LINE
  5
A9B
330
A02
100
AcDbEntity
  8
View003
100
AcDbLine
 10
516.297
 20
529.184
 30
0
 11
513.297
 21
529.184
 31
0
  0
LINE
  5
A9C
330
A02
100
AcDbEntity
  8
View003
100
AcDbLine
 10
513.297
 20
529.184
 30
0
 11
513.297
 21
515.184
 31
0
  0
LINE
  5
A9D
330
A02
100
AcDbEntity
  8
View003
100
AcDbLine
 10
521.812
 20
495.912
 30
0
 11
523.933
 21
498.033
 31
0
  0
LINE
  5
A9E
330
A02
100
AcDbEntity
  8
View003
100
AcDbLine
 10
523.933
 20
498.033
 30
0
 11
531.004
 21
490.962
 31
0
  0
LINE
  5
A9F
330
A02
100
AcDbEntity
  8
View003
100
AcDbLine
 10
531.004
 20
490.962
 30
0
 11
528.883
 21
488.841
 31
0
  0
LINE
  5
AA0
330
A02
100
AcDbEntity
  8
View003
100
AcDbLine
 10
528.883
 20
488.841
 30
0
 11
521.812
 21
495.912
 31
0
  0
LINE
  5
AA1
330
A02
100
AcDbEntity
  8
View003
100
AcDbLine
 10
619.182
 20
504.057
 30
0
 11
623.425
 21
508.299
 31
0
  0
LINE
  5
AA2
330
A02
100
AcDbEntity
  8
View003
100
AcDbLine
 10
626.253
 20
505.471
 30
0
 11
623.425
 21
508.299
 31
0
  0
LINE
  5
AA3
330
A02
100
AcDbEntity
  8
View003
100
AcDbLine
 10
622.011
 20
501.228
 30
0
 11
626.253
 21
505.471
 31
0
  0
LINE
  5
AA4
330
A02
100
AcDbEntity
  8
View003
100
AcDbLine
 10
619.182
 20
504.057
 30
0
 11
622.011
 21
501.228
 31
0
  0
CIRCLE
  5
AA5
330
A02
100
AcDbEntity
  8
View003
100
AcDbCircle
 10
520.797
 20
526.684
 40
2
  0
CIRCLE
  5
AA6
330
A02
100
AcDbEntity
  8
View003
100
AcDbCircle
 10
624.648
 20
481.684
 40
1.95
  0
CIRCLE
  5
AA7
330
A02
100
AcDbEntity
  8
View003
100
AcDbCircle
 10
608.929
 20
518.552
 40
1.95
  0
CIRCLE
  5
AA8
330
A02
100
AcDbEntity
  8
View003
100
AcDbCircle
 10
621.127
 20
518.729
 40
1.3
  0
CIRCLE
  5
AA9
330
A02
100
AcDbEntity
  8
View003
100
AcDbCircle
 10
608.752
 20
506.355
 40
1.3
  0
LINE
  5
AAA
330
A02
100
AcDbEntity
  8
View004
100
AcDbLine
 10
760.532
 20
390.5
 30
0
 11
760.532
 21
450.5
 31
0
  0
LINE
  5
AAB
330
A02
100
AcDbEntity
  8
View004
100
AcDbLine
 10
760.532
 20
450.5
 30
0
 11
757.532
 21
450.5
 31
0
  0
LINE
  5
AAC
330
A02
100
AcDbEntity
  8
View004
100
AcDbLine
 10
757.532
 20
450.5
 30
0
 11
757.532
 21
453.5
 31
0
  0
LINE
  5
AAD
330
A02
100
AcDbEntity
  8
View004
100
AcDbLine
 10
760.032
 20
453.5
 30
0
 11
757.532
 21
453.5
 31
0
  0
LINE
  5
AAE
330
A02
100
AcDbEntity
  8
View004
100
AcDbLine
 10
760.532
 20
454
 30
0
 11
760.032
 21
453.5
 31
0
  0
LINE
  5
AAF
330
A02
100
AcDbEntity
  8
View004
100
AcDbLine
 10
760.532
 20
455.5
 30
0
 11
760.532
 21
454
 31
0
  0
LINE
  5
AB0
330
A02
100
AcDbEntity
  8
View004
100
AcDbLine
 10
744.532
 20
455.5
 30
0
 11
760.532
 21
455.5
 31
0
  0
LINE
  5
AB1
330
A02
100
AcDbEntity
  8
View004
100
AcDbLine
 10
742.532
 20
453.5
 30
0
 11
744.532
 21
455.5
 31
0
  0
LINE
  5
AB2
330
A02
100
AcDbEntity
  8
View004
100
AcDbLine
 10
742.532
 20
453.5
 30
0
 11
742.532
 21
450.5
 31
0
  0
LINE
  5
AB3
330
A02
100
AcDbEntity
  8
View004
100
AcDbLine
 10
742.532
 20
450.5
 30
0
 11
720.032
 21
450.5
 31
0
  0
LINE
  5
AB4
330
A02
100
AcDbEntity
  8
View004
100
AcDbLine
 10
720.032
 20
450.5
 30
0
 11
720.032
 21
453.5
 31
0
  0
LINE
  5
AB5
330
A02
100
AcDbEntity
  8
View004
100
AcDbLine
 10
722.532
 20
453.5
 30
0
 11
720.032
 21
453.5
 31
0
  0
LINE
  5
AB6
330
A02
100
AcDbEntity
  8
View004
100
AcDbLine
 10
723.032
 20
454
 30
0
 11
722.532
 21
453.5
 31
0
  0
LINE
  5
AB7
330
A02
100
AcDbEntity
  8
View004
100
AcDbLine
 10
723.032
 20
455.5
 30
0
 11
723.032
 21
454
 31
0
  0
LINE
  5
AB8
330
A02
100
AcDbEntity
  8
View004
100
AcDbLine
 10
707.032
 20
455.5
 30
0
 11
723.032
 21
455.5
 31
0
  0
LINE
  5
AB9
330
A02
100
AcDbEntity
  8
View004
100
AcDbLine
 10
705.032
 20
453.5
 30
0
 11
707.032
 21
455.5
 31
0
  0
LINE
  5
ABA
330
A02
100
AcDbEntity
  8
View004
100
AcDbLine
 10
705.032
 20
453.5
 30
0
 11
705.032
 21
450.5
 31
0
  0
LINE
  5
ABB
330
A02
100
AcDbEntity
  8
View004
100
AcDbLine
 10
705.032
 20
450.5
 30
0
 11
666.032
 21
450.5
 31
0
  0
LINE
  5
ABC
330
A02
100
AcDbEntity
  8
View004
100
AcDbLine
 10
666.032
 20
450.5
 30
0
 11
666.032
 21
390.5
 31
0
  0
LINE
  5
ABD
330
A02
100
AcDbEntity
  8
View004
100
AcDbLine
 10
666.032
 20
390.5
 30
0
 11
705.032
 21
390.5
 31
0
  0
LINE
  5
ABE
330
A02
100
AcDbEntity
  8
View004
100
AcDbLine
 10
705.032
 20
387.5
 30
0
 11
705.032
 21
390.5
 31
0
  0
LINE
  5
ABF
330
A02
100
AcDbEntity
  8
View004
100
AcDbLine
 10
705.032
 20
387.5
 30
0
 11
707.032
 21
385.5
 31
0
  0
LINE
  5
AC0
330
A02
100
AcDbEntity
  8
View004
100
AcDbLine
 10
707.032
 20
385.5
 30
0
 11
723.032
 21
385.5
 31
0
  0
LINE
  5
AC1
330
A02
100
AcDbEntity
  8
View004
100
AcDbLine
 10
723.032
 20
385.5
 30
0
 11
723.032
 21
387
 31
0
  0
LINE
  5
AC2
330
A02
100
AcDbEntity
  8
View004
100
AcDbLine
 10
723.032
 20
387
 30
0
 11
720.032
 21
387.5
 31
0
  0
LINE
  5
AC3
330
A02
100
AcDbEntity
  8
View004
100
AcDbLine
 10
720.032
 20
390.5
 30
0
 11
720.032
 21
387.5
 31
0
  0
LINE
  5
AC4
330
A02
100
AcDbEntity
  8
View004
100
AcDbLine
 10
720.032
 20
390.5
 30
0
 11
742.532
 21
390.5
 31
0
  0
LINE
  5
AC5
330
A02
100
AcDbEntity
  8
View004
100
AcDbLine
 10
742.532
 20
387.5
 30
0
 11
742.532
 21
390.5
 31
0
  0
LINE
  5
AC6
330
A02
100
AcDbEntity
  8
View004
100
AcDbLine
 10
742.532
 20
387.5
 30
0
 11
744.532
 21
385.5
 31
0
  0
LINE
  5
AC7
330
A02
100
AcDbEntity
  8
View004
100
AcDbLine
 10
744.532
 20
385.5
 30
0
 11
760.532
 21
385.5
 31
0
  0
LINE
  5
AC8
330
A02
100
AcDbEntity
  8
View004
100
AcDbLine
 10
760.532
 20
385.5
 30
0
 11
760.532
 21
387
 31
0
  0
LINE
  5
AC9
330
A02
100
AcDbEntity
  8
View004
100
AcDbLine
 10
760.532
 20
387
 30
0
 11
757.532
 21
387.5
 31
0
  0
LINE
  5
ACA
330
A02
100
AcDbEntity
  8
View004
100
AcDbLine
 10
757.532
 20
390.5
 30
0
 11
757.532
 21
387.5
 31
0
  0
LINE
  5
ACB
330
A02
100
AcDbEntity
  8
View004
100
AcDbLine
 10
760.532
 20
390.5
 30
0
 11
757.532
 21
390.5
 31
0
  0
CIRCLE
  5
ACC
330
A02
100
AcDbEntity
  8
View004
100
AcDbCircle
 10
753.332
 20
401.45
 40
1.5
  0
CIRCLE
  5
ACD
330
A02
100
AcDbEntity
  8
View004
100
AcDbCircle
 10
753.332
 20
429.35
 40
1.5
  0
CIRCLE
  5
ACE
330
A02
100
AcDbEntity
  8
View004
100
AcDbCircle
 10
701.232
 20
396.35
 40
1.5
  0
CIRCLE
  5
ACF
330
A02
100
AcDbEntity
  8
View004
100
AcDbCircle
 10
702.532
 20
444.55
 40
1.5
  0
CIRCLE
  5
AD0
330
A02
100
AcDbEntity
  8
View004
100
AcDbCircle
 10
697.532
 20
419
 40
1.5
  0
CIRCLE
  5
AD1
330
A02
100
AcDbEntity
  8
View004
100
AcDbCircle
 10
755.532
 20
419
 40
1.5
  0
CIRCLE
  5
AD2
330
A02
100
AcDbEntity
  8
View004
100
AcDbCircle
 10
755.532
 20
409
 40
1.5
  0
CIRCLE
  5
AD3
330
A02
100
AcDbEntity
  8
View004
100
AcDbCircle
 10
755.532
 20
432
 40
1.5
  0
CIRCLE
  5
AD4
330
A02
100
AcDbEntity
  8
View004
100
AcDbCircle
 10
697.532
 20
409
 40
1.5
  0
CIRCLE
  5
AD5
330
A02
100
AcDbEntity
  8
View004
100
AcDbCircle
 10
697.532
 20
432
 40
1.5
  0
CIRCLE
  5
AD6
330
A02
100
AcDbEntity
  8
View004
100
AcDbCircle
 10
755.532
 20
396
 40
1.5
  0
CIRCLE
  5
AD7
330
A02
100
AcDbEntity
  8
View004
100
AcDbCircle
 10
697.532
 20
396
 40
1.5
  0
CIRCLE
  5
AD8
330
A02
100
AcDbEntity
  8
View004
100
AcDbCircle
 10
755.532
 20
445
 40
1.5
  0
CIRCLE
  5
AD9
330
A02
100
AcDbEntity
  8
View004
100
AcDbCircle
 10
697.532
 20
445
 40
1.5
  0
CIRCLE
  5
ADA
330
A02
100
AcDbEntity
  8
View004
100
AcDbCircle
 10
684.532
 20
394
 40
1.5
  0
CIRCLE
  5
ADB
330
A02
100
AcDbEntity
  8
View004
100
AcDbCircle
 10
684.532
 20
447
 40
1.5
  0
CIRCLE
  5
ADC
330
A02
100
AcDbEntity
  8
View004
100
AcDbCircle
 10
676.032
 20
420.5
 40
1.5
  0
CIRCLE
  5
ADD
330
A02
100
AcDbEntity
  8
View004
100
AcDbCircle
 10
679.032
 20
442.5
 40
1.5
  0
CIRCLE
  5
ADE
330
A02
100
AcDbEntity
  8
View004
100
AcDbCircle
 10
679.032
 20
398.5
 40
1.5
  0
CIRCLE
  5
ADF
330
A02
100
AcDbEntity
  8
View004
100
AcDbCircle
 10
746.532
 20
420.5
 40
1.5
  0
LINE
  5
AE0
330
A02
100
AcDbEntity
  8
View005
100
AcDbLine
 10
389.956
 20
458.691
 30
0
 11
329.956
 21
458.691
 31
0
  0
LINE
  5
AE1
330
A02
100
AcDbEntity
  8
View005
100
AcDbLine
 10
329.956
 20
458.691
 30
0
 11
329.956
 21
429.691
 31
0
  0
LINE
  5
AE2
330
A02
100
AcDbEntity
  8
View005
100
AcDbLine
 10
329.956
 20
429.691
 30
0
 11
389.956
 21
429.691
 31
0
  0
LINE
  5
AE3
330
A02
100
AcDbEntity
  8
View005
100
AcDbLine
 10
389.956
 20
429.691
 30
0
 11
389.956
 21
458.691
 31
0
  0
CIRCLE
  5
AE4
330
A02
100
AcDbEntity
  8
View005
100
AcDbCircle
 10
344.956
 20
442.691
 40
1.5
  0
CIRCLE
  5
AE5
330
A02
100
AcDbEntity
  8
View005
100
AcDbCircle
 10
374.956
 20
442.691
 40
1.5
  0
LINE
  5
AE6
330
A02
100
AcDbEntity
  8
View006
100
AcDbLine
 10
472.654
 20
458.134
 30
0
 11
412.654
 21
458.134
 31
0
  0
LINE
  5
AE7
330
A02
100
AcDbEntity
  8
View006
100
AcDbLine
 10
412.654
 20
458.134
 30
0
 11
412.654
 21
449.134
 31
0
  0
LINE
  5
AE8
330
A02
100
AcDbEntity
  8
View006
100
AcDbLine
 10
412.654
 20
449.134
 30
0
 11
409.654
 21
449.134
 31
0
  0
LINE
  5
AE9
330
A02
100
AcDbEntity
  8
View006
100
AcDbLine
 10
409.654
 20
449.134
 30
0
 11
409.654
 21
435.134
 31
0
  0
LINE
  5
AEA
330
A02
100
AcDbEntity
  8
View006
100
AcDbLine
 10
409.654
 20
435.134
 30
0
 11
412.654
 21
435.134
 31
0
  0
LINE
  5
AEB
330
A02
100
AcDbEntity
  8
View006
100
AcDbLine
 10
412.654
 20
435.134
 30
0
 11
412.654
 21
426.134
 31
0
  0
LINE
  5
AEC
330
A02
100
AcDbEntity
  8
View006
100
AcDbLine
 10
412.654
 20
426.134
 30
0
 11
472.654
 21
426.134
 31
0
  0
LINE
  5
AED
330
A02
100
AcDbEntity
  8
View006
100
AcDbLine
 10
472.654
 20
426.134
 30
0
 11
472.654
 21
435.134
 31
0
  0
LINE
  5
AEE
330
A02
100
AcDbEntity
  8
View006
100
AcDbLine
 10
472.654
 20
435.134
 30
0
 11
475.654
 21
435.134
 31
0
  0
LINE
  5
AEF
330
A02
100
AcDbEntity
  8
View006
100
AcDbLine
 10
475.654
 20
435.134
 30
0
 11
475.654
 21
449.134
 31
0
  0
LINE
  5
AF0
330
A02
100
AcDbEntity
  8
View006
100
AcDbLine
 10
475.654
 20
449.134
 30
0
 11
472.654
 21
449.134
 31
0
  0
LINE
  5
AF1
330
A02
100
AcDbEntity
  8
View006
100
AcDbLine
 10
472.654
 20
449.134
 30
0
 11
472.654
 21
458.134
 31
0
  0
CIRCLE
  5
AF2
330
A02
100
AcDbEntity
  8
View006
100
AcDbCircle
 10
427.654
 20
442.134
 40
1.5
  0
CIRCLE
  5
AF3
330
A02
100
AcDbEntity
  8
View006
100
AcDbCircle
 10
457.654
 20
442.134
 40
1.5
  0
LINE
  5
AF4
330
A02
100
AcDbEntity
  8
View007
100
AcDbLine
 10
393.499
 20
480.886
 30
0
 11
333.499
 21
480.886
 31
0
  0
LINE
  5
AF5
330
A02
100
AcDbEntity
  8
View007
100
AcDbLine
 10
333.499
 20
480.886
 30
0
 11
333.499
 21
505.886
 31
0
  0
LINE
  5
AF6
330
A02
100
AcDbEntity
  8
View007
100
AcDbLine
 10
333.499
 20
505.886
 30
0
 11
393.499
 21
505.886
 31
0
  0
LINE
  5
AF7
330
A02
100
AcDbEntity
  8
View007
100
AcDbLine
 10
393.499
 20
505.886
 30
0
 11
393.499
 21
480.886
 31
0
  0
CIRCLE
  5
AF8
330
A02
100
AcDbEntity
  8
View007
100
AcDbCircle
 10
353.499
 20
493.386
 40
1.5
  0
CIRCLE
  5
AF9
330
A02
100
AcDbEntity
  8
View007
100
AcDbCircle
 10
373.499
 20
493.386
 40
1.5
  0
LINE
  5
AFA
330
A02
100
AcDbEntity
  8
View008
100
AcDbLine
 10
332.029
 20
537.049
 30
0
 11
332.029
 21
545.049
 31
0
  0
LINE
  5
AFB
330
A02
100
AcDbEntity
  8
View008
100
AcDbLine
 10
332.029
 20
545.049
 30
0
 11
392.029
 21
545.049
 31
0
  0
LINE
  5
AFC
330
A02
100
AcDbEntity
  8
View008
100
AcDbLine
 10
392.029
 20
545.049
 30
0
 11
392.029
 21
537.049
 31
0
  0
LINE
  5
AFD
330
A02
100
AcDbEntity
  8
View008
100
AcDbLine
 10
392.029
 20
537.049
 30
0
 11
395.029
 21
537.049
 31
0
  0
LINE
  5
AFE
330
A02
100
AcDbEntity
  8
View008
100
AcDbLine
 10
395.029
 20
537.049
 30
0
 11
395.029
 21
527.049
 31
0
  0
LINE
  5
AFF
330
A02
100
AcDbEntity
  8
View008
100
AcDbLine
 10
395.029
 20
527.049
 30
0
 11
392.029
 21
527.049
 31
0
  0
LINE
  5
B00
330
A02
100
AcDbEntity
  8
View008
100
AcDbLine
 10
392.029
 20
527.049
 30
0
 11
392.029
 21
519.899
 31
0
  0
LINE
  5
B01
330
A02
100
AcDbEntity
  8
View008
100
AcDbLine
 10
392.029
 20
519.899
 30
0
 11
382.229
 21
519.899
 31
0
  0
LINE
  5
B02
330
A02
100
AcDbEntity
  8
View008
100
AcDbLine
 10
382.229
 20
519.899
 30
0
 11
341.829
 21
519.899
 31
0
  0
LINE
  5
B03
330
A02
100
AcDbEntity
  8
View008
100
AcDbLine
 10
341.829
 20
519.899
 30
0
 11
332.029
 21
519.899
 31
0
  0
LINE
  5
B04
330
A02
100
AcDbEntity
  8
View008
100
AcDbLine
 10
332.029
 20
519.899
 30
0
 11
332.029
 21
527.049
 31
0
  0
LINE
  5
B05
330
A02
100
AcDbEntity
  8
View008
100
AcDbLine
 10
329.029
 20
527.049
 30
0
 11
332.029
 21
527.049
 31
0
  0
LINE
  5
B06
330
A02
100
AcDbEntity
  8
View008
100
AcDbLine
 10
329.029
 20
537.049
 30
0
 11
329.029
 21
527.049
 31
0
  0
LINE
  5
B07
330
A02
100
AcDbEntity
  8
View008
100
AcDbLine
 10
332.029
 20
537.049
 30
0
 11
329.029
 21
537.049
 31
0
  0
CIRCLE
  5
B08
330
A02
100
AcDbEntity
  8
View008
100
AcDbCircle
 10
352.029
 20
529.299
 40
1.5
  0
CIRCLE
  5
B09
330
A02
100
AcDbEntity
  8
View008
100
AcDbCircle
 10
372.029
 20
529.299
 40
1.5
  0
LINE
  5
B0A
330
A02
100
AcDbEntity
  8
View009
100
AcDbLine
 10
478.696
 20
390.921
 30
0
 11
478.696
 21
387.921
 31
0
  0
LINE
  5
B0B
330
A02
100
AcDbEntity
  8
View009
100
AcDbLine
 10
478.696
 20
387.921
 30
0
 11
396.696
 21
387.921
 31
0
  0
LINE
  5
B0C
330
A02
100
AcDbEntity
  8
View009
100
AcDbLine
 10
396.696
 20
387.921
 30
0
 11
396.696
 21
390.921
 31
0
  0
LINE
  5
B0D
330
A02
100
AcDbEntity
  8
View009
100
AcDbLine
 10
396.696
 20
390.921
 30
0
 11
393.696
 21
390.921
 31
0
  0
LINE
  5
B0E
330
A02
100
AcDbEntity
  8
View009
100
AcDbLine
 10
393.696
 20
390.921
 30
0
 11
393.696
 21
402.921
 31
0
  0
LINE
  5
B0F
330
A02
100
AcDbEntity
  8
View009
100
AcDbLine
 10
393.696
 20
402.921
 30
0
 11
396.696
 21
402.921
 31
0
  0
LINE
  5
B10
330
A02
100
AcDbEntity
  8
View009
100
AcDbLine
 10
396.696
 20
402.921
 30
0
 11
396.696
 21
405.921
 31
0
  0
LINE
  5
B11
330
A02
100
AcDbEntity
  8
View009
100
AcDbLine
 10
396.696
 20
405.921
 30
0
 11
478.696
 21
405.921
 31
0
  0
LINE
  5
B12
330
A02
100
AcDbEntity
  8
View009
100
AcDbLine
 10
478.696
 20
405.921
 30
0
 11
478.696
 21
402.921
 31
0
  0
LINE
  5
B13
330
A02
100
AcDbEntity
  8
View009
100
AcDbLine
 10
481.696
 20
402.921
 30
0
 11
478.696
 21
402.921
 31
0
  0
LINE
  5
B14
330
A02
100
AcDbEntity
  8
View009
100
AcDbLine
 10
481.696
 20
390.921
 30
0
 11
481.696
 21
402.921
 31
0
  0
LINE
  5
B15
330
A02
100
AcDbEntity
  8
View009
100
AcDbLine
 10
478.696
 20
390.921
 30
0
 11
481.696
 21
390.921
 31
0
  0
LINE
  5
B16
330
A02
100
AcDbEntity
  8
View009
100
AcDbLine
 10
407.696
 20
399.921
 30
0
 11
407.696
 21
393.921
 31
0
  0
LINE
  5
B17
330
A02
100
AcDbEntity
  8
View009
100
AcDbLine
 10
407.696
 20
393.921
 30
0
 11
404.696
 21
393.921
 31
0
  0
LINE
  5
B18
330
A02
100
AcDbEntity
  8
View009
100
AcDbLine
 10
404.696
 20
393.921
 30
0
 11
404.696
 21
399.921
 31
0
  0
LINE
  5
B19
330
A02
100
AcDbEntity
  8
View009
100
AcDbLine
 10
404.696
 20
399.921
 30
0
 11
407.696
 21
399.921
 31
0
  0
LINE
  5
B1A
330
A02
100
AcDbEntity
  8
View009
100
AcDbLine
 10
470.696
 20
399.921
 30
0
 11
470.696
 21
393.921
 31
0
  0
LINE
  5
B1B
330
A02
100
AcDbEntity
  8
View009
100
AcDbLine
 10
470.696
 20
393.921
 30
0
 11
467.696
 21
393.921
 31
0
  0
LINE
  5
B1C
330
A02
100
AcDbEntity
  8
View009
100
AcDbLine
 10
467.696
 20
393.921
 30
0
 11
467.696
 21
399.921
 31
0
  0
LINE
  5
B1D
330
A02
100
AcDbEntity
  8
View009
100
AcDbLine
 10
467.696
 20
399.921
 30
0
 11
470.696
 21
399.921
 31
0
  0
ARC
  5
B1E
330
A02
100
AcDbEntity
  8
View010
100
AcDbCircle
 10
379.959
 20
398.085
 30
0
 40
6
100
AcDbArc
 50
-90.5564
 51
105.87
  0
LINE
  5
B1F
330
A02
100
AcDbEntity
  8
View010
100
AcDbLine
 10
358.326
 20
398.173
 30
0
 11
378.318
 21
403.857
 31
0
  0
ARC
  5
B20
330
A02
100
AcDbEntity
  8
View010
100
AcDbCircle
 10
359.146
 20
395.287
 30
0
 40
3
100
AcDbArc
 50
105.87
 51
-90.5564
  0
LINE
  5
B21
330
A02
100
AcDbEntity
  8
View010
100
AcDbLine
 10
359.117
 20
392.287
 30
0
 11
379.901
 21
392.086
 31
0
  0
LINE
  5
B22
330
A02
100
AcDbEntity
  8
View010
100
AcDbLine
 10
365.293
 20
394.6
 30
0
 11
377.186
 21
396.199
 31
0
  0
LINE
  5
B23
330
A02
100
AcDbEntity
  8
View010
100
AcDbLine
 10
377.186
 20
396.199
 30
0
 11
376.786
 21
399.172
 31
0
  0
LINE
  5
B24
330
A02
100
AcDbEntity
  8
View010
100
AcDbLine
 10
376.786
 20
399.172
 30
0
 11
364.893
 21
397.573
 31
0
  0
LINE
  5
B25
330
A02
100
AcDbEntity
  8
View010
100
AcDbLine
 10
364.893
 20
397.573
 30
0
 11
365.293
 21
394.6
 31
0
  0
ARC
  5
B26
330
A02
100
AcDbEntity
  8
View011
100
AcDbCircle
 10
344.381
 20
398.003
 30
0
 40
6
100
AcDbArc
 50
-90.5564
 51
105.87
  0
LINE
  5
B27
330
A02
100
AcDbEntity
  8
View011
100
AcDbLine
 10
322.748
 20
398.09
 30
0
 11
342.741
 21
403.774
 31
0
  0
ARC
  5
B28
330
A02
100
AcDbEntity
  8
View011
100
AcDbCircle
 10
323.569
 20
395.204
 30
0
 40
3
100
AcDbArc
 50
105.87
 51
-90.5564
  0
LINE
  5
B29
330
A02
100
AcDbEntity
  8
View011
100
AcDbLine
 10
323.54
 20
392.205
 30
0
 11
344.323
 21
392.003
 31
0
  0
LINE
  5
B2A
330
A02
100
AcDbEntity
  8
View011
100
AcDbLine
 10
329.715
 20
394.517
 30
0
 11
341.608
 21
396.116
 31
0
  0
LINE
  5
B2B
330
A02
100
AcDbEntity
  8
View011
100
AcDbLine
 10
341.608
 20
396.116
 30
0
 11
341.208
 21
399.089
 31
0
  0
LINE
  5
B2C
330
A02
100
AcDbEntity
  8
View011
100
AcDbLine
 10
341.208
 20
399.089
 30
0
 11
329.315
 21
397.491
 31
0
  0
LINE
  5
B2D
330
A02
100
AcDbEntity
  8
View011
100
AcDbLine
 10
329.315
 20
397.491
 30
0
 11
329.715
 21
394.517
 31
0
  0
ENDSEC
  0
SECTION
  2
OBJECTS
  0
DICTIONARY
  5
F000
330
0
100
AcDbDictionary
  3
ACAD_GROUP
350
F001
  0
DICTIONARY
  5
F001
330
F000
100
AcDbDictionary
  0
ENDSEC
  0
EOF