  0
SECTION
  2
HEADER
  9
$ACADVER
  1
AC1015
  9
$ACADMAINTVER
 70
     6
  9
$DWGCODEPAGE
  3
ANSI_1252
  9
$INSBASE
 10
0.0
 20
0.0
 30
0.0
  9
$EXTMIN
 10
-149.95
 20
-215.45
 30
0.0
  9
$EXTMAX
 10
146.05
 20
80.55
 30
0.0
  9
$LIMMIN
 10
0.0
 20
0.0
  9
$LIMMAX
 10
420.0
 20
297.0
  9
$ORTHOMODE
 70
     0
  9
$REGENMODE
 70
     1
  9
$FILLMODE
 70
     1
  9
$QTEXTMODE
 70
     0
  9
$MIRRTEXT
 70
     1
  9
$LTSCALE
 40
1.0
  9
$ATTMODE
 70
     1
  9
$TEXTSIZE
 40
5.6444444444
  9
$TRACEWID
 40
1.0
  9
$TEXTSTYLE
  7
Standard
  9
$CLAYER
  8
0
  9
$CELTYPE
  6
ByLayer
  9
$CECOLOR
 62
   256
  9
$CELTSCALE
 40
1.0
  9
$DISPSILH
 70
     0
  9
$DIMSCALE
 40
1.0
  9
$DIMASZ
 40
3.556
  9
$DIMEXO
 40
0.0
  9
$DIMDLI
 40
3.75
  9
$DIMRND
 40
0.0
  9
$DIMDLE
 40
0.0
  9
$DIMEXE
 40
1.0
  9
$DIMTP
 40
0.0
  9
$DIMTM
 40
0.0
  9
$DIMTXT
 40
3.5
  9
$DIMCEN
 40
2.5
  9
$DIMTSZ
 40
0.0
  9
$DIMTOL
 70
     0
  9
$DIMLIM
 70
     0
  9
$DIMTIH
 70
     1
  9
$DIMTOH
 70
     1
  9
$DIMSE1
 70
     0
  9
$DIMSE2
 70
     0
  9
$DIMTAD
 70
     1
  9
$DIMZIN
 70
     1
  9
$DIMBLK
  1

  9
$DIMASO
 70
     1
  9
$DIMSHO
 70
     1
  9
$DIMPOST
  1

  9
$DIMAPOST
  1

  9
$DIMALT
 70
     0
  9
$DIMALTD
 70
     3
  9
$DIMALTF
 40
0.0393700787
  9
$DIMLFAC
 40
1.0
  9
$DIMTOFL
 70
     1
  9
$DIMTVP
 40
0.0
  9
$DIMTIX
 70
     0
  9
$DIMSOXD
 70
     0
  9
$DIMSAH
 70
     0
  9
$DIMBLK1
  1

  9
$DIMBLK2
  1

  9
$DIMSTYLE
  2
ISO-25
  9
$DIMCLRD
 70
     0
  9
$DIMCLRE
 70
     0
  9
$DIMCLRT
 70
     0
  9
$DIMTFAC
 40
1.0
  9
$DIMGAP
 40
1.524
  9
$DIMJUST
 70
     0
  9
$DIMSD1
 70
     0
  9
$DIMSD2
 70
     0
  9
$DIMTOLJ
 70
     0
  9
$DIMTZIN
 70
     1
  9
$DIMALTZ
 70
     0
  9
$DIMALTTZ
 70
     0
  9
$DIMUPT
 70
     0
  9
$DIMDEC
 70
     2
  9
$DIMTDEC
 70
     2
  9
$DIMALTU
 70
     2
  9
$DIMALTTD
 70
     3
  9
$DIMTXSTY
  7
Standard
  9
$DIMAUNIT
 70
     0
  9
$DIMADEC
 70
     2
  9
$DIMALTRND
 40
0.0
  9
$DIMAZIN
 70
     0
  9
$DIMDSEP
 70
    44
  9
$DIMATFIT
 70
     3
  9
$DIMFRAC
 70
     0
  9
$DIMLDRBLK
  1

  9
$DIMLUNIT
 70
     2
  9
$DIMLWD
 70
    -2
  9
$DIMLWE
 70
    -2
  9
$DIMTMOVE
 70
     0
  9
$LUNITS
 70
     2
  9
$LUPREC
 70
     2
  9
$SKETCHINC
 40
1.0
  9
$FILLETRAD
 40
0.0
  9
$AUNITS
 70
     0
  9
$AUPREC
 70
     2
  9
$MENU
  1
.
  9
$ELEVATION
 40
0.0
  9
$PELEVATION
 40
0.0
  9
$THICKNESS
 40
0.0
  9
$LIMCHECK
 70
     0
  9
$CHAMFERA
 40
0.0
  9
$CHAMFERB
 40
0.0
  9
$CHAMFERC
 40
0.0
  9
$CHAMFERD
 40
0.0
  9
$SKPOLY
 70
     0
  9
$TDCREATE
 40
2460215.724719815
  9
$TDUCREATE
 40
2460215.641386482
  9
$TDUPDATE
 40
2460215.724758218
  9
$TDUUPDATE
 40
2460215.641424884
  9
$TDINDWG
 40
0.0000000116
  9
$TDUSRTIMER
 40
0.0000000116
  9
$USRTIMER
 70
     1
  9
$ANGBASE
 50
0.0
  9
$ANGDIR
 70
     0
  9
$PDMODE
 70
     0
  9
$PDSIZE
 40
-1.0
  9
$PLINEWID
 40
0.0
  9
$SPLFRAME
 70
     0
  9
$SPLINETYPE
 70
     6
  9
$SPLINESEGS
 70
     8
  9
$HANDSEED
  5
544
  9
$SURFTAB1
 70
     6
  9
$SURFTAB2
 70
     6
  9
$SURFTYPE
 70
     6
  9
$SURFU
 70
     6
  9
$SURFV
 70
     6
  9
$UCSBASE
  2

  9
$UCSNAME
  2

  9
$UCSORG
 10
0.0
 20
0.0
 30
0.0
  9
$UCSXDIR
 10
1.0
 20
0.0
 30
0.0
  9
$UCSYDIR
 10
0.0
 20
1.0
 30
0.0
  9
$UCSORTHOREF
  2

  9
$UCSORTHOVIEW
 70
     0
  9
$UCSORGTOP
 10
0.0
 20
0.0
 30
0.0
  9
$UCSORGBOTTOM
 10
0.0
 20
0.0
 30
0.0
  9
$UCSORGLEFT
 10
0.0
 20
0.0
 30
0.0
  9
$UCSORGRIGHT
 10
0.0
 20
0.0
 30
0.0
  9
$UCSORGFRONT
 10
0.0
 20
0.0
 30
0.0
  9
$UCSORGBACK
 10
0.0
 20
0.0
 30
0.0
  9
$PUCSBASE
  2

  9
$PUCSNAME
  2

  9
$PUCSORG
 10
0.0
 20
0.0
 30
0.0
  9
$PUCSXDIR
 10
1.0
 20
0.0
 30
0.0
  9
$PUCSYDIR
 10
0.0
 20
1.0
 30
0.0
  9
$PUCSORTHOREF
  2

  9
$PUCSORTHOVIEW
 70
     0
  9
$PUCSORGTOP
 10
0.0
 20
0.0
 30
0.0
  9
$PUCSORGBOTTOM
 10
0.0
 20
0.0
 30
0.0
  9
$PUCSORGLEFT
 10
0.0
 20
0.0
 30
0.0
  9
$PUCSORGRIGHT
 10
0.0
 20
0.0
 30
0.0
  9
$PUCSORGFRONT
 10
0.0
 20
0.0
 30
0.0
  9
$PUCSORGBACK
 10
0.0
 20
0.0
 30
0.0
  9
$USERI1
 70
     0
  9
$USERI2
 70
     0
  9
$USERI3
 70
     0
  9
$USERI4
 70
     0
  9
$USERI5
 70
     0
  9
$USERR1
 40
0.0
  9
$USERR2
 40
0.0
  9
$USERR3
 40
0.0
  9
$USERR4
 40
0.0
  9
$USERR5
 40
0.0
  9
$WORLDVIEW
 70
     1
  9
$SHADEDGE
 70
     3
  9
$SHADEDIF
 70
    70
  9
$TILEMODE
 70
     1
  9
$MAXACTVP
 70
    64
  9
$PINSBASE
 10
0.0
 20
0.0
 30
0.0
  9
$PLIMCHECK
 70
     0
  9
$PEXTMIN
 10
1.0000000000E+20
 20
1.0000000000E+20
 30
1.0000000000E+20
  9
$PEXTMAX
 10
-1.0000000000E+20
 20
-1.0000000000E+20
 30
-1.0000000000E+20
  9
$PLIMMIN
 10
0.0
 20
0.0
  9
$PLIMMAX
 10
420.0
 20
297.0
  9
$UNITMODE
 70
     0
  9
$VISRETAIN
 70
     1
  9
$PLINEGEN
 70
     0
  9
$PSLTSCALE
 70
     1
  9
$TREEDEPTH
 70
  3020
  9
$CMLSTYLE
  2
Standard
  9
$CMLJUST
 70
     0
  9
$CMLSCALE
 40
20.0
  9
$PROXYGRAPHICS
 70
     1
  9
$MEASUREMENT
 70
     1
  9
$CELWEIGHT
370
    -1
  9
$ENDCAPS
280
     0
  9
$JOINSTYLE
280
     0
  9
$LWDISPLAY
290
     1
  9
$INSUNITS
 70
     4
  9
$HYPERLINKBASE
  1

  9
$STYLESHEET
  1

  9
$XEDIT
290
     1
  9
$CEPSNTYPE
380
     0
  9
$PSTYLEMODE
290
     1
  9
$FINGERPRINTGUID
  2
{da55b856-10e7-44a8-8955-b72eb85dfe21}
  9
$VERSIONGUID
  2
{FAEB1C32-E019-11D5-929B-00C0DF256EC4}
  9
$EXTNAMES
290
     1
  9
$PSVPSCALE
 40
0.0
  9
$OLESTARTUP
290
     0
  0
ENDSEC
  0
SECTION
  2
CLASSES
  0
CLASS
  1
ACDBDICTIONARYWDFLT
  2
AcDbDictionaryWithDefault
  3
ObjectDBX Classes
 90
        0
280
     0
281
     0
  0
CLASS
  1
VISUALSTYLE
  2
AcDbVisualStyle
  3
ObjectDBX Classes
 90
     4095
280
     0
281
     0
  0
CLASS
  1
MATERIAL
  2
AcDbMaterial
  3
ObjectDBX Classes
 90
     1153
280
     0
281
     0
  0
CLASS
  1
SCALE
  2
AcDbScale
  3
ObjectDBX Classes
 90
     1153
280
     0
281
     0
  0
CLASS
  1
TABLESTYLE
  2
AcDbTableStyle
  3
ObjectDBX Classes
 90
     4095
280
     0
281
     0
  0
CLASS
  1
MLEADERSTYLE
  2
AcDbMLeaderStyle
  3
ACDB_MLEADERSTYLE_CLASS
 90
     4095
280
     0
281
     0
  0
CLASS
  1
SUN
  2
AcDbSun
  3
SCENEOE
 90
     1153
280
     0
281
     0
  0
CLASS
  1
ACDBPLACEHOLDER
  2
AcDbPlaceHolder
  3
ObjectDBX Classes
 90
        0
280
     0
281
     0
  0
CLASS
  1
LAYOUT
  2
AcDbLayout
  3
ObjectDBX Classes
 90
        0
280
     0
281
     0
  0
ENDSEC
  0
SECTION
  2
TABLES
  0
TABLE
  2
VPORT
  5
8
330
0
100
AcDbSymbolTable
 70
     1
  0
VPORT
  5
29
330
8
100
AcDbSymbolTableRecord
100
AcDbViewportTableRecord
  2
*Active
 70
     0
 10
0.0
 20
0.0
 11
1.0
 21
1.0
 12
-1.95
 22
-67.45
 13
0.0
 23
0.0
 14
10.0
 24
10.0
 15
10.0
 25
10.0
 16
0.0
 26
0.0
 36
1.0
 17
0.0
 27
0.0
 37
0.0
 40
301.92
 41
1.0
 42
50.0
 43
0.0
 44
0.0
 50
0.0
 51
0.0
 71
     0
 72
   100
 73
     1
 74
     3
 75
     0
 76
     0
 77
     0
 78
     0
281
     0
 65
     1
110
0.0
120
0.0
130
0.0
111
1.0
121
0.0
131
0.0
112
0.0
122
1.0
132
0.0
 79
     0
146
0.0
  0
ENDTAB
  0
TABLE
  2
LTYPE
  5
5
330
0
100
AcDbSymbolTable
 70
     6
  0
LTYPE
  5
14
330
5
100
AcDbSymbolTableRecord
100
AcDbLinetypeTableRecord
  2
ByBlock
 70
     0
  3

 72
    65
 73
     0
 40
0.0
  0
LTYPE
  5
15
330
5
100
AcDbSymbolTableRecord
100
AcDbLinetypeTableRecord
  2
ByLayer
 70
     0
  3

 72
    65
 73
     0
 40
0.0
  0
LTYPE
  5
16
330
5
100
AcDbSymbolTableRecord
100
AcDbLinetypeTableRecord
  2
Continuous
 70
     0
  3
Solid line
 72
    65
 73
     0
 40
0.0
  0
LTYPE
  5
5E
330
5
100
AcDbSymbolTableRecord
100
AcDbLinetypeTableRecord
  2
HIDDEN
 70
     0
  3
Hidden __ __ __ __ __ __ __ __ __ __ __ __ __ __
 72
    65
 73
     2
 40
1.905
 49
1.27
 74
     0
 49
-0.635
 74
     0
  0
LTYPE
  5
5F
330
5
100
AcDbSymbolTableRecord
100
AcDbLinetypeTableRecord
  2
PHANTOM
 70
     0
  3
Phantom ______  __  __  ______  __  __  ______
 72
    65
 73
     6
 40
12.7
 49
6.35
 74
     0
 49
-1.27
 74
     0
 49
1.27
 74
     0
 49
-1.27
 74
     0
 49
1.27
 74
     0
 49
-1.27
 74
     0
  0
LTYPE
  5
60
330
5
100
AcDbSymbolTableRecord
100
AcDbLinetypeTableRecord
  2
CENTER
 70
     0
  3
Center ____ _ ____ _ ____ _ ____ _ ____ _ ____
 72
    65
 73
     4
 40
10.16
 49
6.35
 74
     0
 49
-1.27
 74
     0
 49
1.27
 74
     0
 49
-1.27
 74
     0
  0
LTYPE
  5
61
330
5
100
AcDbSymbolTableRecord
100
AcDbLinetypeTableRecord
  2
CENTERX2
 70
     0
  3
Center (2x) ________  __  ________  __  _____
 72
    65
 73
     4
 40
20.32
 49
12.7
 74
     0
 49
-2.54
 74
     0
 49
2.54
 74
     0
 49
-2.54
 74
     0
  0
LTYPE
  5
62
330
5
100
AcDbSymbolTableRecord
100
AcDbLinetypeTableRecord
  2
DOT2
 70
     0
  3
Dot (.5x) ........................................
 72
    65
 73
     2
 40
0.635
 49
0.0
 74
     0
 49
-0.635
 74
     0
  0
ENDTAB
  0
TABLE
  2
LAYER
  5
2
330
0
100
AcDbSymbolTable
 70
     1
  0
LAYER
  5
10
330
2
100
AcDbSymbolTableRecord
100
AcDbLayerTableRecord
  2
0
 70
     0
 62
     7
  6
Continuous
370
    -3
390
F
  0
ENDTAB
  0
TABLE
  2
STYLE
  5
3
330
0
100
AcDbSymbolTable
 70
     1
  0
STYLE
  5
11
330
3
100
AcDbSymbolTableRecord
100
AcDbTextStyleTableRecord
  2
Standard
 70
     0
 40
0.0
 41
1.0
 50
0.0
 71
     0
 42
5.6444444444
  3
txt
  4

  0
ENDTAB
  0
TABLE
  2
VIEW
  5
6
330
0
100
AcDbSymbolTable
 70
     0
  0
ENDTAB
  0
TABLE
  2
UCS
  5
7
330
0
100
AcDbSymbolTable
 70
     0
  0
ENDTAB
  0
TABLE
  2
APPID
  5
9
330
0
100
AcDbSymbolTable
 70
     1
  0
APPID
  5
12
330
9
100
AcDbSymbolTableRecord
100
AcDbRegAppTableRecord
  2
ACAD
 70
     0
  0
ENDTAB
  0
TABLE
  2
DIMSTYLE
  5
A
330
0
100
AcDbSymbolTable
 70
     1
100
AcDbDimStyleTable
  0
DIMSTYLE
105
27
330
A
100
AcDbSymbolTableRecord
100
AcDbDimStyleTableRecord
  2
ISO-25
 70
     0
 41
2.5
 42
0.625
 43
3.75
 44
1.25
 73
     0
 74
     0
 77
     1
 78
     8
140
2.5
141
2.5
143
0.0393700787
147
0.625
171
     3
172
     1
178
     0
271
     2
272
     2
274
     3
278
    44
283
     0
284
     8
340
11
  0
ENDTAB
  0
TABLE
  2
BLOCK_RECORD
  5
1
330
0
100
AcDbSymbolTable
 70
     1
  0
BLOCK_RECORD
  5
1F
330
1
100
AcDbSymbolTableRecord
100
AcDbBlockTableRecord
  2
*Model_Space
340
22
  0
BLOCK_RECORD
  5
1B
330
1
100
AcDbSymbolTableRecord
100
AcDbBlockTableRecord
  2
*Paper_Space
340
1E
  0
BLOCK_RECORD
  5
23
330
1
100
AcDbSymbolTableRecord
100
AcDbBlockTableRecord
  2
*Paper_Space0
340
26
  0
ENDTAB
  0
ENDSEC
  0
SECTION
  2
BLOCKS
  0
BLOCK
  5
20
330
1F
100
AcDbEntity
  8
0
100
AcDbBlockBegin
  2
*Model_Space
 70
     0
 10
0.0
 20
0.0
 30
0.0
  3
*Model_Space
  1

  0
ENDBLK
  5
21
330
1F
100
AcDbEntity
  8
0
100
AcDbBlockEnd
  0
BLOCK
  5
1C
330
1B
100
AcDbEntity
 67
     1
  8
0
100
AcDbBlockBegin
  2
*Paper_Space
 70
     0
 10
0.0
 20
0.0
 30
0.0
  3
*Paper_Space
  1

  0
ENDBLK
  5
1D
330
1B
100
AcDbEntity
 67
     1
  8
0
100
AcDbBlockEnd
  0
BLOCK
  5
24
330
23
100
AcDbEntity
  8
0
100
AcDbBlockBegin
  2
*Paper_Space0
 70
     0
 10
0.0
 20
0.0
 30
0.0
  3
*Paper_Space0
  1

  0
ENDBLK
  5
25
330
23
100
AcDbEntity
  8
0
100
AcDbBlockEnd
  0
ENDSEC
  0
SECTION
  2
ENTITIES
  0
SPLINE
  5
6F
330
1F
100
AcDbEntity
  8
0
  6
Continuous
 62
     7
370
    25
100
AcDbSpline
210
0.0
220
0.0
230
1.0
 70
     8
 71
     3
 72
    31
 73
    27
 74
     0
 42
0.00000001
 43
0.00000001
 40
0.0
 40
0.0
 40
0.0
 40
0.0
 40
0.0418626135576517
 40
0.0818502316707536
 40
0.120798661361672
 40
0.1586037100863298
 40
0.1959838916609232
 40
0.2323649539834451
 40
0.268799660773874
 40
0.3053437956320937
 40
0.341935405839793
 40
0.3788105845910134
 40
0.4157844985379265
 40
0.453673261698027
 40
0.4923364903610697
 40
0.5320277868373975
 40
0.5728946655095005
 40
0.6152427814288997
 40
0.6586596854114131
 40
0.7031830996633351
 40
0.7490727060797109
 40
0.7962981819768968
 40
0.8447574277990564
 40
0.8950381956890108
 40
0.9466656317378794
 40
1.0
 40
1.0
 40
1.0
 40
1.0
 10
-136.9072384954822
 20
-160.2655175457023
 30
0.0
 10
-136.9084219421314
 20
-160.3211337000324
 30
0.0
 10
-136.910735829731
 20
-160.4298750023472
 30
0.0
 10
-136.9272437268787
 20
-160.5897255987936
 30
0.0
 10
-136.955659522876
 20
-160.7423003387073
 30
0.0
 10
-136.9937837872728
 20
-160.8892771840879
 30
0.0
 10
-137.0460264880176
 20
-161.0282024647136
 30
0.0
 10
-137.1072124692242
 20
-161.161340739145
 30
0.0
 10
-137.180072630407
 20
-161.2873272358394
 30
0.0
 10
-137.2651245600637
 20
-161.4056829239632
 30
0.0
 10
-137.3592832815198
 20
-161.5176238878146
 30
0.0
 10
-137.4625218680823
 20
-161.6221318317005
 30
0.0
 10
-137.5753350327454
 20
-161.7187744686036
 30
0.0
 10
-137.6958270461729
 20
-161.8097577367269
 30
0.0
 10
-137.82722016332
 20
-161.891142303831
 30
0.0
 10
-137.9655794119591
 20
-161.9684155108246
 30
0.0
 10
-138.114337762711
 20
-162.0361369816119
 30
0.0
 10
-138.2713475339801
 20
-162.0966758684507
 30
0.0
 10
-138.4357447438569
 20
-162.1511767864225
 30
0.0
 10
-138.6078526391875
 20
-162.1960110165302
 30
0.0
 10
-138.7861440475131
 20
-162.2369023948291
 30
0.0
 10
-138.9718167998864
 20
-162.2673141507042
 30
0.0
 10
-139.1638909948722
 20
-162.294278297706
 30
0.0
 10
-139.3630300153465
 20
-162.3109182901196
 30
0.0
 10
-139.5690141422534
 20
-162.3219900449838
 30
0.0
 10
-139.7084638158575
 20
-162.3232456015274
 30
0.0
 10
-139.7793225467535
 20
-162.3238835889887
 30
0.0
  0
SPLINE
  5
70
330
1F
100
AcDbEntity
  8
0
  6
Continuous
 62
     7
370
    25
100
AcDbSpline
210
0.0
220
0.0
230
1.0
 70
     8
 71
     3
 72
    31
 73
    27
 74
     0
 42
0.00000001
 43
0.00000001
 40
0.0
 40
0.0
 40
0.0
 40
0.0
 40
0.0521610570771655
 40
0.1029106919857923
 40
0.152343055105761
 40
0.2004762123303452
 40
0.2471766083595623
 40
0.2930072152976841
 40
0.337611867024514
 40
0.3813129775531706
 40
0.4239399987516616
 40
0.4650786536305547
 40
0.5051514504426121
 40
0.5440679513725517
 40
0.5822604711214305
 40
0.6198769293914256
 40
0.6567556584413256
 40
0.6937331321930357
 40
0.7302142097737143
 40
0.7669514145572079
 40
0.8035880422164309
 40
0.8406955970134323
 40
0.8788653777035321
 40
0.9178175573032882
 40
0.9581333559593346
 40
1.0
 40
1.0
 40
1.0
 40
1.0
 10
-139.7875419205715
 20
-158.2083256986756
 30
0.0
 10
-139.7182548153917
 20
-158.2090253882601
 30
0.0
 10
-139.5815554396639
 20
-158.2104058345806
 30
0.0
 10
-139.3793582356834
 20
-158.2206520137792
 30
0.0
 10
-139.1833005328849
 20
-158.2402931199057
 30
0.0
 10
-138.9930191041846
 20
-158.2636491483036
 30
0.0
 10
-138.8092588499177
 20
-158.2978237221939
 30
0.0
 10
-138.6309207429112
 20
-158.3352358001287
 30
0.0
 10
-138.4591279020964
 20
-158.3829010471198
 30
0.0
 10
-138.2936523980817
 20
-158.4365934029259
 30
0.0
 10
-138.1354102282221
 20
-158.4971287333719
 30
0.0
 10
-137.98573182924
 20
-158.5655935126469
 30
0.0
 10
-137.8446142023226
 20
-158.6403479946969
 30
0.0
 10
-137.7126710642311
 20
-158.7231301105926
 30
0.0
 10
-137.5886411683109
 20
-158.8119485539991
 30
0.0
 10
-137.4751782301031
 20
-158.909827418872
 30
0.0
 10
-137.3694767606539
 20
-159.0136995480678
 30
0.0
 10
-137.2736935412879
 20
-159.1248482631818
 30
0.0
 10
-137.1869092745094
 20
-159.2429518678285
 30
0.0
 10
-137.1120856712867
 20
-159.3684831650616
 30
0.0
 10
-137.0481267193939
 20
-159.5007830708148
 30
0.0
 10
-136.9961958797337
 20
-159.6403115982542
 30
0.0
 10
-136.9565358409191
 20
-159.7869964069299
 30
0.0
 10
-136.9287895008137
 20
-159.9406218099709
 30
0.0
 10
-136.9103633682027
 20
-160.1006842584304
 30
0.0
 10
-136.9082931419718
 20
-160.2098862085778
 30
0.0
 10
-136.9072384954822
 20
-160.2655175457023
 30
0.0
  0
SPLINE
  5
71
330
1F
100
AcDbEntity
  8
0
  6
Continuous
 62
     7
370
    25
100
AcDbSpline
210
0.0
220
0.0
230
1.0
 70
     8
 71
     3
 72
    31
 73
    27
 74
     0
 42
0.00000001
 43
0.00000001
 40
0.0
 40
0.0
 40
0.0
 40
0.0
 40
0.0417114220096795
 40
0.0818466263144143
 40
0.1206543893609144
 40
0.1586826542687785
 40
0.195551092713417
 40
0.2319253569068537
 40
0.2682284756464859
 40
0.3044019888124017
 40
0.3410512249965262
 40
0.3775850598998312
 40
0.4148394927703741
 40
0.4526530000914791
 40
0.4914252167480641
 40
0.5310906588923624
 40
0.5720767907852752
 40
0.6142719617101997
 40
0.6578110488599103
 40
0.7025335214068726
 40
0.748481129384302
 40
0.7958754668444967
 40
0.8444124767396745
 40
0.8948305814602387
 40
0.94656473443254
 40
1.0
 40
1.0
 40
1.0
 40
1.0
 10
-142.6772389157386
 20
-160.2655175457023
 30
0.0
 10
-142.6760472757523
 20
-160.2099002345224
 30
0.0
 10
-142.6737090262283
 20
-160.1007673144389
 30
0.0
 10
-142.6572299004031
 20
-159.9405475435426
 30
0.0
 10
-142.6291043768903
 20
-159.7869739013566
 30
0.0
 10
-142.589184970944
 20
-159.6405606933561
 30
0.0
 10
-142.5388711295612
 20
-159.5007600785376
 30
0.0
 10
-142.4756884697332
 20
-159.3688914017574
 30
0.0
 10
-142.4036719167438
 20
-159.2426428623048
 30
0.0
 10
-142.3177704641399
 20
-159.1249227132027
 30
0.0
 10
-142.2232627023408
 20
-159.0137168565664
 30
0.0
 10
-142.1187214989344
 20
-158.9098300728492
 30
0.0
 10
-142.0064017223227
 20
-158.8120132021248
 30
0.0
 10
-141.8834198289371
 20
-158.7227496409301
 30
0.0
 10
-141.7517730756829
 20
-158.6407528887361
 30
0.0
 10
-141.611471706455
 20
-158.5652134027153
 30
0.0
 10
-141.4622347885057
 20
-158.4974645808973
 30
0.0
 10
-141.3046302943889
 20
-158.4363328993321
 30
0.0
 10
-141.1390866967874
 20
-158.3827396719339
 30
0.0
 10
-140.9664547167155
 20
-158.3352866236613
 30
0.0
 10
-140.786226067265
 20
-158.2975328735695
 30
0.0
 10
-140.600030034579
 20
-158.2638191549326
 30
0.0
 10
-140.4062813996082
 20
-158.2401100891624
 30
0.0
 10
-140.206281047462
 20
-158.2206879533431
 30
0.0
 10
-139.9990069124772
 20
-158.2103787743414
 30
0.0
 10
-139.8587862729329
 20
-158.2090173973102
 30
0.0
 10
-139.7875419205715
 20
-158.2083256986756
 30
0.0
  0
SPLINE
  5
72
330
1F
100
AcDbEntity
  8
0
  6
Continuous
 62
     7
370
    25
100
AcDbSpline
210
0.0
220
0.0
230
1.0
 70
     8
 71
     3
 72
    31
 73
    27
 74
     0
 42
0.00000001
 43
0.00000001
 40
0.0
 40
0.0
 40
0.0
 40
0.0
 40
0.0522586730675175
 40
0.1031108676925355
 40
0.1526228375637827
 40
0.2006138524331975
 40
0.2476665049628411
 40
0.2933881766752164
 40
0.3380323226151782
 40
0.3818484808212843
 40
0.4243154181998794
 40
0.4655667773295588
 40
0.5056280593715408
 40
0.5446476481520822
 40
0.5828695939404926
 40
0.6203792600766366
 40
0.6575346234491387
 40
0.6945657035629667
 40
0.731320005770588
 40
0.7679192456691675
 40
0.8045467275421598
 40
0.841790114966216
 40
0.8796120572494645
 40
0.9184179537281338
 40
0.9582905842177377
 40
0.9999999999999999
 40
0.9999999999999999
 40
0.9999999999999999
 40
0.9999999999999999
 10
-139.7793225467535
 20
-162.3238835889887
 30
0.0
 10
-139.8490070195467
 20
-162.3232389759229
 30
0.0
 10
-139.9865004925463
 20
-162.3219670987654
 30
0.0
 10
-140.1897479767183
 20
-162.3109293984021
 30
0.0
 10
-140.3869246272945
 20
-162.2942165287984
 30
0.0
 10
-140.5778111874171
 20
-162.2672094115345
 30
0.0
 10
-140.7631111547724
 20
-162.2369247431237
 30
0.0
 10
-140.9417595051591
 20
-162.1958794243249
 30
0.0
 10
-141.1149863987767
 20
-162.1509541570429
 30
0.0
 10
-141.2811209351122
 20
-162.0969575605212
 30
0.0
 10
-141.4398597287448
 20
-162.0358440181948
 30
0.0
 10
-141.5906929432721
 20
-161.9684600122064
 30
0.0
 10
-141.7313698336571
 20
-161.8911169025567
 30
0.0
 10
-141.8651716651511
 20
-161.8098461999787
 30
0.0
 10
-141.9879919424648
 20
-161.7183721542502
 30
0.0
 10
-142.1043191683449
 20
-161.6226479478469
 30
0.0
 10
-142.2097733341585
 20
-161.5172197697725
 30
0.0
 10
-142.3076222023049
 20
-161.4061499642844
 30
0.0
 10
-142.3950413779196
 20
-161.2874111087039
 30
0.0
 10
-142.4697145556357
 20
-161.1610428604819
 30
0.0
 10
-142.5358822330286
 20
-161.0291593157735
 30
0.0
 10
-142.5861735215411
 20
-160.8887465267925
 30
0.0
 10
-142.628598778409
 20
-160.7427722248673
 30
0.0
 10
-142.6554166924551
 20
-160.5895697634678
 30
0.0
 10
-142.6742220799709
 20
-160.4299804885064
 30
0.0
 10
-142.6762183222986
 20
-160.3211552447603
 30
0.0
 10
-142.6772389157386
 20
-160.2655175457023
 30
0.0
  0
SPLINE
  5
92
330
1F
100
AcDbEntity
  8
0
  6
Continuous
 62
     7
370
    25
100
AcDbSpline
210
0.0
220
0.0
230
1.0
 70
     8
 71
     3
 72
    19
 73
    15
 74
     0
 42
0.00000001
 43
0.00000001
 40
0.0
 40
0.0
 40
0.0
 40
0.0
 40
0.0905026882913804
 40
0.1768616124499238
 40
0.2592536940582343
 40
0.3403087231362136
 40
0.4200042711041811
 40
0.4994345104269734
 40
0.5793358005170424
 40
0.6608643384359942
 40
0.7440148268817468
 40
0.8274187906712788
 40
0.9126925283575944
 40
1.0
 40
1.0
 40
1.0
 40
1.0
 10
-141.0216221895356
 20
-133.9153792813611
 30
0.0
 10
-140.9541932093258
 20
-133.9178045928688
 30
0.0
 10
-140.8224225581894
 20
-133.922544170356
 30
0.0
 10
-140.6310861211062
 20
-133.9544926889142
 30
0.0
 10
-140.4539696208869
 20
-134.0136363296622
 30
0.0
 10
-140.290146744359
 20
-134.0921689867964
 30
0.0
 10
-140.1403158227269
 20
-134.1908858283897
 30
0.0
 10
-140.0031749344345
 20
-134.3051113646691
 30
0.0
 10
-139.8801722003533
 20
-134.4364814018808
 30
0.0
 10
-139.7727269865773
 20
-134.5841216679038
 30
0.0
 10
-139.6782510875514
 20
-134.7432713971525
 30
0.0
 10
-139.5965591273895
 20
-134.9124252570076
 30
0.0
 10
-139.5290668555548
 20
-135.0912153792537
 30
0.0
 10
-139.4964188625173
 20
-135.2156637104125
 30
0.0
 10
-139.4799025005253
 20
-135.2786211388942
 30
0.0
  0
SPLINE
  5
93
330
1F
100
AcDbEntity
  8
0
  6
Continuous
 62
     7
370
    25
100
AcDbSpline
210
0.0
220
0.0
230
1.0
 70
     8
 71
     3
 72
    23
 73
    19
 74
     0
 42
0.00000001
 43
0.00000001
 40
0.0
 40
0.0
 40
0.0
 40
0.0
 40
0.0843071036755082
 40
0.1633289545800996
 40
0.2376875534161778
 40
0.307364671771441
 40
0.3731554645573908
 40
0.4353951295929346
 40
0.4945777045589504
 40
0.5511621748986786
 40
0.6059768315931222
 40
0.6594942041871434
 40
0.7122834550421302
 40
0.7658471830996629
 40
0.8203368558581678
 40
0.877269777068114
 40
0.9369235697495861
 40
1.0
 40
1.0
 40
1.0
 40
1.0
 10
-142.588
 20
-136.0171905862571
 30
0.0
 10
-142.5870752821261
 20
-135.933389142119
 30
0.0
 10
-142.5852838173854
 20
-135.7710398065749
 30
0.0
 10
-142.5657622871688
 20
-135.5354678757058
 30
0.0
 10
-142.5362795836602
 20
-135.3156405373748
 30
0.0
 10
-142.4929784105093
 20
-135.1114314017996
 30
0.0
 10
-142.4366823829377
 20
-134.9229532663053
 30
0.0
 10
-142.3686162871419
 20
-134.7495929698671
 30
0.0
 10
-142.2893788458499
 20
-134.5910199545739
 30
0.0
 10
-142.1956022780649
 20
-134.449416390485
 30
0.0
 10
-142.0915509625395
 20
-134.322220393317
 30
0.0
 10
-141.9728147240304
 20
-134.2140996769803
 30
0.0
 10
-141.8436940659766
 20
-134.1208369160544
 30
0.0
 10
-141.7019150747892
 20
-134.046020828659
 30
0.0
 10
-141.5487199318309
 20
-133.9865892194606
 30
0.0
 10
-141.3835908181058
 20
-133.9445994816832
 30
0.0
 10
-141.2063344398333
 20
-133.9198207729759
 30
0.0
 10
-141.0843270990357
 20
-133.9168870499542
 30
0.0
 10
-141.0216221895356
 20
-133.9153792813611
 30
0.0
  0
SPLINE
  5
A5
330
1F
100
AcDbEntity
  8
0
  6
Continuous
 62
     7
370
    25
100
AcDbSpline
210
0.0
220
0.0
230
1.0
 70
     8
 71
     3
 72
    27
 73
    23
 74
     0
 42
0.00000001
 43
0.00000001
 40
0.0
 40
0.0
 40
0.0
 40
0.0
 40
0.0776131618058879
 40
0.1497695862535341
 40
0.2163072973822062
 40
0.2780862987441645
 40
0.3357345435647775
 40
0.3896644853200116
 40
0.4406745217985653
 40
0.4891436221686884
 40
0.5356644054235838
 40
0.5803776651991787
 40
0.6241083154367367
 40
0.667097326138619
 40
0.7098003785802185
 40
0.7519125879919584
 40
0.7940361539372005
 40
0.8361457421754938
 40
0.878024024696544
 40
0.919308572739203
 40
0.9598375885673194
 40
1.0
 40
1.0
 40
1.0
 40
1.0
 10
-139.8204194158436
 20
-31.21547762134844
 30
0.0
 10
-139.7084319982283
 20
-31.21730888050801
 30
0.0
 10
-139.4923306461947
 20
-31.22084264875389
 30
0.0
 10
-139.1809868976582
 20
-31.2469195958395
 30
0.0
 10
-138.8953057697524
 20
-31.2939480442651
 30
0.0
 10
-138.6343812516729
 20
-31.35795313574466
 30
0.0
 10
-138.3976502941331
 20
-31.43959644910375
 30
0.0
 10
-138.1821661346973
 20
-31.53308099078423
 30
0.0
 10
-137.9886500482481
 20
-31.64133463692683
 30
0.0
 10
-137.81594649238
 20
-31.76266820227765
 30
0.0
 10
-137.6643872667001
 20
-31.89606820807504
 30
0.0
 10
-137.5303079122301
 20
-32.03768750657373
 30
0.0
 10
-137.4147332254501
 20
-32.18850304189451
 30
0.0
 10
-137.3171161457255
 20
-32.34804932009467
 30
0.0
 10
-137.2354220314045
 20
-32.51359701287295
 30
0.0
 10
-137.166935214698
 20
-32.68363569597637
 30
0.0
 10
-137.1116287275723
 20
-32.85754031743548
 30
0.0
 10
-137.0700409524101
 20
-33.03482651912489
 30
0.0
 10
-137.038587146283
 20
-33.2128921046716
 30
0.0
 10
-137.0162378870439
 20
-33.3900225136348
 30
0.0
 10
-137.0030488552846
 20
-33.565625702339
 30
0.0
 10
-137.0010132022421
 20
-33.682051272241
 30
0.0
 10
-137.0
 20
-33.73999957974306
 30
0.0
  0
SPLINE
  5
A6
330
1F
100
AcDbEntity
  8
0
  6
Continuous
 62
     7
370
    25
100
AcDbSpline
210
0.0
220
0.0
230
1.0
 70
     8
 71
     3
 72
    31
 73
    27
 74
     0
 42
0.00000001
 43
0.00000001
 40
0.0
 40
0.0
 40
0.0
 40
0.0
 40
0.0557204405441806
 40
0.1108028125707609
 40
0.1654480134097272
 40
0.2198545346585326
 40
0.2737419534384769
 40
0.3270501005913868
 40
0.3802640089580585
 40
0.4339000195433816
 40
0.4612603187605808
 40
0.4890947902099125
 40
0.5171818587185492
 40
0.5462104850272864
 40
0.5759925936365639
 40
0.6067168248695168
 40
0.6384513106171519
 40
0.671186778526184
 40
0.7054117784339526
 40
0.741498915482615
 40
0.7794323913717853
 40
0.8191904934887919
 40
0.8610397627856892
 40
0.9051382247407818
 40
0.9515260049735185
 40
1.0
 40
1.0
 40
1.0
 40
1.0
 10
-142.588
 20
-33.82923849548167
 30
0.0
 10
-142.5865501131802
 20
-33.74779065399228
 30
0.0
 10
-142.5836669425526
 20
-33.58582765034939
 30
0.0
 10
-142.5634461781035
 20
-33.34464215046435
 30
0.0
 10
-142.5291441309559
 20
-33.1070969441019
 30
0.0
 10
-142.4822836164369
 20
-32.87340121828304
 30
0.0
 10
-142.4160929407738
 20
-32.64627042207559
 30
0.0
 10
-142.3267928674998
 20
-32.42890818107743
 30
0.0
 10
-142.2129660058293
 20
-32.22383508583477
 30
0.0
 10
-142.1005792300361
 20
-32.06254571641358
 30
0.0
 10
-141.9981081902973
 20
-31.94071587614625
 30
0.0
 10
-141.912475671288
 20
-31.8539858943832
 30
0.0
 10
-141.8185518859376
 20
-31.77266576617151
 30
0.0
 10
-141.7181244698803
 20
-31.69469024701675
 30
0.0
 10
-141.6079337496675
 20
-31.6239197597018
 30
0.0
 10
-141.4920665019852
 20
-31.55483424333476
 30
0.0
 10
-141.3670686828647
 20
-31.4934748779291
 30
0.0
 10
-141.2351175953251
 20
-31.43501620126779
 30
0.0
 10
-141.0934262638181
 20
-31.38365230806525
 30
0.0
 10
-140.9420524914821
 20
-31.33720606435563
 30
0.0
 10
-140.7796478452413
 20
-31.30095852650797
 30
0.0
 10
-140.6079463448791
 20
-31.26822153207517
 30
0.0
 10
-140.4254657331241
 20
-31.24593632428691
 30
0.0
 10
-140.232856613735
 20
-31.22796909174489
 30
0.0
 10
-140.029934734978
 20
-31.21743085345533
 30
0.0
 10
-139.8912743358504
 20
-31.21613817497888
 30
0.0
 10
-139.8204194158436
 20
-31.21547762134844
 30
0.0
  0
SPLINE
  5
AC
330
1F
100
AcDbEntity
  8
0
  6
Continuous
 62
     7
370
    25
100
AcDbSpline
210
0.0
220
0.0
230
1.0
 70
     8
 71
     3
 72
    27
 73
    23
 74
     0
 42
0.00000001
 43
0.00000001
 40
0.0
 40
0.0
 40
0.0
 40
0.0
 40
0.0497666997146654
 40
0.0967582675268261
 40
0.1418657119319896
 40
0.1849913160897025
 40
0.2264061747159529
 40
0.2661410245234875
 40
0.3047470209390698
 40
0.3425917592406502
 40
0.3799024434153114
 40
0.416961268598141
 40
0.4537028422834121
 40
0.4908914079882111
 40
0.5282289762908946
 40
0.5664326072743345
 40
0.6050403364156858
 40
0.6449113195535728
 40
0.7272826543749812
 40
0.8135074887828758
 40
0.9041108332258134
 40
1.0
 40
1.0
 40
1.0
 40
1.0
 10
-140.8713250682916
 20
-1.871138894725261
 30
0.0
 10
-140.8180653804586
 20
-1.872059743597637
 30
0.0
 10
-140.7145159155897
 20
-1.873850092205365
 30
0.0
 10
-140.5631828211971
 20
-1.887195153632629
 30
0.0
 10
-140.4198606184424
 20
-1.907695442096985
 30
0.0
 10
-140.2842774504402
 20
-1.937984418061034
 30
0.0
 10
-140.1575009297912
 20
-1.978499354383267
 30
0.0
 10
-140.0378984574596
 20
-2.024861760774696
 30
0.0
 10
-139.9269040183302
 20
-2.081419306496121
 30
0.0
 10
-139.8246122416426
 20
-2.147758752990669
 30
0.0
 10
-139.7295068283567
 20
-2.22116429854452
 30
0.0
 10
-139.6395682864407
 20
-2.299157993220183
 30
0.0
 10
-139.5584119318283
 20
-2.386096067456434
 30
0.0
 10
-139.483200636424
 20
-2.478524166741352
 30
0.0
 10
-139.4148856697826
 20
-2.578072425135316
 30
0.0
 10
-139.3524242076661
 20
-2.683187633832102
 30
0.0
 10
-139.298513275993
 20
-2.795960962566415
 30
0.0
 10
-139.2339645733313
 20
-2.955583250097496
 30
0.0
 10
-139.1677575499688
 20
-3.169157855777427
 30
0.0
 10
-139.1141373087587
 20
-3.441582670931309
 30
0.0
 10
-139.0785221240795
 20
-3.731691410820442
 30
0.0
 10
-139.0752916255177
 20
-3.931349745075058
 30
0.0
 10
-139.0736305946627
 20
-4.034008405126604
 30
0.0
  0
SPLINE
  5
AD
330
1F
100
AcDbEntity
  8
0
  6
Continuous
 62
     7
370
    25
100
AcDbSpline
210
0.0
220
0.0
230
1.0
 70
     8
 71
     3
 72
    23
 73
    19
 74
     0
 42
0.00000001
 43
0.00000001
 40
0.0
 40
0.0
 40
0.0
 40
0.0
 40
0.077548630998193
 40
0.1511896424292501
 40
0.2208860462233847
 40
0.2876611392380755
 40
0.3511496339599846
 40
0.4122761003158678
 40
0.4708965008672987
 40
0.5285423595153084
 40
0.5849277178366457
 40
0.6397711913214795
 40
0.6946236133120006
 40
0.7505745594792861
 40
0.8081656581086183
 40
0.8686556373326014
 40
0.932154070680522
 40
1.0
 40
1.0
 40
1.0
 40
1.0
 10
-142.588
 20
-4.025789031308569
 30
0.0
 10
-142.5864832968009
 20
-3.944739341681186
 30
0.0
 10
-142.5835263159827
 20
-3.786723997811964
 30
0.0
 10
-142.5653506354775
 20
-3.55636794031694
 30
0.0
 10
-142.5321873115941
 20
-3.339100662955785
 30
0.0
 10
-142.4869413162616
 20
-3.134893048965109
 30
0.0
 10
-142.4285317619699
 20
-2.943290064561829
 30
0.0
 10
-142.3554793157772
 20
-2.765971589466163
 30
0.0
 10
-142.2705794986886
 20
-2.600877977974841
 30
0.0
 10
-142.1723596813189
 20
-2.449064000064394
 30
0.0
 10
-142.0598848983413
 20
-2.312520467857612
 30
0.0
 10
-141.9331823991514
 20
-2.192977148183686
 30
0.0
 10
-141.7902636543612
 20
-2.094332945763735
 30
0.0
 10
-141.6346495301844
 20
-2.011240569611397
 30
0.0
 10
-141.4636471035051
 20
-1.947554236308796
 30
0.0
 10
-141.2785885840638
 20
-1.904012100284222
 30
0.0
 10
-141.0796002803248
 20
-1.876247535515366
 30
0.0
 10
-140.9422653996383
 20
-1.872878941785311
 30
0.0
 10
-140.8713250682916
 20
-1.871138894725261
 30
0.0
  0
SPLINE
  5
CE
330
1F
100
AcDbEntity
  8
0
  6
Continuous
 62
     7
370
    25
100
AcDbSpline
210
0.0
220
0.0
230
1.0
 70
     8
 71
     3
 72
    23
 73
    19
 74
     0
 42
0.00000001
 43
0.00000001
 40
0.0
 40
0.0
 40
0.0
 40
0.0
 40
0.0668032981452193
 40
0.1328673182702
 40
0.1988161196468327
 40
0.2639146910039656
 40
0.3279918224164071
 40
0.3899977671593773
 40
0.4504927864352707
 40
0.5100336259792485
 40
0.5682154787435586
 40
0.625606093145836
 40
0.682543083043995
 40
0.7402695925696006
 40
0.7996254743603156
 40
0.861896844099078
 40
0.9284059682158445
 40
1.0
 40
1.0
 40
1.0
 40
1.0
 10
-142.588
 20
-170.3107665475935
 30
0.0
 10
-142.5868936143875
 20
-170.2496940843793
 30
0.0
 10
-142.5846930869676
 20
-170.1282250157446
 30
0.0
 10
-142.5732456637214
 20
-169.9467178652686
 30
0.0
 10
-142.5518933516153
 20
-169.7676794025218
 30
0.0
 10
-142.5226691060798
 20
-169.5916600251868
 30
0.0
 10
-142.4856128146889
 20
-169.4206289425904
 30
0.0
 10
-142.4328963570464
 20
-169.2581595254819
 30
0.0
 10
-142.3709530431846
 20
-169.1035186633529
 30
0.0
 10
-142.2974329053838
 20
-168.9578822842979
 30
0.0
 10
-142.2111133005947
 20
-168.8224627065246
 30
0.0
 10
-142.1074489769756
 20
-168.7030934129521
 30
0.0
 10
-141.9934812243857
 20
-168.594111556247
 30
0.0
 10
-141.8628492331877
 20
-168.5023658314014
 30
0.0
 10
-141.7173384804302
 20
-168.4254650659016
 30
0.0
 10
-141.5531201396251
 20
-168.3718384653872
 30
0.0
 10
-141.371979873129
 20
-168.3401364331796
 30
0.0
 10
-141.2456363877421
 20
-168.3364864365647
 30
0.0
 10
-141.1801386845976
 20
-168.3345942424874
 30
0.0
  0
SPLINE
  5
D2
330
1F
100
AcDbEntity
  8
0
  6
Continuous
 62
     7
370
    25
100
AcDbSpline
210
0.0
220
0.0
230
1.0
 70
     8
 71
     3
 72
    23
 73
    19
 74
     0
 42
0.00000001
 43
0.00000001
 40
0.0
 40
0.0
 40
0.0
 40
0.0
 40
0.0735091456732917
 40
0.1415019388044629
 40
0.2052788255366546
 40
0.2661737881989478
 40
0.3253882793626929
 40
0.3835626286258037
 40
0.4414080980556811
 40
0.4998628716076002
 40
0.5592008495869849
 40
0.6196259703681024
 40
0.6809020919627028
 40
0.7439779438545872
 40
0.8078329257591663
 40
0.8715169500888181
 40
0.9356542298711257
 40
1.0
 40
1.0
 40
1.0
 40
1.0
 10
-138.5945585206976
 20
-168.0915356167257
 30
0.0
 10
-138.5216483846445
 20
-168.0938693533238
 30
0.0
 10
-138.3812995135549
 20
-168.098361695743
 30
0.0
 10
-138.179466877624
 20
-168.130363005056
 30
0.0
 10
-137.9967522543798
 20
-168.1885959093304
 30
0.0
 10
-137.8319400781839
 20
-168.2679815685167
 30
0.0
 10
-137.6841099434262
 20
-168.3660537488294
 30
0.0
 10
-137.5533761157361
 20
-168.4811877322534
 30
0.0
 10
-137.436751375218
 20
-168.609659592176
 30
0.0
 10
-137.3386697008257
 20
-168.7542109567739
 30
0.0
 10
-137.2546799857089
 20
-168.9099315529001
 30
0.0
 10
-137.1814094349228
 20
-169.0740828668964
 30
0.0
 10
-137.1226083598887
 20
-169.2479463945661
 30
0.0
 10
-137.0780363131357
 20
-169.4293491163626
 30
0.0
 10
-137.0427732081531
 20
-169.6151829194498
 30
0.0
 10
-137.0185724574685
 20
-169.8038068324359
 30
0.0
 10
-137.0023748793778
 20
-169.9938401706155
 30
0.0
 10
-137.0007924823815
 20
-170.121296147505
 30
0.0
 10
-137.0
 20
-170.1851275478036
 30
0.0
  0
SPLINE
  5
D3
330
1F
100
AcDbEntity
  8
0
  6
Continuous
 62
     7
370
    25
100
AcDbSpline
210
0.0
220
0.0
230
1.0
 70
     8
 71
     3
 72
    19
 73
    15
 74
     0
 42
0.00000001
 43
0.00000001
 40
0.0
 40
0.0
 40
0.0
 40
0.0
 40
0.0760264374474739
 40
0.1523618455584924
 40
0.2289569129096395
 40
0.3067570672907939
 40
0.3845325205957348
 40
0.4617210745390806
 40
0.5397513952345858
 40
0.6200072074896652
 40
0.7043278907221069
 40
0.7939847620389904
 40
0.892330585104675
 40
1.0
 40
1.0
 40
1.0
 40
1.0
 10
-139.9578003782307
 20
-169.3737579323382
 30
0.0
 10
-139.9489905555727
 20
-169.3218753515577
 30
0.0
 10
-139.9313351072275
 20
-169.2178993397195
 30
0.0
 10
-139.8871479703047
 20
-169.0655988115541
 30
0.0
 10
-139.836419685292
 20
-168.9142195265635
 30
0.0
 10
-139.7720864228075
 20
-168.7668520013346
 30
0.0
 10
-139.6947223196998
 20
-168.6253078697068
 30
0.0
 10
-139.5977669957365
 20
-168.4956697338448
 30
0.0
 10
-139.4804952882217
 20
-168.3820958985866
 30
0.0
 10
-139.3489426679479
 20
-168.2771623456433
 30
0.0
 10
-139.1931935460693
 20
-168.1932432275546
 30
0.0
 10
-139.0137691308511
 20
-168.1337191873347
 30
0.0
 10
-138.8116958341868
 20
-168.0971623592477
 30
0.0
 10
-138.6690889361401
 20
-168.0934669451142
 30
0.0
 10
-138.5945585206976
 20
-168.0915356167257
 30
0.0
  0
SPLINE
  5
D4
330
1F
100
AcDbEntity
  8
0
  6
Continuous
 62
     7
370
    25
100
AcDbSpline
210
0.0
220
0.0
230
1.0
 70
     8
 71
     3
 72
    19
 73
    15
 74
     0
 42
0.00000001
 43
0.00000001
 40
0.0
 40
0.0
 40
0.0
 40
0.0
 40
0.0996637851522952
 40
0.1925262562943234
 40
0.2799333981540838
 40
0.3641339904601621
 40
0.4460067574943093
 40
0.5261633332921187
 40
0.605637279130958
 40
0.6851339789451727
 40
0.7649513857640908
 40
0.8431521062311473
 40
0.9218571203104118
 40
1.0
 40
1.0
 40
1.0
 40
1.0
 10
-141.1801386845976
 20
-168.3345942424874
 30
0.0
 10
-141.1220722630377
 20
-168.3362107188401
 30
0.0
 10
-141.0099020224408
 20
-168.3393333590259
 30
0.0
 10
-140.8490755642086
 20
-168.3685296307289
 30
0.0
 10
-140.7011443428637
 20
-168.4130856168562
 30
0.0
 10
-140.5691295764719
 20
-168.4804795841058
 30
0.0
 10
-140.4503467270044
 20
-168.5610498130098
 30
0.0
 10
-140.3422734951754
 20
-168.6514634517928
 30
0.0
 10
-140.2479949183402
 20
-168.7543942889007
 30
0.0
 10
-140.1669000870402
 20
-168.8676739587589
 30
0.0
 10
-140.0990910742448
 20
-168.9883233346352
 30
0.0
 10
-140.0388393254417
 20
-169.1123941092887
 30
0.0
 10
-139.9922853600539
 20
-169.2413560733039
 30
0.0
 10
-139.9692678743628
 20
-169.3297295545898
 30
0.0
 10
-139.9578003782307
 20
-169.3737579323382
 30
0.0
  0
SPLINE
  5
1E3
330
1F
100
AcDbEntity
  8
0
  6
Continuous
 62
     7
370
    25
100
AcDbSpline
210
0.0
220
0.0
230
1.0
 70
     8
 71
     3
 72
    27
 73
    23
 74
     0
 42
0.00000001
 43
0.00000001
 40
0.0
 40
0.0
 40
0.0
 40
0.0
 40
0.0776070352786067
 40
0.1495115864662227
 40
0.2162681557617886
 40
0.2780422804929223
 40
0.3356859747510224
 40
0.389611659454337
 40
0.4406176693686732
 40
0.4890829437477048
 40
0.5356000548052409
 40
0.5803097850634267
 40
0.6242024057486045
 40
0.6671880230396177
 40
0.7097677820796672
 40
0.7519787580494289
 40
0.7940989988991607
 40
0.8362052631452975
 40
0.878033653078161
 40
0.919314942254619
 40
0.9598407588557557
 40
1.0
 40
1.0
 40
1.0
 40
1.0
 10
135.9204194158436
 20
26.11704959883088
 30
0.0
 10
135.8084090346304
 20
26.11866450251896
 30
0.0
 10
135.5926186783082
 20
26.12177564845475
 30
0.0
 10
135.2816112961709
 20
26.15069715399773
 30
0.0
 10
134.9955405871508
 20
26.19490862189566
 30
0.0
 10
134.7344005381691
 20
26.25965367934555
 30
0.0
 10
134.4976451738827
 20
26.34113695481689
 30
0.0
 10
134.2821689318594
 20
26.43466193583022
 30
0.0
 10
134.0886440459877
 20
26.54290008121998
 30
0.0
 10
133.915966432551
 20
26.6642567944078
 30
0.0
 10
133.7643174375121
 20
26.7975833525417
 30
0.0
 10
133.6303913066805
 20
26.93963436794458
 30
0.0
 10
133.5135523239884
 20
27.08973213428344
 30
0.0
 10
133.4156424613072
 20
27.24930946119281
 30
0.0
 10
133.335996181332
 20
27.41576893714825
 30
0.0
 10
133.2653253338749
 20
27.58487287702904
 30
0.0
 10
133.2106883270096
 20
27.75918264156249
 30
0.0
 10
133.1684283086913
 20
27.93624599449905
 30
0.0
 10
133.1389968800359
 20
28.11460578839213
 30
0.0
 10
133.1161292318454
 20
28.29157500597622
 30
0.0
 10
133.1030755252645
 20
28.46720246255
 30
0.0
 10
133.1010220652681
 20
28.58362483913024
 30
0.0
 10
133.1
 20
28.64157155722549
 30
0.0
  0
SPLINE
  5
1E4
330
1F
100
AcDbEntity
  8
0
  6
Continuous
 62
     7
370
    25
100
AcDbSpline
210
0.0
220
0.0
230
1.0
 70
     8
 71
     3
 72
    31
 73
    27
 74
     0
 42
0.00000001
 43
0.00000001
 40
0.0
 40
0.0
 40
0.0
 40
0.0
 40
0.055717496748436
 40
0.1105301179112008
 40
0.1654759952377951
 40
0.2198796421072121
 40
0.2736889854029742
 40
0.326994316205273
 40
0.3802054132001136
 40
0.4342115930316363
 40
0.4615704467625574
 40
0.4890247850340787
 40
0.5172872303683573
 40
0.546152086605342
 40
0.5760803156011711
 40
0.6066684439655724
 40
0.6385218999181944
 40
0.6712556383625959
 40
0.7054788301114899
 40
0.7414874855192654
 40
0.7794803374433805
 40
0.8191885201622938
 40
0.8610706861748298
 40
0.9051432364328574
 40
0.951528565928509
 40
1.0
 40
1.0
 40
1.0
 40
1.0
 10
138.688
 20
28.73081047296411
 30
0.0
 10
138.6865364527281
 20
28.64936518623841
 30
0.0
 10
138.6836331268075
 20
28.48779731850475
 30
0.0
 10
138.6636470883924
 20
28.24651914046546
 30
0.0
 10
138.62780897378
 20
28.00912480358
 30
0.0
 10
138.5808257327407
 20
27.77518517063911
 30
0.0
 10
138.5164273498289
 20
27.54762326336308
 30
0.0
 10
138.4266694466296
 20
27.33052952896195
 30
0.0
 10
138.3128215911175
 20
27.12484789513869
 30
0.0
 10
138.199658674855
 20
26.96344965290031
 30
0.0
 10
138.0973795588957
 20
26.84143827574689
 30
0.0
 10
138.01160588176
 20
26.75533362519652
 30
0.0
 10
137.9194175046944
 20
26.67276596534623
 30
0.0
 10
137.8172316840003
 20
26.59674146432522
 30
0.0
 10
137.7087883829513
 20
26.52373151640963
 30
0.0
 10
137.5912977352816
 20
26.45701344249975
 30
0.0
 10
137.4674927960936
 20
26.39343503010702
 30
0.0
 10
137.335010670739
 20
26.33567451738589
 30
0.0
 10
137.1936914763052
 20
26.28354909281906
 30
0.0
 10
137.0416144211122
 20
26.23966964389147
 30
0.0
 10
136.8800298099365
 20
26.20031735685492
 30
0.0
 10
136.7076450042822
 20
26.17087285194973
 30
0.0
 10
136.5256805728499
 20
26.14531992415085
 30
0.0
 10
136.3327552747495
 20
26.13016876327438
 30
0.0
 10
136.1299527123272
 20
26.11883367860762
 30
0.0
 10
135.9912804155186
 20
26.11765294769525
 30
0.0
 10
135.9204194158436
 20
26.11704959883088
 30
0.0
  0
SPLINE
  5
1EB
330
1F
100
AcDbEntity
  8
0
  6
Continuous
 62
     7
370
    25
100
AcDbSpline
210
0.0
220
0.0
230
1.0
 70
     8
 71
     3
 72
    17
 73
    13
 74
     0
 42
0.00000001
 43
0.00000001
 40
0.0
 40
0.0
 40
0.0
 40
0.0
 40
0.0326279763783766
 40
0.0722266996447434
 40
0.1182408636982051
 40
0.1718224713382551
 40
0.2929474790013878
 40
0.4286216682308538
 40
0.573024927624779
 40
0.7215143604880631
 40
0.8659751311899013
 40
1.0
 40
1.0
 40
1.0
 40
1.0
 10
138.0421920571549
 20
34.41861715504016
 30
0.0
 10
138.0202768377386
 20
34.41770808580696
 30
0.0
 10
137.9717643602233
 20
34.41569573083584
 30
0.0
 10
137.8922707040529
 20
34.41544021772918
 30
0.0
 10
137.7987498908405
 20
34.41240720405244
 30
0.0
 10
137.6504121117387
 20
34.40940510311723
 30
0.0
 10
137.4417942791092
 20
34.40658110922607
 30
0.0
 10
137.1721182894388
 20
34.40406636342527
 30
0.0
 10
136.8840351256982
 20
34.40402574057008
 30
0.0
 10
136.5900522538178
 20
34.40705995989307
 30
0.0
 10
136.3031513779746
 20
34.41547655403019
 30
0.0
 10
136.1161121583375
 20
34.42314566740063
 30
0.0
 10
136.0260970792183
 20
34.4268365288582
 30
0.0
  0
SPLINE
  5
1EF
330
1F
100
AcDbEntity
  8
0
  6
Continuous
 62
     7
370
    25
100
AcDbSpline
210
0.0
220
0.0
230
1.0
 70
     8
 71
     3
 72
    17
 73
    13
 74
     0
 42
0.00000001
 43
0.00000001
 40
0.0
 40
0.0
 40
0.0
 40
0.0
 40
0.14741585220083
 40
0.2965459261962108
 40
0.4444763125111659
 40
0.585405770319942
 40
0.7164597732460335
 40
0.8318481732734264
 40
0.8828735551766691
 40
0.9281005982272609
 40
0.966949468539949
 40
1.0
 40
1.0
 40
1.0
 40
1.0
 10
136.0178777054003
 20
31.71561736516836
 30
0.0
 10
136.1172896019814
 20
31.72000352568947
 30
0.0
 10
136.3172694040612
 20
31.72882685109688
 30
0.0
 10
136.6170697106441
 20
31.74058188664947
 30
0.0
 10
136.9125715174619
 20
31.75018722457068
 30
0.0
 10
137.1959729051249
 20
31.75567300789062
 30
0.0
 10
137.457431988573
 20
31.75934389677025
 30
0.0
 10
137.6582289555722
 20
31.7603286311437
 30
0.0
 10
137.8010904161718
 20
31.76022277900693
 30
0.0
 10
137.8922863365926
 20
31.76023983655743
 30
0.0
 10
137.9713488824453
 20
31.76023623986875
 30
0.0
 10
138.0198823281027
 20
31.76023663938776
 30
0.0
 10
138.0421920571549
 20
31.76023682303765
 30
0.0
  0
SPLINE
  5
1F9
330
1F
100
AcDbEntity
  8
0
  6
Continuous
 62
     7
370
    25
100
AcDbSpline
210
0.0
220
0.0
230
1.0
 70
     8
 71
     3
 72
    15
 73
    11
 74
     0
 42
0.00000001
 43
0.00000001
 40
0.0
 40
0.0
 40
0.0
 40
0.0
 40
0.1336192885382445
 40
0.2586282222040138
 40
0.3782618370350513
 40
0.4925065980355841
 40
0.6083575776958994
 40
0.731683183310583
 40
0.86162634701187
 40
1.0
 40
1.0
 40
1.0
 40
1.0
 10
138.233586047489
 20
52.86993718025554
 30
0.0
 10
138.232033270178
 20
52.92912413153225
 30
0.0
 10
138.2290277756884
 20
53.0436840588738
 30
0.0
 10
138.2051197862972
 20
53.20982655889908
 30
0.0
 10
138.1661583935372
 20
53.36431721518974
 30
0.0
 10
138.1075412468074
 20
53.50807073896205
 30
0.0
 10
138.0345244562563
 20
53.64674387305528
 30
0.0
 10
137.9444769303418
 20
53.78333645885579
 30
0.0
 10
137.8400814678248
 20
53.92207861701831
 30
0.0
 10
137.7596125244814
 20
54.00957727664624
 30
0.0
 10
137.7181138894726
 20
54.05470120631144
 30
0.0
  0
SPLINE
  5
1FA
330
1F
100
AcDbEntity
  8
0
  6
Continuous
 62
     7
370
    25
100
AcDbSpline
210
0.0
220
0.0
230
1.0
 70
     8
 71
     3
 72
    23
 73
    19
 74
     0
 42
0.00000001
 43
0.00000001
 40
0.0
 40
0.0
 40
0.0
 40
0.0
 40
0.0705187500705082
 40
0.1364299007865024
 40
0.1999776925034755
 40
0.2610531314458669
 40
0.3204654898131912
 40
0.37970078883472
 40
0.4384567376473151
 40
0.4992847276934001
 40
0.5602056288596272
 40
0.6207495817954087
 40
0.6818073790739625
 40
0.7428828180163595
 40
0.8046815872093211
 40
0.8674404115518694
 40
0.9324422291263395
 40
1.0
 40
1.0
 40
1.0
 40
1.0
 10
137.2836612733768
 20
51.81433474276869
 30
0.0
 10
137.3212783228633
 20
51.81518868138993
 30
0.0
 10
137.3940545749124
 20
51.81684076344265
 30
0.0
 10
137.5000253977412
 20
51.83097551493782
 30
0.0
 10
137.5987766174977
 20
51.85568118643147
 30
0.0
 10
137.691104476889
 20
51.88964346717697
 30
0.0
 10
137.7764421655664
 20
51.93373126881058
 30
0.0
 10
137.8554505006684
 20
51.98620808631516
 30
0.0
 10
137.9270116516157
 20
52.04972234932492
 30
0.0
 10
137.9904311443763
 20
52.12235007848165
 30
0.0
 10
138.0482089772865
 20
52.20070978610339
 30
0.0
 10
138.0974600261978
 20
52.28482937393472
 30
0.0
 10
138.1399879155722
 20
52.37262527269913
 30
0.0
 10
138.1737232059937
 20
52.46485279638905
 30
0.0
 10
138.2012722986129
 20
52.56006956935086
 30
0.0
 10
138.2195403173712
 20
52.65960162757052
 30
0.0
 10
138.2320108291115
 20
52.76315831773159
 30
0.0
 10
138.2330542683241
 20
52.83388962319707
 30
0.0
 10
138.233586047489
 20
52.86993718025554
 30
0.0
  0
SPLINE
  5
1FB
330
1F
100
AcDbEntity
  8
0
  6
Continuous
 62
     7
370
    25
100
AcDbSpline
210
0.0
220
0.0
230
1.0
 70
     8
 71
     3
 72
    19
 73
    15
 74
     0
 42
0.00000001
 43
0.00000001
 40
0.0
 40
0.0
 40
0.0
 40
0.0
 40
0.082635650344723
 40
0.1638159115110834
 40
0.2445787740413272
 40
0.3254097320652989
 40
0.4050488371593872
 40
0.483980788777562
 40
0.562336404679103
 40
0.6436230979691426
 40
0.7263157974406727
 40
0.8119716319038824
 40
0.9028284104569297
 40
1.0
 40
1.0
 40
1.0
 40
1.0
 10
136.3102525740702
 20
52.87815655407358
 30
0.0
 10
136.311807052744
 20
52.83348489507411
 30
0.0
 10
136.3148886324233
 20
52.74492833979586
 30
0.0
 10
136.3334639066351
 20
52.61363137058412
 30
0.0
 10
136.3673491029849
 20
52.48661477235373
 30
0.0
 10
136.4107175869893
 20
52.36338550836622
 30
0.0
 10
136.469338451731
 20
52.24745305616757
 30
0.0
 10
136.5438210765412
 20
52.14265167881729
 30
0.0
 10
136.6324562810922
 20
52.04848778675763
 30
0.0
 10
136.733762926292
 20
51.96467146232187
 30
0.0
 10
136.8513572437644
 20
51.89689538090813
 30
0.0
 10
136.983642137239
 20
51.84901810856596
 30
0.0
 10
137.1292750443871
 20
51.81890722771254
 30
0.0
 10
137.231059739356
 20
51.81589265194172
 30
0.0
 10
137.2836612733768
 20
51.81433474276867
 30
0.0
  0
SPLINE
  5
1FF
330
1F
100
AcDbEntity
  8
0
  6
Continuous
 62
     7
370
    25
100
AcDbSpline
210
0.0
220
0.0
230
1.0
 70
     8
 71
     3
 72
    19
 73
    15
 74
     0
 42
0.00000001
 43
0.00000001
 40
0.0
 40
0.0
 40
0.0
 40
0.0
 40
0.1053928625457654
 40
0.2003053439288161
 40
0.2861136749776797
 40
0.365378218219206
 40
0.4408413030313226
 40
0.5148342797615654
 40
0.5882763822660683
 40
0.664033450841287
 40
0.7423949353809551
 40
0.8247279555408878
 40
0.9097153748570836
 40
1.0
 40
1.0
 40
1.0
 40
1.0
 10
134.7109972683337
 20
51.66403762152471
 30
0.0
 10
134.7741618061254
 20
51.66546799410975
 30
0.0
 10
134.8942097312018
 20
51.66818650147042
 30
0.0
 10
135.06337315976
 20
51.69839575524863
 30
0.0
 10
135.2129000642953
 20
51.74373123327151
 30
0.0
 10
135.3407999789489
 20
51.81199977017342
 30
0.0
 10
135.4485898792698
 20
51.89721756286878
 30
0.0
 10
135.541559341395
 20
51.99363758856673
 30
0.0
 10
135.616719728194
 20
52.10496588527609
 30
0.0
 10
135.67345901547
 20
52.2293266988226
 30
0.0
 10
135.7165789096178
 20
52.36440471315265
 30
0.0
 10
135.7479203945662
 20
52.5082823243396
 30
0.0
 10
135.7673181188305
 20
52.66157580487634
 30
0.0
 10
135.7691689238614
 20
52.7665483727702
 30
0.0
 10
135.7701222945997
 20
52.82062093734738
 30
0.0
  0
SPLINE
  5
200
330
1F
100
AcDbEntity
  8
0
  6
Continuous
 62
     7
370
    25
100
AcDbSpline
210
0.0
220
0.0
230
1.0
 70
     8
 71
     3
 72
    23
 73
    19
 74
     0
 42
0.00000001
 43
0.00000001
 40
0.0
 40
0.0
 40
0.0
 40
0.0
 40
0.0744283807316273
 40
0.1448999121469497
 40
0.2125391060987077
 40
0.2763810300079308
 40
0.3384854530029837
 40
0.3987020049353038
 40
0.4582114392653058
 40
0.5166958766293499
 40
0.5749536920164927
 40
0.6320053194176616
 40
0.6896795802400587
 40
0.7477326794646942
 40
0.8074165124042836
 40
0.8684311648658711
 40
0.9329444456131516
 40
0.9999999999999999
 40
0.9999999999999999
 40
0.9999999999999999
 40
0.9999999999999999
 10
133.5708527001471
 20
52.90633726430683
 30
0.0
 10
133.5717346213155
 20
52.85894745559691
 30
0.0
 10
133.5734515779193
 20
52.76668723105314
 30
0.0
 10
133.5873725080677
 20
52.63186966866299
 30
0.0
 10
133.612292145189
 20
52.5056098860664
 30
0.0
 10
133.6447317020882
 20
52.38654002105436
 30
0.0
 10
133.6883105402322
 20
52.2760452082536
 30
0.0
 10
133.7416486834897
 20
52.17313418531665
 30
0.0
 10
133.803359957659
 20
52.07759615765931
 30
0.0
 10
133.8760031592844
 20
51.99181262424685
 30
0.0
 10
133.9548781537657
 20
51.91381103825271
 30
0.0
 10
134.0435980409782
 20
51.84819722859205
 30
0.0
 10
134.1369332087698
 20
51.78952590313524
 30
0.0
 10
134.2393855191371
 20
51.74442723773362
 30
0.0
 10
134.3471442192875
 20
51.70711776476131
 30
0.0
 10
134.4629046527318
 20
51.68374569085396
 30
0.0
 10
134.5844122614584
 20
51.66584593358581
 30
0.0
 10
134.6682621951961
 20
51.66464810731677
 30
0.0
 10
134.7109972683337
 20
51.66403762152471
 30
0.0
  0
SPLINE
  5
201
330
1F
100
AcDbEntity
  8
0
  6
Continuous
 62
     7
370
    25
100
AcDbSpline
210
0.0
220
0.0
230
1.0
 70
     8
 71
     3
 72
    15
 73
    11
 74
     0
 42
0.00000001
 43
0.00000001
 40
0.0
 40
0.0
 40
0.0
 40
0.0
 40
0.1285062337526274
 40
0.2557543591401617
 40
0.3811685263140413
 40
0.5081050085377581
 40
0.6336448790279267
 40
0.757316961349082
 40
0.8784548336345721
 40
1.0
 40
1.0
 40
1.0
 40
1.0
 10
134.1262475309939
 20
54.1474627108292
 30
0.0
 10
134.0817640286111
 20
54.1069979110021
 30
0.0
 10
133.9932325285276
 20
54.02646447192055
 30
0.0
 10
133.8796748768066
 20
53.88831449712504
 30
0.0
 10
133.7836806906354
 20
53.73869227964539
 30
0.0
 10
133.7053318699267
 20
53.57989671782917
 30
0.0
 10
133.6461539521499
 20
53.41398060064728
 30
0.0
 10
133.6024676840474
 20
53.24628343557541
 30
0.0
 10
133.5752942115793
 20
53.07670001656287
 30
0.0
 10
133.5723348595146
 20
52.96318835046722
 30
0.0
 10
133.5708527001471
 20
52.90633726430683
 30
0.0
  0
SPLINE
  5
203
330
1F
100
AcDbEntity
  8
0
  6
Continuous
 62
     7
370
    25
100
AcDbSpline
210
0.0
220
0.0
230
1.0
 70
     8
 71
     3
 72
    15
 73
    11
 74
     0
 42
0.00000001
 43
0.00000001
 40
0.0
 40
0.0
 40
0.0
 40
0.0
 40
0.1210813593287639
 40
0.242599581371528
 40
0.3664058027581981
 40
0.4932353670467274
 40
0.6202235147272789
 40
0.7458316015062451
 40
0.8718784400572043
 40
1.0
 40
1.0
 40
1.0
 40
1.0
 10
133.0072384954822
 20
52.88989851667075
 30
0.0
 10
133.0097196965233
 20
52.96788830268007
 30
0.0
 10
133.0146910508026
 20
53.12414926259991
 30
0.0
 10
133.0482610123699
 20
53.3583100924026
 30
0.0
 10
133.1058926191331
 20
53.59123872056823
 30
0.0
 10
133.1816293342777
 20
53.82264411865208
 30
0.0
 10
133.2823865956405
 20
54.0461086235611
 30
0.0
 10
133.4132929871728
 20
54.25257655113747
 30
0.0
 10
133.5681654074313
 20
54.44318882347085
 30
0.0
 10
133.690956443899
 20
54.55181633914316
 30
0.0
 10
133.7528531204034
 20
54.6065734483791
 30
0.0
  0
SPLINE
  5
204
330
1F
100
AcDbEntity
  8
0
  6
Continuous
 62
     7
370
    25
100
AcDbSpline
210
0.0
220
0.0
230
1.0
 70
     8
 71
     3
 72
    19
 73
    15
 74
     0
 42
0.00000001
 43
0.00000001
 40
0.0
 40
0.0
 40
0.0
 40
0.0
 40
0.0814469082398098
 40
0.160666448857631
 40
0.2383004065944893
 40
0.3166595402809617
 40
0.3951776293507787
 40
0.4739204433195715
 40
0.5538290790653319
 40
0.6365554944244755
 40
0.7223048879119727
 40
0.8105570186795122
 40
0.9027535569191124
 40
1.0
 40
1.0
 40
1.0
 40
1.0
 10
134.7109972683337
 20
50.9501262956159
 30
0.0
 10
134.632478004565
 20
50.95294030784199
 30
0.0
 10
134.4775867809535
 20
50.95849137615357
 30
0.0
 10
134.2519993511243
 20
51.00610195638919
 30
0.0
 10
134.0374957937303
 20
51.08111265690331
 30
0.0
 10
133.8380418350033
 20
51.1889895138
 30
0.0
 10
133.6541443329268
 20
51.32307277765699
 30
0.0
 10
133.4897489014689
 20
51.48283226859854
 30
0.0
 10
133.3469740542466
 20
51.6671223751212
 30
0.0
 10
133.2241671231805
 20
51.87314197915288
 30
0.0
 10
133.1267752158241
 20
52.10131307008329
 30
0.0
 10
133.0582503182409
 20
52.34892417124676
 30
0.0
 10
133.0146516362075
 20
52.61360210545199
 30
0.0
 10
133.0097530687669
 20
52.79617743406317
 30
0.0
 10
133.0072384954822
 20
52.88989851667075
 30
0.0
  0
SPLINE
  5
205
330
1F
100
AcDbEntity
  8
0
  6
Continuous
 62
     7
370
    25
100
AcDbSpline
210
0.0
220
0.0
230
1.0
 70
     8
 71
     3
 72
    19
 73
    15
 74
     0
 42
0.00000001
 43
0.00000001
 40
0.0
 40
0.0
 40
0.0
 40
0.0
 40
0.0789262058526731
 40
0.1565063436122362
 40
0.2349030500774607
 40
0.3137844172814894
 40
0.3926005190965648
 40
0.4714614966687958
 40
0.5509642584247469
 40
0.6331093427136083
 40
0.7173192981956537
 40
0.8055578340017745
 40
0.8988925601612582
 40
1.0
 40
1.0
 40
1.0
 40
1.0
 10
136.0789359109056
 20
52.22060664863126
 30
0.0
 10
136.0730943145241
 20
52.16640164538241
 30
0.0
 10
136.0615107488293
 20
52.05891609261423
 30
0.0
 10
136.0228152016511
 20
51.90098813651333
 30
0.0
 10
135.9675498544092
 20
51.7483389083859
 30
0.0
 10
135.8961340851707
 20
51.60153236994461
 30
0.0
 10
135.8083818014544
 20
51.46335599336768
 30
0.0
 10
135.7020355648478
 20
51.3381590782619
 30
0.0
 10
135.5779498706894
 20
51.22734760253937
 30
0.0
 10
135.4400443739134
 20
51.12786793298554
 30
0.0
 10
135.2834075916519
 20
51.04633997732587
 30
0.0
 10
135.1077281764483
 20
50.99129212180814
 30
0.0
 10
134.9151267156402
 20
50.95629408893051
 30
0.0
 10
134.7808298967833
 20
50.95223629603268
 30
0.0
 10
134.7109972683337
 20
50.9501262956159
 30
0.0
  0
SPLINE
  5
206
330
1F
100
AcDbEntity
  8
0
  6
Continuous
 62
     7
370
    25
100
AcDbSpline
210
0.0
220
0.0
230
1.0
 70
     8
 71
     3
 72
    19
 73
    15
 74
     0
 42
0.00000001
 43
0.00000001
 40
0.0
 40
0.0
 40
0.0
 40
0.0
 40
0.0893453199573204
 40
0.1760808469278479
 40
0.2609164195677122
 40
0.3458667577041086
 40
0.4296817438341438
 40
0.5122745481333172
 40
0.5942754231299698
 40
0.6762688719685376
 40
0.7579249590253657
 40
0.8385630096321001
 40
0.91918092086524
 40
1.0
 40
1.0
 40
1.0
 40
1.0
 10
137.3811195629334
 20
51.12860412709311
 30
0.0
 10
137.3262000021119
 20
51.13035263120169
 30
0.0
 10
137.2179650907929
 20
51.13379856529698
 30
0.0
 10
137.0597191215405
 20
51.16277817064383
 30
0.0
 10
136.9089533995709
 20
51.20992728830382
 30
0.0
 10
136.7673586734407
 20
51.27592389866103
 30
0.0
 10
136.6356239454207
 20
51.35710158545512
 30
0.0
 10
136.5154132085961
 20
51.45159324510931
 30
0.0
 10
136.4067004356712
 20
51.55751811079878
 30
0.0
 10
136.3115086333148
 20
51.6750998809438
 30
0.0
 10
136.231100129918
 20
51.80209321913664
 30
0.0
 10
136.1629138108266
 20
51.93513856690205
 30
0.0
 10
136.1124815590814
 20
52.07553903303977
 30
0.0
 10
136.0901270789953
 20
52.17221062235852
 30
0.0
 10
136.0789359109056
 20
52.22060664863126
 30
0.0
  0
SPLINE
  5
207
330
1F
100
AcDbEntity
  8
0
  6
Continuous
 62
     7
370
    25
100
AcDbSpline
210
0.0
220
0.0
230
1.0
 70
     8
 71
     3
 72
    19
 73
    15
 74
     0
 42
0.00000001
 43
0.00000001
 40
0.0
 40
0.0
 40
0.0
 40
0.0
 40
0.1032784245371964
 40
0.1998989735423937
 40
0.292052045000997
 40
0.3798991261678271
 40
0.4639916325684503
 40
0.544149673254721
 40
0.6224865290048015
 40
0.6997966526277982
 40
0.7758094354899548
 40
0.849709815215583
 40
0.924225483636943
 40
1.0
 40
1.0
 40
1.0
 40
1.0
 10
138.7772389157386
 20
52.84527905880146
 30
0.0
 10
138.7751308052269
 20
52.76021934020933
 30
0.0
 10
138.7710504841985
 20
52.59558330405205
 30
0.0
 10
138.7354366616264
 20
52.35712237216283
 30
0.0
 10
138.6758578520337
 20
52.13680073275011
 30
0.0
 10
138.5935449351456
 20
51.93496142721033
 30
0.0
 10
138.4914846006943
 20
51.75358424395608
 30
0.0
 10
138.3715615683557
 20
51.59326558753911
 30
0.0
 10
138.236280092711
 20
51.45312268713418
 30
0.0
 10
138.0841091568335
 20
51.33713879270124
 30
0.0
 10
137.9213501320256
 20
51.24360352486759
 30
0.0
 10
137.74830759851
 20
51.17721226077617
 30
0.0
 10
137.5674478623332
 20
51.13555860146497
 30
0.0
 10
137.443574854273
 20
51.1309351939488
 30
0.0
 10
137.3811195629334
 20
51.12860412709311
 30
0.0
  0
SPLINE
  5
208
330
1F
100
AcDbEntity
  8
0
  6
Continuous
 62
     7
370
    25
100
AcDbSpline
210
0.0
220
0.0
230
1.0
 70
     8
 71
     3
 72
    15
 73
    11
 74
     0
 42
0.00000001
 43
0.00000001
 40
0.0
 40
0.0
 40
0.0
 40
0.0
 40
0.1366354225547342
 40
0.2675868021293225
 40
0.3941098935190016
 40
0.5175956223448446
 40
0.638877640571464
 40
0.759182377114416
 40
0.8794014331454701
 40
1.0
 40
1.0
 40
1.0
 40
1.0
 10
138.1361277579323
 20
54.43161820568105
 30
0.0
 10
138.1898035319538
 20
54.37235626291713
 30
0.0
 10
138.2949221641042
 20
54.2562976782861
 30
0.0
 10
138.4289281264114
 20
54.06818854638409
 30
0.0
 10
138.5407000552989
 20
53.87502942603825
 30
0.0
 10
138.6270878468815
 20
53.67539134004937
 30
0.0
 10
138.6944066622479
 20
53.47253933354755
 30
0.0
 10
138.7429141682209
 20
53.26632881149104
 30
0.0
 10
138.7717596104426
 20
53.05667502695024
 30
0.0
 10
138.7754105627626
 20
52.91581837475158
 30
0.0
 10
138.7772389157386
 20
52.84527905880146
 30
0.0
  0
SPLINE
  5
232
330
1F
100
AcDbEntity
  8
0
  6
Continuous
 62
     7
370
    25
100
AcDbSpline
210
0.0
220
0.0
230
1.0
 70
     8
 71
     3
 72
    17
 73
    13
 74
     0
 42
0.00000001
 43
0.00000001
 40
0.0
 40
0.0
 40
0.0
 40
0.0
 40
0.0334800290686528
 40
0.0784850904908729
 40
0.13457222693647
 40
0.2027266450039424
 40
0.2802156385909375
 40
0.3648147538722015
 40
0.4581376254946543
 40
0.5585777127006127
 40
0.7730385896156432
 40
1.0
 40
1.0
 40
1.0
 40
1.0
 10
-137.6528531204034
 20
11.89396385795387
 30
0.0
 10
-137.6767257559964
 20
11.89274722516402
 30
0.0
 10
-137.7326888485292
 20
11.88989515074049
 30
0.0
 10
-137.8287203664874
 20
11.8862045103766
 30
0.0
 10
-137.949082251014
 20
11.87510963935805
 30
0.0
 10
-138.0927905232497
 20
11.86547227093282
 30
0.0
 10
-138.2567433571326
 20
11.85349770298558
 30
0.0
 10
-138.4387071687851
 20
11.84141172623347
 30
0.0
 10
-138.6372116247013
 20
11.83152458351286
 30
0.0
 10
-138.9282914935735
 20
11.81660779067235
 30
0.0
 10
-139.3150092548516
 20
11.80339574698654
 30
0.0
 10
-139.6301870732972
 20
11.80194715869611
 30
0.0
 10
-139.7922387056104
 20
11.80120235343611
 30
0.0
  0
SPLINE
  5
238
330
1F
100
AcDbEntity
  8
0
  6
Continuous
 62
     7
370
    25
100
AcDbSpline
210
0.0
220
0.0
230
1.0
 70
     8
 71
     3
 72
    19
 73
    15
 74
     0
 42
0.00000001
 43
0.00000001
 40
0.0
 40
0.0
 40
0.0
 40
0.0
 40
0.0255799606673043
 40
0.0589159882040708
 40
0.0989655329660627
 40
0.1467681442234338
 40
0.200697022407736
 40
0.2590916192965481
 40
0.3224701908769046
 40
0.3908342245483094
 40
0.5359040058334956
 40
0.6891799980159103
 40
0.8457268002663166
 40
1.0
 40
1.0
 40
1.0
 40
1.0
 10
-141.9140113469216
 20
9.499777684387992
 30
0.0
 10
-141.8960120432008
 20
9.501038327681636
 30
0.0
 10
-141.8545558901016
 20
9.503941852295458
 30
0.0
 10
-141.7847842277127
 20
9.506508176468781
 30
0.0
 10
-141.6995792296395
 20
9.51356236361868
 30
0.0
 10
-141.5996951173746
 20
9.518575219814613
 30
0.0
 10
-141.486976028026
 20
9.525706690756225
 30
0.0
 10
-141.3633390429844
 20
9.534225371319884
 30
0.0
 10
-141.2294748337
 20
9.542395848881405
 30
0.0
 10
-141.0345217053281
 20
9.553084624168207
 30
0.0
 10
-140.7763801470011
 20
9.56967963939058
 30
0.0
 10
-140.4557075039683
 20
9.581061557640227
 30
0.0
 10
-140.1285148655061
 20
9.59155684918947
 30
0.0
 10
-139.9092757742381
 20
9.592998053906857
 30
0.0
 10
-139.8004580794284
 20
9.593713385165472
 30
0.0
  0
SPLINE
  5
24D
330
1F
100
AcDbEntity
  8
0
  6
Continuous
 62
     7
370
    25
100
AcDbSpline
210
0.0
220
0.0
230
1.0
 70
     8
 71
     3
 72
    17
 73
    13
 74
     0
 42
0.00000001
 43
0.00000001
 40
0.0
 40
0.0
 40
0.0
 40
0.0
 40
0.0326282059705806
 40
0.0722272078799757
 40
0.1182416957197861
 40
0.1718141881783811
 40
0.2929498446445046
 40
0.4280427348058018
 40
0.5730292856218445
 40
0.7209455512030759
 40
0.8659741881015328
 40
1.0
 40
1.0
 40
1.0
 40
1.0
 10
-141.9421920571549
 20
-0.4397936541285091
 30
0.0
 10
-141.9202769088748
 20
-0.4388802202400649
 30
0.0
 10
-141.8717645888296
 20
-0.4368582034793289
 30
0.0
 10
-141.7922694784775
 20
-0.4366919136332137
 30
0.0
 10
-141.6987620448499
 20
-0.4332294848590351
 30
0.0
 10
-141.5503791477096
 20
-0.432983182785257
 30
0.0
 10
-141.3422073350775
 20
-0.4267894027551594
 30
0.0
 10
-141.0725072291708
 20
-0.4256564693242149
 30
0.0
 10
-140.7848048226469
 20
-0.4245720057544922
 30
0.0
 10
-140.4904768251277
 20
-0.4303202531894396
 30
0.0
 10
-140.2035211131903
 20
-0.4361643251831193
 30
0.0
 10
-140.0161085973931
 20
-0.4441686612243478
 30
0.0
 10
-139.9260970792183
 20
-0.4480130279465311
 30
0.0
  0
SPLINE
  5
251
330
1F
100
AcDbEntity
  8
0
  6
Continuous
 62
     7
370
    25
100
AcDbSpline
210
0.0
220
0.0
230
1.0
 70
     8
 71
     3
 72
    17
 73
    13
 74
     0
 42
0.00000001
 43
0.00000001
 40
0.0
 40
0.0
 40
0.0
 40
0.0
 40
0.1474149093608892
 40
0.2971234229851568
 40
0.4444733192489519
 40
0.5859946502743664
 40
0.7164615939922252
 40
0.8324290789129545
 40
0.883454134468865
 40
0.9281010580803004
 40
0.9669496799240075
 40
1.0
 40
1.0
 40
1.0
 40
1.0
 10
-139.9178777054003
 20
2.263206135743323
 30
0.0
 10
-140.0172896434375
 20
2.258827265501168
 30
0.0
 10
-140.217660253461
 20
2.250001394896908
 30
0.0
 10
-140.5174599481323
 20
2.238138303719619
 30
0.0
 10
-140.8133735736145
 20
2.229180082723298
 30
0.0
 10
-141.0963375600796
 20
2.221136047111716
 30
0.0
 10
-141.3582252534836
 20
2.219938641562252
 30
0.0
 10
-141.5590111264869
 20
2.218447711497471
 30
0.0
 10
-141.7018733086888
 20
2.218607549432802
 30
0.0
 10
-141.7926777148014
 20
2.218582161136087
 30
0.0
 10
-141.8713488864424
 20
2.218587557137108
 30
0.0
 10
-141.9198823293614
 20
2.218586954769022
 30
0.0
 10
-141.9421920571549
 20
2.218586677874015
 30
0.0
  0
SPLINE
  5
257
330
1F
100
AcDbEntity
  8
0
  6
Continuous
 62
     7
370
    25
100
AcDbSpline
210
0.0
220
0.0
230
1.0
 70
     8
 71
     3
 72
    31
 73
    27
 74
     0
 42
0.00000001
 43
0.00000001
 40
0.0
 40
0.0
 40
0.0
 40
0.0
 40
0.0418626135576501
 40
0.0818502316707521
 40
0.1207986613616693
 40
0.1586037100863268
 40
0.195983891660919
 40
0.2323649539834413
 40
0.26879966077387
 40
0.3053437956320897
 40
0.3419354058397894
 40
0.3788105845910109
 40
0.4157844985379258
 40
0.4536732616980276
 40
0.4923364903610689
 40
0.532027786837398
 40
0.5728946655095002
 40
0.615242781428899
 40
0.6586596854114121
 40
0.7031830996633344
 40
0.7490727060797101
 40
0.7962981819768964
 40
0.8447574277990559
 40
0.8950381956890107
 40
0.9466656317378793
 40
1.0
 40
1.0
 40
1.0
 40
1.0
 10
-136.9072384954822
 20
-8.841167892413834
 30
0.0
 10
-136.9084219421314
 20
-8.896784046743996
 30
0.0
 10
-136.9107358297311
 20
-9.005525349058782
 30
0.0
 10
-136.9272437268787
 20
-9.16537594550517
 30
0.0
 10
-136.955659522876
 20
-9.317950685418893
 30
0.0
 10
-136.9937837872727
 20
-9.464927530799375
 30
0.0
 10
-137.0460264880177
 20
-9.60385281142518
 30
0.0
 10
-137.1072124692242
 20
-9.736991085856578
 30
0.0
 10
-137.180072630407
 20
-9.862977582550961
 30
0.0
 10
-137.2651245600636
 20
-9.981333270674748
 30
0.0
 10
-137.3592832815199
 20
-10.0932742345261
 30
0.0
 10
-137.4625218680823
 20
-10.19778217841203
 30
0.0
 10
-137.5753350327455
 20
-10.29442481531516
 30
0.0
 10
-137.6958270461729
 20
-10.38540808343849
 30
0.0
 10
-137.8272201633201
 20
-10.46679265054257
 30
0.0
 10
-137.965579411959
 20
-10.54406585753617
 30
0.0
 10
-138.1143377627111
 20
-10.6117873283235
 30
0.0
 10
-138.27134753398
 20
-10.67232621516218
 30
0.0
 10
-138.4357447438569
 20
-10.72682713313412
 30
0.0
 10
-138.6078526391875
 20
-10.77166136324171
 30
0.0
 10
-138.7861440475132
 20
-10.81255274154061
 30
0.0
 10
-138.9718167998864
 20
-10.84296449741564
 30
0.0
 10
-139.1638909948723
 20
-10.86992864441762
 30
0.0
 10
-139.3630300153464
 20
-10.88656863683116
 30
0.0
 10
-139.5690141422534
 20
-10.89764039169529
 30
0.0
 10
-139.7084638158575
 20
-10.89889594823889
 30
0.0
 10
-139.7793225467535
 20
-10.89953393570024
 30
0.0
  0
SPLINE
  5
258
330
1F
100
AcDbEntity
  8
0
  6
Continuous
 62
     7
370
    25
100
AcDbSpline
210
0.0
220
0.0
230
1.0
 70
     8
 71
     3
 72
    31
 73
    27
 74
     0
 42
0.00000001
 43
0.00000001
 40
0.0
 40
0.0
 40
0.0
 40
0.0
 40
0.0521610570771653
 40
0.1029106919857921
 40
0.1523430551057608
 40
0.2004762123303442
 40
0.2471766083595613
 40
0.2930072152976833
 40
0.3376118670245128
 40
0.381312977553171
 40
0.4239399987516613
 40
0.4650786536305533
 40
0.5051514504426127
 40
0.5440679513725505
 40
0.5822604711214312
 40
0.6198769293914226
 40
0.6567556584413241
 40
0.6937331321930347
 40
0.7302142097737143
 40
0.7669514145572076
 40
0.8035880422164308
 40
0.8406955970134322
 40
0.8788653777035302
 40
0.9178175573032851
 40
0.95813335595933
 40
1.0
 40
1.0
 40
1.0
 40
1.0
 10
-139.7875419205716
 20
-6.783976045387149
 30
0.0
 10
-139.7182548153917
 20
-6.78467573497165
 30
0.0
 10
-139.5815554396639
 20
-6.786056181292153
 30
0.0
 10
-139.3793582356834
 20
-6.796302360490794
 30
0.0
 10
-139.1833005328849
 20
-6.815943466617319
 30
0.0
 10
-138.9930191041847
 20
-6.839299495015147
 30
0.0
 10
-138.8092588499177
 20
-6.873474068905434
 30
0.0
 10
-138.6309207429113
 20
-6.910886146840268
 30
0.0
 10
-138.4591279020963
 20
-6.958551393831273
 30
0.0
 10
-138.2936523980817
 20
-7.012243749637388
 30
0.0
 10
-138.1354102282221
 20
-7.072779080083428
 30
0.0
 10
-137.98573182924
 20
-7.141243859358458
 30
0.0
 10
-137.8446142023226
 20
-7.215998341408479
 30
0.0
 10
-137.7126710642311
 20
-7.298780457304178
 30
0.0
 10
-137.5886411683109
 20
-7.387598900710598
 30
0.0
 10
-137.475178230103
 20
-7.485477765583538
 30
0.0
 10
-137.3694767606539
 20
-7.589349894779343
 30
0.0
 10
-137.2736935412879
 20
-7.70049860989331
 30
0.0
 10
-137.1869092745094
 20
-7.818602214540081
 30
0.0
 10
-137.1120856712866
 20
-7.944133511773137
 30
0.0
 10
-137.0481267193939
 20
-8.0764334175263
 30
0.0
 10
-136.9961958797337
 20
-8.215961944965718
 30
0.0
 10
-136.9565358409191
 20
-8.362646753641442
 30
0.0
 10
-136.9287895008137
 20
-8.516272156682387
 30
0.0
 10
-136.9103633682027
 20
-8.676334605141916
 30
0.0
 10
-136.9082931419718
 20
-8.785536555289394
 30
0.0
 10
-136.9072384954822
 20
-8.841167892413834
 30
0.0
  0
SPLINE
  5
259
330
1F
100
AcDbEntity
  8
0
  6
Continuous
 62
     7
370
    25
100
AcDbSpline
210
0.0
220
0.0
230
1.0
 70
     8
 71
     3
 72
    31
 73
    27
 74
     0
 42
0.00000001
 43
0.00000001
 40
0.0
 40
0.0
 40
0.0
 40
0.0
 40
0.0417114220096842
 40
0.0818466263144176
 40
0.1206543893609164
 40
0.1586826542687787
 40
0.1955510927134171
 40
0.2319253569068541
 40
0.2682284756464858
 40
0.3044019888124026
 40
0.3410512249965275
 40
0.3775850598998342
 40
0.4148394927703732
 40
0.4526530000914802
 40
0.4914252167480633
 40
0.5310906588923636
 40
0.5720767907852752
 40
0.6142719617101992
 40
0.6578110488599115
 40
0.7025335214068735
 40
0.748481129384303
 40
0.7958754668444977
 40
0.8444124767396747
 40
0.894830581460239
 40
0.9465647344325403
 40
1.0
 40
1.0
 40
1.0
 40
1.0
 10
-142.6772389157386
 20
-8.841167892413834
 30
0.0
 10
-142.6760472757523
 20
-8.785550581233966
 30
0.0
 10
-142.6737090262284
 20
-8.676417661150474
 30
0.0
 10
-142.657229900403
 20
-8.516197890254075
 30
0.0
 10
-142.6291043768904
 20
-8.362624248068224
 30
0.0
 10
-142.589184970944
 20
-8.21621104006763
 30
0.0
 10
-142.5388711295612
 20
-8.076410425249113
 30
0.0
 10
-142.4756884697333
 20
-7.944541748468918
 30
0.0
 10
-142.4036719167437
 20
-7.818293209016315
 30
0.0
 10
-142.3177704641399
 20
-7.700573059914221
 30
0.0
 10
-142.2232627023408
 20
-7.589367203277984
 30
0.0
 10
-142.1187214989344
 20
-7.485480419560764
 30
0.0
 10
-142.0064017223226
 20
-7.387663548836334
 30
0.0
 10
-141.8834198289371
 20
-7.298399987641647
 30
0.0
 10
-141.7517730756829
 20
-7.216403235447713
 30
0.0
 10
-141.6114717064551
 20
-7.140863749426768
 30
0.0
 10
-141.4622347885058
 20
-7.073114927608919
 30
0.0
 10
-141.3046302943888
 20
-7.011983246043601
 30
0.0
 10
-141.1390866967874
 20
-6.958390018645441
 30
0.0
 10
-140.9664547167155
 20
-6.910936970372782
 30
0.0
 10
-140.786226067265
 20
-6.873183220280972
 30
0.0
 10
-140.600030034579
 20
-6.83946950164415
 30
0.0
 10
-140.4062813996082
 20
-6.815760435873917
 30
0.0
 10
-140.2062810474619
 20
-6.796338300054591
 30
0.0
 10
-139.9990069124773
 20
-6.786029121052986
 30
0.0
 10
-139.8587862729329
 20
-6.784667744021728
 30
0.0
 10
-139.7875419205715
 20
-6.783976045387149
 30
0.0
  0
SPLINE
  5
25A
330
1F
100
AcDbEntity
  8
0
  6
Continuous
 62
     7
370
    25
100
AcDbSpline
210
0.0
220
0.0
230
1.0
 70
     8
 71
     3
 72
    31
 73
    27
 74
     0
 42
0.00000001
 43
0.00000001
 40
0.0
 40
0.0
 40
0.0
 40
0.0
 40
0.0522586730675177
 40
0.1031108676925356
 40
0.1526228375637831
 40
0.2006138524331982
 40
0.2476665049628421
 40
0.2933881766752174
 40
0.3380323226151795
 40
0.3818484808212852
 40
0.4243154181998798
 40
0.4655667773295584
 40
0.5056280593715418
 40
0.5446476481520817
 40
0.5828695939404934
 40
0.620379260076639
 40
0.6575346234491423
 40
0.6945657035629706
 40
0.7313200057705921
 40
0.7679192456691712
 40
0.804546727542164
 40
0.8417901149662192
 40
0.8796120572494673
 40
0.9184179537281355
 40
0.9582905842177395
 40
1.0
 40
1.0
 40
1.0
 40
1.0
 10
-139.7793225467535
 20
-10.89953393570024
 30
0.0
 10
-139.8490070195467
 20
-10.89888932263434
 30
0.0
 10
-139.9865004925463
 20
-10.89761744547694
 30
0.0
 10
-140.1897479767183
 20
-10.88657974511366
 30
0.0
 10
-140.3869246272945
 20
-10.86986687550995
 30
0.0
 10
-140.5778111874171
 20
-10.84285975824604
 30
0.0
 10
-140.7631111547724
 20
-10.81257508983525
 30
0.0
 10
-140.9417595051591
 20
-10.77152977103638
 30
0.0
 10
-141.1149863987767
 20
-10.72660450375448
 30
0.0
 10
-141.2811209351122
 20
-10.67260790723273
 30
0.0
 10
-141.4398597287448
 20
-10.61149436490639
 30
0.0
 10
-141.5906929432721
 20
-10.5441103589179
 30
0.0
 10
-141.7313698336571
 20
-10.46676724926827
 30
0.0
 10
-141.8651716651511
 20
-10.38549654669028
 30
0.0
 10
-141.9879919424648
 20
-10.29402250096174
 30
0.0
 10
-142.1043191683449
 20
-10.19829829455838
 30
0.0
 10
-142.2097733341585
 20
-10.09287011648406
 30
0.0
 10
-142.3076222023049
 20
-9.98180031099595
 30
0.0
 10
-142.3950413779196
 20
-9.86306145541533
 30
0.0
 10
-142.4697145556357
 20
-9.736693207193461
 30
0.0
 10
-142.5358822330286
 20
-9.604809662485101
 30
0.0
 10
-142.586173521541
 20
-9.464396873504025
 30
0.0
 10
-142.628598778409
 20
-9.318422571578777
 30
0.0
 10
-142.6554166924551
 20
-9.165220110179305
 30
0.0
 10
-142.6742220799709
 20
-9.005630835217952
 30
0.0
 10
-142.6762183222986
 20
-8.896805591471866
 30
0.0
 10
-142.6772389157386
 20
-8.841167892413834
 30
0.0
  0
SPLINE
  5
287
330
1F
100
AcDbEntity
  8
0
  6
Continuous
 62
     7
370
    25
100
AcDbSpline
210
0.0
220
0.0
230
1.0
 70
     8
 71
     3
 72
    19
 73
    15
 74
     0
 42
0.00000001
 43
0.00000001
 40
0.0
 40
0.0
 40
0.0
 40
0.0
 40
0.0905026882913798
 40
0.1768616124499232
 40
0.2592536940582357
 40
0.340308723136215
 40
0.4200042711041861
 40
0.4994345104269744
 40
0.5793358005170435
 40
0.6608643384359953
 40
0.7440148268817416
 40
0.8274187906712844
 40
0.9126925283575944
 40
1.0
 40
1.0
 40
1.0
 40
1.0
 10
-141.0216221895356
 20
-99.72278419836037
 30
0.0
 10
-140.9541932093258
 20
-99.7252095098681
 30
0.0
 10
-140.8224225581894
 20
-99.72994908735515
 30
0.0
 10
-140.6310861211061
 20
-99.7618976059134
 30
0.0
 10
-140.4539696208869
 20
-99.82104124666151
 30
0.0
 10
-140.2901467443589
 20
-99.89957390379558
 30
0.0
 10
-140.1403158227269
 20
-99.99829074538897
 30
0.0
 10
-140.0031749344345
 20
-100.1125162816683
 30
0.0
 10
-139.8801722003532
 20
-100.24388631888
 30
0.0
 10
-139.7727269865774
 20
-100.391526584903
 30
0.0
 10
-139.6782510875514
 20
-100.5506763141517
 30
0.0
 10
-139.5965591273895
 20
-100.7198301740068
 30
0.0
 10
-139.5290668555548
 20
-100.8986202962529
 30
0.0
 10
-139.4964188625173
 20
-101.0230686274118
 30
0.0
 10
-139.4799025005253
 20
-101.0860260558935
 30
0.0
  0
SPLINE
  5
288
330
1F
100
AcDbEntity
  8
0
  6
Continuous
 62
     7
370
    25
100
AcDbSpline
210
0.0
220
0.0
230
1.0
 70
     8
 71
     3
 72
    23
 73
    19
 74
     0
 42
0.00000001
 43
0.00000001
 40
0.0
 40
0.0
 40
0.0
 40
0.0
 40
0.0843071036755083
 40
0.1633289545800951
 40
0.2376875534161781
 40
0.3073646717714459
 40
0.3731554645573913
 40
0.4353951295929352
 40
0.4945777045589512
 40
0.5511621748986755
 40
0.6059768315931322
 40
0.6594942041871436
 40
0.7122834550421303
 40
0.765847183099663
 40
0.8203368558581682
 40
0.8772697770681132
 40
0.9369235697495861
 40
1.0
 40
1.0
 40
1.0
 40
1.0
 10
-142.588
 20
-101.8245955032564
 30
0.0
 10
-142.5870752821261
 20
-101.7407940591183
 30
0.0
 10
-142.5852838173853
 20
-101.5784447235741
 30
0.0
 10
-142.5657622871689
 20
-101.3428727927051
 30
0.0
 10
-142.5362795836601
 20
-101.123045454374
 30
0.0
 10
-142.4929784105093
 20
-100.9188363187988
 30
0.0
 10
-142.4366823829376
 20
-100.7303581833045
 30
0.0
 10
-142.368616287142
 20
-100.5569978868664
 30
0.0
 10
-142.2893788458499
 20
-100.3984248715731
 30
0.0
 10
-142.1956022780648
 20
-100.2568213074842
 30
0.0
 10
-142.0915509625395
 20
-100.1296253103163
 30
0.0
 10
-141.9728147240304
 20
-100.0215045939795
 30
0.0
 10
-141.8436940659766
 20
-99.92824183305366
 30
0.0
 10
-141.7019150747891
 20
-99.85342574565823
 30
0.0
 10
-141.5487199318308
 20
-99.79399413645989
 30
0.0
 10
-141.3835908181058
 20
-99.75200439868243
 30
0.0
 10
-141.2063344398333
 20
-99.72722568997513
 30
0.0
 10
-141.0843270990356
 20
-99.72429196695343
 30
0.0
 10
-141.0216221895356
 20
-99.72278419836037
 30
0.0
  0
SPLINE
  5
28A
330
1F
100
AcDbEntity
  8
0
  6
Continuous
 62
     7
370
    25
100
AcDbSpline
210
0.0
220
0.0
230
1.0
 70
     8
 71
     3
 72
    31
 73
    27
 74
     0
 42
0.00000001
 43
0.00000001
 40
0.0
 40
0.0
 40
0.0
 40
0.0
 40
0.0418626135576484
 40
0.0818502316707505
 40
0.1207986613616691
 40
0.1586037100863237
 40
0.1959838916609172
 40
0.2323649539834393
 40
0.2687996607738683
 40
0.3053437956320882
 40
0.3419354058397876
 40
0.3788105845910107
 40
0.415784498537924
 40
0.4536732616980267
 40
0.4923364903610677
 40
0.5320277868373974
 40
0.5728946655094991
 40
0.6152427814288984
 40
0.6586596854114111
 40
0.7031830996633333
 40
0.7490727060797092
 40
0.7962981819768961
 40
0.8447574277990557
 40
0.8950381956890107
 40
0.9466656317378791
 40
1.0
 40
1.0
 40
1.0
 40
1.0
 10
-136.9072384954822
 20
-116.3036095818444
 30
0.0
 10
-136.9084219421314
 20
-116.3592257361746
 30
0.0
 10
-136.9107358297311
 20
-116.4679670384893
 30
0.0
 10
-136.9272437268788
 20
-116.6278176349358
 30
0.0
 10
-136.9556595228759
 20
-116.7803923748494
 30
0.0
 10
-136.9937837872729
 20
-116.92736922023
 30
0.0
 10
-137.0460264880176
 20
-117.0662945008557
 30
0.0
 10
-137.1072124692243
 20
-117.1994327752872
 30
0.0
 10
-137.180072630407
 20
-117.3254192719815
 30
0.0
 10
-137.2651245600637
 20
-117.4437749601053
 30
0.0
 10
-137.3592832815199
 20
-117.5557159239567
 30
0.0
 10
-137.4625218680823
 20
-117.6602238678426
 30
0.0
 10
-137.5753350327454
 20
-117.7568665047457
 30
0.0
 10
-137.695827046173
 20
-117.8478497728691
 30
0.0
 10
-137.82722016332
 20
-117.9292343399731
 30
0.0
 10
-137.9655794119591
 20
-118.0065075469667
 30
0.0
 10
-138.1143377627111
 20
-118.074229017754
 30
0.0
 10
-138.27134753398
 20
-118.1347679045927
 30
0.0
 10
-138.435744743857
 20
-118.1892688225647
 30
0.0
 10
-138.6078526391875
 20
-118.2341030526723
 30
0.0
 10
-138.7861440475132
 20
-118.2749944309711
 30
0.0
 10
-138.9718167998864
 20
-118.3054061868462
 30
0.0
 10
-139.1638909948723
 20
-118.3323703338482
 30
0.0
 10
-139.3630300153465
 20
-118.3490103262617
 30
0.0
 10
-139.5690141422535
 20
-118.3600820811259
 30
0.0
 10
-139.7084638158575
 20
-118.3613376376694
 30
0.0
 10
-139.7793225467535
 20
-118.3619756251308
 30
0.0
  0
SPLINE
  5
28B
330
1F
100
AcDbEntity
  8
0
  6
Continuous
 62
     7
370
    25
100
AcDbSpline
210
0.0
220
0.0
230
1.0
 70
     8
 71
     3
 72
    31
 73
    27
 74
     0
 42
0.00000001
 43
0.00000001
 40
0.0
 40
0.0
 40
0.0
 40
0.0
 40
0.0521610570771652
 40
0.102910691985792
 40
0.1523430551057605
 40
0.2004762123303441
 40
0.2471766083595611
 40
0.2930072152976827
 40
0.3376118670245124
 40
0.381312977553171
 40
0.4239399987516605
 40
0.4650786536305535
 40
0.5051514504426123
 40
0.5440679513725499
 40
0.5822604711214308
 40
0.6198769293914211
 40
0.6567556584413234
 40
0.6937331321930333
 40
0.7302142097737118
 40
0.7669514145572054
 40
0.8035880422164281
 40
0.8406955970134294
 40
0.8788653777035291
 40
0.917817557303285
 40
0.9581333559593278
 40
1.0
 40
1.0
 40
1.0
 40
1.0
 10
-139.7875419205715
 20
-114.2464177348177
 30
0.0
 10
-139.7182548153917
 20
-114.2471174244022
 30
0.0
 10
-139.5815554396639
 20
-114.2484978707227
 30
0.0
 10
-139.3793582356835
 20
-114.2587440499213
 30
0.0
 10
-139.1833005328849
 20
-114.2783851560478
 30
0.0
 10
-138.9930191041846
 20
-114.3017411844457
 30
0.0
 10
-138.8092588499177
 20
-114.335915758336
 30
0.0
 10
-138.6309207429112
 20
-114.3733278362708
 30
0.0
 10
-138.4591279020964
 20
-114.4209930832618
 30
0.0
 10
-138.2936523980817
 20
-114.4746854390679
 30
0.0
 10
-138.1354102282221
 20
-114.535220769514
 30
0.0
 10
-137.98573182924
 20
-114.603685548789
 30
0.0
 10
-137.8446142023226
 20
-114.678440030839
 30
0.0
 10
-137.7126710642311
 20
-114.7612221467348
 30
0.0
 10
-137.5886411683109
 20
-114.8500405901412
 30
0.0
 10
-137.475178230103
 20
-114.9479194550141
 30
0.0
 10
-137.3694767606539
 20
-115.0517915842099
 30
0.0
 10
-137.2736935412879
 20
-115.1629402993239
 30
0.0
 10
-137.1869092745094
 20
-115.2810439039706
 30
0.0
 10
-137.1120856712866
 20
-115.4065752012037
 30
0.0
 10
-137.0481267193939
 20
-115.5388751069568
 30
0.0
 10
-136.9961958797337
 20
-115.6784036343963
 30
0.0
 10
-136.9565358409192
 20
-115.8250884430721
 30
0.0
 10
-136.9287895008137
 20
-115.9787138461129
 30
0.0
 10
-136.9103633682027
 20
-116.1387762945725
 30
0.0
 10
-136.9082931419718
 20
-116.24797824472
 30
0.0
 10
-136.9072384954822
 20
-116.3036095818444
 30
0.0
  0
SPLINE
  5
28C
330
1F
100
AcDbEntity
  8
0
  6
Continuous
 62
     7
370
    25
100
AcDbSpline
210
0.0
220
0.0
230
1.0
 70
     8
 71
     3
 72
    31
 73
    27
 74
     0
 42
0.00000001
 43
0.00000001
 40
0.0
 40
0.0
 40
0.0
 40
0.0
 40
0.0417114220096863
 40
0.0818466263144174
 40
0.1206543893609174
 40
0.1586826542687814
 40
0.1955510927134197
 40
0.2319253569068563
 40
0.2682284756464884
 40
0.3044019888124039
 40
0.3410512249965283
 40
0.3775850598998357
 40
0.4148394927703739
 40
0.4526530000914808
 40
0.4914252167480637
 40
0.5310906588923636
 40
0.5720767907852762
 40
0.6142719617101994
 40
0.6578110488599119
 40
0.7025335214068742
 40
0.7484811293843033
 40
0.795875466844498
 40
0.844412476739675
 40
0.8948305814602391
 40
0.9465647344325404
 40
1.0
 40
1.0
 40
1.0
 40
1.0
 10
-142.6772389157386
 20
-116.3036095818444
 30
0.0
 10
-142.6760472757523
 20
-116.2479922706645
 30
0.0
 10
-142.6737090262284
 20
-116.138859350581
 30
0.0
 10
-142.657229900403
 20
-115.9786395796846
 30
0.0
 10
-142.6291043768904
 20
-115.8250659374988
 30
0.0
 10
-142.589184970944
 20
-115.6786527294982
 30
0.0
 10
-142.5388711295612
 20
-115.5388521146797
 30
0.0
 10
-142.4756884697332
 20
-115.4069834378994
 30
0.0
 10
-142.4036719167437
 20
-115.2807348984468
 30
0.0
 10
-142.3177704641399
 20
-115.1630147493448
 30
0.0
 10
-142.2232627023407
 20
-115.0518088927085
 30
0.0
 10
-142.1187214989344
 20
-114.9479221089913
 30
0.0
 10
-142.0064017223227
 20
-114.8501052382669
 30
0.0
 10
-141.8834198289371
 20
-114.7608416770722
 30
0.0
 10
-141.7517730756829
 20
-114.6788449248782
 30
0.0
 10
-141.611471706455
 20
-114.6033054388573
 30
0.0
 10
-141.4622347885058
 20
-114.5355566170395
 30
0.0
 10
-141.3046302943888
 20
-114.4744249354741
 30
0.0
 10
-141.1390866967874
 20
-114.420831708076
 30
0.0
 10
-140.9664547167156
 20
-114.3733786598033
 30
0.0
 10
-140.786226067265
 20
-114.3356249097116
 30
0.0
 10
-140.600030034579
 20
-114.3019111910747
 30
0.0
 10
-140.4062813996082
 20
-114.2782021253045
 30
0.0
 10
-140.206281047462
 20
-114.2587799894851
 30
0.0
 10
-139.9990069124772
 20
-114.2484708104835
 30
0.0
 10
-139.8587862729329
 20
-114.2471094334523
 30
0.0
 10
-139.7875419205716
 20
-114.2464177348177
 30
0.0
  0
SPLINE
  5
28D
330
1F
100
AcDbEntity
  8
0
  6
Continuous
 62
     7
370
    25
100
AcDbSpline
210
0.0
220
0.0
230
1.0
 70
     8
 71
     3
 72
    31
 73
    27
 74
     0
 42
0.00000001
 43
0.00000001
 40
0.0
 40
0.0
 40
0.0
 40
0.0
 40
0.0522586730675178
 40
0.1031108676925357
 40
0.1526228375637834
 40
0.2006138524331984
 40
0.2476665049628428
 40
0.2933881766752183
 40
0.3380323226151803
 40
0.3818484808212855
 40
0.4243154181998808
 40
0.465566777329559
 40
0.5056280593715428
 40
0.5446476481520826
 40
0.5828695939404952
 40
0.6203792600766393
 40
0.657534623449144
 40
0.6945657035629723
 40
0.7313200057705938
 40
0.7679192456691734
 40
0.8045467275421659
 40
0.8417901149662222
 40
0.8796120572494676
 40
0.9184179537281372
 40
0.9582905842177412
 40
1.0
 40
1.0
 40
1.0
 40
1.0
 10
-139.7793225467535
 20
-118.3619756251308
 30
0.0
 10
-139.8490070195467
 20
-118.3613310120649
 30
0.0
 10
-139.9865004925464
 20
-118.3600591349075
 30
0.0
 10
-140.1897479767182
 20
-118.3490214345442
 30
0.0
 10
-140.3869246272945
 20
-118.3323085649405
 30
0.0
 10
-140.5778111874171
 20
-118.3053014476766
 30
0.0
 10
-140.7631111547724
 20
-118.2750167792658
 30
0.0
 10
-140.9417595051591
 20
-118.2339714604669
 30
0.0
 10
-141.1149863987767
 20
-118.1890461931851
 30
0.0
 10
-141.2811209351122
 20
-118.1350495966633
 30
0.0
 10
-141.4398597287448
 20
-118.073936054337
 30
0.0
 10
-141.590692943272
 20
-118.0065520483484
 30
0.0
 10
-141.7313698336571
 20
-117.9292089386988
 30
0.0
 10
-141.8651716651511
 20
-117.8479382361208
 30
0.0
 10
-141.9879919424648
 20
-117.7564641903923
 30
0.0
 10
-142.1043191683449
 20
-117.6607399839889
 30
0.0
 10
-142.2097733341585
 20
-117.5553118059146
 30
0.0
 10
-142.3076222023049
 20
-117.4442420004265
 30
0.0
 10
-142.3950413779195
 20
-117.3255031448458
 30
0.0
 10
-142.4697145556357
 20
-117.199134896624
 30
0.0
 10
-142.5358822330286
 20
-117.0672513519157
 30
0.0
 10
-142.5861735215411
 20
-116.9268385629346
 30
0.0
 10
-142.628598778409
 20
-116.7808642610094
 30
0.0
 10
-142.6554166924551
 20
-116.6276617996099
 30
0.0
 10
-142.6742220799709
 20
-116.4680725246485
 30
0.0
 10
-142.6762183222986
 20
-116.3592472809024
 30
0.0
 10
-142.6772389157386
 20
-116.3036095818444
 30
0.0
  0
SPLINE
  5
28E
330
1F
100
AcDbEntity
  8
0
  6
Continuous
 62
     7
370
    25
100
AcDbSpline
210
0.0
220
0.0
230
1.0
 70
     8
 71
     3
 72
    19
 73
    15
 74
     0
 42
0.00000001
 43
0.00000001
 40
0.0
 40
0.0
 40
0.0
 40
0.0
 40
0.0958471351618904
 40
0.1877938382499629
 40
0.2771241573257936
 40
0.3646700370948917
 40
0.4491345788147665
 40
0.5285500048904224
 40
0.6060738846927679
 40
0.681801715309803
 40
0.7566837358920896
 40
0.8333296940922289
 40
0.9138191673673409
 40
1.0
 40
1.0
 40
1.0
 40
1.0
 10
-142.0889665896197
 20
-121.1929628073119
 30
0.0
 10
-142.0879234023808
 20
-121.2427310339161
 30
0.0
 10
-142.0858794796775
 20
-121.3402422039797
 30
0.0
 10
-142.0673332440311
 20
-121.4831081357163
 30
0.0
 10
-142.039684805861
 20
-121.6200028407061
 30
0.0
 10
-142.0000659624071
 20
-121.7499517864662
 30
0.0
 10
-141.9494257360577
 20
-121.8705810291404
 30
0.0
 10
-141.8858643982724
 20
-121.9788867016239
 30
0.0
 10
-141.8136949565592
 20
-122.0761209839808
 30
0.0
 10
-141.7286456363638
 20
-122.1593177490998
 30
0.0
 10
-141.630850628153
 20
-122.2263884597523
 30
0.0
 10
-141.5200101252502
 20
-122.2752088530459
 30
0.0
 10
-141.3960226890507
 20
-122.303464089816
 30
0.0
 10
-141.3094468863735
 20
-122.3067501293876
 30
0.0
 10
-141.2646808152973
 20
-122.3084492540444
 30
0.0
  0
SPLINE
  5
28F
330
1F
100
AcDbEntity
  8
0
  6
Continuous
 62
     7
370
    25
100
AcDbSpline
210
0.0
220
0.0
230
1.0
 70
     8
 71
     3
 72
    15
 73
    11
 74
     0
 42
0.00000001
 43
0.00000001
 40
0.0
 40
0.0
 40
0.0
 40
0.0
 40
0.1336881679731635
 40
0.263002298520351
 40
0.3895858807272786
 40
0.5143523854833862
 40
0.6376413114027352
 40
0.7581580574143748
 40
0.8795570677342125
 40
1.0
 40
1.0
 40
1.0
 40
1.0
 10
-141.5817138054213
 20
-119.8449855011552
 30
0.0
 10
-141.6242847292807
 20
-119.8950375009508
 30
0.0
 10
-141.7080337326137
 20
-119.99350388875
 30
0.0
 10
-141.8134709338872
 20
-120.1536345818679
 30
0.0
 10
-141.9027828946355
 20
-120.3181988292686
 30
0.0
 10
-141.9713571168005
 20
-120.4892709369296
 30
0.0
 10
-142.0245548250291
 20
-120.6625520237187
 30
0.0
 10
-142.0601762001591
 20
-120.8384625227328
 30
0.0
 10
-142.0855454794102
 20
-121.0149213194137
 30
0.0
 10
-142.0878292290124
 20
-121.133772263196
 30
0.0
 10
-142.0889665896196
 20
-121.1929628073119
 30
0.0
  0
SPLINE
  5
291
330
1F
100
AcDbEntity
  8
0
  6
Continuous
 62
     7
370
    25
100
AcDbSpline
210
0.0
220
0.0
230
1.0
 70
     8
 71
     3
 72
    15
 73
    11
 74
     0
 42
0.00000001
 43
0.00000001
 40
0.0
 40
0.0
 40
0.0
 40
0.0
 40
0.1446198572981671
 40
0.2803758879960962
 40
0.408340124884197
 40
0.5290043151477937
 40
0.6465168827553897
 40
0.763688253215778
 40
0.8809157790835144
 40
1.0
 40
1.0
 40
1.0
 40
1.0
 10
-142.6772389157386
 20
-121.217620928766
 30
0.0
 10
-142.6752316869296
 20
-121.1239927409532
 30
0.0
 10
-142.6713402534139
 20
-120.9424748858682
 30
0.0
 10
-142.6407874001995
 20
-120.6794894194259
 30
0.0
 10
-142.5896825449742
 20
-120.4356231431025
 30
0.0
 10
-142.5174618339399
 20
-120.2094012406096
 30
0.0
 10
-142.4241836383975
 20
-119.9987552094684
 30
0.0
 10
-142.314882667109
 20
-119.7986775172864
 30
0.0
 10
-142.1879767515068
 20
-119.6077039349775
 30
0.0
 10
-142.0893507821742
 20
-119.4906534775822
 30
0.0
 10
-142.0396503467115
 20
-119.4316684177343
 30
0.0
  0
SPLINE
  5
292
330
1F
100
AcDbEntity
  8
0
  6
Continuous
 62
     7
370
    25
100
AcDbSpline
210
0.0
220
0.0
230
1.0
 70
     8
 71
     3
 72
    19
 73
    15
 74
     0
 42
0.00000001
 43
0.00000001
 40
0.0
 40
0.0
 40
0.0
 40
0.0
 40
0.0789142515461264
 40
0.154975722715709
 40
0.2305208872351966
 40
0.3064556561822922
 40
0.3837151258501592
 40
0.4616803101161573
 40
0.5420931208071191
 40
0.6263612732504888
 40
0.714508784357292
 40
0.805121398646739
 40
0.9002383861473858
 40
1.0
 40
1.0
 40
1.0
 40
1.0
 10
-141.2411968901029
 20
-123.0270573649921
 30
0.0
 10
-141.3091583739376
 20
-123.0245736961172
 30
0.0
 10
-141.4426245079723
 20
-123.0196961439471
 30
0.0
 10
-141.6368567244934
 20
-122.9743529261545
 30
0.0
 10
-141.8192472031824
 20
-122.9013940534596
 30
0.0
 10
-141.9881369987241
 20
-122.798924553227
 30
0.0
 10
-142.1422575320973
 20
-122.6721728500174
 30
0.0
 10
-142.2778909382257
 20
-122.5207077916514
 30
0.0
 10
-142.3975382557315
 20
-122.3490806472012
 30
0.0
 10
-142.4982018885409
 20
-122.1556898171462
 30
0.0
 10
-142.5788678189806
 20
-121.9437728753692
 30
0.0
 10
-142.6363831944077
 20
-121.7148575215418
 30
0.0
 10
-142.6705573659984
 20
-121.4711078198776
 30
0.0
 10
-142.674976623795
 20
-121.303448524738
 30
0.0
 10
-142.6772389157386
 20
-121.217620928766
 30
0.0
  0
SPLINE
  5
293
330
1F
100
AcDbEntity
  8
0
  6
Continuous
 62
     7
370
    25
100
AcDbSpline
210
0.0
220
0.0
230
1.0
 70
     8
 71
     3
 72
    19
 73
    15
 74
     0
 42
0.00000001
 43
0.00000001
 40
0.0
 40
0.0
 40
0.0
 40
0.0
 40
0.1064141113241654
 40
0.2067548223556992
 40
0.3016406555118944
 40
0.390702312476886
 40
0.474055253402828
 40
0.5526429993924643
 40
0.6277026882254425
 40
0.6997691119223578
 40
0.7708214991990079
 40
0.8429379034685696
 40
0.9188409264637342
 40
1.0
 40
1.0
 40
1.0
 40
1.0
 10
-139.6255028367304
 20
-121.2246661063243
 30
0.0
 10
-139.652498541138
 20
-121.3137705944437
 30
0.0
 10
-139.704949217084
 20
-121.4868940870237
 30
0.0
 10
-139.7945831904074
 20
-121.7352232792472
 30
0.0
 10
-139.8895650338258
 20
-121.9651325187679
 30
0.0
 10
-139.9882026362284
 20
-122.177283385496
 30
0.0
 10
-140.0956500120077
 20
-122.3691200907598
 30
0.0
 10
-140.2156781424765
 20
-122.5387630101247
 30
0.0
 10
-140.3488320016844
 20
-122.6851846395225
 30
0.0
 10
-140.4941017576629
 20
-122.8099995679414
 30
0.0
 10
-140.6561172229459
 20
-122.9077972390037
 30
0.0
 10
-140.835341132337
 20
-122.9780068754289
 30
0.0
 10
-141.0326663497816
 20
-123.0193434079801
 30
0.0
 10
-141.1701530552847
 20
-123.0244293130679
 30
0.0
 10
-141.2411968901029
 20
-123.0270573649921
 30
0.0
  0
SPLINE
  5
294
330
1F
100
AcDbEntity
  8
0
  6
Continuous
 62
     7
370
    25
100
AcDbSpline
210
0.0
220
0.0
230
1.0
 70
     8
 71
     3
 72
    19
 73
    15
 74
     0
 42
0.00000001
 43
0.00000001
 40
0.0
 40
0.0
 40
0.0
 40
0.0
 40
0.0734910836779814
 40
0.1417892739566783
 40
0.2062454744276891
 40
0.268118836333972
 40
0.3304519211690808
 40
0.3976474332298606
 40
0.4713252205016126
 40
0.552798110331067
 40
0.6445163863040017
 40
0.749655928359732
 40
0.8679990350447545
 40
1.0
 40
1.0
 40
1.0
 40
1.0
 10
-138.5335003151922
 20
-119.999979407438
 30
0.0
 10
-138.5773816158687
 20
-120.001503120238
 30
0.0
 10
-138.6620435564988
 20
-120.0044428800132
 30
0.0
 10
-138.7844669815739
 20
-120.022114719143
 30
0.0
 10
-138.8955907834258
 20
-120.057445582551
 30
0.0
 10
-138.9990721703742
 20
-120.1028742394116
 30
0.0
 10
-139.0946656475104
 20
-120.1669309694508
 30
0.0
 10
-139.1814691811385
 20
-120.2524554598111
 30
0.0
 10
-139.2643761139745
 20
-120.3566503893979
 30
0.0
 10
-139.3400861929095
 20
-120.4835501439972
 30
0.0
 10
-139.4147859889166
 20
-120.6321985417212
 30
0.0
 10
-139.4865969177846
 20
-120.8064051040252
 30
0.0
 10
-139.5579700829828
 20
-121.0064640175231
 30
0.0
 10
-139.6021877997676
 20
-121.1493339232954
 30
0.0
 10
-139.6255028367304
 20
-121.2246661063243
 30
0.0
  0
SPLINE
  5
295
330
1F
100
AcDbEntity
  8
0
  6
Continuous
 62
     7
370
    25
100
AcDbSpline
210
0.0
220
0.0
230
1.0
 70
     8
 71
     3
 72
    19
 73
    15
 74
     0
 42
0.00000001
 43
0.00000001
 40
0.0
 40
0.0
 40
0.0
 40
0.0
 40
0.0900710897574526
 40
0.1776520739584272
 40
0.2639323853456751
 40
0.3487101221064048
 40
0.4315217308696765
 40
0.5111740983969962
 40
0.5889294092810553
 40
0.667328909031862
 40
0.7455260871556836
 40
0.8253522870246646
 40
0.9097883182408736
 40
0.9999999999999999
 40
0.9999999999999999
 40
0.9999999999999999
 40
0.9999999999999999
 10
-137.4990334103803
 20
-121.2986404706866
 30
0.0
 10
-137.5003008148734
 20
-121.24259240896
 30
0.0
 10
-137.502800585192
 20
-121.1320457903514
 30
0.0
 10
-137.5252572106247
 20
-120.9691630802422
 30
0.0
 10
-137.558086911709
 20
-120.8114871878168
 30
0.0
 10
-137.6077428102865
 20
-120.6612565465578
 30
0.0
 10
-137.6702536970083
 20
-120.5204758361663
 30
0.0
 10
-137.7476987359637
 20
-120.3920673665946
 30
0.0
 10
-137.8422979543472
 20
-120.2793671320241
 30
0.0
 10
-137.9496757061409
 20
-120.1801430798647
 30
0.0
 10
-138.0730896129132
 20
-120.0986944797343
 30
0.0
 10
-138.2131281596202
 20
-120.0405616213624
 30
0.0
 10
-138.3686658898686
 20
-120.006483761113
 30
0.0
 10
-138.477357353999
 20
-120.0021948043446
 30
0.0
 10
-138.5335003151922
 20
-119.999979407438
 30
0.0
  0
SPLINE
  5
296
330
1F
100
AcDbEntity
  8
0
  6
Continuous
 62
     7
370
    25
100
AcDbSpline
210
0.0
220
0.0
230
1.0
 70
     8
 71
     3
 72
    15
 73
    11
 74
     0
 42
0.00000001
 43
0.00000001
 40
0.0
 40
0.0
 40
0.0
 40
0.0
 40
0.1167462884478895
 40
0.2327427587759545
 40
0.3500240071566279
 40
0.4689256079040813
 40
0.5917740145692946
 40
0.7205570298036219
 40
0.8559408904231565
 40
1.0
 40
1.0
 40
1.0
 40
1.0
 10
-138.0920025215381
 20
-122.8521021222941
 30
0.0
 10
-138.0480452549245
 20
-122.8023500240528
 30
0.0
 10
-137.9604130429209
 20
-122.7031653668487
 30
0.0
 10
-137.8448212453521
 20
-122.54076130411
 30
0.0
 10
-137.7439299295876
 20
-122.3676397403283
 30
0.0
 10
-137.6558386750974
 20
-122.1832762318205
 30
0.0
 10
-137.5845116040897
 20
-121.9846526123542
 30
0.0
 10
-137.5344843835329
 20
-121.7700027986422
 30
0.0
 10
-137.5052433239737
 20
-121.539375102335
 30
0.0
 10
-137.5011457840038
 20
-121.3805291279941
 30
0.0
 10
-137.4990334103803
 20
-121.2986404706866
 30
0.0
  0
SPLINE
  5
298
330
1F
100
AcDbEntity
  8
0
  6
Continuous
 62
     7
370
    25
100
AcDbSpline
210
0.0
220
0.0
230
1.0
 70
     8
 71
     3
 72
    15
 73
    11
 74
     0
 42
0.00000001
 43
0.00000001
 40
0.0
 40
0.0
 40
0.0
 40
0.0
 40
0.1401392577216004
 40
0.2740492560348382
 40
0.4037239153621517
 40
0.5294574203187329
 40
0.6512447988882026
 40
0.7692276385505215
 40
0.8851606885926192
 40
1.0
 40
1.0
 40
1.0
 40
1.0
 10
-136.9072384954822
 20
-121.3103824332838
 30
0.0
 10
-136.9093256771385
 20
-121.4103106400608
 30
0.0
 10
-136.9134072641928
 20
-121.6057251953353
 30
0.0
 10
-136.950295188932
 20
-121.8915521329503
 30
0.0
 10
-137.0060345802423
 20
-122.163788439083
 30
0.0
 10
-137.0895041217704
 20
-122.4198304341206
 30
0.0
 10
-137.190749731751
 20
-122.6602847833177
 30
0.0
 10
-137.3139324501902
 20
-122.8823340027436
 30
0.0
 10
-137.4556013594702
 20
-123.0874070879213
 30
0.0
 10
-137.5661416348492
 20
-123.2094057594823
 30
0.0
 10
-137.621149821391
 20
-123.2701159907538
 30
0.0
  0
SPLINE
  5
299
330
1F
100
AcDbEntity
  8
0
  6
Continuous
 62
     7
370
    25
100
AcDbSpline
210
0.0
220
0.0
230
1.0
 70
     8
 71
     3
 72
    23
 73
    19
 74
     0
 42
0.00000001
 43
0.00000001
 40
0.0
 40
0.0
 40
0.0
 40
0.0
 40
0.0790613921438895
 40
0.1550928704050954
 40
0.2293368625787018
 40
0.3036834224116393
 40
0.378511015677253
 40
0.4540260402204319
 40
0.5325353096583851
 40
0.6147081335594445
 40
0.6575568702790741
 40
0.7017839416977758
 40
0.7472133290452567
 40
0.7941906477889498
 40
0.8429928909435599
 40
0.8935055424137867
 40
0.9457986943179011
 40
1.0
 40
1.0
 40
1.0
 40
1.0
 10
-138.5464164740492
 20
-119.2696293338931
 30
0.0
 10
-138.4687064360193
 20
-119.2725487711829
 30
0.0
 10
-138.3162644851439
 20
-119.2782757625369
 30
0.0
 10
-138.0944851193786
 20
-119.323766895859
 30
0.0
 10
-137.8865751028464
 20
-119.3998070944136
 30
0.0
 10
-137.6930083092339
 20
-119.5048876399784
 30
0.0
 10
-137.5157638584661
 20
-119.6378777743658
 30
0.0
 10
-137.3589721645351
 20
-119.8002380356087
 30
0.0
 10
-137.2236328717175
 20
-119.9896692170268
 30
0.0
 10
-137.1304121212626
 20
-120.1671248357363
 30
0.0
 10
-137.0649404519376
 20
-120.3200313775822
 30
0.0
 10
-137.0228295312395
 20
-120.4433536211798
 30
0.0
 10
-136.9884654738727
 20
-120.573128431648
 30
0.0
 10
-136.9566016768798
 20
-120.7082273458239
 30
0.0
 10
-136.9355886311326
 20
-120.8505017603179
 30
0.0
 10
-136.918611041164
 20
-120.9984832356642
 30
0.0
 10
-136.90953256868
 20
-121.1525361793025
 30
0.0
 10
-136.9080122667387
 20
-121.2571422426975
 30
0.0
 10
-136.9072384954822
 20
-121.3103824332838
 30
0.0
  0
SPLINE
  5
29A
330
1F
100
AcDbEntity
  8
0
  6
Continuous
 62
     7
370
    25
100
AcDbSpline
210
0.0
220
0.0
230
1.0
 70
     8
 71
     3
 72
    23
 73
    19
 74
     0
 42
0.00000001
 43
0.00000001
 40
0.0
 40
0.0
 40
0.0
 40
0.0
 40
0.0874203580925574
 40
0.1728324054571005
 40
0.2562570582450999
 40
0.338061660645236
 40
0.4177771349561438
 40
0.4950595874628246
 40
0.5715632798823983
 40
0.64787448220615
 40
0.686793380025671
 40
0.7265666839081597
 40
0.7675087764699523
 40
0.8098386153731265
 40
0.8539882179084796
 40
0.9003387450977551
 40
0.9491015498758548
 40
1.0
 40
1.0
 40
1.0
 40
1.0
 10
-140.2302139104854
 20
-120.900587938642
 30
0.0
 10
-140.2086281650884
 20
-120.8291154879481
 30
0.0
 10
-140.1659525643252
 20
-120.6878125254931
 30
0.0
 10
-140.090090730392
 20
-120.482439605283
 30
0.0
 10
-140.0079663091039
 20
-120.2847753210243
 30
0.0
 10
-139.9190259189258
 20
-120.0953090557095
 30
0.0
 10
-139.8165342585939
 20
-119.9186412706205
 30
0.0
 10
-139.6973378427572
 20
-119.7581170609757
 30
0.0
 10
-139.560125725447
 20
-119.6168877900432
 30
0.0
 10
-139.4327172813566
 20
-119.5130731006992
 30
0.0
 10
-139.32015962025
 20
-119.4432440326885
 30
0.0
 10
-139.2297538101911
 20
-119.3952883649513
 30
0.0
 10
-139.131507050149
 20
-119.3576419954578
 30
0.0
 10
-139.0280271269102
 20
-119.3237311888794
 30
0.0
 10
-138.9169890862038
 20
-119.2997620240738
 30
0.0
 10
-138.799330444706
 20
-119.2822194920006
 30
0.0
 10
-138.6749910027973
 20
-119.2715602340283
 30
0.0
 10
-138.5898825809838
 20
-119.2702820970226
 30
0.0
 10
-138.5464164740492
 20
-119.2696293338931
 30
0.0
  0
SPLINE
  5
29B
330
1F
100
AcDbEntity
  8
0
  6
Continuous
 62
     7
370
    25
100
AcDbSpline
210
0.0
220
0.0
230
1.0
 70
     8
 71
     3
 72
    19
 73
    15
 74
     0
 42
0.00000001
 43
0.00000001
 40
0.0
 40
0.0
 40
0.0
 40
0.0
 40
0.061959063906814
 40
0.1202625836523976
 40
0.1774150073859095
 40
0.2340605563721381
 40
0.2950815606483979
 40
0.3629457006954996
 40
0.4387912168498495
 40
0.5245101912526281
 40
0.6218134325767022
 40
0.7340469072282559
 40
0.8594112189061937
 40
1.0
 40
1.0
 40
1.0
 40
1.0
 10
-141.2646808152973
 20
-122.3084492540444
 30
0.0
 10
-141.2257713204684
 20
-122.307037721422
 30
0.0
 10
-141.1502479655033
 20
-122.3042979356767
 30
0.0
 10
-141.0415183968578
 20
-122.2781091110413
 30
0.0
 10
-140.9405495775952
 20
-122.2388661177603
 30
0.0
 10
-140.847272300507
 20
-122.1801140406729
 30
0.0
 10
-140.7602324334473
 20
-122.1021352364256
 30
0.0
 10
-140.6798076997126
 20
-122.0015842451273
 30
0.0
 10
-140.6017424856305
 20
-121.8805143697645
 30
0.0
 10
-140.5284113713038
 20
-121.735474158099
 30
0.0
 10
-140.4555365137344
 20
-121.5652496171158
 30
0.0
 10
-140.3812872266531
 20
-121.3687959754699
 30
0.0
 10
-140.3046419958168
 20
-121.1443748330197
 30
0.0
 10
-140.2559523508984
 20
-120.98489340514
 30
0.0
 10
-140.2302139104854
 20
-120.900587938642
 30
0.0
  0
SPLINE
  5
2AC
330
1F
100
AcDbEntity
  8
0
  6
Continuous
 62
     7
370
    25
100
AcDbSpline
210
0.0
220
0.0
230
1.0
 70
     8
 71
     3
 72
    27
 73
    23
 74
     0
 42
0.00000001
 43
0.00000001
 40
0.0
 40
0.0
 40
0.0
 40
0.0
 40
0.0497666997146653
 40
0.0967582675268257
 40
0.1418657119319894
 40
0.1849913160897013
 40
0.2264061747159517
 40
0.2661410245234864
 40
0.3047470209390667
 40
0.3425917592406468
 40
0.379902443415308
 40
0.416961268598137
 40
0.453702842283408
 40
0.4908914079882072
 40
0.5282289762908902
 40
0.5664326072743301
 40
0.6050403364156807
 40
0.6449113195535674
 40
0.7272826543749776
 40
0.8135074887828729
 40
0.9041108332258083
 40
1.0
 40
1.0
 40
1.0
 40
1.0
 10
-140.8713250682916
 20
-148.410832107585
 30
0.0
 10
-140.8180653804586
 20
-148.4117529564574
 30
0.0
 10
-140.7145159155897
 20
-148.4135433050652
 30
0.0
 10
-140.5631828211971
 20
-148.4268883664925
 30
0.0
 10
-140.4198606184424
 20
-148.4473886549568
 30
0.0
 10
-140.2842774504402
 20
-148.4776776309208
 30
0.0
 10
-140.1575009297912
 20
-148.5181925672431
 30
0.0
 10
-140.0378984574596
 20
-148.5645549736345
 30
0.0
 10
-139.9269040183302
 20
-148.621112519356
 30
0.0
 10
-139.8246122416427
 20
-148.6874519658505
 30
0.0
 10
-139.7295068283566
 20
-148.7608575114043
 30
0.0
 10
-139.6395682864407
 20
-148.83885120608
 30
0.0
 10
-139.5584119318282
 20
-148.9257892803162
 30
0.0
 10
-139.483200636424
 20
-149.0182173796012
 30
0.0
 10
-139.4148856697826
 20
-149.1177656379951
 30
0.0
 10
-139.3524242076661
 20
-149.2228808466919
 30
0.0
 10
-139.2985132759931
 20
-149.3356541754262
 30
0.0
 10
-139.2339645733313
 20
-149.4952764629573
 30
0.0
 10
-139.1677575499688
 20
-149.7088510686372
 30
0.0
 10
-139.1141373087587
 20
-149.9812758837911
 30
0.0
 10
-139.0785221240795
 20
-150.2713846236802
 30
0.0
 10
-139.0752916255177
 20
-150.4710429579349
 30
0.0
 10
-139.0736305946627
 20
-150.5737016179864
 30
0.0
  0
SPLINE
  5
2AD
330
1F
100
AcDbEntity
  8
0
  6
Continuous
 62
     7
370
    25
100
AcDbSpline
210
0.0
220
0.0
230
1.0
 70
     8
 71
     3
 72
    23
 73
    19
 74
     0
 42
0.00000001
 43
0.00000001
 40
0.0
 40
0.0
 40
0.0
 40
0.0
 40
0.0775486309981916
 40
0.1511896424292475
 40
0.2208860462233886
 40
0.2876611392380792
 40
0.3511496339599868
 40
0.412276100315869
 40
0.4708965008672977
 40
0.5285423595153069
 40
0.5849277178366485
 40
0.6397711913214812
 40
0.694623613312002
 40
0.7505745594792851
 40
0.8081656581086188
 40
0.8686556373326014
 40
0.9321540706805219
 40
1.0
 40
1.0
 40
1.0
 40
1.0
 10
-142.588
 20
-150.5654822441684
 30
0.0
 10
-142.5864832968009
 20
-150.484432554541
 30
0.0
 10
-142.5835263159827
 20
-150.3264172106717
 30
0.0
 10
-142.5653506354775
 20
-150.0960611531767
 30
0.0
 10
-142.5321873115941
 20
-149.8787938758156
 30
0.0
 10
-142.4869413162616
 20
-149.6745862618249
 30
0.0
 10
-142.4285317619699
 20
-149.4829832774216
 30
0.0
 10
-142.3554793157772
 20
-149.305664802326
 30
0.0
 10
-142.2705794986886
 20
-149.1405711908347
 30
0.0
 10
-142.1723596813189
 20
-148.9887572129242
 30
0.0
 10
-142.0598848983413
 20
-148.8522136807174
 30
0.0
 10
-141.9331823991514
 20
-148.7326703610435
 30
0.0
 10
-141.7902636543612
 20
-148.6340261586235
 30
0.0
 10
-141.6346495301845
 20
-148.5509337824712
 30
0.0
 10
-141.463647103505
 20
-148.4872474491686
 30
0.0
 10
-141.2785885840638
 20
-148.4437053131441
 30
0.0
 10
-141.0796002803247
 20
-148.4159407483751
 30
0.0
 10
-140.9422653996384
 20
-148.4125721546451
 30
0.0
 10
-140.8713250682916
 20
-148.410832107585
 30
0.0
  0
SPLINE
  5
2AF
330
1F
100
AcDbEntity
  8
0
  6
Continuous
 62
     7
370
    25
100
AcDbSpline
210
0.0
220
0.0
230
1.0
 70
     8
 71
     3
 72
    19
 73
    15
 74
     0
 42
0.00000001
 43
0.00000001
 40
0.0
 40
0.0
 40
0.0
 40
0.0
 40
0.0958471351618827
 40
0.1877938382499475
 40
0.277124157325788
 40
0.3646700370948873
 40
0.4491345788147713
 40
0.5285500048904128
 40
0.6060738846927664
 40
0.6818017153097962
 40
0.7566837358920837
 40
0.8333296940922276
 40
0.9138191673673405
 40
1.0
 40
1.0
 40
1.0
 40
1.0
 10
-142.0889665896197
 20
-155.3855578903126
 30
0.0
 10
-142.0879234023808
 20
-155.4353261169167
 30
0.0
 10
-142.0858794796775
 20
-155.5328372869803
 30
0.0
 10
-142.0673332440311
 20
-155.6757032187168
 30
0.0
 10
-142.039684805861
 20
-155.8125979237067
 30
0.0
 10
-142.0000659624071
 20
-155.9425468694668
 30
0.0
 10
-141.9494257360577
 20
-156.0631761121409
 30
0.0
 10
-141.8858643982724
 20
-156.1714817846245
 30
0.0
 10
-141.8136949565592
 20
-156.2687160669815
 30
0.0
 10
-141.7286456363638
 20
-156.3519128321003
 30
0.0
 10
-141.630850628153
 20
-156.4189835427528
 30
0.0
 10
-141.5200101252502
 20
-156.4678039360465
 30
0.0
 10
-141.3960226890507
 20
-156.4960591728166
 30
0.0
 10
-141.3094468863736
 20
-156.4993452123882
 30
0.0
 10
-141.2646808152973
 20
-156.501044337045
 30
0.0
  0
SPLINE
  5
2B0
330
1F
100
AcDbEntity
  8
0
  6
Continuous
 62
     7
370
    25
100
AcDbSpline
210
0.0
220
0.0
230
1.0
 70
     8
 71
     3
 72
    15
 73
    11
 74
     0
 42
0.00000001
 43
0.00000001
 40
0.0
 40
0.0
 40
0.0
 40
0.0
 40
0.1336881679731623
 40
0.2630022985203486
 40
0.389585880727275
 40
0.5143523854833814
 40
0.6376413114027383
 40
0.7581580574143583
 40
0.8795570677341948
 40
1.0
 40
1.0
 40
1.0
 40
1.0
 10
-141.5817138054213
 20
-154.0375805841558
 30
0.0
 10
-141.6242847292807
 20
-154.0876325839514
 30
0.0
 10
-141.7080337326137
 20
-154.1860989717506
 30
0.0
 10
-141.8134709338872
 20
-154.3462296648685
 30
0.0
 10
-141.9027828946356
 20
-154.5107939122693
 30
0.0
 10
-141.9713571168005
 20
-154.6818660199302
 30
0.0
 10
-142.0245548250291
 20
-154.8551471067193
 30
0.0
 10
-142.060176200159
 20
-155.0310576057334
 30
0.0
 10
-142.0855454794101
 20
-155.2075164024142
 30
0.0
 10
-142.0878292290124
 20
-155.3263673461966
 30
0.0
 10
-142.0889665896196
 20
-155.3855578903125
 30
0.0
  0
SPLINE
  5
2B2
330
1F
100
AcDbEntity
  8
0
  6
Continuous
 62
     7
370
    25
100
AcDbSpline
210
0.0
220
0.0
230
1.0
 70
     8
 71
     3
 72
    15
 73
    11
 74
     0
 42
0.00000001
 43
0.00000001
 40
0.0
 40
0.0
 40
0.0
 40
0.0
 40
0.1446198572981749
 40
0.2803758879960975
 40
0.408340124884199
 40
0.5290043151477962
 40
0.6465168827553993
 40
0.7636882532157819
 40
0.8809157790835248
 40
1.0
 40
1.0
 40
1.0
 40
1.0
 10
-142.6772389157386
 20
-155.4102160117666
 30
0.0
 10
-142.6752316869296
 20
-155.3165878239538
 30
0.0
 10
-142.6713402534139
 20
-155.1350699688688
 30
0.0
 10
-142.6407874001995
 20
-154.8720845024265
 30
0.0
 10
-142.5896825449742
 20
-154.6282182261031
 30
0.0
 10
-142.5174618339399
 20
-154.4019963236102
 30
0.0
 10
-142.4241836383975
 20
-154.191350292469
 30
0.0
 10
-142.3148826671089
 20
-153.9912726002869
 30
0.0
 10
-142.1879767515069
 20
-153.8002990179781
 30
0.0
 10
-142.0893507821742
 20
-153.6832485605828
 30
0.0
 10
-142.0396503467115
 20
-153.6242635007349
 30
0.0
  0
SPLINE
  5
2B3
330
1F
100
AcDbEntity
  8
0
  6
Continuous
 62
     7
370
    25
100
AcDbSpline
210
0.0
220
0.0
230
1.0
 70
     8
 71
     3
 72
    19
 73
    15
 74
     0
 42
0.00000001
 43
0.00000001
 40
0.0
 40
0.0
 40
0.0
 40
0.0
 40
0.0789142515461256
 40
0.1549757227157094
 40
0.230520887235197
 40
0.3064556561822897
 40
0.3837151258501601
 40
0.4616803101161621
 40
0.5420931208071195
 40
0.6263612732504938
 40
0.7145087843572869
 40
0.805121398646739
 40
0.9002383861473858
 40
0.9999999999999999
 40
0.9999999999999999
 40
0.9999999999999999
 40
0.9999999999999999
 10
-141.2411968901029
 20
-157.2196524479927
 30
0.0
 10
-141.3091583739376
 20
-157.2171687791178
 30
0.0
 10
-141.4426245079724
 20
-157.2122912269477
 30
0.0
 10
-141.6368567244934
 20
-157.1669480091551
 30
0.0
 10
-141.8192472031825
 20
-157.0939891364602
 30
0.0
 10
-141.9881369987241
 20
-156.9915196362276
 30
0.0
 10
-142.1422575320973
 20
-156.864767933018
 30
0.0
 10
-142.2778909382257
 20
-156.713302874652
 30
0.0
 10
-142.3975382557315
 20
-156.5416757302018
 30
0.0
 10
-142.4982018885409
 20
-156.3482849001468
 30
0.0
 10
-142.5788678189807
 20
-156.1363679583698
 30
0.0
 10
-142.6363831944076
 20
-155.9074526045423
 30
0.0
 10
-142.6705573659984
 20
-155.6637029028783
 30
0.0
 10
-142.674976623795
 20
-155.4960436077386
 30
0.0
 10
-142.6772389157386
 20
-155.4102160117666
 30
0.0
  0
SPLINE
  5
2B4
330
1F
100
AcDbEntity
  8
0
  6
Continuous
 62
     7
370
    25
100
AcDbSpline
210
0.0
220
0.0
230
1.0
 70
     8
 71
     3
 72
    19
 73
    15
 74
     0
 42
0.00000001
 43
0.00000001
 40
0.0
 40
0.0
 40
0.0
 40
0.0
 40
0.1064141113241604
 40
0.2067548223556993
 40
0.3016406555118946
 40
0.3907023124768862
 40
0.4740552534028283
 40
0.552642999392469
 40
0.6277026882254395
 40
0.6997691119223582
 40
0.7708214991990056
 40
0.8429379034685692
 40
0.9188409264637349
 40
1.0
 40
1.0
 40
1.0
 40
1.0
 10
-139.6255028367304
 20
-155.4172611893249
 30
0.0
 10
-139.652498541138
 20
-155.5063656774443
 30
0.0
 10
-139.704949217084
 20
-155.6794891700242
 30
0.0
 10
-139.7945831904075
 20
-155.9278183622478
 30
0.0
 10
-139.8895650338258
 20
-156.1577276017686
 30
0.0
 10
-139.9882026362284
 20
-156.3698784684966
 30
0.0
 10
-140.0956500120077
 20
-156.5617151737605
 30
0.0
 10
-140.2156781424765
 20
-156.7313580931254
 30
0.0
 10
-140.3488320016843
 20
-156.877779722523
 30
0.0
 10
-140.494101757663
 20
-157.0025946509421
 30
0.0
 10
-140.6561172229459
 20
-157.1003923220042
 30
0.0
 10
-140.835341132337
 20
-157.1706019584296
 30
0.0
 10
-141.0326663497815
 20
-157.2119384909807
 30
0.0
 10
-141.1701530552847
 20
-157.2170243960684
 30
0.0
 10
-141.2411968901029
 20
-157.2196524479927
 30
0.0
  0
SPLINE
  5
2B5
330
1F
100
AcDbEntity
  8
0
  6
Continuous
 62
     7
370
    25
100
AcDbSpline
210
0.0
220
0.0
230
1.0
 70
     8
 71
     3
 72
    19
 73
    15
 74
     0
 42
0.00000001
 43
0.00000001
 40
0.0
 40
0.0
 40
0.0
 40
0.0
 40
0.0734910836779813
 40
0.1417892739566805
 40
0.2062454744276865
 40
0.2681188363339693
 40
0.3304519211690823
 40
0.3976474332298566
 40
0.4713252205016205
 40
0.5527981103310682
 40
0.6445163863040095
 40
0.7496559283597326
 40
0.8679990350447548
 40
1.0
 40
1.0
 40
1.0
 40
1.0
 10
-138.5335003151922
 20
-154.1925744904386
 30
0.0
 10
-138.5773816158687
 20
-154.1940982032386
 30
0.0
 10
-138.6620435564988
 20
-154.1970379630137
 30
0.0
 10
-138.7844669815739
 20
-154.2147098021437
 30
0.0
 10
-138.8955907834257
 20
-154.2500406655515
 30
0.0
 10
-138.9990721703742
 20
-154.2954693224122
 30
0.0
 10
-139.0946656475104
 20
-154.3595260524514
 30
0.0
 10
-139.1814691811386
 20
-154.4450505428117
 30
0.0
 10
-139.2643761139744
 20
-154.5492454723985
 30
0.0
 10
-139.3400861929095
 20
-154.6761452269978
 30
0.0
 10
-139.4147859889166
 20
-154.8247936247218
 30
0.0
 10
-139.4865969177846
 20
-154.9990001870258
 30
0.0
 10
-139.5579700829828
 20
-155.1990591005237
 30
0.0
 10
-139.6021877997676
 20
-155.341929006296
 30
0.0
 10
-139.6255028367304
 20
-155.4172611893249
 30
0.0
  0
SPLINE
  5
2B6
330
1F
100
AcDbEntity
  8
0
  6
Continuous
 62
     7
370
    25
100
AcDbSpline
210
0.0
220
0.0
230
1.0
 70
     8
 71
     3
 72
    19
 73
    15
 74
     0
 42
0.00000001
 43
0.00000001
 40
0.0
 40
0.0
 40
0.0
 40
0.0
 40
0.0900710897574597
 40
0.1776520739584265
 40
0.2639323853456887
 40
0.3487101221064109
 40
0.4315217308696755
 40
0.5111740983970012
 40
0.5889294092810601
 40
0.6673289090318613
 40
0.7455260871556866
 40
0.8253522870246643
 40
0.909788318240873
 40
1.0
 40
1.0
 40
1.0
 40
1.0
 10
-137.4990334103803
 20
-155.4912355536872
 30
0.0
 10
-137.5003008148734
 20
-155.4351874919606
 30
0.0
 10
-137.502800585192
 20
-155.324640873352
 30
0.0
 10
-137.5252572106246
 20
-155.1617581632428
 30
0.0
 10
-137.558086911709
 20
-155.0040822708174
 30
0.0
 10
-137.6077428102864
 20
-154.8538516295584
 30
0.0
 10
-137.6702536970083
 20
-154.7130709191669
 30
0.0
 10
-137.7476987359638
 20
-154.5846624495953
 30
0.0
 10
-137.8422979543472
 20
-154.4719622150246
 30
0.0
 10
-137.9496757061409
 20
-154.3727381628653
 30
0.0
 10
-138.0730896129132
 20
-154.2912895627349
 30
0.0
 10
-138.2131281596202
 20
-154.233156704363
 30
0.0
 10
-138.3686658898686
 20
-154.1990788441136
 30
0.0
 10
-138.477357353999
 20
-154.1947898873452
 30
0.0
 10
-138.5335003151922
 20
-154.1925744904386
 30
0.0
  0
SPLINE
  5
2B7
330
1F
100
AcDbEntity
  8
0
  6
Continuous
 62
     7
370
    25
100
AcDbSpline
210
0.0
220
0.0
230
1.0
 70
     8
 71
     3
 72
    15
 73
    11
 74
     0
 42
0.00000001
 43
0.00000001
 40
0.0
 40
0.0
 40
0.0
 40
0.0
 40
0.1167462884478905
 40
0.2327427587759631
 40
0.3500240071566235
 40
0.4689256079040926
 40
0.5917740145692991
 40
0.7205570298036196
 40
0.8559408904231713
 40
1.0
 40
1.0
 40
1.0
 40
1.0
 10
-138.0920025215381
 20
-157.0446972052947
 30
0.0
 10
-138.0480452549245
 20
-156.9949451070534
 30
0.0
 10
-137.9604130429209
 20
-156.8957604498492
 30
0.0
 10
-137.8448212453521
 20
-156.7333563871106
 30
0.0
 10
-137.7439299295876
 20
-156.560234823329
 30
0.0
 10
-137.6558386750974
 20
-156.375871314821
 30
0.0
 10
-137.5845116040898
 20
-156.1772476953549
 30
0.0
 10
-137.5344843835329
 20
-155.9625978816428
 30
0.0
 10
-137.5052433239737
 20
-155.7319701853357
 30
0.0
 10
-137.5011457840038
 20
-155.5731242109947
 30
0.0
 10
-137.4990334103803
 20
-155.4912355536872
 30
0.0
  0
SPLINE
  5
2B9
330
1F
100
AcDbEntity
  8
0
  6
Continuous
 62
     7
370
    25
100
AcDbSpline
210
0.0
220
0.0
230
1.0
 70
     8
 71
     3
 72
    15
 73
    11
 74
     0
 42
0.00000001
 43
0.00000001
 40
0.0
 40
0.0
 40
0.0
 40
0.0
 40
0.1401392577215932
 40
0.2740492560348303
 40
0.4037239153621494
 40
0.5294574203187237
 40
0.6512447988881988
 40
0.7692276385505227
 40
0.8851606885926198
 40
1.0
 40
1.0
 40
1.0
 40
1.0
 10
-136.9072384954822
 20
-155.5029775162844
 30
0.0
 10
-136.9093256771385
 20
-155.6029057230615
 30
0.0
 10
-136.9134072641928
 20
-155.7983202783358
 30
0.0
 10
-136.9502951889321
 20
-156.0841472159509
 30
0.0
 10
-137.0060345802423
 20
-156.3563835220835
 30
0.0
 10
-137.0895041217705
 20
-156.6124255171213
 30
0.0
 10
-137.190749731751
 20
-156.8528798663183
 30
0.0
 10
-137.3139324501902
 20
-157.0749290857443
 30
0.0
 10
-137.4556013594701
 20
-157.2800021709219
 30
0.0
 10
-137.5661416348492
 20
-157.4020008424829
 30
0.0
 10
-137.621149821391
 20
-157.4627110737544
 30
0.0
  0
SPLINE
  5
2BA
330
1F
100
AcDbEntity
  8
0
  6
Continuous
 62
     7
370
    25
100
AcDbSpline
210
0.0
220
0.0
230
1.0
 70
     8
 71
     3
 72
    23
 73
    19
 74
     0
 42
0.00000001
 43
0.00000001
 40
0.0
 40
0.0
 40
0.0
 40
0.0
 40
0.0790613921438895
 40
0.1550928704050955
 40
0.2293368625787019
 40
0.3036834224116395
 40
0.3785110156772531
 40
0.4540260402204355
 40
0.532535309658385
 40
0.6147081335594485
 40
0.6575568702790737
 40
0.701783941697771
 40
0.7472133290452565
 40
0.794190647788945
 40
0.8429928909435599
 40
0.8935055424137819
 40
0.945798694317901
 40
1.0
 40
1.0
 40
1.0
 40
1.0
 10
-138.5464164740492
 20
-153.4622244168937
 30
0.0
 10
-138.4687064360193
 20
-153.4651438541835
 30
0.0
 10
-138.316264485144
 20
-153.4708708455375
 30
0.0
 10
-138.0944851193785
 20
-153.5163619788596
 30
0.0
 10
-137.8865751028464
 20
-153.5924021774142
 30
0.0
 10
-137.6930083092338
 20
-153.6974827229789
 30
0.0
 10
-137.5157638584662
 20
-153.8304728573664
 30
0.0
 10
-137.3589721645351
 20
-153.9928331186093
 30
0.0
 10
-137.2236328717175
 20
-154.1822643000275
 30
0.0
 10
-137.1304121212625
 20
-154.3597199187368
 30
0.0
 10
-137.0649404519377
 20
-154.5126264605829
 30
0.0
 10
-137.0228295312394
 20
-154.6359487041804
 30
0.0
 10
-136.9884654738727
 20
-154.7657235146486
 30
0.0
 10
-136.9566016768798
 20
-154.9008224288245
 30
0.0
 10
-136.9355886311325
 20
-155.0430968433185
 30
0.0
 10
-136.9186110411641
 20
-155.1910783186649
 30
0.0
 10
-136.90953256868
 20
-155.3451312623031
 30
0.0
 10
-136.9080122667387
 20
-155.4497373256982
 30
0.0
 10
-136.9072384954823
 20
-155.5029775162844
 30
0.0
  0
SPLINE
  5
2BB
330
1F
100
AcDbEntity
  8
0
  6
Continuous
 62
     7
370
    25
100
AcDbSpline
210
0.0
220
0.0
230
1.0
 70
     8
 71
     3
 72
    23
 73
    19
 74
     0
 42
0.00000001
 43
0.00000001
 40
0.0
 40
0.0
 40
0.0
 40
0.0
 40
0.0874203580925626
 40
0.1728324054571059
 40
0.2562570582451054
 40
0.3380616606452366
 40
0.4177771349561444
 40
0.4950595874628254
 40
0.5715632798823991
 40
0.6478744822061474
 40
0.6867933800256686
 40
0.7265666839081598
 40
0.7675087764699505
 40
0.8098386153731248
 40
0.8539882179084802
 40
0.9003387450977552
 40
0.9491015498758546
 40
1.0
 40
1.0
 40
1.0
 40
1.0
 10
-140.2302139104854
 20
-155.0931830216426
 30
0.0
 10
-140.2086281650884
 20
-155.0217105709487
 30
0.0
 10
-140.1659525643252
 20
-154.8804076084937
 30
0.0
 10
-140.0900907303921
 20
-154.6750346882836
 30
0.0
 10
-140.0079663091039
 20
-154.4773704040249
 30
0.0
 10
-139.9190259189259
 20
-154.2879041387102
 30
0.0
 10
-139.8165342585939
 20
-154.1112363536211
 30
0.0
 10
-139.6973378427572
 20
-153.9507121439763
 30
0.0
 10
-139.560125725447
 20
-153.8094828730438
 30
0.0
 10
-139.4327172813566
 20
-153.7056681836998
 30
0.0
 10
-139.3201596202501
 20
-153.6358391156891
 30
0.0
 10
-139.2297538101911
 20
-153.5878834479518
 30
0.0
 10
-139.1315070501489
 20
-153.5502370784584
 30
0.0
 10
-139.0280271269102
 20
-153.51632627188
 30
0.0
 10
-138.9169890862037
 20
-153.4923571070743
 30
0.0
 10
-138.799330444706
 20
-153.4748145750012
 30
0.0
 10
-138.6749910027973
 20
-153.464155317029
 30
0.0
 10
-138.5898825809838
 20
-153.4628771800232
 30
0.0
 10
-138.5464164740492
 20
-153.4622244168937
 30
0.0
  0
SPLINE
  5
2BC
330
1F
100
AcDbEntity
  8
0
  6
Continuous
 62
     7
370
    25
100
AcDbSpline
210
0.0
220
0.0
230
1.0
 70
     8
 71
     3
 72
    19
 73
    15
 74
     0
 42
0.00000001
 43
0.00000001
 40
0.0
 40
0.0
 40
0.0
 40
0.0
 40
0.061959063906813
 40
0.1202625836523999
 40
0.1774150073859118
 40
0.2340605563721366
 40
0.2950815606483914
 40
0.3629457006954931
 40
0.438791216849843
 40
0.5245101912526348
 40
0.6218134325767021
 40
0.7340469072282558
 40
0.8594112189061867
 40
1.0
 40
1.0
 40
1.0
 40
1.0
 10
-141.2646808152973
 20
-156.501044337045
 30
0.0
 10
-141.2257713204684
 20
-156.4996328044226
 30
0.0
 10
-141.1502479655033
 20
-156.4968930186773
 30
0.0
 10
-141.0415183968579
 20
-156.4707041940419
 30
0.0
 10
-140.9405495775952
 20
-156.4314612007609
 30
0.0
 10
-140.847272300507
 20
-156.3727091236735
 30
0.0
 10
-140.7602324334474
 20
-156.2947303194263
 30
0.0
 10
-140.6798076997126
 20
-156.1941793281278
 30
0.0
 10
-140.6017424856306
 20
-156.0731094527651
 30
0.0
 10
-140.5284113713038
 20
-155.9280692410996
 30
0.0
 10
-140.4555365137344
 20
-155.7578447001164
 30
0.0
 10
-140.381287226653
 20
-155.5613910584703
 30
0.0
 10
-140.3046419958168
 20
-155.3369699160203
 30
0.0
 10
-140.2559523508984
 20
-155.1774884881407
 30
0.0
 10
-140.2302139104854
 20
-155.0931830216426
 30
0.0
  0
SPLINE
  5
2CD
330
1F
100
AcDbEntity
  8
0
  6
Continuous
 62
     7
370
    25
100
AcDbSpline
210
0.0
220
0.0
230
1.0
 70
     8
 71
     3
 72
    23
 73
    19
 74
     0
 42
0.00000001
 43
0.00000001
 40
0.0
 40
0.0
 40
0.0
 40
0.0
 40
0.0568466824636368
 40
0.1105211328322412
 40
0.1614052135935399
 40
0.2107730356395023
 40
0.2594217186201743
 40
0.3092575657776304
 40
0.3605510592493593
 40
0.4147948914555877
 40
0.4724286204462015
 40
0.533966122856501
 40
0.5994051687353603
 40
0.6698064736362589
 40
0.7445981569027795
 40
0.8244867244544345
 40
0.9095613206725756
 40
1.0
 40
1.0
 40
1.0
 40
1.0
 10
-142.0889665896196
 20
-116.3036095818444
 30
0.0
 10
-142.0873126528287
 20
-116.3604989587445
 30
0.0
 10
-142.0840970743667
 20
-116.4711030979596
 30
0.0
 10
-142.0549369617973
 20
-116.6303680683935
 30
0.0
 10
-142.0101421719269
 20
-116.7781366644505
 30
0.0
 10
-141.9431589954887
 20
-116.9118133622529
 30
0.0
 10
-141.8588573790778
 20
-117.0339057358597
 30
0.0
 10
-141.7543949358882
 20
-117.1420792680863
 30
0.0
 10
-141.6316997504541
 20
-117.2380762114969
 30
0.0
 10
-141.4908995233467
 20
-117.3213476773686
 30
0.0
 10
-141.3323597428086
 20
-117.3921973136444
 30
0.0
 10
-141.1583124831336
 20
-117.4541392318436
 30
0.0
 10
-140.9679975150493
 20
-117.5069245372785
 30
0.0
 10
-140.7617204773343
 20
-117.5501631724269
 30
0.0
 10
-140.5388353890619
 20
-117.5820038508978
 30
0.0
 10
-140.30037122165
 20
-117.6071563196234
 30
0.0
 10
-140.0452427598282
 20
-117.6207920838213
 30
0.0
 10
-139.8697504320775
 20
-117.6225172382439
 30
0.0
 10
-139.7793225467535
 20
-117.6234061777679
 30
0.0
  0
SPLINE
  5
2CE
330
1F
100
AcDbEntity
  8
0
  6
Continuous
 62
     7
370
    25
100
AcDbSpline
210
0.0
220
0.0
230
1.0
 70
     8
 71
     3
 72
    23
 73
    19
 74
     0
 42
0.00000001
 43
0.00000001
 40
0.0
 40
0.0
 40
0.0
 40
0.0
 40
0.0906728199822537
 40
0.1759676695457024
 40
0.2560630641060819
 40
0.3306601740658504
 40
0.4012437439860123
 40
0.4668522078745862
 40
0.5281796832755895
 40
0.5856056580569025
 40
0.6396532645313304
 40
0.6907716318377051
 40
0.7404660303665241
 40
0.7892406620516008
 40
0.8385632787557102
 40
0.8895790955405551
 40
0.943006144672321
 40
1.0
 40
1.0
 40
1.0
 40
1.0
 10
-139.7875419205715
 20
-114.9849871821806
 30
0.0
 10
-139.8779700747804
 20
-114.9858741929446
 30
0.0
 10
-140.0534629243529
 20
-114.9875956042455
 30
0.0
 10
-140.3085877245888
 20
-115.0012576336622
 30
0.0
 10
-140.5466794107706
 20
-115.026278836315
 30
0.0
 10
-140.7691407766406
 20
-115.0583509015675
 30
0.0
 10
-140.9750327482639
 20
-115.1014910052717
 30
0.0
 10
-141.165041450878
 20
-115.154042595746
 30
0.0
 10
-141.3382450560509
 20
-115.216209275899
 30
0.0
 10
-141.4956396448892
 20
-115.2870352750138
 30
0.0
 10
-141.635243146921
 20
-115.3703434358276
 30
0.0
 10
-141.7568827282274
 20
-115.4662821904792
 30
0.0
 10
-141.8599160299793
 20
-115.5749162991129
 30
0.0
 10
-141.9446250365988
 20
-115.6962246431813
 30
0.0
 10
-142.0098431554758
 20
-115.8306042840002
 30
0.0
 10
-142.0548737412473
 20
-115.9776123271489
 30
0.0
 10
-142.0841712328433
 20
-116.136500842175
 30
0.0
 10
-142.0873340820038
 20
-116.2467199064967
 30
0.0
 10
-142.0889665896196
 20
-116.3036095818444
 30
0.0
  0
SPLINE
  5
2CF
330
1F
100
AcDbEntity
  8
0
  6
Continuous
 62
     7
370
    25
100
AcDbSpline
210
0.0
220
0.0
230
1.0
 70
     8
 71
     3
 72
    23
 73
    19
 74
     0
 42
0.00000001
 43
0.00000001
 40
0.0
 40
0.0
 40
0.0
 40
0.0
 40
0.0910315370341314
 40
0.1770587871504997
 40
0.2574269472149145
 40
0.3327653541605962
 40
0.4027748040153902
 40
0.4687667686496262
 40
0.5301367388157023
 40
0.5876606120204577
 40
0.6416889148981213
 40
0.6934221220786181
 40
0.7429895065809204
 40
0.7919449344130638
 40
0.8407930827277402
 40
0.8914789041540119
 40
0.9441124087294058
 40
1.0
 40
1.0
 40
1.0
 40
1.0
 10
-139.7793225467535
 20
-117.6234061777679
 30
0.0
 10
-139.6892742718622
 20
-117.6226774288287
 30
0.0
 10
-139.5141279560172
 20
-117.6212599925477
 30
0.0
 10
-139.2599198559843
 20
-117.605390415821
 30
0.0
 10
-139.0218896329159
 20
-117.5818100162034
 30
0.0
 10
-138.8014395796754
 20
-117.5460111909347
 30
0.0
 10
-138.5965745282046
 20
-117.5038052268027
 30
0.0
 10
-138.4091066091191
 20
-117.4485759388815
 30
0.0
 10
-138.2378039151533
 20
-117.3841108663825
 30
0.0
 10
-138.0831216334385
 20
-117.3105944732501
 30
0.0
 10
-137.9449861942171
 20
-117.2261189173682
 30
0.0
 10
-137.8258693901594
 20
-117.1283107375053
 30
0.0
 10
-137.7244383339386
 20
-117.0190567397676
 30
0.0
 10
-137.6415150052311
 20
-116.8985149492065
 30
0.0
 10
-137.5772266600654
 20
-116.7658570048769
 30
0.0
 10
-137.5316885351778
 20
-116.6219417698326
 30
0.0
 10
-137.5042900170631
 20
-116.4662922991866
 30
0.0
 10
-137.5008202933663
 20
-116.3589104626741
 30
0.0
 10
-137.4990334103803
 20
-116.3036095818444
 30
0.0
  0
SPLINE
  5
2D0
330
1F
100
AcDbEntity
  8
0
  6
Continuous
 62
     7
370
    25
100
AcDbSpline
210
0.0
220
0.0
230
1.0
 70
     8
 71
     3
 72
    23
 73
    19
 74
     0
 42
0.00000001
 43
0.00000001
 40
0.0
 40
0.0
 40
0.0
 40
0.0
 40
0.0571968956450057
 40
0.1107462442404301
 40
0.1619438046109494
 40
0.2114421328841288
 40
0.2601665826301099
 40
0.3097682249420708
 40
0.3610687011698268
 40
0.4149717528866772
 40
0.4722445388687203
 40
0.5334201231228237
 40
0.5988830785156591
 40
0.6689474151923618
 40
0.7438102769738097
 40
0.8237992495891083
 40
0.9093979616167045
 40
0.9999999999999999
 40
0.9999999999999999
 40
0.9999999999999999
 40
0.9999999999999999
 10
-137.4990334103803
 20
-116.3036095818444
 30
0.0
 10
-137.5008060042503
 20
-116.2467437815802
 30
0.0
 10
-137.5042381505486
 20
-116.1366386135641
 30
0.0
 10
-137.5316009206688
 20
-115.9774903787011
 30
0.0
 10
-137.5770180860893
 20
-115.8305822872406
 30
0.0
 10
-137.6423032065738
 20
-115.6965618261089
 30
0.0
 10
-137.7256570506164
 20
-115.5749754405572
 30
0.0
 10
-137.8276220124065
 20
-115.465908082886
 30
0.0
 10
-137.9491038704874
 20
-115.3707398999833
 30
0.0
 10
-138.0875759451918
 20
-115.286966445933
 30
0.0
 10
-138.2438780920752
 20
-115.2162270999807
 30
0.0
 10
-138.4158884286804
 20
-115.154008655247
 30
0.0
 10
-138.6043860934191
 20
-115.1016730699991
 30
0.0
 10
-138.8090131943562
 20
-115.0580574229926
 30
0.0
 10
-139.0303815671991
 20
-115.0264221063962
 30
0.0
 10
-139.2680506671669
 20
-115.0011677302835
 30
0.0
 10
-139.5224064947338
 20
-114.9876361616751
 30
0.0
 10
-139.6975060924714
 20
-114.9858867340291
 30
0.0
 10
-139.7875419205715
 20
-114.9849871821806
 30
0.0
  0
SPLINE
  5
2D3
330
1F
100
AcDbEntity
  8
0
  6
Continuous
 62
     7
370
    25
100
AcDbSpline
210
0.0
220
0.0
230
1.0
 70
     8
 71
     3
 72
    19
 73
    15
 74
     0
 42
0.00000001
 43
0.00000001
 40
0.0
 40
0.0
 40
0.0
 40
0.0
 40
0.1087973599053109
 40
0.2054605690922625
 40
0.2919622223660916
 40
0.3712325081082057
 40
0.4465149710391656
 40
0.5199240733432823
 40
0.594240041366221
 40
0.6704392359256568
 40
0.7487453036545902
 40
0.8294630901559873
 40
0.9130251097791807
 40
1.0
 40
1.0
 40
1.0
 40
1.0
 10
-138.5699003992435
 20
-168.8336276528677
 30
0.0
 10
-138.6365600775156
 20
-168.8355227117677
 30
0.0
 10
-138.7624448916804
 20
-168.8391014739767
 30
0.0
 10
-138.9394757583975
 20
-168.8689308719285
 30
0.0
 10
-139.0925931577648
 20
-168.9202078964346
 30
0.0
 10
-139.2223085858698
 20
-168.9927723397178
 30
0.0
 10
-139.3288580384212
 20
-169.0840602778049
 30
0.0
 10
-139.418601292975
 20
-169.1876612116911
 30
0.0
 10
-139.4908221986125
 20
-169.3050034752256
 30
0.0
 10
-139.5442483473255
 20
-169.4351261854757
 30
0.0
 10
-139.5816701079096
 20
-169.5744479675693
 30
0.0
 10
-139.610340389788
 20
-169.7203438700218
 30
0.0
 10
-139.6266404018979
 20
-169.8735968233369
 30
0.0
 10
-139.6289974913911
 20
-169.9780407713222
 30
0.0
 10
-139.6301996217693
 20
-170.0313078377805
 30
0.0
  0
SPLINE
  5
2D4
330
1F
100
AcDbEntity
  8
0
  6
Continuous
 62
     7
370
    25
100
AcDbSpline
210
0.0
220
0.0
230
1.0
 70
     8
 71
     3
 72
    21
 73
    17
 74
     0
 42
0.00000001
 43
0.00000001
 40
0.0
 40
0.0
 40
0.0
 40
0.0
 40
0.1168800473285438
 40
0.2361284972583231
 40
0.2962525923163633
 40
0.3558545233501278
 40
0.4143472833432182
 40
0.4732710617938751
 40
0.5320539302497906
 40
0.5898444883548762
 40
0.6494749541268481
 40
0.7097050570751238
 40
0.7732943032216969
 40
0.8418214991608512
 40
0.9170861761842659
 40
1.0
 40
1.0
 40
1.0
 40
1.0
 10
-137.5800529523009
 20
-170.0641853330526
 30
0.0
 10
-137.5821870369205
 20
-169.9940117229273
 30
0.0
 10
-137.5864984502523
 20
-169.852242537469
 30
0.0
 10
-137.6132380178692
 20
-169.6761149504437
 30
0.0
 10
-137.6425706360874
 20
-169.5355783229266
 30
0.0
 10
-137.6762453220553
 20
-169.4338744462736
 30
0.0
 10
-137.7159095096799
 20
-169.3352121874696
 30
0.0
 10
-137.7651920160366
 20
-169.2414281028606
 30
0.0
 10
-137.8233139976489
 20
-169.1533417958947
 30
0.0
 10
-137.8924731256961
 20
-169.0728634129088
 30
0.0
 10
-137.9735203755821
 20
-169.0030187465459
 30
0.0
 10
-138.0654751881148
 20
-168.9420610970533
 30
0.0
 10
-138.1697979195334
 20
-168.8912710090684
 30
0.0
 10
-138.2904434491629
 20
-168.8587704214218
 30
0.0
 10
-138.4250748105405
 20
-168.8370002548619
 30
0.0
 10
-138.5200935737342
 20
-168.8347875210964
 30
0.0
 10
-138.5699003992435
 20
-168.8336276528677
 30
0.0
  0
SPLINE
  5
2D9
330
1F
100
AcDbEntity
  8
0
  6
Continuous
 62
     7
370
    25
100
AcDbSpline
210
0.0
220
0.0
230
1.0
 70
     8
 71
     3
 72
    27
 73
    23
 74
     0
 42
0.00000001
 43
0.00000001
 40
0.0
 40
0.0
 40
0.0
 40
0.0
 40
0.0560390642411141
 40
0.1088018453978099
 40
0.1594689018393421
 40
0.2069370138339438
 40
0.2520897711034581
 40
0.2941671394854857
 40
0.3344913660991553
 40
0.3720317814545005
 40
0.4416522429634477
 40
0.5048210263250682
 40
0.5632313762608967
 40
0.6171961856816808
 40
0.6681520980370974
 40
0.7177826040218945
 40
0.7659569119674109
 40
0.8142284464841362
 40
0.8617323321758679
 40
0.9087068780857674
 40
0.9546325536747323
 40
1.0
 40
1.0
 40
1.0
 40
1.0
 10
-139.8204194158436
 20
-31.96578903130851
 30
0.0
 10
-139.8799162526533
 20
-31.96624861623638
 30
0.0
 10
-139.9954314870329
 20
-31.96714091679395
 30
0.0
 10
-140.1646700310585
 20
-31.97380597232063
 30
0.0
 10
-140.3243257150569
 20
-31.9873394915362
 30
0.0
 10
-140.475720916599
 20
-32.00277788373183
 30
0.0
 10
-140.6169443734744
 20
-32.02565239211368
 30
0.0
 10
-140.7500138289939
 20
-32.05098432911844
 30
0.0
 10
-140.8735468318557
 20
-32.0823240907317
 30
0.0
 10
-141.0226781085821
 20
-32.13026342567542
 30
0.0
 10
-141.1907500339182
 20
-32.19789331059772
 30
0.0
 10
-141.3704425656913
 20
-32.29316927989931
 30
0.0
 10
-141.5236132997272
 20
-32.40054249284338
 30
0.0
 10
-141.6482989722724
 20
-32.52209987495782
 30
0.0
 10
-141.7488697073532
 20
-32.65224403772378
 30
0.0
 10
-141.831514728268
 20
-32.78720587897752
 30
0.0
 10
-141.8961116898975
 20
-32.92870991008031
 30
0.0
 10
-141.9406676715004
 20
-33.07526337466684
 30
0.0
 10
-141.9717338439961
 20
-33.22372731851171
 30
0.0
 10
-141.9936114590087
 20
-33.37121858925972
 30
0.0
 10
-142.0087971223731
 20
-33.51737221447775
 30
0.0
 10
-142.0105824373265
 20
-33.61432343148329
 30
0.0
 10
-142.0114696364782
 20
-33.66250262660164
 30
0.0
  0
SPLINE
  5
2DA
330
1F
100
AcDbEntity
  8
0
  6
Continuous
 62
     7
370
    25
100
AcDbSpline
210
0.0
220
0.0
230
1.0
 70
     8
 71
     3
 72
    27
 73
    23
 74
     0
 42
0.00000001
 43
0.00000001
 40
0.0
 40
0.0
 40
0.0
 40
0.0
 40
0.0469359851869165
 40
0.0941571421159418
 40
0.1416561063029625
 40
0.1900233427674576
 40
0.2387432004481823
 40
0.2884262801432862
 40
0.3391562505917866
 40
0.3923460146935151
 40
0.4481856716985479
 40
0.5076352900009583
 40
0.5720335057579996
 40
0.6415091284622164
 40
0.6787117162736261
 40
0.7179909212818739
 40
0.7593836684516608
 40
0.802757764979436
 40
0.8484810134813034
 40
0.8966201013319091
 40
0.9472321673456002
 40
0.9999999999999999
 40
0.9999999999999999
 40
0.9999999999999999
 40
0.9999999999999999
 10
-137.5636142046649
 20
-33.65428325278362
 30
0.0
 10
-137.5647834697693
 20
-33.60413968023903
 30
0.0
 10
-137.5671291041512
 20
-33.50354787487946
 30
0.0
 10
-137.5849658856395
 20
-33.35301990058277
 30
0.0
 10
-137.6161555660692
 20
-33.20324367176978
 30
0.0
 10
-137.657876031459
 20
-33.0544393872044
 30
0.0
 10
-137.7131643488413
 20
-32.90729084483274
 30
0.0
 10
-137.7907233898432
 20
-32.76758073915902
 30
0.0
 10
-137.8856254695913
 20
-32.63338066036766
 30
0.0
 10
-137.9998944528092
 20
-32.50605593516519
 30
0.0
 10
-138.1360876213218
 20
-32.38767791957565
 30
0.0
 10
-138.2964783585714
 20
-32.28123717507496
 30
0.0
 10
-138.4819330576702
 20
-32.18941509790267
 30
0.0
 10
-138.6529536919361
 20
-32.12434398119417
 30
0.0
 10
-138.8018622954089
 20
-32.07799955762233
 30
0.0
 10
-138.9240689628211
 20
-32.04726257694761
 30
0.0
 10
-139.0544999936351
 20
-32.023628769185
 30
0.0
 10
-139.1922129204189
 20
-32.00194724512199
 30
0.0
 10
-139.3379703773297
 20
-31.98581150804355
 30
0.0
 10
-139.4918810829136
 20
-31.97420210768809
 30
0.0
 10
-139.6536160169484
 20
-31.96707435122165
 30
0.0
 10
-139.7640506568194
 20
-31.96622338629727
 30
0.0
 10
-139.8204194158436
 20
-31.96578903130851
 30
0.0
  0
SPLINE
  5
2DD
330
1F
100
AcDbEntity
  8
0
  6
Continuous
 62
     7
370
    25
100
AcDbSpline
210
0.0
220
0.0
230
1.0
 70
     8
 71
     3
 72
    19
 73
    15
 74
     0
 42
0.00000001
 43
0.00000001
 40
0.0
 40
0.0
 40
0.0
 40
0.0
 40
0.1023110659043703
 40
0.1947478527965508
 40
0.2791256583439453
 40
0.3572259341316654
 40
0.4316335466346643
 40
0.5055908124845427
 40
0.5797575079267736
 40
0.6568296411869076
 40
0.737150608592167
 40
0.820055048899076
 40
0.9076831471100784
 40
1.0
 40
1.0
 40
1.0
 40
1.0
 10
-140.8631056944736
 20
-2.626147089724209
 30
0.0
 10
-140.9317234067701
 20
-2.627989877673889
 30
0.0
 10
-141.0623363763001
 20
-2.631497601820701
 30
0.0
 10
-141.2476244538132
 20
-2.662695260119738
 30
0.0
 10
-141.4104610079104
 20
-2.716623798346196
 30
0.0
 10
-141.5518257055049
 20
-2.790953554491562
 30
0.0
 10
-141.6708647115801
 20
-2.886323347042544
 30
0.0
 10
-141.7729450530899
 20
-2.99586358175695
 30
0.0
 10
-141.8563434673492
 20
-3.122613118639345
 30
0.0
 10
-141.9198884571279
 20
-3.26474994252364
 30
0.0
 10
-141.9690402162261
 20
-3.418489469657546
 30
0.0
 10
-142.0023531135303
 20
-3.58354444698708
 30
0.0
 10
-142.0242277971784
 20
-3.758659184503618
 30
0.0
 10
-142.026660393402
 20
-3.879336184231752
 30
0.0
 10
-142.0279083841143
 20
-3.941246900608847
 30
0.0
  0
SPLINE
  5
2DF
330
1F
100
AcDbEntity
  8
0
  6
Continuous
 62
     7
370
    25
100
AcDbSpline
210
0.0
220
0.0
230
1.0
 70
     8
 71
     3
 72
    19
 73
    15
 74
     0
 42
0.00000001
 43
0.00000001
 40
0.0
 40
0.0
 40
0.0
 40
0.0
 40
0.0916406141374261
 40
0.1781298792391788
 40
0.2595567419646482
 40
0.3375866717112774
 40
0.4120309825663258
 40
0.4846465272544937
 40
0.5569898783740165
 40
0.6314956460342925
 40
0.710154112245098
 40
0.7963271048651169
 40
0.8925710498724592
 40
1.0
 40
1.0
 40
1.0
 40
1.0
 10
-139.6419415843664
 20
-3.969427610842083
 30
0.0
 10
-139.6433447237528
 20
-3.905583629523868
 30
0.0
 10
-139.6460721285371
 20
-3.781484497393364
 30
0.0
 10
-139.6656584283761
 20
-3.601416575048422
 30
0.0
 10
-139.7002704737071
 20
-3.433424919108405
 30
0.0
 10
-139.7458513017868
 20
-3.276704037191866
 30
0.0
 10
-139.8089792579174
 20
-3.132516170294974
 30
0.0
 10
-139.8931140030815
 20
-3.003936279781974
 30
0.0
 10
-139.9985321780522
 20
-2.892273254476663
 30
0.0
 10
-140.1231652192516
 20
-2.795497883631176
 30
0.0
 10
-140.2718976130568
 20
-2.71802921480635
 30
0.0
 10
-140.4462032192898
 20
-2.6635576766149
 30
0.0
 10
-140.6462367892604
 20
-2.631090127167599
 30
0.0
 10
-140.7882170393365
 20
-2.627854007671085
 30
0.0
 10
-140.8631056944736
 20
-2.626147089724209
 30
0.0
  0
SPLINE
  5
2E2
330
1F
100
AcDbEntity
  8
0
  6
Continuous
 62
     7
370
    25
100
AcDbSpline
210
0.0
220
0.0
230
1.0
 70
     8
 71
     3
 72
    23
 73
    19
 74
     0
 42
0.00000001
 43
0.00000001
 40
0.0
 40
0.0
 40
0.0
 40
0.0
 40
0.0764453145596949
 40
0.1494310642431205
 40
0.217939029936034
 40
0.2829828033938454
 40
0.3449706474908578
 40
0.4035691256150574
 40
0.4603503570774745
 40
0.5150497548009471
 40
0.5687964457472282
 40
0.6224865686568528
 40
0.6773662183695931
 40
0.7341507945279993
 40
0.7945684426648313
 40
0.8582757698776884
 40
0.9266171978499251
 40
1.0
 40
1.0
 40
1.0
 40
1.0
 10
-139.9507552006724
 20
-101.7435759613358
 30
0.0
 10
-139.9512884186744
 20
-101.6950145096237
 30
0.0
 10
-139.9523307236732
 20
-101.6000892751299
 30
0.0
 10
-139.9645670306471
 20
-101.4621129661479
 30
0.0
 10
-139.9827536611617
 20
-101.3321359593742
 30
0.0
 10
-140.0096991485102
 20
-101.2107659560354
 30
0.0
 10
-140.044716316033
 20
-101.0980409622858
 30
0.0
 10
-140.0875461574964
 20
-100.9937348033978
 30
0.0
 10
-140.136190431181
 20
-100.8971348045327
 30
0.0
 10
-140.193963410903
 20
-100.8091639713836
 30
0.0
 10
-140.2616195250443
 20
-100.7312613493599
 30
0.0
 10
-140.3380939169633
 20
-100.6614750993794
 30
0.0
 10
-140.4277121419033
 20
-100.6059714312012
 30
0.0
 10
-140.5260752786083
 20
-100.5578902629584
 30
0.0
 10
-140.6356561243839
 20
-100.5221702746344
 30
0.0
 10
-140.755338909648
 20
-100.4968678802702
 30
0.0
 10
-140.8849152225647
 20
-100.4795580667403
 30
0.0
 10
-140.9749852190759
 20
-100.4783947449375
 30
0.0
 10
-141.0216221895356
 20
-100.4777923933593
 30
0.0
  0
SPLINE
  5
2E4
330
1F
100
AcDbEntity
  8
0
  6
Continuous
 62
     7
370
    25
100
AcDbSpline
210
0.0
220
0.0
230
1.0
 70
     8
 71
     3
 72
    23
 73
    19
 74
     0
 42
0.00000001
 43
0.00000001
 40
0.0
 40
0.0
 40
0.0
 40
0.0
 40
0.0699182078780475
 40
0.1351937261347835
 40
0.1958239656656685
 40
0.2535515658424491
 40
0.3078954988635187
 40
0.3602791052666684
 40
0.4116236452775516
 40
0.4633794247463911
 40
0.5161060889112404
 40
0.5721338057051172
 40
0.6315193182344577
 40
0.6955073453830445
 40
0.7636547486020735
 40
0.8373663604484978
 40
0.9156278499259485
 40
1.0
 40
1.0
 40
1.0
 40
1.0
 10
-141.0216221895356
 20
-100.4777923933593
 30
0.0
 10
-141.0650993708843
 20
-100.478671871696
 30
0.0
 10
-141.1491667737361
 20
-100.4803724294907
 30
0.0
 10
-141.2704172403514
 20
-100.4939827131155
 30
0.0
 10
-141.3819852825272
 20
-100.5190847059918
 30
0.0
 10
-141.4842751211579
 20
-100.5524576017666
 30
0.0
 10
-141.576982113547
 20
-100.5962820248131
 30
0.0
 10
-141.6599774266173
 20
-100.6494317711587
 30
0.0
 10
-141.733901245714
 20
-100.7122454693115
 30
0.0
 10
-141.7976597927914
 20
-100.7857193830643
 30
0.0
 10
-141.8517832725379
 20
-100.8698184965294
 30
0.0
 10
-141.900325970401
 20
-100.9625906684956
 30
0.0
 10
-141.9403530095807
 20
-101.0670065671423
 30
0.0
 10
-141.9708173677121
 20
-101.1822467417399
 30
0.0
 10
-141.9972019088848
 20
-101.3075536385123
 30
0.0
 10
-142.015613743146
 20
-101.4432979833551
 30
0.0
 10
-142.0260277240776
 20
-101.5899810602235
 30
0.0
 10
-142.0272659889255
 20
-101.6911110694525
 30
0.0
 10
-142.0279083841143
 20
-101.7435759613358
 30
0.0
  0
SPLINE
  5
2E5
330
1F
100
AcDbEntity
  8
0
  6
Continuous
 62
     7
370
    25
100
AcDbSpline
210
0.0
220
0.0
230
1.0
 70
     8
 71
     3
 72
    23
 73
    19
 74
     0
 42
0.00000001
 43
0.00000001
 40
0.0
 40
0.0
 40
0.0
 40
0.0
 40
0.0910315370341312
 40
0.1770587871504991
 40
0.2574269472149139
 40
0.3327653541605957
 40
0.4027748040153892
 40
0.4687667686496241
 40
0.5301367388157009
 40
0.587660612020455
 40
0.6416889148981195
 40
0.6934221220786176
 40
0.7429895065809174
 40
0.7919449344130631
 40
0.8407930827277372
 40
0.891478904154011
 40
0.9441124087294018
 40
1.0
 40
1.0
 40
1.0
 40
1.0
 10
-139.7793225467535
 20
-10.16096448833735
 30
0.0
 10
-139.6892742718622
 20
-10.16023573939816
 30
0.0
 10
-139.5141279560172
 20
-10.15881830311712
 30
0.0
 10
-139.2599198559843
 20
-10.14294872639043
 30
0.0
 10
-139.021889632916
 20
-10.11936832677288
 30
0.0
 10
-138.8014395796754
 20
-10.0835695015041
 30
0.0
 10
-138.5965745282046
 20
-10.04136353737213
 30
0.0
 10
-138.4091066091191
 20
-9.98613424945094
 30
0.0
 10
-138.2378039151533
 20
-9.92166917695196
 30
0.0
 10
-138.0831216334385
 20
-9.848152783819515
 30
0.0
 10
-137.9449861942171
 20
-9.763677227937674
 30
0.0
 10
-137.8258693901594
 20
-9.665869048074754
 30
0.0
 10
-137.7244383339386
 20
-9.556615050337127
 30
0.0
 10
-137.6415150052311
 20
-9.436073259775913
 30
0.0
 10
-137.5772266600655
 20
-9.303415315446394
 30
0.0
 10
-137.5316885351778
 20
-9.159500080402019
 30
0.0
 10
-137.504290017063
 20
-9.00385060975599
 30
0.0
 10
-137.5008202933663
 20
-8.896468773243578
 30
0.0
 10
-137.4990334103803
 20
-8.841167892413834
 30
0.0
  0
SPLINE
  5
2E6
330
1F
100
AcDbEntity
  8
0
  6
Continuous
 62
     7
370
    25
100
AcDbSpline
210
0.0
220
0.0
230
1.0
 70
     8
 71
     3
 72
    23
 73
    19
 74
     0
 42
0.00000001
 43
0.00000001
 40
0.0
 40
0.0
 40
0.0
 40
0.0
 40
0.0571968956450024
 40
0.1107462442404281
 40
0.1619438046109469
 40
0.2114421328841259
 40
0.2601665826301096
 40
0.309768224942068
 40
0.3610687011698245
 40
0.4149717528866769
 40
0.4722445388687187
 40
0.5334201231228225
 40
0.5988830785156581
 40
0.6689474151923607
 40
0.7438102769738089
 40
0.823799249589108
 40
0.9093979616167044
 40
1.0
 40
1.0
 40
1.0
 40
1.0
 10
-137.4990334103803
 20
-8.841167892413834
 30
0.0
 10
-137.5008060042503
 20
-8.784302092149595
 30
0.0
 10
-137.5042381505486
 20
-8.674196924133515
 30
0.0
 10
-137.5316009206688
 20
-8.515048689270506
 30
0.0
 10
-137.5770180860893
 20
-8.368140597810033
 30
0.0
 10
-137.6423032065738
 20
-8.234120136678388
 30
0.0
 10
-137.7256570506163
 20
-8.112533751126632
 30
0.0
 10
-137.8276220124066
 20
-8.00346639345547
 30
0.0
 10
-137.9491038704874
 20
-7.908298210552777
 30
0.0
 10
-138.0875759451918
 20
-7.82452475650243
 30
0.0
 10
-138.2438780920753
 20
-7.753785410550197
 30
0.0
 10
-138.4158884286804
 20
-7.69156696581641
 30
0.0
 10
-138.6043860934191
 20
-7.639231380568489
 30
0.0
 10
-138.8090131943562
 20
-7.595615733562059
 30
0.0
 10
-139.0303815671992
 20
-7.563980416965661
 30
0.0
 10
-139.2680506671669
 20
-7.538726040852928
 30
0.0
 10
-139.5224064947338
 20
-7.525194472244492
 30
0.0
 10
-139.6975060924714
 20
-7.523445044598495
 30
0.0
 10
-139.7875419205716
 20
-7.522545492750041
 30
0.0
  0
SPLINE
  5
2E7
330
1F
100
AcDbEntity
  8
0
  6
Continuous
 62
     7
370
    25
100
AcDbSpline
210
0.0
220
0.0
230
1.0
 70
     8
 71
     3
 72
    23
 73
    19
 74
     0
 42
0.00000001
 43
0.00000001
 40
0.0
 40
0.0
 40
0.0
 40
0.0
 40
0.056846682463639
 40
0.1105211328322427
 40
0.1614052135935407
 40
0.2107730356395061
 40
0.2594217186201765
 40
0.3092575657776334
 40
0.3605510592493596
 40
0.4147948914555897
 40
0.472428620446202
 40
0.5339661228565016
 40
0.5994051687353608
 40
0.66980647363626
 40
0.7445981569027805
 40
0.8244867244544349
 40
0.9095613206725759
 40
1.0
 40
1.0
 40
1.0
 40
1.0
 10
-142.0889665896197
 20
-8.841167892413834
 30
0.0
 10
-142.0873126528287
 20
-8.898057269313975
 30
0.0
 10
-142.0840970743667
 20
-9.00866140852906
 30
0.0
 10
-142.0549369617974
 20
-9.16792637896291
 30
0.0
 10
-142.0101421719268
 20
-9.315694975019953
 30
0.0
 10
-141.9431589954888
 20
-9.449371672822323
 30
0.0
 10
-141.8588573790778
 20
-9.571464046429126
 30
0.0
 10
-141.7543949358882
 20
-9.679637578655726
 30
0.0
 10
-141.6316997504541
 20
-9.77563452206636
 30
0.0
 10
-141.4908995233467
 20
-9.858905987938066
 30
0.0
 10
-141.3323597428087
 20
-9.929755624213922
 30
0.0
 10
-141.1583124831335
 20
-9.991697542413032
 30
0.0
 10
-140.9679975150493
 20
-10.04448284784792
 30
0.0
 10
-140.7617204773342
 20
-10.08772148299635
 30
0.0
 10
-140.538835389062
 20
-10.11956216146731
 30
0.0
 10
-140.30037122165
 20
-10.14471463019287
 30
0.0
 10
-140.0452427598282
 20
-10.1583503943907
 30
0.0
 10
-139.8697504320775
 20
-10.16007554881335
 30
0.0
 10
-139.7793225467535
 20
-10.16096448833735
 30
0.0
  0
SPLINE
  5
2E8
330
1F
100
AcDbEntity
  8
0
  6
Continuous
 62
     7
370
    25
100
AcDbSpline
210
0.0
220
0.0
230
1.0
 70
     8
 71
     3
 72
    23
 73
    19
 74
     0
 42
0.00000001
 43
0.00000001
 40
0.0
 40
0.0
 40
0.0
 40
0.0
 40
0.0906728199822539
 40
0.1759676695457027
 40
0.2560630641060827
 40
0.3306601740658515
 40
0.4012437439860134
 40
0.4668522078745875
 40
0.5281796832755911
 40
0.5856056580569027
 40
0.6396532645313326
 40
0.6907716318377077
 40
0.7404660303665245
 40
0.7892406620516036
 40
0.8385632787557128
 40
0.8895790955405573
 40
0.9430061446723245
 40
1.0
 40
1.0
 40
1.0
 40
1.0
 10
-139.7875419205715
 20
-7.522545492750041
 30
0.0
 10
-139.8779700747804
 20
-7.52343250351404
 30
0.0
 10
-140.0534629243528
 20
-7.525153914814952
 30
0.0
 10
-140.3085877245888
 20
-7.538815944231669
 30
0.0
 10
-140.5466794107706
 20
-7.563837146884516
 30
0.0
 10
-140.7691407766405
 20
-7.595909212136847
 30
0.0
 10
-140.9750327482639
 20
-7.639049315841189
 30
0.0
 10
-141.165041450878
 20
-7.691600906315404
 30
0.0
 10
-141.3382450560509
 20
-7.753767586468507
 30
0.0
 10
-141.4956396448892
 20
-7.824593585583156
 30
0.0
 10
-141.635243146921
 20
-7.907901746397022
 30
0.0
 10
-141.7568827282274
 20
-8.003840501048645
 30
0.0
 10
-141.8599160299794
 20
-8.112474609682312
 30
0.0
 10
-141.9446250365988
 20
-8.233782953750774
 30
0.0
 10
-142.0098431554758
 20
-8.368162594569656
 30
0.0
 10
-142.0548737412473
 20
-8.515170637718366
 30
0.0
 10
-142.0841712328434
 20
-8.674059152744467
 30
0.0
 10
-142.0873340820038
 20
-8.784278217066108
 30
0.0
 10
-142.0889665896196
 20
-8.841167892413834
 30
0.0
  0
SPLINE
  5
2E9
330
1F
100
AcDbEntity
  8
0
  6
Continuous
 62
     7
370
    25
100
AcDbSpline
210
0.0
220
0.0
230
1.0
 70
     8
 71
     3
 72
    23
 73
    19
 74
     0
 42
0.00000001
 43
0.00000001
 40
0.0
 40
0.0
 40
0.0
 40
0.0
 40
0.0568466824636366
 40
0.1105211328322407
 40
0.1614052135935392
 40
0.2107730356395055
 40
0.2594217186201773
 40
0.3092575657776365
 40
0.3605510592493594
 40
0.4147948914555924
 40
0.472428620446204
 40
0.5339661228565018
 40
0.5994051687353609
 40
0.669806473636261
 40
0.7445981569027813
 40
0.8244867244544353
 40
0.909561320672576
 40
1.0
 40
1.0
 40
1.0
 40
1.0
 10
-142.0889665896197
 20
-160.2655175457023
 30
0.0
 10
-142.0873126528288
 20
-160.3224069226025
 30
0.0
 10
-142.0840970743668
 20
-160.4330110618175
 30
0.0
 10
-142.0549369617973
 20
-160.5922760322513
 30
0.0
 10
-142.0101421719268
 20
-160.7400446283084
 30
0.0
 10
-141.9431589954888
 20
-160.8737213261108
 30
0.0
 10
-141.8588573790778
 20
-160.9958136997176
 30
0.0
 10
-141.7543949358882
 20
-161.1039872319442
 30
0.0
 10
-141.6316997504541
 20
-161.1999841753548
 30
0.0
 10
-141.4908995233467
 20
-161.2832556412265
 30
0.0
 10
-141.3323597428086
 20
-161.3541052775024
 30
0.0
 10
-141.1583124831335
 20
-161.4160471957015
 30
0.0
 10
-140.9679975150493
 20
-161.4688325011363
 30
0.0
 10
-140.7617204773342
 20
-161.5120711362848
 30
0.0
 10
-140.538835389062
 20
-161.5439118147558
 30
0.0
 10
-140.30037122165
 20
-161.5690642834813
 30
0.0
 10
-140.0452427598283
 20
-161.5827000476792
 30
0.0
 10
-139.8697504320775
 20
-161.5844252021018
 30
0.0
 10
-139.7793225467535
 20
-161.5853141416258
 30
0.0
  0
SPLINE
  5
2EA
330
1F
100
AcDbEntity
  8
0
  6
Continuous
 62
     7
370
    25
100
AcDbSpline
210
0.0
220
0.0
230
1.0
 70
     8
 71
     3
 72
    23
 73
    19
 74
     0
 42
0.00000001
 43
0.00000001
 40
0.0
 40
0.0
 40
0.0
 40
0.0
 40
0.0906728199822543
 40
0.1759676695457029
 40
0.2560630641060838
 40
0.3306601740658529
 40
0.4012437439860142
 40
0.4668522078745885
 40
0.5281796832755936
 40
0.5856056580569049
 40
0.6396532645313333
 40
0.690771631837711
 40
0.7404660303665236
 40
0.7892406620516044
 40
0.838563278755714
 40
0.8895790955405593
 40
0.9430061446723255
 40
1.0
 40
1.0
 40
1.0
 40
1.0
 10
-139.7875419205715
 20
-158.9468951460385
 30
0.0
 10
-139.8779700747804
 20
-158.9477821568025
 30
0.0
 10
-140.0534629243529
 20
-158.9495035681035
 30
0.0
 10
-140.3085877245888
 20
-158.9631655975201
 30
0.0
 10
-140.5466794107706
 20
-158.988186800173
 30
0.0
 10
-140.7691407766406
 20
-159.0202588654253
 30
0.0
 10
-140.9750327482639
 20
-159.0633989691297
 30
0.0
 10
-141.165041450878
 20
-159.1159505596038
 30
0.0
 10
-141.3382450560509
 20
-159.178117239757
 30
0.0
 10
-141.4956396448891
 20
-159.2489432388716
 30
0.0
 10
-141.6352431469211
 20
-159.3322513996855
 30
0.0
 10
-141.7568827282273
 20
-159.4281901543371
 30
0.0
 10
-141.8599160299794
 20
-159.5368242629708
 30
0.0
 10
-141.9446250365988
 20
-159.6581326070392
 30
0.0
 10
-142.0098431554758
 20
-159.7925122478581
 30
0.0
 10
-142.0548737412473
 20
-159.9395202910068
 30
0.0
 10
-142.0841712328433
 20
-160.0984088060329
 30
0.0
 10
-142.0873340820038
 20
-160.2086278703546
 30
0.0
 10
-142.0889665896196
 20
-160.2655175457023
 30
0.0
  0
SPLINE
  5
2EB
330
1F
100
AcDbEntity
  8
0
  6
Continuous
 62
     7
370
    25
100
AcDbSpline
210
0.0
220
0.0
230
1.0
 70
     8
 71
     3
 72
    23
 73
    19
 74
     0
 42
0.00000001
 43
0.00000001
 40
0.0
 40
0.0
 40
0.0
 40
0.0
 40
0.0910315370341311
 40
0.177058787150499
 40
0.2574269472149134
 40
0.3327653541605956
 40
0.4027748040153882
 40
0.468766768649624
 40
0.5301367388156998
 40
0.5876606120204549
 40
0.6416889148981183
 40
0.6934221220786149
 40
0.7429895065809171
 40
0.7919449344130641
 40
0.8407930827277361
 40
0.8914789041540075
 40
0.9441124087294013
 40
0.9999999999999999
 40
0.9999999999999999
 40
0.9999999999999999
 40
0.9999999999999999
 10
-139.7793225467535
 20
-161.5853141416258
 30
0.0
 10
-139.6892742718622
 20
-161.5845853926866
 30
0.0
 10
-139.5141279560171
 20
-161.5831679564056
 30
0.0
 10
-139.2599198559843
 20
-161.5672983796788
 30
0.0
 10
-139.021889632916
 20
-161.5437179800614
 30
0.0
 10
-138.8014395796754
 20
-161.5079191547925
 30
0.0
 10
-138.5965745282046
 20
-161.4657131906606
 30
0.0
 10
-138.4091066091191
 20
-161.4104839027393
 30
0.0
 10
-138.2378039151533
 20
-161.3460188302405
 30
0.0
 10
-138.0831216334385
 20
-161.2725024371079
 30
0.0
 10
-137.9449861942171
 20
-161.1880268812262
 30
0.0
 10
-137.8258693901593
 20
-161.0902187013632
 30
0.0
 10
-137.7244383339385
 20
-160.9809647036256
 30
0.0
 10
-137.6415150052311
 20
-160.8604229130644
 30
0.0
 10
-137.5772266600655
 20
-160.7277649687349
 30
0.0
 10
-137.5316885351778
 20
-160.5838497336905
 30
0.0
 10
-137.504290017063
 20
-160.4282002630444
 30
0.0
 10
-137.5008202933663
 20
-160.320818426532
 30
0.0
 10
-137.4990334103803
 20
-160.2655175457023
 30
0.0
  0
SPLINE
  5
2EC
330
1F
100
AcDbEntity
  8
0
  6
Continuous
 62
     7
370
    25
100
AcDbSpline
210
0.0
220
0.0
230
1.0
 70
     8
 71
     3
 72
    23
 73
    19
 74
     0
 42
0.00000001
 43
0.00000001
 40
0.0
 40
0.0
 40
0.0
 40
0.0
 40
0.0571968956450014
 40
0.1107462442404261
 40
0.1619438046109457
 40
0.2114421328841253
 40
0.2601665826301105
 40
0.3097682249420649
 40
0.361068701169824
 40
0.4149717528866748
 40
0.4722445388687162
 40
0.5334201231228216
 40
0.5988830785156575
 40
0.6689474151923595
 40
0.7438102769738079
 40
0.8237992495891078
 40
0.9093979616167039
 40
1.0
 40
1.0
 40
1.0
 40
1.0
 10
-137.4990334103803
 20
-160.2655175457023
 30
0.0
 10
-137.5008060042503
 20
-160.2086517454381
 30
0.0
 10
-137.5042381505487
 20
-160.098546577422
 30
0.0
 10
-137.5316009206688
 20
-159.939398342559
 30
0.0
 10
-137.5770180860893
 20
-159.7924902510985
 30
0.0
 10
-137.6423032065738
 20
-159.6584697899668
 30
0.0
 10
-137.7256570506163
 20
-159.5368834044151
 30
0.0
 10
-137.8276220124066
 20
-159.4278160467439
 30
0.0
 10
-137.9491038704874
 20
-159.3326478638412
 30
0.0
 10
-138.0875759451918
 20
-159.2488744097909
 30
0.0
 10
-138.2438780920753
 20
-159.1781350638386
 30
0.0
 10
-138.4158884286804
 20
-159.1159166191049
 30
0.0
 10
-138.6043860934191
 20
-159.0635810338569
 30
0.0
 10
-138.8090131943561
 20
-159.0199653868505
 30
0.0
 10
-139.0303815671991
 20
-158.9883300702541
 30
0.0
 10
-139.2680506671669
 20
-158.9630756941414
 30
0.0
 10
-139.5224064947338
 20
-158.949544125533
 30
0.0
 10
-139.6975060924714
 20
-158.9477946978869
 30
0.0
 10
-139.7875419205715
 20
-158.9468951460385
 30
0.0
  0
SPLINE
  5
2EF
330
1F
100
AcDbEntity
  8
0
  6
Continuous
 62
     7
370
    25
100
AcDbSpline
210
0.0
220
0.0
230
1.0
 70
     8
 71
     3
 72
    19
 73
    15
 74
     0
 42
0.00000001
 43
0.00000001
 40
0.0
 40
0.0
 40
0.0
 40
0.0
 40
0.1023110659043693
 40
0.1947478527965511
 40
0.2791256583439415
 40
0.3572259341316626
 40
0.4316335466346616
 40
0.5055908124845451
 40
0.5797575079267742
 40
0.6568296411868996
 40
0.7371506085921627
 40
0.8200550488990679
 40
0.9076831471100769
 40
1.0
 40
1.0
 40
1.0
 40
1.0
 10
-140.8631056944736
 20
-149.165840302584
 30
0.0
 10
-140.93172340677
 20
-149.1676830905337
 30
0.0
 10
-141.0623363763001
 20
-149.1711908146805
 30
0.0
 10
-141.2476244538132
 20
-149.2023884729796
 30
0.0
 10
-141.4104610079103
 20
-149.256317011206
 30
0.0
 10
-141.5518257055049
 20
-149.3306467673513
 30
0.0
 10
-141.6708647115802
 20
-149.4260165599023
 30
0.0
 10
-141.7729450530899
 20
-149.5355567946168
 30
0.0
 10
-141.8563434673492
 20
-149.6623063314992
 30
0.0
 10
-141.9198884571279
 20
-149.8044431553834
 30
0.0
 10
-141.9690402162262
 20
-149.9581826825173
 30
0.0
 10
-142.0023531135303
 20
-150.1232376598469
 30
0.0
 10
-142.0242277971785
 20
-150.2983523973634
 30
0.0
 10
-142.026660393402
 20
-150.4190293970916
 30
0.0
 10
-142.0279083841143
 20
-150.4809401134687
 30
0.0
  0
SPLINE
  5
2F1
330
1F
100
AcDbEntity
  8
0
  6
Continuous
 62
     7
370
    25
100
AcDbSpline
210
0.0
220
0.0
230
1.0
 70
     8
 71
     3
 72
    19
 73
    15
 74
     0
 42
0.00000001
 43
0.00000001
 40
0.0
 40
0.0
 40
0.0
 40
0.0
 40
0.0916406141374266
 40
0.1781298792391696
 40
0.2595567419646426
 40
0.3375866717112679
 40
0.4120309825663231
 40
0.4846465272544935
 40
0.5569898783740138
 40
0.6314956460342933
 40
0.7101541122450963
 40
0.796327104865117
 40
0.8925710498724593
 40
1.0
 40
1.0
 40
1.0
 40
1.0
 10
-139.6419415843664
 20
-150.5091208237019
 30
0.0
 10
-139.6433447237527
 20
-150.4452768423837
 30
0.0
 10
-139.6460721285371
 20
-150.3211777102532
 30
0.0
 10
-139.6656584283762
 20
-150.1411097879082
 30
0.0
 10
-139.7002704737071
 20
-149.9731181319682
 30
0.0
 10
-139.7458513017869
 20
-149.8163972500517
 30
0.0
 10
-139.8089792579174
 20
-149.6722093831548
 30
0.0
 10
-139.8931140030815
 20
-149.5436294926417
 30
0.0
 10
-139.9985321780522
 20
-149.4319664673365
 30
0.0
 10
-140.1231652192516
 20
-149.335191096491
 30
0.0
 10
-140.2718976130567
 20
-149.2577224276661
 30
0.0
 10
-140.4462032192899
 20
-149.2032508894748
 30
0.0
 10
-140.6462367892604
 20
-149.1707833400274
 30
0.0
 10
-140.7882170393365
 20
-149.1675472205309
 30
0.0
 10
-140.8631056944736
 20
-149.165840302584
 30
0.0
  0
SPLINE
  5
2F4
330
1F
100
AcDbEntity
  8
0
  6
Continuous
 62
     7
370
    25
100
AcDbSpline
210
0.0
220
0.0
230
1.0
 70
     8
 71
     3
 72
    27
 73
    23
 74
     0
 42
0.00000001
 43
0.00000001
 40
0.0
 40
0.0
 40
0.0
 40
0.0
 40
0.0560332986477816
 40
0.1087906512923606
 40
0.1590567036427298
 40
0.2069275447711208
 40
0.2516553836524008
 40
0.2941621604704217
 40
0.3340349389678057
 40
0.371571491967999
 40
0.4411847905581129
 40
0.5048463213930815
 40
0.5627365907571672
 40
0.6166958479948526
 40
0.6681639044351612
 40
0.7177893041727668
 40
0.7659586556923962
 40
0.8142252237800539
 40
0.8617242220224631
 40
0.9087503098950783
 40
0.9546372213159521
 40
1.0
 40
1.0
 40
1.0
 40
1.0
 10
135.9204194158437
 20
26.86736100879096
 30
0.0
 10
135.9799210344088
 20
26.86776808972141
 30
0.0
 10
136.0954455527375
 20
26.86855845189215
 30
0.0
 10
136.2641985277408
 20
26.87592601519169
 30
0.0
 10
136.4240993874135
 20
26.88689869934416
 30
0.0
 10
136.5747170550864
 20
26.90518730217669
 30
0.0
 10
136.7168197185192
 20
26.92532054914418
 30
0.0
 10
136.8489419141486
 20
26.95309380959413
 30
0.0
 10
136.9729178035346
 20
26.98247880860785
 30
0.0
 10
137.1214426877109
 20
27.03088573107834
 30
0.0
 10
137.2901870073143
 20
27.09824678976469
 30
0.0
 10
137.4693771265314
 20
27.19442617738386
 30
0.0
 10
137.622944827882
 20
27.30116886466
 30
0.0
 10
137.747418006673
 20
27.42297986425642
 30
0.0
 10
137.8486249885111
 20
27.55330630048011
 30
0.0
 10
137.9315140931476
 20
27.68878668101694
 30
0.0
 10
137.9960747402705
 20
27.83028479351254
 30
0.0
 10
138.0408158327624
 20
27.97681501801917
 30
0.0
 10
138.0712024523526
 20
28.12543462758534
 30
0.0
 10
138.0956097939473
 20
28.27259258650763
 30
0.0
 10
138.1083106088758
 20
28.41903167927609
 30
0.0
 10
138.1104206672937
 20
28.51591245493271
 30
0.0
 10
138.1114696364782
 20
28.56407460408408
 30
0.0
  0
SPLINE
  5
2F6
330
1F
100
AcDbEntity
  8
0
  6
Continuous
 62
     7
370
    25
100
AcDbSpline
210
0.0
220
0.0
230
1.0
 70
     8
 71
     3
 72
    27
 73
    23
 74
     0
 42
0.00000001
 43
0.00000001
 40
0.0
 40
0.0
 40
0.0
 40
0.0
 40
0.046928167188226
 40
0.0937776209987285
 40
0.1416276327516008
 40
0.1898881899635716
 40
0.2387333763980429
 40
0.2884081805184389
 40
0.3394291401827541
 40
0.3926100446109425
 40
0.448440400557022
 40
0.5079838901826819
 40
0.5720443382507449
 40
0.6416406101899252
 40
0.6788370012680274
 40
0.7180224232669237
 40
0.7594779394157192
 40
0.8027906190790944
 40
0.8485062515845054
 40
0.8966373210389013
 40
0.9472409567391732
 40
1.0
 40
1.0
 40
1.0
 40
1.0
 10
133.6636142046649
 20
28.55585523026605
 30
0.0
 10
133.6647673667131
 20
28.50571113683724
 30
0.0
 10
133.6670717565921
 20
28.40550705748268
 30
0.0
 10
133.6850953765351
 20
28.254988994043
 30
0.0
 10
133.7164271846227
 20
28.10541620633142
 30
0.0
 10
133.756045863328
 20
27.95553406933741
 30
0.0
 10
133.8135311034166
 20
27.80912945444855
 30
0.0
 10
133.890953132597
 20
27.6689738399495
 30
0.0
 10
133.9852273826694
 20
27.53385922095604
 30
0.0
 10
134.1000188243709
 20
27.40660809273757
 30
0.0
 10
134.2358456920118
 20
27.28751669812457
 30
0.0
 10
134.3976696197311
 20
27.18367886974668
 30
0.0
 10
134.5822979795244
 20
27.09072056153553
 30
0.0
 10
134.7528343301465
 20
27.02490316730098
 30
0.0
 10
134.9016691737617
 20
26.97796314406201
 30
0.0
 10
135.0244254188445
 20
26.94970716087093
 30
0.0
 10
135.1541958695309
 20
26.92309259587393
 30
0.0
 10
135.2923702269319
 20
26.90412041307927
 30
0.0
 10
135.4379414951838
 20
26.88720755073695
 30
0.0
 10
135.5918893921131
 20
26.87582470042843
 30
0.0
 10
135.7536137909847
 20
26.868632769308
 30
0.0
 10
135.8640499045877
 20
26.86779078158094
 30
0.0
 10
135.9204194158437
 20
26.86736100879096
 30
0.0
  0
SPLINE
  5
2F9
330
1F
100
AcDbEntity
  8
0
  6
Continuous
 62
     7
370
    25
100
AcDbSpline
210
0.0
220
0.0
230
1.0
 70
     8
 71
     3
 72
    23
 73
    19
 74
     0
 42
0.00000001
 43
0.00000001
 40
0.0
 40
0.0
 40
0.0
 40
0.0
 40
0.0764453145596949
 40
0.1494310642431203
 40
0.2179390299360266
 40
0.282982803393845
 40
0.3449706474908573
 40
0.4035691256150568
 40
0.4603503570774803
 40
0.5150497548009408
 40
0.568796445747233
 40
0.6224865686568478
 40
0.677366218369592
 40
0.7341507945280012
 40
0.7945684426648308
 40
0.8582757698776879
 40
0.9266171978499255
 40
1.0
 40
1.0
 40
1.0
 40
1.0
 10
-139.9507552006724
 20
-135.9361710443366
 30
0.0
 10
-139.9512884186744
 20
-135.8876095926245
 30
0.0
 10
-139.9523307236732
 20
-135.7926843581307
 30
0.0
 10
-139.9645670306471
 20
-135.6547080491487
 30
0.0
 10
-139.9827536611618
 20
-135.524731042375
 30
0.0
 10
-140.0096991485103
 20
-135.4033610390361
 30
0.0
 10
-140.044716316033
 20
-135.2906360452866
 30
0.0
 10
-140.0875461574964
 20
-135.1863298863985
 30
0.0
 10
-140.1361904311811
 20
-135.0897298875335
 30
0.0
 10
-140.1939634109029
 20
-135.0017590543844
 30
0.0
 10
-140.2616195250443
 20
-134.9238564323607
 30
0.0
 10
-140.3380939169634
 20
-134.8540701823801
 30
0.0
 10
-140.4277121419033
 20
-134.798566514202
 30
0.0
 10
-140.5260752786083
 20
-134.7504853459591
 30
0.0
 10
-140.6356561243839
 20
-134.7147653576352
 30
0.0
 10
-140.7553389096479
 20
-134.6894629632709
 30
0.0
 10
-140.8849152225648
 20
-134.672153149741
 30
0.0
 10
-140.9749852190759
 20
-134.6709898279383
 30
0.0
 10
-141.0216221895356
 20
-134.6703874763601
 30
0.0
  0
SPLINE
  5
2FB
330
1F
100
AcDbEntity
  8
0
  6
Continuous
 62
     7
370
    25
100
AcDbSpline
210
0.0
220
0.0
230
1.0
 70
     8
 71
     3
 72
    23
 73
    19
 74
     0
 42
0.00000001
 43
0.00000001
 40
0.0
 40
0.0
 40
0.0
 40
0.0
 40
0.0699182078780472
 40
0.1351937261347842
 40
0.1958239656656676
 40
0.2535515658424507
 40
0.3078954988635236
 40
0.3602791052666733
 40
0.4116236452775516
 40
0.4633794247463912
 40
0.5161060889112469
 40
0.5721338057051236
 40
0.6315193182344572
 40
0.6955073453830369
 40
0.7636547486020805
 40
0.8373663604484975
 40
0.9156278499259484
 40
1.0
 40
1.0
 40
1.0
 40
1.0
 10
-141.0216221895356
 20
-134.6703874763601
 30
0.0
 10
-141.0650993708843
 20
-134.6712669546968
 30
0.0
 10
-141.1491667737361
 20
-134.6729675124913
 30
0.0
 10
-141.2704172403515
 20
-134.6865777961164
 30
0.0
 10
-141.3819852825272
 20
-134.7116797889925
 30
0.0
 10
-141.484275121158
 20
-134.7450526847674
 30
0.0
 10
-141.5769821135469
 20
-134.7888771078138
 30
0.0
 10
-141.6599774266174
 20
-134.8420268541595
 30
0.0
 10
-141.733901245714
 20
-134.9048405523123
 30
0.0
 10
-141.7976597927914
 20
-134.9783144660651
 30
0.0
 10
-141.8517832725379
 20
-135.0624135795301
 30
0.0
 10
-141.9003259704011
 20
-135.1551857514964
 30
0.0
 10
-141.9403530095807
 20
-135.259601650143
 30
0.0
 10
-141.9708173677122
 20
-135.3748418247407
 30
0.0
 10
-141.9972019088848
 20
-135.5001487215131
 30
0.0
 10
-142.0156137431461
 20
-135.6358930663559
 30
0.0
 10
-142.0260277240776
 20
-135.7825761432242
 30
0.0
 10
-142.0272659889256
 20
-135.8837061524533
 30
0.0
 10
-142.0279083841143
 20
-135.9361710443366
 30
0.0
  0
SPLINE
  5
2FE
330
1F
100
AcDbEntity
  8
0
  6
Continuous
 62
     7
370
    25
100
AcDbSpline
210
0.0
220
0.0
230
1.0
 70
     8
 71
     3
 72
    23
 73
    19
 74
     0
 42
0.00000001
 43
0.00000001
 40
0.0
 40
0.0
 40
0.0
 40
0.0
 40
0.0709377340144708
 40
0.1372823406834359
 40
0.1994988491723185
 40
0.2586807012033945
 40
0.3145634091427026
 40
0.3690970168532841
 40
0.4233705536877369
 40
0.4780361746284925
 40
0.5344277174505383
 40
0.5922681893285655
 40
0.6523898497734957
 40
0.7148205293208262
 40
0.7806034484861685
 40
0.8499425948427209
 40
0.9232456281307438
 40
1.0
 40
1.0
 40
1.0
 40
1.0
 10
-141.1437386005463
 20
-169.0567249422142
 30
0.0
 10
-141.1817613260626
 20
-169.0575192279346
 30
0.0
 10
-141.2553448543576
 20
-169.059056370393
 30
0.0
 10
-141.3613450887274
 20
-169.0738837582519
 30
0.0
 10
-141.4598642504754
 20
-169.0950839861615
 30
0.0
 10
-141.5490843423727
 20
-169.1284195239723
 30
0.0
 10
-141.630347181728
 20
-169.1695561259018
 30
0.0
 10
-141.7026331109833
 20
-169.2206405156534
 30
0.0
 10
-141.7668162413046
 20
-169.2807102256525
 30
0.0
 10
-141.8208824528518
 20
-169.3512732141107
 30
0.0
 10
-141.8672233711951
 20
-169.4290806111999
 30
0.0
 10
-141.9090704490865
 20
-169.5127336848032
 30
0.0
 10
-141.9424650293559
 20
-169.6035706612076
 30
0.0
 10
-141.9708185622881
 20
-169.7004392370355
 30
0.0
 10
-141.993311747983
 20
-169.8039674887371
 30
0.0
 10
-142.0079411074081
 20
-169.91472759372
 30
0.0
 10
-142.017547256439
 20
-170.031922707562
 30
0.0
 10
-142.0189642288314
 20
-170.1123074487712
 30
0.0
 10
-142.0196890102963
 20
-170.1534242487912
 30
0.0
  0
SPLINE
  5
300
330
1F
100
AcDbEntity
  8
0
  6
Continuous
 62
     7
370
    25
100
AcDbSpline
210
0.0
220
0.0
230
1.0
 70
     8
 71
     3
 72
    23
 73
    19
 74
     0
 42
0.00000001
 43
0.00000001
 40
0.0
 40
0.0
 40
0.0
 40
0.0
 40
0.0751502790824025
 40
0.1468926573958255
 40
0.2139701832357791
 40
0.277735778604144
 40
0.3382860384924343
 40
0.3966144712377912
 40
0.4520637487824646
 40
0.5068587201428789
 40
0.5610265324692446
 40
0.6149685923379745
 40
0.6707931736320444
 40
0.7294923613117132
 40
0.7905155030267371
 40
0.8559435135643267
 40
0.9255603435308661
 40
1.0
 40
1.0
 40
1.0
 40
1.0
 10
-140.2102525740702
 20
-170.0841466694678
 30
0.0
 10
-140.2108603631577
 20
-170.0441930063633
 30
0.0
 10
-140.2120483794273
 20
-169.9660974913794
 30
0.0
 10
-140.2232356504428
 20
-169.8528576091747
 30
0.0
 10
-140.2385451692305
 20
-169.7461498912527
 30
0.0
 10
-140.2640637132063
 20
-169.6475556197253
 30
0.0
 10
-140.2937061010803
 20
-169.5549883148069
 30
0.0
 10
-140.3327509734089
 20
-169.4707164026617
 30
0.0
 10
-140.3779569990601
 20
-169.3932711741605
 30
0.0
 10
-140.4291472733951
 20
-169.3221511023867
 30
0.0
 10
-140.4896757780233
 20
-169.2598869197334
 30
0.0
 10
-140.5573870589264
 20
-169.2046856036352
 30
0.0
 10
-140.6346289842689
 20
-169.158778518235
 30
0.0
 10
-140.7204491777032
 20
-169.1216930678999
 30
0.0
 10
-140.8144426791016
 20
-169.0920365273173
 30
0.0
 10
-140.9167000967587
 20
-169.0709986263584
 30
0.0
 10
-141.0276390960086
 20
-169.0598587259842
 30
0.0
 10
-141.1041845511287
 20
-169.0577925939548
 30
0.0
 10
-141.1437386005463
 20
-169.0567249422142
 30
0.0
  0
LINE
  5
304
330
1F
100
AcDbEntity
  8
0
  6
Continuous
 62
     7
370
    25
100
AcDbLine
 10
-142.0243857953
 20
-165.5071296491
 30
0.0
 11
-142.0243857953
 21
-166.7494292919
 31
0.0
  0
LINE
  5
305
330
1F
100
AcDbEntity
  8
0
  6
Continuous
 62
     7
370
    25
100
AcDbLine
 10
-137.5636142047
 20
-165.5071296491
 30
0.0
 11
-142.0243857953
 21
-165.5071296491
 31
0.0
  0
LINE
  5
306
330
1F
100
AcDbEntity
  8
0
  6
Continuous
 62
     7
370
    25
100
AcDbLine
 10
-137.5636142047
 20
-166.7494292919
 30
0.0
 11
-137.5636142047
 21
-165.5071296491
 31
0.0
  0
LINE
  5
307
330
1F
100
AcDbEntity
  8
0
  6
Continuous
 62
     7
370
    25
100
AcDbLine
 10
-137.0
 20
-166.7494292919
 30
0.0
 11
-137.5636142047
 21
-166.7494292919
 31
0.0
  0
LINE
  5
308
330
1F
100
AcDbEntity
  8
0
  6
Continuous
 62
     7
370
    25
100
AcDbLine
 10
-137.0
 20
-163.5520928767
 30
0.0
 11
-137.0
 21
-166.7494292919
 31
0.0
  0
LINE
  5
309
330
1F
100
AcDbEntity
  8
0
  6
Continuous
 62
     7
370
    25
100
AcDbLine
 10
-137.5636142047
 20
-163.5520928767
 30
0.0
 11
-137.0
 21
-163.5520928767
 31
0.0
  0
LINE
  5
30A
330
1F
100
AcDbEntity
  8
0
  6
Continuous
 62
     7
370
    25
100
AcDbLine
 10
-137.5636142047
 20
-164.7932183232
 30
0.0
 11
-137.5636142047
 21
-163.5520928767
 31
0.0
  0
LINE
  5
30B
330
1F
100
AcDbEntity
  8
0
  6
Continuous
 62
     7
370
    25
100
AcDbLine
 10
-142.0243857953
 20
-164.7932183232
 30
0.0
 11
-137.5636142047
 21
-164.7932183232
 31
0.0
  0
LINE
  5
30C
330
1F
100
AcDbEntity
  8
0
  6
Continuous
 62
     7
370
    25
100
AcDbLine
 10
-142.0243857953
 20
-163.5520928767
 30
0.0
 11
-142.0243857953
 21
-164.7932183232
 31
0.0
  0
LINE
  5
30D
330
1F
100
AcDbEntity
  8
0
  6
Continuous
 62
     7
370
    25
100
AcDbLine
 10
-142.588
 20
-163.5520928767
 30
0.0
 11
-142.0243857953
 21
-163.5520928767
 31
0.0
  0
LINE
  5
30E
330
1F
100
AcDbEntity
  8
0
  6
Continuous
 62
     7
370
    25
100
AcDbLine
 10
-142.588
 20
-166.7494292919
 30
0.0
 11
-142.588
 21
-163.5520928767
 31
0.0
  0
LINE
  5
30F
330
1F
100
AcDbEntity
  8
0
  6
Continuous
 62
     7
370
    25
100
AcDbLine
 10
-142.0243857953
 20
-166.7494292919
 30
0.0
 11
-142.588
 21
-166.7494292919
 31
0.0
  0
LINE
  5
310
330
1F
100
AcDbEntity
  8
0
  6
Continuous
 62
     7
370
    25
100
AcDbLine
 10
-142.588
 20
-144.5571199832
 30
0.0
 11
-142.588
 21
-143.8549506199
 31
0.0
  0
LINE
  5
311
330
1F
100
AcDbEntity
  8
0
  6
Continuous
 62
     7
370
    25
100
AcDbLine
 10
-140.2266913217
 20
-144.5571199832
 30
0.0
 11
-142.588
 21
-144.5571199832
 31
0.0
  0
LINE
  5
312
330
1F
100
AcDbEntity
  8
0
  6
Continuous
 62
     7
370
    25
100
AcDbLine
 10
-140.2266913217
 20
-146.6671506619
 30
0.0
 11
-140.2266913217
 21
-144.5571199832
 31
0.0
  0
LINE
  5
313
330
1F
100
AcDbEntity
  8
0
  6
Continuous
 62
     7
370
    25
100
AcDbLine
 10
-142.588
 20
-146.6671506619
 30
0.0
 11
-140.2266913217
 21
-146.6671506619
 31
0.0
  0
LINE
  5
314
330
1F
100
AcDbEntity
  8
0
  6
Continuous
 62
     7
370
    25
100
AcDbLine
 10
-142.588
 20
-147.3693200252
 30
0.0
 11
-142.588
 21
-146.6671506619
 31
0.0
  0
LINE
  5
315
330
1F
100
AcDbEntity
  8
0
  6
Continuous
 62
     7
370
    25
100
AcDbLine
 10
-137.0
 20
-147.3693200252
 30
0.0
 11
-142.588
 21
-147.3693200252
 31
0.0
  0
LINE
  5
316
330
1F
100
AcDbEntity
  8
0
  6
Continuous
 62
     7
370
    25
100
AcDbLine
 10
-137.0
 20
-146.6671506619
 30
0.0
 11
-137.0
 21
-147.3693200252
 31
0.0
  0
LINE
  5
317
330
1F
100
AcDbEntity
  8
0
  6
Continuous
 62
     7
370
    25
100
AcDbLine
 10
-139.6501609582
 20
-146.6671506619
 30
0.0
 11
-137.0
 21
-146.6671506619
 31
0.0
  0
LINE
  5
318
330
1F
100
AcDbEntity
  8
0
  6
Continuous
 62
     7
370
    25
100
AcDbLine
 10
-139.6501609582
 20
-144.5571199832
 30
0.0
 11
-139.6501609582
 21
-146.6671506619
 31
0.0
  0
LINE
  5
319
330
1F
100
AcDbEntity
  8
0
  6
Continuous
 62
     7
370
    25
100
AcDbLine
 10
-137.0
 20
-144.5571199832
 30
0.0
 11
-139.6501609582
 21
-144.5571199832
 31
0.0
  0
LINE
  5
31A
330
1F
100
AcDbEntity
  8
0
  6
Continuous
 62
     7
370
    25
100
AcDbLine
 10
-137.0
 20
-143.8549506199
 30
0.0
 11
-137.0
 21
-144.5571199832
 31
0.0
  0
LINE
  5
31B
330
1F
100
AcDbEntity
  8
0
  6
Continuous
 62
     7
370
    25
100
AcDbLine
 10
-142.588
 20
-143.8549506199
 30
0.0
 11
-137.0
 21
-143.8549506199
 31
0.0
  0
LINE
  5
31C
330
1F
100
AcDbEntity
  8
0
  6
Continuous
 62
     7
370
    25
100
AcDbLine
 10
-142.588
 20
-142.1441466695
 30
0.0
 11
-142.588
 21
-138.9702941794
 31
0.0
  0
LINE
  5
31D
330
1F
100
AcDbEntity
  8
0
  6
Continuous
 62
     7
370
    25
100
AcDbLine
 10
-137.0
 20
-142.1441466695
 30
0.0
 11
-142.588
 21
-142.1441466695
 31
0.0
  0
LINE
  5
31E
330
1F
100
AcDbEntity
  8
0
  6
Continuous
 62
     7
370
    25
100
AcDbLine
 10
-137.0
 20
-138.8974940113
 30
0.0
 11
-137.0
 21
-142.1441466695
 31
0.0
  0
LINE
  5
31F
330
1F
100
AcDbEntity
  8
0
  6
Continuous
 62
     7
370
    25
100
AcDbLine
 10
-137.5636142047
 20
-138.8974940113
 30
0.0
 11
-137.0
 21
-138.8974940113
 31
0.0
  0
LINE
  5
320
330
1F
100
AcDbEntity
  8
0
  6
Continuous
 62
     7
370
    25
100
AcDbLine
 10
-137.5636142047
 20
-141.4372805211
 30
0.0
 11
-137.5636142047
 21
-138.8974940113
 31
0.0
  0
LINE
  5
321
330
1F
100
AcDbEntity
  8
0
  6
Continuous
 62
     7
370
    25
100
AcDbLine
 10
-139.5480058836
 20
-141.4372805211
 30
0.0
 11
-137.5636142047
 21
-141.4372805211
 31
0.0
  0
LINE
  5
322
330
1F
100
AcDbEntity
  8
0
  6
Continuous
 62
     7
370
    25
100
AcDbLine
 10
-139.5480058836
 20
-139.3683467115
 30
0.0
 11
-139.5480058836
 21
-141.4372805211
 31
0.0
  0
LINE
  5
323
330
1F
100
AcDbEntity
  8
0
  6
Continuous
 62
     7
370
    25
100
AcDbLine
 10
-140.1292330321
 20
-139.3683467115
 30
0.0
 11
-139.5480058836
 21
-139.3683467115
 31
0.0
  0
LINE
  5
324
330
1F
100
AcDbEntity
  8
0
  6
Continuous
 62
     7
370
    25
100
AcDbLine
 10
-140.1292330321
 20
-141.4372805211
 30
0.0
 11
-140.1292330321
 21
-139.3683467115
 31
0.0
  0
LINE
  5
325
330
1F
100
AcDbEntity
  8
0
  6
Continuous
 62
     7
370
    25
100
AcDbLine
 10
-142.0114696365
 20
-141.4372805211
 30
0.0
 11
-140.1292330321
 21
-141.4372805211
 31
0.0
  0
LINE
  5
326
330
1F
100
AcDbEntity
  8
0
  6
Continuous
 62
     7
370
    25
100
AcDbLine
 10
-142.0114696365
 20
-139.0513137214
 30
0.0
 11
-142.0114696365
 21
-141.4372805211
 31
0.0
  0
LINE
  5
327
330
1F
100
AcDbEntity
  8
0
  6
Continuous
 62
     7
370
    25
100
AcDbLine
 10
-142.588
 20
-138.9702941794
 30
0.0
 11
-142.0114696365
 21
-139.0513137214
 31
0.0
  0
LINE
  5
328
330
1F
100
AcDbEntity
  8
0
  6
Continuous
 62
     7
370
    25
100
AcDbLine
 10
-137.0
 20
-137.4532326119
 30
0.0
 11
-142.588
 21
-137.4532326119
 31
0.0
  0
LINE
  5
329
330
1F
100
AcDbEntity
  8
0
  6
Continuous
 62
     7
370
    25
100
AcDbLine
 10
-137.0
 20
-136.7475406598
 30
0.0
 11
-137.0
 21
-137.4532326119
 31
0.0
  0
LINE
  5
32A
330
1F
100
AcDbEntity
  8
0
  6
Continuous
 62
     7
370
    25
100
AcDbLine
 10
-139.3988829586
 20
-136.7475406598
 30
0.0
 11
-137.0
 21
-136.7475406598
 31
0.0
  0
LINE
  5
32B
330
1F
100
AcDbEntity
  8
0
  6
Continuous
 62
     7
370
    25
100
AcDbLine
 10
-139.3988829586
 20
-135.9925324648
 30
0.0
 11
-139.3988829586
 21
-136.7475406598
 31
0.0
  0
LINE
  5
32C
330
1F
100
AcDbEntity
  8
0
  6
Continuous
 62
     7
370
    25
100
AcDbLine
 10
-137.0
 20
-134.4672515234
 30
0.0
 11
-139.3988829586
 21
-135.9925324648
 31
0.0
  0
LINE
  5
32D
330
1F
100
AcDbEntity
  8
0
  6
Continuous
 62
     7
370
    25
100
AcDbLine
 10
-137.0
 20
-133.6230044127
 30
0.0
 11
-137.0
 21
-134.4672515234
 31
0.0
  0
LINE
  5
32E
330
1F
100
AcDbEntity
  8
0
  6
Continuous
 62
     7
370
    25
100
AcDbLine
 10
-139.4799025005
 20
-135.2786211389
 30
0.0
 11
-137.0
 21
-133.6230044127
 31
0.0
  0
LINE
  5
32F
330
1F
100
AcDbEntity
  8
0
  6
Continuous
 62
     7
370
    25
100
AcDbLine
 10
-142.588
 20
-137.4532326119
 30
0.0
 11
-142.588
 21
-136.0171905863
 31
0.0
  0
LINE
  5
330
330
1F
100
AcDbEntity
  8
0
  6
Continuous
 62
     7
370
    25
100
AcDbLine
 10
-137.6293691952
 20
-112.0483223366
 30
0.0
 11
-137.6293691952
 21
-109.500316453
 31
0.0
  0
LINE
  5
331
330
1F
100
AcDbEntity
  8
0
  6
Continuous
 62
     7
370
    25
100
AcDbLine
 10
-142.588
 20
-112.0483223366
 30
0.0
 11
-137.6293691952
 21
-112.0483223366
 31
0.0
  0
LINE
  5
332
330
1F
100
AcDbEntity
  8
0
  6
Continuous
 62
     7
370
    25
100
AcDbLine
 10
-142.588
 20
-112.7540142887
 30
0.0
 11
-142.588
 21
-112.0483223366
 31
0.0
  0
LINE
  5
333
330
1F
100
AcDbEntity
  8
0
  6
Continuous
 62
     7
370
    25
100
AcDbLine
 10
-137.0
 20
-112.7540142887
 30
0.0
 11
-142.588
 21
-112.7540142887
 31
0.0
  0
LINE
  5
334
330
1F
100
AcDbEntity
  8
0
  6
Continuous
 62
     7
370
    25
100
AcDbLine
 10
-137.0
 20
-109.581335995
 30
0.0
 11
-137.0
 21
-112.7540142887
 31
0.0
  0
LINE
  5
335
330
1F
100
AcDbEntity
  8
0
  6
Continuous
 62
     7
370
    25
100
AcDbLine
 10
-137.6293691952
 20
-109.500316453
 30
0.0
 11
-137.0
 21
-109.581335995
 31
0.0
  0
LINE
  5
336
330
1F
100
AcDbEntity
  8
0
  6
Continuous
 62
     7
370
    25
100
AcDbLine
 10
-142.588
 20
-106.0845795335
 30
0.0
 11
-137.0
 21
-104.2657495272
 31
0.0
  0
LINE
  5
337
330
1F
100
AcDbEntity
  8
0
  6
Continuous
 62
     7
370
    25
100
AcDbLine
 10
-142.588
 20
-106.9851880647
 30
0.0
 11
-142.588
 21
-106.0845795335
 31
0.0
  0
LINE
  5
338
330
1F
100
AcDbEntity
  8
0
  6
Continuous
 62
     7
370
    25
100
AcDbLine
 10
-137.0
 20
-108.8028438748
 30
0.0
 11
-142.588
 21
-106.9851880647
 31
0.0
  0
LINE
  5
339
330
1F
100
AcDbEntity
  8
0
  6
Continuous
 62
     7
370
    25
100
AcDbLine
 10
-137.0
 20
-108.1088938853
 30
0.0
 11
-137.0
 21
-108.8028438748
 31
0.0
  0
LINE
  5
33A
330
1F
100
AcDbEntity
  8
0
  6
Continuous
 62
     7
370
    25
100
AcDbLine
 10
-138.424300063
 20
-107.6626993066
 30
0.0
 11
-137.0
 21
-108.1088938853
 31
0.0
  0
LINE
  5
33B
330
1F
100
AcDbEntity
  8
0
  6
Continuous
 62
     7
370
    25
100
AcDbLine
 10
-138.424300063
 20
-105.4516877495
 30
0.0
 11
-138.424300063
 21
-107.6626993066
 31
0.0
  0
LINE
  5
33C
330
1F
100
AcDbEntity
  8
0
  6
Continuous
 62
     7
370
    25
100
AcDbLine
 10
-137.0
 20
-105.0043189746
 30
0.0
 11
-138.424300063
 21
-105.4516877495
 31
0.0
  0
LINE
  5
33D
330
1F
100
AcDbEntity
  8
0
  6
Continuous
 62
     7
370
    25
100
AcDbLine
 10
-137.0
 20
-104.2657495272
 30
0.0
 11
-137.0
 21
-105.0043189746
 31
0.0
  0
LINE
  5
33E
330
1F
100
AcDbEntity
  8
0
  6
Continuous
 62
     7
370
    25
100
AcDbLine
 10
-137.0
 20
-35.0222218954
 30
0.0
 11
-142.588
 21
-35.0222218954
 31
0.0
  0
LINE
  5
33F
330
1F
100
AcDbEntity
  8
0
  6
Continuous
 62
     7
370
    25
100
AcDbLine
 10
-137.0
 20
-33.7399995797
 30
0.0
 11
-137.0
 21
-35.0222218954
 31
0.0
  0
LINE
  5
340
330
1F
100
AcDbEntity
  8
0
  6
Continuous
 62
     7
370
    25
100
AcDbLine
 10
-142.588
 20
-35.0222218954
 30
0.0
 11
-142.588
 21
-33.8292384955
 31
0.0
  0
LINE
  5
341
330
1F
100
AcDbEntity
  8
0
  6
Continuous
 62
     7
370
    25
100
AcDbLine
 10
-137.0
 20
-5.4547858794
 30
0.0
 11
-142.588
 21
-5.4547858794
 31
0.0
  0
LINE
  5
342
330
1F
100
AcDbEntity
  8
0
  6
Continuous
 62
     7
370
    25
100
AcDbLine
 10
-137.0
 20
-4.747919731
 30
0.0
 11
-137.0
 21
-5.4547858794
 31
0.0
  0
LINE
  5
343
330
1F
100
AcDbEntity
  8
0
  6
Continuous
 62
     7
370
    25
100
AcDbLine
 10
-139.0736305947
 20
-4.747919731
 30
0.0
 11
-137.0
 21
-4.747919731
 31
0.0
  0
LINE
  5
344
330
1F
100
AcDbEntity
  8
0
  6
Continuous
 62
     7
370
    25
100
AcDbLine
 10
-139.0736305947
 20
-4.0340084051
 30
0.0
 11
-139.0736305947
 21
-4.747919731
 31
0.0
  0
LINE
  5
345
330
1F
100
AcDbEntity
  8
0
  6
Continuous
 62
     7
370
    25
100
AcDbLine
 10
-142.588
 20
-5.4547858794
 30
0.0
 11
-142.588
 21
-4.0257890313
 31
0.0
  0
LINE
  5
346
330
1F
100
AcDbEntity
  8
0
  6
Continuous
 62
     7
370
    25
100
AcDbLine
 10
46.8782736349
 20
-200.2314423827
 30
0.0
 11
49.7725206406
 21
-200.2314423827
 31
0.0
  0
LINE
  5
347
330
1F
100
AcDbEntity
  8
0
  6
Continuous
 62
     7
370
    25
100
AcDbLine
 10
46.8782736349
 20
-200.7287144987
 30
0.0
 11
46.8782736349
 21
-200.2314423827
 31
0.0
  0
LINE
  5
348
330
1F
100
AcDbEntity
  8
0
  6
Continuous
 62
     7
370
    25
100
AcDbLine
 10
49.1714789301
 20
-200.7287144987
 30
0.0
 11
46.8782736349
 21
-200.7287144987
 31
0.0
  0
LINE
  5
349
330
1F
100
AcDbEntity
  8
0
  6
Continuous
 62
     7
370
    25
100
AcDbLine
 10
47.2656116261
 20
-205.01820021
 30
0.0
 11
49.1714789301
 21
-200.7287144987
 31
0.0
  0
LINE
  5
34A
330
1F
100
AcDbEntity
  8
0
  6
Continuous
 62
     7
370
    25
100
AcDbLine
 10
47.8224742023
 20
-205.1887522167
 30
0.0
 11
47.2656116261
 21
-205.01820021
 31
0.0
  0
LINE
  5
34B
330
1F
100
AcDbEntity
  8
0
  6
Continuous
 62
     7
370
    25
100
AcDbLine
 10
49.7725206406
 20
-200.6896724731
 30
0.0
 11
47.8224742023
 21
-205.1887522167
 31
0.0
  0
LINE
  5
34C
330
1F
100
AcDbEntity
  8
0
  6
Continuous
 62
     7
370
    25
100
AcDbLine
 10
49.7725206406
 20
-200.2314423827
 30
0.0
 11
49.7725206406
 21
-200.6896724731
 31
0.0
  0
LINE
  5
34D
330
1F
100
AcDbEntity
  8
0
  6
Continuous
 62
     7
370
    25
100
AcDbLine
 10
113.3239520721
 20
71.5895
 30
0.0
 11
116.2181990778
 21
71.5895
 31
0.0
  0
LINE
  5
34E
330
1F
100
AcDbEntity
  8
0
  6
Continuous
 62
     7
370
    25
100
AcDbLine
 10
113.3239520721
 20
71.092227884
 30
0.0
 11
113.3239520721
 21
71.5895
 31
0.0
  0
LINE
  5
34F
330
1F
100
AcDbEntity
  8
0
  6
Continuous
 62
     7
370
    25
100
AcDbLine
 10
115.6171573674
 20
71.092227884
 30
0.0
 11
113.3239520721
 21
71.092227884
 31
0.0
  0
LINE
  5
350
330
1F
100
AcDbEntity
  8
0
  6
Continuous
 62
     7
370
    25
100
AcDbLine
 10
113.7112900633
 20
66.8027421727
 30
0.0
 11
115.6171573674
 21
71.092227884
 31
0.0
  0
LINE
  5
351
330
1F
100
AcDbEntity
  8
0
  6
Continuous
 62
     7
370
    25
100
AcDbLine
 10
114.2681526395
 20
66.632190166
 30
0.0
 11
113.7112900633
 21
66.8027421727
 31
0.0
  0
LINE
  5
352
330
1F
100
AcDbEntity
  8
0
  6
Continuous
 62
     7
370
    25
100
AcDbLine
 10
116.2181990778
 20
71.1312699096
 30
0.0
 11
114.2681526395
 21
66.632190166
 31
0.0
  0
LINE
  5
353
330
1F
100
AcDbEntity
  8
0
  6
Continuous
 62
     7
370
    25
100
AcDbLine
 10
116.2181990778
 20
71.5895
 30
0.0
 11
116.2181990778
 21
71.1312699096
 31
0.0
  0
LINE
  5
354
330
1F
100
AcDbEntity
  8
0
  6
Continuous
 62
     7
370
    25
100
AcDbLine
 10
-19.4760479279
 20
71.5895
 30
0.0
 11
-16.5818009222
 21
71.5895
 31
0.0
  0
LINE
  5
355
330
1F
100
AcDbEntity
  8
0
  6
Continuous
 62
     7
370
    25
100
AcDbLine
 10
-19.4760479279
 20
71.092227884
 30
0.0
 11
-19.4760479279
 21
71.5895
 31
0.0
  0
LINE
  5
356
330
1F
100
AcDbEntity
  8
0
  6
Continuous
 62
     7
370
    25
100
AcDbLine
 10
-17.1828426326
 20
71.092227884
 30
0.0
 11
-19.4760479279
 21
71.092227884
 31
0.0
  0
LINE
  5
357
330
1F
100
AcDbEntity
  8
0
  6
Continuous
 62
     7
370
    25
100
AcDbLine
 10
-19.0887099367
 20
66.8027421727
 30
0.0
 11
-17.1828426326
 21
71.092227884
 31
0.0
  0
LINE
  5
358
330
1F
100
AcDbEntity
  8
0
  6
Continuous
 62
     7
370
    25
100
AcDbLine
 10
-18.5318473605
 20
66.632190166
 30
0.0
 11
-19.0887099367
 21
66.8027421727
 31
0.0
  0
LINE
  5
359
330
1F
100
AcDbEntity
  8
0
  6
Continuous
 62
     7
370
    25
100
AcDbLine
 10
-16.5818009222
 20
71.1312699096
 30
0.0
 11
-18.5318473605
 21
66.632190166
 31
0.0
  0
LINE
  5
35A
330
1F
100
AcDbEntity
  8
0
  6
Continuous
 62
     7
370
    25
100
AcDbLine
 10
-16.5818009222
 20
71.5895
 30
0.0
 11
-16.5818009222
 21
71.1312699096
 31
0.0
  0
LINE
  5
35B
330
1F
100
AcDbEntity
  8
0
  6
Continuous
 62
     7
370
    25
100
AcDbLine
 10
138.688
 20
24.5929428537
 30
0.0
 11
138.688
 21
21.3016707377
 31
0.0
  0
LINE
  5
35C
330
1F
100
AcDbEntity
  8
0
  6
Continuous
 62
     7
370
    25
100
AcDbLine
 10
133.1
 20
24.5929428537
 30
0.0
 11
138.688
 21
24.5929428537
 31
0.0
  0
LINE
  5
35D
330
1F
100
AcDbEntity
  8
0
  6
Continuous
 62
     7
370
    25
100
AcDbLine
 10
133.1
 20
23.8942960792
 30
0.0
 11
133.1
 21
24.5929428537
 31
0.0
  0
LINE
  5
35E
330
1F
100
AcDbEntity
  8
0
  6
Continuous
 62
     7
370
    25
100
AcDbLine
 10
135.5881218743
 20
23.8942960792
 30
0.0
 11
133.1
 21
23.8942960792
 31
0.0
  0
LINE
  5
35F
330
1F
100
AcDbEntity
  8
0
  6
Continuous
 62
     7
370
    25
100
AcDbLine
 10
135.5881218743
 20
21.7032458585
 30
0.0
 11
135.5881218743
 21
23.8942960792
 31
0.0
  0
LINE
  5
360
330
1F
100
AcDbEntity
  8
0
  6
Continuous
 62
     7
370
    25
100
AcDbLine
 10
136.1552586678
 20
21.7032458585
 30
0.0
 11
135.5881218743
 21
21.7032458585
 31
0.0
  0
LINE
  5
361
330
1F
100
AcDbEntity
  8
0
  6
Continuous
 62
     7
370
    25
100
AcDbLine
 10
136.1552586678
 20
23.8942960792
 30
0.0
 11
136.1552586678
 21
21.7032458585
 31
0.0
  0
LINE
  5
362
330
1F
100
AcDbEntity
  8
0
  6
Continuous
 62
     7
370
    25
100
AcDbLine
 10
138.1114696365
 20
23.8942960792
 30
0.0
 11
136.1552586678
 21
23.8942960792
 31
0.0
  0
LINE
  5
363
330
1F
100
AcDbEntity
  8
0
  6
Continuous
 62
     7
370
    25
100
AcDbLine
 10
138.1114696365
 20
21.3862128684
 30
0.0
 11
138.1114696365
 21
23.8942960792
 31
0.0
  0
LINE
  5
364
330
1F
100
AcDbEntity
  8
0
  6
Continuous
 62
     7
370
    25
100
AcDbLine
 10
138.688
 20
21.3016707377
 30
0.0
 11
138.1114696365
 21
21.3862128684
 31
0.0
  0
LINE
  5
365
330
1F
100
AcDbEntity
  8
0
  6
Continuous
 62
     7
370
    25
100
AcDbLine
 10
-142.588
 20
-171.686924564
 30
0.0
 11
-142.588
 21
-170.3107665476
 31
0.0
  0
LINE
  5
366
330
1F
100
AcDbEntity
  8
0
  6
Continuous
 62
     7
370
    25
100
AcDbLine
 10
-137.0
 20
-171.686924564
 30
0.0
 11
-142.588
 21
-171.686924564
 31
0.0
  0
LINE
  5
367
330
1F
100
AcDbEntity
  8
0
  6
Continuous
 62
     7
370
    25
100
AcDbLine
 10
-137.0
 20
-170.1851275478
 30
0.0
 11
-137.0
 21
-171.686924564
 31
0.0
  0
LINE
  5
368
330
1F
100
AcDbEntity
  8
0
  6
Continuous
 62
     7
370
    25
100
AcDbLine
 10
-143.3767827275
 20
-185.0698403026
 30
0.0
 11
-143.3767827275
 21
-189.9239676403
 31
0.0
  0
LINE
  5
369
330
1F
100
AcDbEntity
  8
0
  6
Continuous
 62
     7
370
    25
100
AcDbLine
 10
-143.3767827275
 20
-189.9239676403
 30
0.0
 11
-148.1604582896
 21
-189.9239676403
 31
0.0
  0
LINE
  5
36A
330
1F
100
AcDbEntity
  8
0
  6
Continuous
 62
     7
370
    25
100
AcDbLine
 10
-148.1604582896
 20
-189.9239676403
 30
0.0
 11
-148.1604582896
 21
-191.6429909645
 31
0.0
  0
LINE
  5
36B
330
1F
100
AcDbEntity
  8
0
  6
Continuous
 62
     7
370
    25
100
AcDbLine
 10
-148.1604582896
 20
-191.6429909645
 30
0.0
 11
-143.3767827275
 21
-191.6429909645
 31
0.0
  0
LINE
  5
36C
330
1F
100
AcDbEntity
  8
0
  6
Continuous
 62
     7
370
    25
100
AcDbLine
 10
-143.3767827275
 20
-191.6429909645
 30
0.0
 11
-143.3767827275
 21
-196.4618924144
 31
0.0
  0
LINE
  5
36D
330
1F
100
AcDbEntity
  8
0
  6
Continuous
 62
     7
370
    25
100
AcDbLine
 10
-143.3767827275
 20
-196.4618924144
 30
0.0
 11
-141.4675396092
 21
-196.4618924144
 31
0.0
  0
LINE
  5
36E
330
1F
100
AcDbEntity
  8
0
  6
Continuous
 62
     7
370
    25
100
AcDbLine
 10
-141.4675396092
 20
-196.4618924144
 30
0.0
 11
-141.4675396092
 21
-191.6429909645
 31
0.0
  0
LINE
  5
36F
330
1F
100
AcDbEntity
  8
0
  6
Continuous
 62
     7
370
    25
100
AcDbLine
 10
-141.4675396092
 20
-191.6429909645
 30
0.0
 11
-136.7437480563
 21
-191.6429909645
 31
0.0
  0
LINE
  5
370
330
1F
100
AcDbEntity
  8
0
  6
Continuous
 62
     7
370
    25
100
AcDbLine
 10
-136.7437480563
 20
-191.6429909645
 30
0.0
 11
-136.7437480563
 21
-189.9239676403
 31
0.0
  0
LINE
  5
371
330
1F
100
AcDbEntity
  8
0
  6
Continuous
 62
     7
370
    25
100
AcDbLine
 10
-136.7437480563
 20
-189.9239676403
 30
0.0
 11
-141.4675396092
 21
-189.9239676403
 31
0.0
  0
LINE
  5
372
330
1F
100
AcDbEntity
  8
0
  6
Continuous
 62
     7
370
    25
100
AcDbLine
 10
-141.4675396092
 20
-189.9239676403
 30
0.0
 11
-141.4675396092
 21
-185.0698403026
 31
0.0
  0
LINE
  5
373
330
1F
100
AcDbEntity
  8
0
  6
Continuous
 62
     7
370
    25
100
AcDbLine
 10
-141.4675396092
 20
-185.0698403026
 30
0.0
 11
-143.3767827275
 21
-185.0698403026
 31
0.0
  0
LINE
  5
374
330
1F
100
AcDbEntity
  8
0
  6
Continuous
 62
     7
370
    25
100
AcDbLine
 10
-2.2
 20
66.7
 30
0.0
 11
108.1196659253
 21
66.7
 31
0.0
  0
LINE
  5
375
330
1F
100
AcDbEntity
  8
0
  6
Continuous
 62
     7
370
    25
100
AcDbLine
 10
108.1196659253
 20
66.7
 30
0.0
 11
108.1196659253
 21
68.7
 31
0.0
  0
LINE
  5
376
330
1F
100
AcDbEntity
  8
0
  6
Continuous
 62
     7
370
    25
100
AcDbLine
 10
108.1196659253
 20
68.7
 30
0.0
 11
-2.2
 21
68.7
 31
0.0
  0
LINE
  5
377
330
1F
100
AcDbEntity
  8
0
  6
Continuous
 62
     7
370
    25
100
AcDbLine
 10
-2.2
 20
68.7
 30
0.0
 11
-2.2
 21
66.7
 31
0.0
  0
LINE
  5
378
330
1F
100
AcDbEntity
  8
0
  6
Continuous
 62
     7
370
    25
100
AcDbLine
 10
-135.0
 20
66.7
 30
0.0
 11
-24.6803340747
 21
66.7
 31
0.0
  0
LINE
  5
379
330
1F
100
AcDbEntity
  8
0
  6
Continuous
 62
     7
370
    25
100
AcDbLine
 10
-24.6803340747
 20
66.7
 30
0.0
 11
-24.6803340747
 21
68.7
 31
0.0
  0
LINE
  5
37A
330
1F
100
AcDbEntity
  8
0
  6
Continuous
 62
     7
370
    25
100
AcDbLine
 10
-24.6803340747
 20
68.7
 30
0.0
 11
-135.0
 21
68.7
 31
0.0
  0
LINE
  5
37B
330
1F
100
AcDbEntity
  8
0
  6
Continuous
 62
     7
370
    25
100
AcDbLine
 10
-135.0
 20
68.7
 30
0.0
 11
-135.0
 21
66.7
 31
0.0
  0
LINE
  5
37C
330
1F
100
AcDbEntity
  8
0
  6
Continuous
 62
     7
370
    25
100
AcDbLine
 10
41.8242496258
 20
-201.6
 30
0.0
 11
-68.6
 21
-201.6
 31
0.0
  0
LINE
  5
37D
330
1F
100
AcDbEntity
  8
0
  6
Continuous
 62
     7
370
    25
100
AcDbLine
 10
-68.6
 20
-201.6
 30
0.0
 11
-68.6
 21
-203.6
 31
0.0
  0
LINE
  5
37E
330
1F
100
AcDbEntity
  8
0
  6
Continuous
 62
     7
370
    25
100
AcDbLine
 10
-68.6
 20
-203.6
 30
0.0
 11
41.8242496258
 21
-203.6
 31
0.0
  0
LINE
  5
37F
330
1F
100
AcDbEntity
  8
0
  6
Continuous
 62
     7
370
    25
100
AcDbLine
 10
41.8242496258
 20
-203.6
 30
0.0
 11
41.8242496258
 21
-201.6
 31
0.0
  0
LINE
  5
380
330
1F
100
AcDbEntity
  8
0
  6
Continuous
 62
     7
370
    25
100
AcDbLine
 10
129.5409966628
 20
-197.3561109477
 30
0.0
 11
129.5409966628
 21
-196.7631418365
 31
0.0
  0
LINE
  5
381
330
1F
100
AcDbEntity
  8
0
  6
Continuous
 62
     7
370
    25
100
AcDbLine
 10
129.5409966628
 20
-196.7631418365
 30
0.0
 11
126.2872988271
 21
-196.7631418365
 31
0.0
  0
LINE
  5
382
330
1F
100
AcDbEntity
  8
0
  6
Continuous
 62
     7
370
    25
100
AcDbLine
 10
126.2872988271
 20
-196.7631418365
 30
0.0
 11
126.2872988271
 21
-197.3561109477
 31
0.0
  0
LINE
  5
383
330
1F
100
AcDbEntity
  8
0
  6
Continuous
 62
     7
370
    25
100
AcDbLine
 10
126.2872988271
 20
-197.3561109477
 30
0.0
 11
129.5409966628
 21
-197.3561109477
 31
0.0
  0
LINE
  5
384
330
1F
100
AcDbEntity
  8
0
  6
Continuous
 62
     7
370
    25
100
AcDbLine
 10
-3.2590033372
 20
-62.4561109477
 30
0.0
 11
-3.2590033372
 21
-61.8631418365
 31
0.0
  0
LINE
  5
385
330
1F
100
AcDbEntity
  8
0
  6
Continuous
 62
     7
370
    25
100
AcDbLine
 10
-3.2590033372
 20
-61.8631418365
 30
0.0
 11
-6.5127011729
 21
-61.8631418365
 31
0.0
  0
LINE
  5
386
330
1F
100
AcDbEntity
  8
0
  6
Continuous
 62
     7
370
    25
100
AcDbLine
 10
-6.5127011729
 20
-61.8631418365
 30
0.0
 11
-6.5127011729
 21
-62.4561109477
 31
0.0
  0
LINE
  5
387
330
1F
100
AcDbEntity
  8
0
  6
Continuous
 62
     7
370
    25
100
AcDbLine
 10
-6.5127011729
 20
-62.4561109477
 30
0.0
 11
-3.2590033372
 21
-62.4561109477
 31
0.0
  0
LINE
  5
388
330
1F
100
AcDbEntity
  8
0
  6
Continuous
 62
     7
370
    25
100
AcDbLine
 10
-71.5940787732
 20
-60.2732801009
 30
0.0
 11
-71.5940787732
 21
-61.8913225468
 31
0.0
  0
LINE
  5
389
330
1F
100
AcDbEntity
  8
0
  6
Continuous
 62
     7
370
    25
100
AcDbLine
 10
-71.5940787732
 20
-61.8913225468
 30
0.0
 11
-73.1886372939
 21
-61.8913225468
 31
0.0
  0
LINE
  5
38A
330
1F
100
AcDbEntity
  8
0
  6
Continuous
 62
     7
370
    25
100
AcDbLine
 10
-73.1886372939
 20
-61.8913225468
 30
0.0
 11
-73.1886372939
 21
-62.4643303215
 31
0.0
  0
LINE
  5
38B
330
1F
100
AcDbEntity
  8
0
  6
Continuous
 62
     7
370
    25
100
AcDbLine
 10
-73.1886372939
 20
-62.4643303215
 30
0.0
 11
-71.5940787732
 21
-62.4643303215
 31
0.0
  0
LINE
  5
38C
330
1F
100
AcDbEntity
  8
0
  6
Continuous
 62
     7
370
    25
100
AcDbLine
 10
-71.5940787732
 20
-62.4643303215
 30
0.0
 11
-71.5940787732
 21
-64.0706308048
 31
0.0
  0
LINE
  5
38D
330
1F
100
AcDbEntity
  8
0
  6
Continuous
 62
     7
370
    25
100
AcDbLine
 10
-71.5940787732
 20
-64.0706308048
 30
0.0
 11
-70.9576644005
 21
-64.0706308048
 31
0.0
  0
LINE
  5
38E
330
1F
100
AcDbEntity
  8
0
  6
Continuous
 62
     7
370
    25
100
AcDbLine
 10
-70.9576644005
 20
-64.0706308048
 30
0.0
 11
-70.9576644005
 21
-62.4643303215
 31
0.0
  0
LINE
  5
38F
330
1F
100
AcDbEntity
  8
0
  6
Continuous
 62
     7
370
    25
100
AcDbLine
 10
-70.9576644005
 20
-62.4643303215
 30
0.0
 11
-69.3830672162
 21
-62.4643303215
 31
0.0
  0
LINE
  5
390
330
1F
100
AcDbEntity
  8
0
  6
Continuous
 62
     7
370
    25
100
AcDbLine
 10
-69.3830672162
 20
-62.4643303215
 30
0.0
 11
-69.3830672162
 21
-61.8913225468
 31
0.0
  0
LINE
  5
391
330
1F
100
AcDbEntity
  8
0
  6
Continuous
 62
     7
370
    25
100
AcDbLine
 10
-69.3830672162
 20
-61.8913225468
 30
0.0
 11
-70.9576644005
 21
-61.8913225468
 31
0.0
  0
LINE
  5
392
330
1F
100
AcDbEntity
  8
0
  6
Continuous
 62
     7
370
    25
100
AcDbLine
 10
-70.9576644005
 20
-61.8913225468
 30
0.0
 11
-70.9576644005
 21
-60.2732801009
 31
0.0
  0
LINE
  5
393
330
1F
100
AcDbEntity
  8
0
  6
Continuous
 62
     7
370
    25
100
AcDbLine
 10
-70.9576644005
 20
-60.2732801009
 30
0.0
 11
-71.5940787732
 21
-60.2732801009
 31
0.0
  0
LINE
  5
394
330
1F
100
AcDbEntity
  8
0
  6
Continuous
 62
     7
370
    25
100
AcDbLine
 10
-71.5940787732
 20
-195.1732801009
 30
0.0
 11
-71.5940787732
 21
-196.7913225468
 31
0.0
  0
LINE
  5
395
330
1F
100
AcDbEntity
  8
0
  6
Continuous
 62
     7
370
    25
100
AcDbLine
 10
-71.5940787732
 20
-196.7913225468
 30
0.0
 11
-73.1886372939
 21
-196.7913225468
 31
0.0
  0
LINE
  5
396
330
1F
100
AcDbEntity
  8
0
  6
Continuous
 62
     7
370
    25
100
AcDbLine
 10
-73.1886372939
 20
-196.7913225468
 30
0.0
 11
-73.1886372939
 21
-197.3643303215
 31
0.0
  0
LINE
  5
397
330
1F
100
AcDbEntity
  8
0
  6
Continuous
 62
     7
370
    25
100
AcDbLine
 10
-73.1886372939
 20
-197.3643303215
 30
0.0
 11
-71.5940787732
 21
-197.3643303215
 31
0.0
  0
LINE
  5
398
330
1F
100
AcDbEntity
  8
0
  6
Continuous
 62
     7
370
    25
100
AcDbLine
 10
-71.5940787732
 20
-197.3643303215
 30
0.0
 11
-71.5940787732
 21
-198.9706308048
 31
0.0
  0
LINE
  5
399
330
1F
100
AcDbEntity
  8
0
  6
Continuous
 62
     7
370
    25
100
AcDbLine
 10
-71.5940787732
 20
-198.9706308048
 30
0.0
 11
-70.9576644005
 21
-198.9706308048
 31
0.0
  0
LINE
  5
39A
330
1F
100
AcDbEntity
  8
0
  6
Continuous
 62
     7
370
    25
100
AcDbLine
 10
-70.9576644005
 20
-198.9706308048
 30
0.0
 11
-70.9576644005
 21
-197.3643303215
 31
0.0
  0
LINE
  5
39B
330
1F
100
AcDbEntity
  8
0
  6
Continuous
 62
     7
370
    25
100
AcDbLine
 10
-70.9576644005
 20
-197.3643303215
 30
0.0
 11
-69.3830672162
 21
-197.3643303215
 31
0.0
  0
LINE
  5
39C
330
1F
100
AcDbEntity
  8
0
  6
Continuous
 62
     7
370
    25
100
AcDbLine
 10
-69.3830672162
 20
-197.3643303215
 30
0.0
 11
-69.3830672162
 21
-196.7913225468
 31
0.0
  0
LINE
  5
39D
330
1F
100
AcDbEntity
  8
0
  6
Continuous
 62
     7
370
    25
100
AcDbLine
 10
-69.3830672162
 20
-196.7913225468
 30
0.0
 11
-70.9576644005
 21
-196.7913225468
 31
0.0
  0
LINE
  5
39E
330
1F
100
AcDbEntity
  8
0
  6
Continuous
 62
     7
370
    25
100
AcDbLine
 10
-70.9576644005
 20
-196.7913225468
 30
0.0
 11
-70.9576644005
 21
-195.1732801009
 31
0.0
  0
LINE
  5
39F
330
1F
100
AcDbEntity
  8
0
  6
Continuous
 62
     7
370
    25
100
AcDbLine
 10
-70.9576644005
 20
-195.1732801009
 30
0.0
 11
-71.5940787732
 21
-195.1732801009
 31
0.0
  0
LINE
  5
3A0
330
1F
100
AcDbEntity
  8
0
  6
Continuous
 62
     7
370
    25
100
AcDbLine
 10
129.5409966628
 20
-62.4561109477
 30
0.0
 11
129.5409966628
 21
-61.8631418365
 31
0.0
  0
LINE
  5
3A1
330
1F
100
AcDbEntity
  8
0
  6
Continuous
 62
     7
370
    25
100
AcDbLine
 10
129.5409966628
 20
-61.8631418365
 30
0.0
 11
126.2872988271
 21
-61.8631418365
 31
0.0
  0
LINE
  5
3A2
330
1F
100
AcDbEntity
  8
0
  6
Continuous
 62
     7
370
    25
100
AcDbLine
 10
126.2872988271
 20
-61.8631418365
 30
0.0
 11
126.2872988271
 21
-62.4561109477
 31
0.0
  0
LINE
  5
3A3
330
1F
100
AcDbEntity
  8
0
  6
Continuous
 62
     7
370
    25
100
AcDbLine
 10
126.2872988271
 20
-62.4561109477
 30
0.0
 11
129.5409966628
 21
-62.4561109477
 31
0.0
  0
LINE
  5
3A4
330
1F
100
AcDbEntity
  8
0
  6
Continuous
 62
     7
370
    25
100
AcDbLine
 10
61.2059212268
 20
-60.2732801009
 30
0.0
 11
61.2059212268
 21
-61.8913225468
 31
0.0
  0
LINE
  5
3A5
330
1F
100
AcDbEntity
  8
0
  6
Continuous
 62
     7
370
    25
100
AcDbLine
 10
61.2059212268
 20
-61.8913225468
 30
0.0
 11
59.6113627061
 21
-61.8913225468
 31
0.0
  0
LINE
  5
3A6
330
1F
100
AcDbEntity
  8
0
  6
Continuous
 62
     7
370
    25
100
AcDbLine
 10
59.6113627061
 20
-61.8913225468
 30
0.0
 11
59.6113627061
 21
-62.4643303215
 31
0.0
  0
LINE
  5
3A7
330
1F
100
AcDbEntity
  8
0
  6
Continuous
 62
     7
370
    25
100
AcDbLine
 10
59.6113627061
 20
-62.4643303215
 30
0.0
 11
61.2059212268
 21
-62.4643303215
 31
0.0
  0
LINE
  5
3A8
330
1F
100
AcDbEntity
  8
0
  6
Continuous
 62
     7
370
    25
100
AcDbLine
 10
61.2059212268
 20
-62.4643303215
 30
0.0
 11
61.2059212268
 21
-64.0706308048
 31
0.0
  0
LINE
  5
3A9
330
1F
100
AcDbEntity
  8
0
  6
Continuous
 62
     7
370
    25
100
AcDbLine
 10
61.2059212268
 20
-64.0706308048
 30
0.0
 11
61.8423355995
 21
-64.0706308048
 31
0.0
  0
LINE
  5
3AA
330
1F
100
AcDbEntity
  8
0
  6
Continuous
 62
     7
370
    25
100
AcDbLine
 10
61.8423355995
 20
-64.0706308048
 30
0.0
 11
61.8423355995
 21
-62.4643303215
 31
0.0
  0
LINE
  5
3AB
330
1F
100
AcDbEntity
  8
0
  6
Continuous
 62
     7
370
    25
100
AcDbLine
 10
61.8423355995
 20
-62.4643303215
 30
0.0
 11
63.4169327838
 21
-62.4643303215
 31
0.0
  0
LINE
  5
3AC
330
1F
100
AcDbEntity
  8
0
  6
Continuous
 62
     7
370
    25
100
AcDbLine
 10
63.4169327838
 20
-62.4643303215
 30
0.0
 11
63.4169327838
 21
-61.8913225468
 31
0.0
  0
LINE
  5
3AD
330
1F
100
AcDbEntity
  8
0
  6
Continuous
 62
     7
370
    25
100
AcDbLine
 10
63.4169327838
 20
-61.8913225468
 30
0.0
 11
61.8423355995
 21
-61.8913225468
 31
0.0
  0
LINE
  5
3AE
330
1F
100
AcDbEntity
  8
0
  6
Continuous
 62
     7
370
    25
100
AcDbLine
 10
61.8423355995
 20
-61.8913225468
 30
0.0
 11
61.8423355995
 21
-60.2732801009
 31
0.0
  0
LINE
  5
3AF
330
1F
100
AcDbEntity
  8
0
  6
Continuous
 62
     7
370
    25
100
AcDbLine
 10
61.8423355995
 20
-60.2732801009
 30
0.0
 11
61.2059212268
 21
-60.2732801009
 31
0.0
  0
LINE
  5
3B0
330
1F
100
AcDbEntity
  8
0
  6
Continuous
 62
     7
370
    25
100
AcDbLine
 10
61.2059212268
 20
-195.1732801009
 30
0.0
 11
61.2059212268
 21
-196.7913225468
 31
0.0
  0
LINE
  5
3B1
330
1F
100
AcDbEntity
  8
0
  6
Continuous
 62
     7
370
    25
100
AcDbLine
 10
61.2059212268
 20
-196.7913225468
 30
0.0
 11
59.6113627061
 21
-196.7913225468
 31
0.0
  0
LINE
  5
3B2
330
1F
100
AcDbEntity
  8
0
  6
Continuous
 62
     7
370
    25
100
AcDbLine
 10
59.6113627061
 20
-196.7913225468
 30
0.0
 11
59.6113627061
 21
-197.3643303215
 31
0.0
  0
LINE
  5
3B3
330
1F
100
AcDbEntity
  8
0
  6
Continuous
 62
     7
370
    25
100
AcDbLine
 10
59.6113627061
 20
-197.3643303215
 30
0.0
 11
61.2059212268
 21
-197.3643303215
 31
0.0
  0
LINE
  5
3B4
330
1F
100
AcDbEntity
  8
0
  6
Continuous
 62
     7
370
    25
100
AcDbLine
 10
61.2059212268
 20
-197.3643303215
 30
0.0
 11
61.2059212268
 21
-198.9706308048
 31
0.0
  0
LINE
  5
3B5
330
1F
100
AcDbEntity
  8
0
  6
Continuous
 62
     7
370
    25
100
AcDbLine
 10
61.2059212268
 20
-198.9706308048
 30
0.0
 11
61.8423355995
 21
-198.9706308048
 31
0.0
  0
LINE
  5
3B6
330
1F
100
AcDbEntity
  8
0
  6
Continuous
 62
     7
370
    25
100
AcDbLine
 10
61.8423355995
 20
-198.9706308048
 30
0.0
 11
61.8423355995
 21
-197.3643303215
 31
0.0
  0
LINE
  5
3B7
330
1F
100
AcDbEntity
  8
0
  6
Continuous
 62
     7
370
    25
100
AcDbLine
 10
61.8423355995
 20
-197.3643303215
 30
0.0
 11
63.4169327838
 21
-197.3643303215
 31
0.0
  0
LINE
  5
3B8
330
1F
100
AcDbEntity
  8
0
  6
Continuous
 62
     7
370
    25
100
AcDbLine
 10
63.4169327838
 20
-197.3643303215
 30
0.0
 11
63.4169327838
 21
-196.7913225468
 31
0.0
  0
LINE
  5
3B9
330
1F
100
AcDbEntity
  8
0
  6
Continuous
 62
     7
370
    25
100
AcDbLine
 10
63.4169327838
 20
-196.7913225468
 30
0.0
 11
61.8423355995
 21
-196.7913225468
 31
0.0
  0
LINE
  5
3BA
330
1F
100
AcDbEntity
  8
0
  6
Continuous
 62
     7
370
    25
100
AcDbLine
 10
61.8423355995
 20
-196.7913225468
 30
0.0
 11
61.8423355995
 21
-195.1732801009
 31
0.0
  0
LINE
  5
3BB
330
1F
100
AcDbEntity
  8
0
  6
Continuous
 62
     7
370
    25
100
AcDbLine
 10
61.8423355995
 20
-195.1732801009
 30
0.0
 11
61.2059212268
 21
-195.1732801009
 31
0.0
  0
LINE
  5
3BC
330
1F
100
AcDbEntity
  8
0
  6
Continuous
 62
     7
370
    25
100
AcDbLine
 10
-3.2590033372
 20
-197.3561109477
 30
0.0
 11
-3.2590033372
 21
-196.7631418365
 31
0.0
  0
LINE
  5
3BD
330
1F
100
AcDbEntity
  8
0
  6
Continuous
 62
     7
370
    25
100
AcDbLine
 10
-3.2590033372
 20
-196.7631418365
 30
0.0
 11
-6.5127011729
 21
-196.7631418365
 31
0.0
  0
LINE
  5
3BE
330
1F
100
AcDbEntity
  8
0
  6
Continuous
 62
     7
370
    25
100
AcDbLine
 10
-6.5127011729
 20
-196.7631418365
 30
0.0
 11
-6.5127011729
 21
-197.3561109477
 31
0.0
  0
LINE
  5
3BF
330
1F
100
AcDbEntity
  8
0
  6
Continuous
 62
     7
370
    25
100
AcDbLine
 10
-6.5127011729
 20
-197.3561109477
 30
0.0
 11
-3.2590033372
 21
-197.3561109477
 31
0.0
  0
LINE
  5
3C0
330
1F
100
AcDbEntity
  8
0
  6
Continuous
 62
     7
370
    25
100
AcDbLine
 10
64.2
 20
-63.45
 30
0.0
 11
64.2
 21
-57.2179446404
 31
0.0
  0
LINE
  5
3C1
330
1F
100
AcDbEntity
  8
0
  6
Continuous
 62
     7
370
    25
100
AcDbLine
 10
121.2548709118
 20
-64.7
 30
0.0
 11
65.45
 21
-64.7
 31
0.0
  0
LINE
  5
3C2
330
1F
100
AcDbEntity
  8
0
  6
Continuous
 62
     7
370
    25
100
AcDbLine
 10
131.1
 20
54.8548709118
 30
0.0
 11
131.1
 21
-54.8548709118
 31
0.0
  0
LINE
  5
3C3
330
1F
100
AcDbEntity
  8
0
  6
Continuous
 62
     7
370
    25
100
AcDbLine
 10
65.45
 20
64.7
 30
0.0
 11
121.2548709118
 21
64.7
 31
0.0
  0
LINE
  5
3C4
330
1F
100
AcDbEntity
  8
0
  6
Continuous
 62
     7
370
    25
100
AcDbLine
 10
64.2
 20
57.2179446404
 30
0.0
 11
64.2
 21
63.45
 31
0.0
  0
LINE
  5
3C5
330
1F
100
AcDbEntity
  8
0
  6
Continuous
 62
     7
370
    25
100
AcDbLine
 10
-0.95
 20
64.7
 30
0.0
 11
54.8548709118
 21
64.7
 31
0.0
  0
LINE
  5
3C6
330
1F
100
AcDbEntity
  8
0
  6
Continuous
 62
     7
370
    25
100
AcDbLine
 10
-2.2
 20
57.2179446404
 30
0.0
 11
-2.2
 21
63.45
 31
0.0
  0
LINE
  5
3C7
330
1F
100
AcDbEntity
  8
0
  6
Continuous
 62
     7
370
    25
100
AcDbLine
 10
-67.35
 20
64.7
 30
0.0
 11
-11.5451290882
 21
64.7
 31
0.0
  0
LINE
  5
3C8
330
1F
100
AcDbEntity
  8
0
  6
Continuous
 62
     7
370
    25
100
AcDbLine
 10
-68.6
 20
57.2179446404
 30
0.0
 11
-68.6
 21
63.45
 31
0.0
  0
LINE
  5
3C9
330
1F
100
AcDbEntity
  8
0
  6
Continuous
 62
     7
370
    25
100
AcDbLine
 10
-133.75
 20
64.7
 30
0.0
 11
-77.9451290882
 21
64.7
 31
0.0
  0
LINE
  5
3CA
330
1F
100
AcDbEntity
  8
0
  6
Continuous
 62
     7
370
    25
100
AcDbLine
 10
-135.0
 20
-63.45
 30
0.0
 11
-135.0
 21
63.45
 31
0.0
  0
LINE
  5
3CB
330
1F
100
AcDbEntity
  8
0
  6
Continuous
 62
     7
370
    25
100
AcDbLine
 10
-77.9451290882
 20
-64.7
 30
0.0
 11
-133.75
 21
-64.7
 31
0.0
  0
LINE
  5
3CC
330
1F
100
AcDbEntity
  8
0
  6
Continuous
 62
     7
370
    25
100
AcDbLine
 10
-68.6
 20
-63.45
 30
0.0
 11
-68.6
 21
-57.2179446404
 31
0.0
  0
LINE
  5
3CD
330
1F
100
AcDbEntity
  8
0
  6
Continuous
 62
     7
370
    25
100
AcDbLine
 10
-11.5451290882
 20
-64.7
 30
0.0
 11
-67.35
 21
-64.7
 31
0.0
  0
LINE
  5
3CE
330
1F
100
AcDbEntity
  8
0
  6
Continuous
 62
     7
370
    25
100
AcDbLine
 10
-2.2
 20
-63.45
 30
0.0
 11
-2.2
 21
-57.2179446404
 31
0.0
  0
LINE
  5
3CF
330
1F
100
AcDbEntity
  8
0
  6
Continuous
 62
     7
370
    25
100
AcDbLine
 10
54.8548709118
 20
-64.7
 30
0.0
 11
-0.95
 21
-64.7
 31
0.0
  0
LINE
  5
3D0
330
1F
100
AcDbEntity
  8
0
  6
Continuous
 62
     7
370
    25
100
AcDbLine
 10
-77.9451290882
 20
-199.6
 30
0.0
 11
-133.75
 21
-199.6
 31
0.0
  0
LINE
  5
3D1
330
1F
100
AcDbEntity
  8
0
  6
Continuous
 62
     7
370
    25
100
AcDbLine
 10
-68.6
 20
-198.35
 30
0.0
 11
-68.6
 21
-192.1179446404
 31
0.0
  0
LINE
  5
3D2
330
1F
100
AcDbEntity
  8
0
  6
Continuous
 62
     7
370
    25
100
AcDbLine
 10
-11.5451290882
 20
-199.6
 30
0.0
 11
-67.35
 21
-199.6
 31
0.0
  0
LINE
  5
3D3
330
1F
100
AcDbEntity
  8
0
  6
Continuous
 62
     7
370
    25
100
AcDbLine
 10
-2.2
 20
-198.35
 30
0.0
 11
-2.2
 21
-192.1179446404
 31
0.0
  0
LINE
  5
3D4
330
1F
100
AcDbEntity
  8
0
  6
Continuous
 62
     7
370
    25
100
AcDbLine
 10
54.8548709118
 20
-199.6
 30
0.0
 11
-0.95
 21
-199.6
 31
0.0
  0
LINE
  5
3D5
330
1F
100
AcDbEntity
  8
0
  6
Continuous
 62
     7
370
    25
100
AcDbLine
 10
64.2
 20
-198.35
 30
0.0
 11
64.2
 21
-192.1179446404
 31
0.0
  0
LINE
  5
3D6
330
1F
100
AcDbEntity
  8
0
  6
Continuous
 62
     7
370
    25
100
AcDbLine
 10
121.2548709118
 20
-199.6
 30
0.0
 11
65.45
 21
-199.6
 31
0.0
  0
LINE
  5
3D7
330
1F
100
AcDbEntity
  8
0
  6
Continuous
 62
     7
370
    25
100
AcDbLine
 10
131.1
 20
-80.0451290882
 30
0.0
 11
131.1
 21
-189.7548709118
 31
0.0
  0
LINE
  5
3D8
330
1F
100
AcDbEntity
  8
0
  6
Continuous
 62
     7
370
    25
100
AcDbLine
 10
65.45
 20
-70.2
 30
0.0
 11
121.2548709118
 21
-70.2
 31
0.0
  0
LINE
  5
3D9
330
1F
100
AcDbEntity
  8
0
  6
Continuous
 62
     7
370
    25
100
AcDbLine
 10
64.2
 20
-77.6820553596
 30
0.0
 11
64.2
 21
-71.45
 31
0.0
  0
LINE
  5
3DA
330
1F
100
AcDbEntity
  8
0
  6
Continuous
 62
     7
370
    25
100
AcDbLine
 10
-0.95
 20
-70.2
 30
0.0
 11
54.8548709118
 21
-70.2
 31
0.0
  0
LINE
  5
3DB
330
1F
100
AcDbEntity
  8
0
  6
Continuous
 62
     7
370
    25
100
AcDbLine
 10
-2.2
 20
-77.6820553596
 30
0.0
 11
-2.2
 21
-71.45
 31
0.0
  0
LINE
  5
3DC
330
1F
100
AcDbEntity
  8
0
  6
Continuous
 62
     7
370
    25
100
AcDbLine
 10
-67.35
 20
-70.2
 30
0.0
 11
-11.5451290882
 21
-70.2
 31
0.0
  0
LINE
  5
3DD
330
1F
100
AcDbEntity
  8
0
  6
Continuous
 62
     7
370
    25
100
AcDbLine
 10
-68.6
 20
-77.6820553596
 30
0.0
 11
-68.6
 21
-71.45
 31
0.0
  0
LINE
  5
3DE
330
1F
100
AcDbEntity
  8
0
  6
Continuous
 62
     7
370
    25
100
AcDbLine
 10
-133.75
 20
-70.2
 30
0.0
 11
-77.9451290882
 21
-70.2
 31
0.0
  0
LINE
  5
3DF
330
1F
100
AcDbEntity
  8
0
  6
Continuous
 62
     7
370
    25
100
AcDbLine
 10
-135.0
 20
-198.35
 30
0.0
 11
-135.0
 21
-71.45
 31
0.0
  0
LINE
  5
3E0
330
1F
100
AcDbEntity
  8
0
  6
Continuous
 62
     7
370
    25
100
AcDbLine
 10
136.05
 20
-215.45
 30
0.0
 11
133.6
 21
-215.45
 31
0.0
  0
LINE
  5
3E1
330
1F
100
AcDbEntity
  8
0
  6
Continuous
 62
     7
370
    25
100
AcDbLine
 10
131.1
 20
-212.95
 30
0.0
 11
131.1
 21
-208.1
 31
0.0
  0
LINE
  5
3E2
330
1F
100
AcDbEntity
  8
0
  6
Continuous
 62
     7
370
    25
100
AcDbLine
 10
128.6
 20
-205.6
 30
0.0
 11
-132.5
 21
-205.6
 31
0.0
  0
LINE
  5
3E3
330
1F
100
AcDbEntity
  8
0
  6
Continuous
 62
     7
370
    25
100
AcDbLine
 10
-135.0
 20
-208.1
 30
0.0
 11
-135.0
 21
-212.95
 31
0.0
  0
LINE
  5
3E4
330
1F
100
AcDbEntity
  8
0
  6
Continuous
 62
     7
370
    25
100
AcDbLine
 10
-137.5
 20
-215.45
 30
0.0
 11
-139.95
 21
-215.45
 31
0.0
  0
LINE
  5
3E5
330
1F
100
AcDbEntity
  8
0
  6
Continuous
 62
     7
370
    25
100
AcDbLine
 10
-149.95
 20
-205.45
 30
0.0
 11
-149.95
 21
70.55
 31
0.0
  0
LINE
  5
3E6
330
1F
100
AcDbEntity
  8
0
  6
Continuous
 62
     7
370
    25
100
AcDbLine
 10
-139.95
 20
80.55
 30
0.0
 11
136.05
 21
80.55
 31
0.0
  0
LINE
  5
3E7
330
1F
100
AcDbEntity
  8
0
  6
Continuous
 62
     7
370
    25
100
AcDbLine
 10
146.05
 20
70.55
 30
0.0
 11
146.05
 21
-205.45
 31
0.0
  0
LINE
  5
3E8
330
1F
100
AcDbEntity
  8
0
  6
Continuous
 62
     7
370
    25
100
AcDbLine
 10
63.1409966628
 20
-73.0368581635
 30
0.0
 11
59.8872988271
 21
-73.0368581635
 31
0.0
  0
LINE
  5
3E9
330
1F
100
AcDbEntity
  8
0
  6
Continuous
 62
     7
370
    25
100
AcDbLine
 10
63.1409966628
 20
-72.4438890523
 30
0.0
 11
63.1409966628
 21
-73.0368581635
 31
0.0
  0
LINE
  5
3EA
330
1F
100
AcDbEntity
  8
0
  6
Continuous
 62
     7
370
    25
100
AcDbLine
 10
59.8872988271
 20
-72.4438890523
 30
0.0
 11
63.1409966628
 21
-72.4438890523
 31
0.0
  0
LINE
  5
3EB
330
1F
100
AcDbEntity
  8
0
  6
Continuous
 62
     7
370
    25
100
AcDbLine
 10
59.8872988271
 20
-73.0368581635
 30
0.0
 11
59.8872988271
 21
-72.4438890523
 31
0.0
  0
LINE
  5
3EC
330
1F
100
AcDbEntity
  8
0
  6
Continuous
 62
     7
370
    25
100
AcDbLine
 10
63.1409966628
 20
61.8631418365
 30
0.0
 11
59.8872988271
 21
61.8631418365
 31
0.0
  0
LINE
  5
3ED
330
1F
100
AcDbEntity
  8
0
  6
Continuous
 62
     7
370
    25
100
AcDbLine
 10
63.1409966628
 20
62.4561109477
 30
0.0
 11
63.1409966628
 21
61.8631418365
 31
0.0
  0
LINE
  5
3EE
330
1F
100
AcDbEntity
  8
0
  6
Continuous
 62
     7
370
    25
100
AcDbLine
 10
59.8872988271
 20
62.4561109477
 30
0.0
 11
63.1409966628
 21
62.4561109477
 31
0.0
  0
LINE
  5
3EF
330
1F
100
AcDbEntity
  8
0
  6
Continuous
 62
     7
370
    25
100
AcDbLine
 10
59.8872988271
 20
61.8631418365
 30
0.0
 11
59.8872988271
 21
62.4561109477
 31
0.0
  0
LINE
  5
3F0
330
1F
100
AcDbEntity
  8
0
  6
Continuous
 62
     7
370
    25
100
AcDbLine
 10
129.8169327838
 20
61.8913225468
 30
0.0
 11
128.2423355995
 21
61.8913225468
 31
0.0
  0
LINE
  5
3F1
330
1F
100
AcDbEntity
  8
0
  6
Continuous
 62
     7
370
    25
100
AcDbLine
 10
129.8169327838
 20
62.4643303215
 30
0.0
 11
129.8169327838
 21
61.8913225468
 31
0.0
  0
LINE
  5
3F2
330
1F
100
AcDbEntity
  8
0
  6
Continuous
 62
     7
370
    25
100
AcDbLine
 10
128.2423355995
 20
62.4643303215
 30
0.0
 11
129.8169327838
 21
62.4643303215
 31
0.0
  0
LINE
  5
3F3
330
1F
100
AcDbEntity
  8
0
  6
Continuous
 62
     7
370
    25
100
AcDbLine
 10
128.2423355995
 20
64.0706308048
 30
0.0
 11
128.2423355995
 21
62.4643303215
 31
0.0
  0
LINE
  5
3F4
330
1F
100
AcDbEntity
  8
0
  6
Continuous
 62
     7
370
    25
100
AcDbLine
 10
127.6059212268
 20
64.0706308048
 30
0.0
 11
128.2423355995
 21
64.0706308048
 31
0.0
  0
LINE
  5
3F5
330
1F
100
AcDbEntity
  8
0
  6
Continuous
 62
     7
370
    25
100
AcDbLine
 10
127.6059212268
 20
62.4643303215
 30
0.0
 11
127.6059212268
 21
64.0706308048
 31
0.0
  0
LINE
  5
3F6
330
1F
100
AcDbEntity
  8
0
  6
Continuous
 62
     7
370
    25
100
AcDbLine
 10
126.0113627061
 20
62.4643303215
 30
0.0
 11
127.6059212268
 21
62.4643303215
 31
0.0
  0
LINE
  5
3F7
330
1F
100
AcDbEntity
  8
0
  6
Continuous
 62
     7
370
    25
100
AcDbLine
 10
126.0113627061
 20
61.8913225468
 30
0.0
 11
126.0113627061
 21
62.4643303215
 31
0.0
  0
LINE
  5
3F8
330
1F
100
AcDbEntity
  8
0
  6
Continuous
 62
     7
370
    25
100
AcDbLine
 10
127.6059212268
 20
61.8913225468
 30
0.0
 11
126.0113627061
 21
61.8913225468
 31
0.0
  0
LINE
  5
3F9
330
1F
100
AcDbEntity
  8
0
  6
Continuous
 62
     7
370
    25
100
AcDbLine
 10
127.6059212268
 20
60.2732801009
 30
0.0
 11
127.6059212268
 21
61.8913225468
 31
0.0
  0
LINE
  5
3FA
330
1F
100
AcDbEntity
  8
0
  6
Continuous
 62
     7
370
    25
100
AcDbLine
 10
128.2423355995
 20
60.2732801009
 30
0.0
 11
127.6059212268
 21
60.2732801009
 31
0.0
  0
LINE
  5
3FB
330
1F
100
AcDbEntity
  8
0
  6
Continuous
 62
     7
370
    25
100
AcDbLine
 10
128.2423355995
 20
61.8913225468
 30
0.0
 11
128.2423355995
 21
60.2732801009
 31
0.0
  0
LINE
  5
3FC
330
1F
100
AcDbEntity
  8
0
  6
Continuous
 62
     7
370
    25
100
AcDbLine
 10
129.8169327838
 20
-73.0086774532
 30
0.0
 11
128.2423355995
 21
-73.0086774532
 31
0.0
  0
LINE
  5
3FD
330
1F
100
AcDbEntity
  8
0
  6
Continuous
 62
     7
370
    25
100
AcDbLine
 10
129.8169327838
 20
-72.4356696785
 30
0.0
 11
129.8169327838
 21
-73.0086774532
 31
0.0
  0
LINE
  5
3FE
330
1F
100
AcDbEntity
  8
0
  6
Continuous
 62
     7
370
    25
100
AcDbLine
 10
128.2423355995
 20
-72.4356696785
 30
0.0
 11
129.8169327838
 21
-72.4356696785
 31
0.0
  0
LINE
  5
3FF
330
1F
100
AcDbEntity
  8
0
  6
Continuous
 62
     7
370
    25
100
AcDbLine
 10
128.2423355995
 20
-70.8293691952
 30
0.0
 11
128.2423355995
 21
-72.4356696785
 31
0.0
  0
LINE
  5
400
330
1F
100
AcDbEntity
  8
0
  6
Continuous
 62
     7
370
    25
100
AcDbLine
 10
127.6059212268
 20
-70.8293691952
 30
0.0
 11
128.2423355995
 21
-70.8293691952
 31
0.0
  0
LINE
  5
401
330
1F
100
AcDbEntity
  8
0
  6
Continuous
 62
     7
370
    25
100
AcDbLine
 10
127.6059212268
 20
-72.4356696785
 30
0.0
 11
127.6059212268
 21
-70.8293691952
 31
0.0
  0
LINE
  5
402
330
1F
100
AcDbEntity
  8
0
  6
Continuous
 62
     7
370
    25
100
AcDbLine
 10
126.0113627061
 20
-72.4356696785
 30
0.0
 11
127.6059212268
 21
-72.4356696785
 31
0.0
  0
LINE
  5
403
330
1F
100
AcDbEntity
  8
0
  6
Continuous
 62
     7
370
    25
100
AcDbLine
 10
126.0113627061
 20
-73.0086774532
 30
0.0
 11
126.0113627061
 21
-72.4356696785
 31
0.0
  0
LINE
  5
404
330
1F
100
AcDbEntity
  8
0
  6
Continuous
 62
     7
370
    25
100
AcDbLine
 10
127.6059212268
 20
-73.0086774532
 30
0.0
 11
126.0113627061
 21
-73.0086774532
 31
0.0
  0
LINE
  5
405
330
1F
100
AcDbEntity
  8
0
  6
Continuous
 62
     7
370
    25
100
AcDbLine
 10
127.6059212268
 20
-74.6267198991
 30
0.0
 11
127.6059212268
 21
-73.0086774532
 31
0.0
  0
LINE
  5
406
330
1F
100
AcDbEntity
  8
0
  6
Continuous
 62
     7
370
    25
100
AcDbLine
 10
128.2423355995
 20
-74.6267198991
 30
0.0
 11
127.6059212268
 21
-74.6267198991
 31
0.0
  0
LINE
  5
407
330
1F
100
AcDbEntity
  8
0
  6
Continuous
 62
     7
370
    25
100
AcDbLine
 10
128.2423355995
 20
-73.0086774532
 30
0.0
 11
128.2423355995
 21
-74.6267198991
 31
0.0
  0
LINE
  5
408
330
1F
100
AcDbEntity
  8
0
  6
Continuous
 62
     7
370
    25
100
AcDbLine
 10
133.6715564194
 20
-189.8394255096
 30
0.0
 11
143.4326499265
 21
-189.8394255096
 31
0.0
  0
LINE
  5
409
330
1F
100
AcDbEntity
  8
0
  6
Continuous
 62
     7
370
    25
100
AcDbLine
 10
133.6715564194
 20
-191.618332843
 30
0.0
 11
133.6715564194
 21
-189.8394255096
 31
0.0
  0
LINE
  5
40A
330
1F
100
AcDbEntity
  8
0
  6
Continuous
 62
     7
370
    25
100
AcDbLine
 10
143.4326499265
 20
-191.618332843
 30
0.0
 11
133.6715564194
 21
-191.618332843
 31
0.0
  0
LINE
  5
40B
330
1F
100
AcDbEntity
  8
0
  6
Continuous
 62
     7
370
    25
100
AcDbLine
 10
143.4326499265
 20
-189.8394255096
 30
0.0
 11
143.4326499265
 21
-191.618332843
 31
0.0
  0
LINE
  5
40C
330
1F
100
AcDbEntity
  8
0
  6
Continuous
 62
     7
370
    25
100
AcDbLine
 10
-69.6590033372
 20
-73.0368581635
 30
0.0
 11
-72.9127011729
 21
-73.0368581635
 31
0.0
  0
LINE
  5
40D
330
1F
100
AcDbEntity
  8
0
  6
Continuous
 62
     7
370
    25
100
AcDbLine
 10
-69.6590033372
 20
-72.4438890523
 30
0.0
 11
-69.6590033372
 21
-73.0368581635
 31
0.0
  0
LINE
  5
40E
330
1F
100
AcDbEntity
  8
0
  6
Continuous
 62
     7
370
    25
100
AcDbLine
 10
-72.9127011729
 20
-72.4438890523
 30
0.0
 11
-69.6590033372
 21
-72.4438890523
 31
0.0
  0
LINE
  5
40F
330
1F
100
AcDbEntity
  8
0
  6
Continuous
 62
     7
370
    25
100
AcDbLine
 10
-72.9127011729
 20
-73.0368581635
 30
0.0
 11
-72.9127011729
 21
-72.4438890523
 31
0.0
  0
LINE
  5
410
330
1F
100
AcDbEntity
  8
0
  6
Continuous
 62
     7
370
    25
100
AcDbLine
 10
-69.6590033372
 20
61.8631418365
 30
0.0
 11
-72.9127011729
 21
61.8631418365
 31
0.0
  0
LINE
  5
411
330
1F
100
AcDbEntity
  8
0
  6
Continuous
 62
     7
370
    25
100
AcDbLine
 10
-69.6590033372
 20
62.4561109477
 30
0.0
 11
-69.6590033372
 21
61.8631418365
 31
0.0
  0
LINE
  5
412
330
1F
100
AcDbEntity
  8
0
  6
Continuous
 62
     7
370
    25
100
AcDbLine
 10
-72.9127011729
 20
62.4561109477
 30
0.0
 11
-69.6590033372
 21
62.4561109477
 31
0.0
  0
LINE
  5
413
330
1F
100
AcDbEntity
  8
0
  6
Continuous
 62
     7
370
    25
100
AcDbLine
 10
-72.9127011729
 20
61.8631418365
 30
0.0
 11
-72.9127011729
 21
62.4561109477
 31
0.0
  0
LINE
  5
414
330
1F
100
AcDbEntity
  8
0
  6
Continuous
 62
     7
370
    25
100
AcDbLine
 10
-2.9830672162
 20
61.8913225468
 30
0.0
 11
-4.5576644005
 21
61.8913225468
 31
0.0
  0
LINE
  5
415
330
1F
100
AcDbEntity
  8
0
  6
Continuous
 62
     7
370
    25
100
AcDbLine
 10
-2.9830672162
 20
62.4643303215
 30
0.0
 11
-2.9830672162
 21
61.8913225468
 31
0.0
  0
LINE
  5
416
330
1F
100
AcDbEntity
  8
0
  6
Continuous
 62
     7
370
    25
100
AcDbLine
 10
-4.5576644005
 20
62.4643303215
 30
0.0
 11
-2.9830672162
 21
62.4643303215
 31
0.0
  0
LINE
  5
417
330
1F
100
AcDbEntity
  8
0
  6
Continuous
 62
     7
370
    25
100
AcDbLine
 10
-4.5576644005
 20
64.0706308048
 30
0.0
 11
-4.5576644005
 21
62.4643303215
 31
0.0
  0
LINE
  5
418
330
1F
100
AcDbEntity
  8
0
  6
Continuous
 62
     7
370
    25
100
AcDbLine
 10
-5.1940787732
 20
64.0706308048
 30
0.0
 11
-4.5576644005
 21
64.0706308048
 31
0.0
  0
LINE
  5
419
330
1F
100
AcDbEntity
  8
0
  6
Continuous
 62
     7
370
    25
100
AcDbLine
 10
-5.1940787732
 20
62.4643303215
 30
0.0
 11
-5.1940787732
 21
64.0706308048
 31
0.0
  0
LINE
  5
41A
330
1F
100
AcDbEntity
  8
0
  6
Continuous
 62
     7
370
    25
100
AcDbLine
 10
-6.7886372939
 20
62.4643303215
 30
0.0
 11
-5.1940787732
 21
62.4643303215
 31
0.0
  0
LINE
  5
41B
330
1F
100
AcDbEntity
  8
0
  6
Continuous
 62
     7
370
    25
100
AcDbLine
 10
-6.7886372939
 20
61.8913225468
 30
0.0
 11
-6.7886372939
 21
62.4643303215
 31
0.0
  0
LINE
  5
41C
330
1F
100
AcDbEntity
  8
0
  6
Continuous
 62
     7
370
    25
100
AcDbLine
 10
-5.1940787732
 20
61.8913225468
 30
0.0
 11
-6.7886372939
 21
61.8913225468
 31
0.0
  0
LINE
  5
41D
330
1F
100
AcDbEntity
  8
0
  6
Continuous
 62
     7
370
    25
100
AcDbLine
 10
-5.1940787732
 20
60.2732801009
 30
0.0
 11
-5.1940787732
 21
61.8913225468
 31
0.0
  0
LINE
  5
41E
330
1F
100
AcDbEntity
  8
0
  6
Continuous
 62
     7
370
    25
100
AcDbLine
 10
-4.5576644005
 20
60.2732801009
 30
0.0
 11
-5.1940787732
 21
60.2732801009
 31
0.0
  0
LINE
  5
41F
330
1F
100
AcDbEntity
  8
0
  6
Continuous
 62
     7
370
    25
100
AcDbLine
 10
-4.5576644005
 20
61.8913225468
 30
0.0
 11
-4.5576644005
 21
60.2732801009
 31
0.0
  0
LINE
  5
420
330
1F
100
AcDbEntity
  8
0
  6
Continuous
 62
     7
370
    25
100
AcDbLine
 10
-2.9830672162
 20
-73.0086774532
 30
0.0
 11
-4.5576644005
 21
-73.0086774532
 31
0.0
  0
LINE
  5
421
330
1F
100
AcDbEntity
  8
0
  6
Continuous
 62
     7
370
    25
100
AcDbLine
 10
-2.9830672162
 20
-72.4356696785
 30
0.0
 11
-2.9830672162
 21
-73.0086774532
 31
0.0
  0
LINE
  5
422
330
1F
100
AcDbEntity
  8
0
  6
Continuous
 62
     7
370
    25
100
AcDbLine
 10
-4.5576644005
 20
-72.4356696785
 30
0.0
 11
-2.9830672162
 21
-72.4356696785
 31
0.0
  0
LINE
  5
423
330
1F
100
AcDbEntity
  8
0
  6
Continuous
 62
     7
370
    25
100
AcDbLine
 10
-4.5576644005
 20
-70.8293691952
 30
0.0
 11
-4.5576644005
 21
-72.4356696785
 31
0.0
  0
LINE
  5
424
330
1F
100
AcDbEntity
  8
0
  6
Continuous
 62
     7
370
    25
100
AcDbLine
 10
-5.1940787732
 20
-70.8293691952
 30
0.0
 11
-4.5576644005
 21
-70.8293691952
 31
0.0
  0
LINE
  5
425
330
1F
100
AcDbEntity
  8
0
  6
Continuous
 62
     7
370
    25
100
AcDbLine
 10
-5.1940787732
 20
-72.4356696785
 30
0.0
 11
-5.1940787732
 21
-70.8293691952
 31
0.0
  0
LINE
  5
426
330
1F
100
AcDbEntity
  8
0
  6
Continuous
 62
     7
370
    25
100
AcDbLine
 10
-6.7886372939
 20
-72.4356696785
 30
0.0
 11
-5.1940787732
 21
-72.4356696785
 31
0.0
  0
LINE
  5
427
330
1F
100
AcDbEntity
  8
0
  6
Continuous
 62
     7
370
    25
100
AcDbLine
 10
-6.7886372939
 20
-73.0086774532
 30
0.0
 11
-6.7886372939
 21
-72.4356696785
 31
0.0
  0
LINE
  5
428
330
1F
100
AcDbEntity
  8
0
  6
Continuous
 62
     7
370
    25
100
AcDbLine
 10
-5.1940787732
 20
-73.0086774532
 30
0.0
 11
-6.7886372939
 21
-73.0086774532
 31
0.0
  0
LINE
  5
429
330
1F
100
AcDbEntity
  8
0
  6
Continuous
 62
     7
370
    25
100
AcDbLine
 10
-5.1940787732
 20
-74.6267198991
 30
0.0
 11
-5.1940787732
 21
-73.0086774532
 31
0.0
  0
LINE
  5
42A
330
1F
100
AcDbEntity
  8
0
  6
Continuous
 62
     7
370
    25
100
AcDbLine
 10
-4.5576644005
 20
-74.6267198991
 30
0.0
 11
-5.1940787732
 21
-74.6267198991
 31
0.0
  0
LINE
  5
42B
330
1F
100
AcDbEntity
  8
0
  6
Continuous
 62
     7
370
    25
100
AcDbLine
 10
-4.5576644005
 20
-73.0086774532
 30
0.0
 11
-4.5576644005
 21
-74.6267198991
 31
0.0
  0
LINE
  5
42C
330
1F
100
AcDbEntity
  8
0
  6
Continuous
 62
     7
370
    25
100
AcDbLine
 10
133.1
 20
29.9237938728
 30
0.0
 11
138.688
 21
29.9237938728
 31
0.0
  0
LINE
  5
42D
330
1F
100
AcDbEntity
  8
0
  6
Continuous
 62
     7
370
    25
100
AcDbLine
 10
133.1
 20
28.6415715572
 30
0.0
 11
133.1
 21
29.9237938728
 31
0.0
  0
LINE
  5
42E
330
1F
100
AcDbEntity
  8
0
  6
Continuous
 62
     7
370
    25
100
AcDbLine
 10
138.688
 20
29.9237938728
 30
0.0
 11
138.688
 21
28.730810473
 31
0.0
  0
LINE
  5
42F
330
1F
100
AcDbEntity
  8
0
  6
Continuous
 62
     7
370
    25
100
AcDbLine
 10
138.688
 20
33.9395450811
 30
0.0
 11
134.8612943896
 21
33.0354139611
 31
0.0
  0
LINE
  5
430
330
1F
100
AcDbEntity
  8
0
  6
Continuous
 62
     7
370
    25
100
AcDbLine
 10
138.688
 20
34.9223473505
 30
0.0
 11
138.688
 21
33.9395450811
 31
0.0
  0
LINE
  5
431
330
1F
100
AcDbEntity
  8
0
  6
Continuous
 62
     7
370
    25
100
AcDbLine
 10
133.1
 20
35.2382061443
 30
0.0
 11
138.688
 21
34.9223473505
 31
0.0
  0
LINE
  5
432
330
1F
100
AcDbEntity
  8
0
  6
Continuous
 62
     7
370
    25
100
AcDbLine
 10
133.1
 20
34.5771336501
 30
0.0
 11
133.1
 21
35.2382061443
 31
0.0
  0
LINE
  5
433
330
1F
100
AcDbEntity
  8
0
  6
Continuous
 62
     7
370
    25
100
AcDbLine
 10
136.0260970792
 20
34.4268365289
 30
0.0
 11
133.1
 21
34.5771336501
 31
0.0
  0
LINE
  5
434
330
1F
100
AcDbEntity
  8
0
  6
Continuous
 62
     7
370
    25
100
AcDbLine
 10
134.1027636058
 20
33.4076341754
 30
0.0
 11
138.0421920572
 21
34.418617155
 31
0.0
  0
LINE
  5
435
330
1F
100
AcDbEntity
  8
0
  6
Continuous
 62
     7
370
    25
100
AcDbLine
 10
134.1027636058
 20
32.7019422233
 30
0.0
 11
134.1027636058
 21
33.4076341754
 31
0.0
  0
LINE
  5
436
330
1F
100
AcDbEntity
  8
0
  6
Continuous
 62
     7
370
    25
100
AcDbLine
 10
138.0421920572
 20
31.760236823
 30
0.0
 11
134.1027636058
 21
32.7019422233
 31
0.0
  0
LINE
  5
437
330
1F
100
AcDbEntity
  8
0
  6
Continuous
 62
     7
370
    25
100
AcDbLine
 10
133.1
 20
31.5418363187
 30
0.0
 11
136.0178777054
 21
31.7156173652
 31
0.0
  0
LINE
  5
438
330
1F
100
AcDbEntity
  8
0
  6
Continuous
 62
     7
370
    25
100
AcDbLine
 10
133.1
 20
30.8643250769
 30
0.0
 11
133.1
 21
31.5418363187
 31
0.0
  0
LINE
  5
439
330
1F
100
AcDbEntity
  8
0
  6
Continuous
 62
     7
370
    25
100
AcDbLine
 10
138.688
 20
31.1801838707
 30
0.0
 11
133.1
 21
30.8643250769
 31
0.0
  0
LINE
  5
43A
330
1F
100
AcDbEntity
  8
0
  6
Continuous
 62
     7
370
    25
100
AcDbLine
 10
138.688
 20
32.1700313177
 30
0.0
 11
138.688
 21
31.1801838707
 31
0.0
  0
LINE
  5
43B
330
1F
100
AcDbEntity
  8
0
  6
Continuous
 62
     7
370
    25
100
AcDbLine
 10
134.8612943896
 20
33.0354139611
 30
0.0
 11
138.688
 21
32.1700313177
 31
0.0
  0
LINE
  5
43C
330
1F
100
AcDbEntity
  8
0
  6
Continuous
 62
     7
370
    25
100
AcDbLine
 10
135.9368581635
 20
44.4474274093
 30
0.0
 11
135.9368581635
 21
41.1925553774
 31
0.0
  0
LINE
  5
43D
330
1F
100
AcDbEntity
  8
0
  6
Continuous
 62
     7
370
    25
100
AcDbLine
 10
135.3438890523
 20
44.4474274093
 30
0.0
 11
135.9368581635
 21
44.4474274093
 31
0.0
  0
LINE
  5
43E
330
1F
100
AcDbEntity
  8
0
  6
Continuous
 62
     7
370
    25
100
AcDbLine
 10
135.3438890523
 20
41.1925553774
 30
0.0
 11
135.3438890523
 21
44.4474274093
 31
0.0
  0
LINE
  5
43F
330
1F
100
AcDbEntity
  8
0
  6
Continuous
 62
     7
370
    25
100
AcDbLine
 10
135.9368581635
 20
41.1925553774
 30
0.0
 11
135.3438890523
 21
41.1925553774
 31
0.0
  0
LINE
  5
440
330
1F
100
AcDbEntity
  8
0
  6
Continuous
 62
     7
370
    25
100
AcDbLine
 10
136.3102525741
 20
53.2069315068
 30
0.0
 11
136.3102525741
 21
52.8781565541
 31
0.0
  0
LINE
  5
441
330
1F
100
AcDbEntity
  8
0
  6
Continuous
 62
     7
370
    25
100
AcDbLine
 10
135.7701222946
 20
53.2914736375
 30
0.0
 11
136.3102525741
 21
53.2069315068
 31
0.0
  0
LINE
  5
442
330
1F
100
AcDbEntity
  8
0
  6
Continuous
 62
     7
370
    25
100
AcDbLine
 10
135.7701222946
 20
52.8206209373
 30
0.0
 11
135.7701222946
 21
53.2914736375
 31
0.0
  0
LINE
  5
443
330
1F
100
AcDbEntity
  8
0
  6
Continuous
 62
     7
370
    25
100
AcDbLine
 10
133.7528531204
 20
54.6065734484
 30
0.0
 11
134.126247531
 21
54.1474627108
 31
0.0
  0
LINE
  5
444
330
1F
100
AcDbEntity
  8
0
  6
Continuous
 62
     7
370
    25
100
AcDbLine
 10
137.7181138895
 20
54.0547012063
 30
0.0
 11
138.1361277579
 21
54.4316182057
 31
0.0
  0
LINE
  5
445
330
1F
100
AcDbEntity
  8
0
  6
Continuous
 62
     7
370
    25
100
AcDbLine
 10
-142.588
 20
33.0095351965
 30
0.0
 11
-142.588
 21
37.2260739651
 31
0.0
  0
LINE
  5
446
330
1F
100
AcDbEntity
  8
0
  6
Continuous
 62
     7
370
    25
100
AcDbLine
 10
-141.9832889262
 20
33.0095351965
 30
0.0
 11
-142.588
 21
33.0095351965
 31
0.0
  0
LINE
  5
447
330
1F
100
AcDbEntity
  8
0
  6
Continuous
 62
     7
370
    25
100
AcDbLine
 10
-141.9832889262
 20
34.7555650347
 30
0.0
 11
-141.9832889262
 21
33.0095351965
 31
0.0
  0
LINE
  5
448
330
1F
100
AcDbEntity
  8
0
  6
Continuous
 62
     7
370
    25
100
AcDbLine
 10
-137.0
 20
34.7555650347
 30
0.0
 11
-141.9832889262
 21
34.7555650347
 31
0.0
  0
LINE
  5
449
330
1F
100
AcDbEntity
  8
0
  6
Continuous
 62
     7
370
    25
100
AcDbLine
 10
-137.0
 20
35.4565602017
 30
0.0
 11
-137.0
 21
34.7555650347
 31
0.0
  0
LINE
  5
44A
330
1F
100
AcDbEntity
  8
0
  6
Continuous
 62
     7
370
    25
100
AcDbLine
 10
-141.9832889262
 20
35.4565602017
 30
0.0
 11
-137.0
 21
35.4565602017
 31
0.0
  0
LINE
  5
44B
330
1F
100
AcDbEntity
  8
0
  6
Continuous
 62
     7
370
    25
100
AcDbLine
 10
-141.9832889262
 20
37.153273797
 30
0.0
 11
-141.9832889262
 21
35.4565602017
 31
0.0
  0
LINE
  5
44C
330
1F
100
AcDbEntity
  8
0
  6
Continuous
 62
     7
370
    25
100
AcDbLine
 10
-142.588
 20
37.2260739651
 30
0.0
 11
-141.9832889262
 21
37.153273797
 31
0.0
  0
LINE
  5
44D
330
1F
100
AcDbEntity
  8
0
  6
Continuous
 62
     7
370
    25
100
AcDbLine
 10
-142.0243857953
 20
29.8791279681
 30
0.0
 11
-142.0243857953
 21
28.6368283253
 31
0.0
  0
LINE
  5
44E
330
1F
100
AcDbEntity
  8
0
  6
Continuous
 62
     7
370
    25
100
AcDbLine
 10
-137.5636142047
 20
29.8791279681
 30
0.0
 11
-142.0243857953
 21
29.8791279681
 31
0.0
  0
LINE
  5
44F
330
1F
100
AcDbEntity
  8
0
  6
Continuous
 62
     7
370
    25
100
AcDbLine
 10
-137.5636142047
 20
28.6368283253
 30
0.0
 11
-137.5636142047
 21
29.8791279681
 31
0.0
  0
LINE
  5
450
330
1F
100
AcDbEntity
  8
0
  6
Continuous
 62
     7
370
    25
100
AcDbLine
 10
-137.0
 20
28.6368283253
 30
0.0
 11
-137.5636142047
 21
28.6368283253
 31
0.0
  0
LINE
  5
451
330
1F
100
AcDbEntity
  8
0
  6
Continuous
 62
     7
370
    25
100
AcDbLine
 10
-137.0
 20
31.8341647405
 30
0.0
 11
-137.0
 21
28.6368283253
 31
0.0
  0
LINE
  5
452
330
1F
100
AcDbEntity
  8
0
  6
Continuous
 62
     7
370
    25
100
AcDbLine
 10
-137.5636142047
 20
31.8341647405
 30
0.0
 11
-137.0
 21
31.8341647405
 31
0.0
  0
LINE
  5
453
330
1F
100
AcDbEntity
  8
0
  6
Continuous
 62
     7
370
    25
100
AcDbLine
 10
-137.5636142047
 20
30.593039294
 30
0.0
 11
-137.5636142047
 21
31.8341647405
 31
0.0
  0
LINE
  5
454
330
1F
100
AcDbEntity
  8
0
  6
Continuous
 62
     7
370
    25
100
AcDbLine
 10
-142.0243857953
 20
30.593039294
 30
0.0
 11
-137.5636142047
 21
30.593039294
 31
0.0
  0
LINE
  5
455
330
1F
100
AcDbEntity
  8
0
  6
Continuous
 62
     7
370
    25
100
AcDbLine
 10
-142.0243857953
 20
31.8341647405
 30
0.0
 11
-142.0243857953
 21
30.593039294
 31
0.0
  0
LINE
  5
456
330
1F
100
AcDbEntity
  8
0
  6
Continuous
 62
     7
370
    25
100
AcDbLine
 10
-142.588
 20
31.8341647405
 30
0.0
 11
-142.0243857953
 21
31.8341647405
 31
0.0
  0
LINE
  5
457
330
1F
100
AcDbEntity
  8
0
  6
Continuous
 62
     7
370
    25
100
AcDbLine
 10
-142.588
 20
28.6368283253
 30
0.0
 11
-142.588
 21
31.8341647405
 31
0.0
  0
LINE
  5
458
330
1F
100
AcDbEntity
  8
0
  6
Continuous
 62
     7
370
    25
100
AcDbLine
 10
-142.0243857953
 20
28.6368283253
 30
0.0
 11
-142.588
 21
28.6368283253
 31
0.0
  0
LINE
  5
459
330
1F
100
AcDbEntity
  8
0
  6
Continuous
 62
     7
370
    25
100
AcDbLine
 10
-140.0270779576
 20
25.3385110317
 30
0.0
 11
-137.0
 21
27.6763357848
 31
0.0
  0
LINE
  5
45A
330
1F
100
AcDbEntity
  8
0
  6
Continuous
 62
     7
370
    25
100
AcDbLine
 10
-142.588
 20
27.5225160748
 30
0.0
 11
-140.0270779576
 21
25.3385110317
 31
0.0
  0
LINE
  5
45B
330
1F
100
AcDbEntity
  8
0
  6
Continuous
 62
     7
370
    25
100
AcDbLine
 10
-142.588
 20
26.7099722631
 30
0.0
 11
-142.588
 21
27.5225160748
 31
0.0
  0
LINE
  5
45C
330
1F
100
AcDbEntity
  8
0
  6
Continuous
 62
     7
370
    25
100
AcDbLine
 10
-139.9824584997
 20
24.5107026686
 30
0.0
 11
-142.588
 21
26.7099722631
 31
0.0
  0
LINE
  5
45D
330
1F
100
AcDbEntity
  8
0
  6
Continuous
 62
     7
370
    25
100
AcDbLine
 10
-137.0
 20
26.7992111788
 30
0.0
 11
-139.9824584997
 21
24.5107026686
 31
0.0
  0
LINE
  5
45E
330
1F
100
AcDbEntity
  8
0
  6
Continuous
 62
     7
370
    25
100
AcDbLine
 10
-137.0
 20
27.6763357848
 30
0.0
 11
-137.0
 21
26.7992111788
 31
0.0
  0
LINE
  5
45F
330
1F
100
AcDbEntity
  8
0
  6
Continuous
 62
     7
370
    25
100
AcDbLine
 10
-137.0
 20
23.7686106325
 30
0.0
 11
-142.588
 21
23.7686106325
 31
0.0
  0
LINE
  5
460
330
1F
100
AcDbEntity
  8
0
  6
Continuous
 62
     7
370
    25
100
AcDbLine
 10
-137.0
 20
24.4707799958
 30
0.0
 11
-137.0
 21
23.7686106325
 31
0.0
  0
LINE
  5
461
330
1F
100
AcDbEntity
  8
0
  6
Continuous
 62
     7
370
    25
100
AcDbLine
 10
-142.588
 20
24.4707799958
 30
0.0
 11
-137.0
 21
24.4707799958
 31
0.0
  0
LINE
  5
462
330
1F
100
AcDbEntity
  8
0
  6
Continuous
 62
     7
370
    25
100
AcDbLine
 10
-142.588
 20
23.7686106325
 30
0.0
 11
-142.588
 21
24.4707799958
 31
0.0
  0
LINE
  5
463
330
1F
100
AcDbEntity
  8
0
  6
Continuous
 62
     7
370
    25
100
AcDbLine
 10
-142.588
 20
13.4709094348
 30
0.0
 11
-142.588
 21
17.6874482034
 31
0.0
  0
LINE
  5
464
330
1F
100
AcDbEntity
  8
0
  6
Continuous
 62
     7
370
    25
100
AcDbLine
 10
-141.9832889262
 20
13.4709094348
 30
0.0
 11
-142.588
 21
13.4709094348
 31
0.0
  0
LINE
  5
465
330
1F
100
AcDbEntity
  8
0
  6
Continuous
 62
     7
370
    25
100
AcDbLine
 10
-141.9832889262
 20
15.216939273
 30
0.0
 11
-141.9832889262
 21
13.4709094348
 31
0.0
  0
LINE
  5
466
330
1F
100
AcDbEntity
  8
0
  6
Continuous
 62
     7
370
    25
100
AcDbLine
 10
-137.0
 20
15.216939273
 30
0.0
 11
-141.9832889262
 21
15.216939273
 31
0.0
  0
LINE
  5
467
330
1F
100
AcDbEntity
  8
0
  6
Continuous
 62
     7
370
    25
100
AcDbLine
 10
-137.0
 20
15.91793444
 30
0.0
 11
-137.0
 21
15.216939273
 31
0.0
  0
LINE
  5
468
330
1F
100
AcDbEntity
  8
0
  6
Continuous
 62
     7
370
    25
100
AcDbLine
 10
-141.9832889262
 20
15.91793444
 30
0.0
 11
-137.0
 21
15.91793444
 31
0.0
  0
LINE
  5
469
330
1F
100
AcDbEntity
  8
0
  6
Continuous
 62
     7
370
    25
100
AcDbLine
 10
-141.9832889262
 20
17.6146480353
 30
0.0
 11
-141.9832889262
 21
15.91793444
 31
0.0
  0
LINE
  5
46A
330
1F
100
AcDbEntity
  8
0
  6
Continuous
 62
     7
370
    25
100
AcDbLine
 10
-142.588
 20
17.6874482034
 30
0.0
 11
-141.9832889262
 21
17.6146480353
 31
0.0
  0
LINE
  5
46B
330
1F
100
AcDbEntity
  8
0
  6
Continuous
 62
     7
370
    25
100
AcDbLine
 10
-142.588
 20
11.8012023534
 30
0.0
 11
-142.588
 21
12.4540554738
 31
0.0
  0
LINE
  5
46C
330
1F
100
AcDbEntity
  8
0
  6
Continuous
 62
     7
370
    25
100
AcDbLine
 10
-139.7922387056
 20
11.8012023534
 30
0.0
 11
-142.588
 21
11.8012023534
 31
0.0
  0
LINE
  5
46D
330
1F
100
AcDbEntity
  8
0
  6
Continuous
 62
     7
370
    25
100
AcDbLine
 10
-142.588
 20
9.8931334314
 30
0.0
 11
-137.6528531204
 21
11.893963858
 31
0.0
  0
LINE
  5
46E
330
1F
100
AcDbEntity
  8
0
  6
Continuous
 62
     7
370
    25
100
AcDbLine
 10
-142.588
 20
8.9396860685
 30
0.0
 11
-142.588
 21
9.8931334314
 31
0.0
  0
LINE
  5
46F
330
1F
100
AcDbEntity
  8
0
  6
Continuous
 62
     7
370
    25
100
AcDbLine
 10
-137.0
 20
8.9396860685
 30
0.0
 11
-142.588
 21
8.9396860685
 31
0.0
  0
LINE
  5
470
330
1F
100
AcDbEntity
  8
0
  6
Continuous
 62
     7
370
    25
100
AcDbLine
 10
-137.0
 20
9.5937133852
 30
0.0
 11
-137.0
 21
8.9396860685
 31
0.0
  0
LINE
  5
471
330
1F
100
AcDbEntity
  8
0
  6
Continuous
 62
     7
370
    25
100
AcDbLine
 10
-139.8004580794
 20
9.5937133852
 30
0.0
 11
-137.0
 21
9.5937133852
 31
0.0
  0
LINE
  5
472
330
1F
100
AcDbEntity
  8
0
  6
Continuous
 62
     7
370
    25
100
AcDbLine
 10
-137.0
 20
11.4677306157
 30
0.0
 11
-141.9140113469
 21
9.4997776844
 31
0.0
  0
LINE
  5
473
330
1F
100
AcDbEntity
  8
0
  6
Continuous
 62
     7
370
    25
100
AcDbLine
 10
-137.0
 20
12.4540554738
 30
0.0
 11
-137.0
 21
11.4677306157
 31
0.0
  0
LINE
  5
474
330
1F
100
AcDbEntity
  8
0
  6
Continuous
 62
     7
370
    25
100
AcDbLine
 10
-142.588
 20
12.4540554738
 30
0.0
 11
-137.0
 21
12.4540554738
 31
0.0
  0
LINE
  5
475
330
1F
100
AcDbEntity
  8
0
  6
Continuous
 62
     7
370
    25
100
AcDbLine
 10
-142.588
 20
4.3955465434
 30
0.0
 11
-142.588
 21
7.5693990334
 31
0.0
  0
LINE
  5
476
330
1F
100
AcDbEntity
  8
0
  6
Continuous
 62
     7
370
    25
100
AcDbLine
 10
-137.0
 20
4.3955465434
 30
0.0
 11
-142.588
 21
4.3955465434
 31
0.0
  0
LINE
  5
477
330
1F
100
AcDbEntity
  8
0
  6
Continuous
 62
     7
370
    25
100
AcDbLine
 10
-137.0
 20
7.6421992015
 30
0.0
 11
-137.0
 21
4.3955465434
 31
0.0
  0
LINE
  5
478
330
1F
100
AcDbEntity
  8
0
  6
Continuous
 62
     7
370
    25
100
AcDbLine
 10
-137.5636142047
 20
7.6421992015
 30
0.0
 11
-137.0
 21
7.6421992015
 31
0.0
  0
LINE
  5
479
330
1F
100
AcDbEntity
  8
0
  6
Continuous
 62
     7
370
    25
100
AcDbLine
 10
-137.5636142047
 20
5.1024126917
 30
0.0
 11
-137.5636142047
 21
7.6421992015
 31
0.0
  0
LINE
  5
47A
330
1F
100
AcDbEntity
  8
0
  6
Continuous
 62
     7
370
    25
100
AcDbLine
 10
-139.5480058836
 20
5.1024126917
 30
0.0
 11
-137.5636142047
 21
5.1024126917
 31
0.0
  0
LINE
  5
47B
330
1F
100
AcDbEntity
  8
0
  6
Continuous
 62
     7
370
    25
100
AcDbLine
 10
-139.5480058836
 20
7.1713465014
 30
0.0
 11
-139.5480058836
 21
5.1024126917
 31
0.0
  0
LINE
  5
47C
330
1F
100
AcDbEntity
  8
0
  6
Continuous
 62
     7
370
    25
100
AcDbLine
 10
-140.1292330321
 20
7.1713465014
 30
0.0
 11
-139.5480058836
 21
7.1713465014
 31
0.0
  0
LINE
  5
47D
330
1F
100
AcDbEntity
  8
0
  6
Continuous
 62
     7
370
    25
100
AcDbLine
 10
-140.1292330321
 20
5.1024126917
 30
0.0
 11
-140.1292330321
 21
7.1713465014
 31
0.0
  0
LINE
  5
47E
330
1F
100
AcDbEntity
  8
0
  6
Continuous
 62
     7
370
    25
100
AcDbLine
 10
-142.0114696365
 20
5.1024126917
 30
0.0
 11
-140.1292330321
 21
5.1024126917
 31
0.0
  0
LINE
  5
47F
330
1F
100
AcDbEntity
  8
0
  6
Continuous
 62
     7
370
    25
100
AcDbLine
 10
-142.0114696365
 20
7.4883794915
 30
0.0
 11
-142.0114696365
 21
5.1024126917
 31
0.0
  0
LINE
  5
480
330
1F
100
AcDbEntity
  8
0
  6
Continuous
 62
     7
370
    25
100
AcDbLine
 10
-142.588
 20
7.5693990334
 30
0.0
 11
-142.0114696365
 21
7.4883794915
 31
0.0
  0
LINE
  5
481
330
1F
100
AcDbEntity
  8
0
  6
Continuous
 62
     7
370
    25
100
AcDbLine
 10
-142.588
 20
0.0392784198
 30
0.0
 11
-138.7612943896
 21
0.9434095398
 31
0.0
  0
LINE
  5
482
330
1F
100
AcDbEntity
  8
0
  6
Continuous
 62
     7
370
    25
100
AcDbLine
 10
-142.588
 20
-0.9435238495
 30
0.0
 11
-142.588
 21
0.0392784198
 31
0.0
  0
LINE
  5
483
330
1F
100
AcDbEntity
  8
0
  6
Continuous
 62
     7
370
    25
100
AcDbLine
 10
-137.0
 20
-1.2593826434
 30
0.0
 11
-142.588
 21
-0.9435238495
 31
0.0
  0
LINE
  5
484
330
1F
100
AcDbEntity
  8
0
  6
Continuous
 62
     7
370
    25
100
AcDbLine
 10
-137.0
 20
-0.5983101492
 30
0.0
 11
-137.0
 21
-1.2593826434
 31
0.0
  0
LINE
  5
485
330
1F
100
AcDbEntity
  8
0
  6
Continuous
 62
     7
370
    25
100
AcDbLine
 10
-139.9260970792
 20
-0.4480130279
 30
0.0
 11
-137.0
 21
-0.5983101492
 31
0.0
  0
LINE
  5
486
330
1F
100
AcDbEntity
  8
0
  6
Continuous
 62
     7
370
    25
100
AcDbLine
 10
-138.0027636058
 20
0.5711893255
 30
0.0
 11
-141.9421920572
 21
-0.4397936541
 31
0.0
  0
LINE
  5
487
330
1F
100
AcDbEntity
  8
0
  6
Continuous
 62
     7
370
    25
100
AcDbLine
 10
-138.0027636058
 20
1.2768812776
 30
0.0
 11
-138.0027636058
 21
0.5711893255
 31
0.0
  0
LINE
  5
488
330
1F
100
AcDbEntity
  8
0
  6
Continuous
 62
     7
370
    25
100
AcDbLine
 10
-141.9421920572
 20
2.2185866779
 30
0.0
 11
-138.0027636058
 21
1.2768812776
 31
0.0
  0
LINE
  5
489
330
1F
100
AcDbEntity
  8
0
  6
Continuous
 62
     7
370
    25
100
AcDbLine
 10
-137.0
 20
2.4369871822
 30
0.0
 11
-139.9178777054
 21
2.2632061357
 31
0.0
  0
LINE
  5
48A
330
1F
100
AcDbEntity
  8
0
  6
Continuous
 62
     7
370
    25
100
AcDbLine
 10
-137.0
 20
3.114498424
 30
0.0
 11
-137.0
 21
2.4369871822
 31
0.0
  0
LINE
  5
48B
330
1F
100
AcDbEntity
  8
0
  6
Continuous
 62
     7
370
    25
100
AcDbLine
 10
-142.588
 20
2.7986396302
 30
0.0
 11
-137.0
 21
3.114498424
 31
0.0
  0
LINE
  5
48C
330
1F
100
AcDbEntity
  8
0
  6
Continuous
 62
     7
370
    25
100
AcDbLine
 10
-142.588
 20
1.8087921832
 30
0.0
 11
-142.588
 21
2.7986396302
 31
0.0
  0
LINE
  5
48D
330
1F
100
AcDbEntity
  8
0
  6
Continuous
 62
     7
370
    25
100
AcDbLine
 10
-138.7612943896
 20
0.9434095398
 30
0.0
 11
-142.588
 21
1.8087921832
 31
0.0
  0
LINE
  5
48E
330
1F
100
AcDbEntity
  8
0
  6
Continuous
 62
     7
370
    25
100
AcDbLine
 10
-137.6293691952
 20
-14.3551935281
 30
0.0
 11
-137.6293691952
 21
-11.8071876445
 31
0.0
  0
LINE
  5
48F
330
1F
100
AcDbEntity
  8
0
  6
Continuous
 62
     7
370
    25
100
AcDbLine
 10
-142.588
 20
-14.3551935281
 30
0.0
 11
-137.6293691952
 21
-14.3551935281
 31
0.0
  0
LINE
  5
490
330
1F
100
AcDbEntity
  8
0
  6
Continuous
 62
     7
370
    25
100
AcDbLine
 10
-142.588
 20
-15.0608854801
 30
0.0
 11
-142.588
 21
-14.3551935281
 31
0.0
  0
LINE
  5
491
330
1F
100
AcDbEntity
  8
0
  6
Continuous
 62
     7
370
    25
100
AcDbLine
 10
-137.0
 20
-15.0608854801
 30
0.0
 11
-142.588
 21
-15.0608854801
 31
0.0
  0
LINE
  5
492
330
1F
100
AcDbEntity
  8
0
  6
Continuous
 62
     7
370
    25
100
AcDbLine
 10
-137.0
 20
-11.8882071864
 30
0.0
 11
-137.0
 21
-15.0608854801
 31
0.0
  0
LINE
  5
493
330
1F
100
AcDbEntity
  8
0
  6
Continuous
 62
     7
370
    25
100
AcDbLine
 10
-137.6293691952
 20
-11.8071876445
 30
0.0
 11
-137.0
 21
-11.8882071864
 31
0.0
  0
LINE
  5
494
330
1F
100
AcDbEntity
  8
0
  6
Continuous
 62
     7
370
    25
100
AcDbLine
 10
-142.588
 20
-20.0277356588
 30
0.0
 11
-142.588
 21
-16.8538831687
 31
0.0
  0
LINE
  5
495
330
1F
100
AcDbEntity
  8
0
  6
Continuous
 62
     7
370
    25
100
AcDbLine
 10
-137.0
 20
-20.0277356588
 30
0.0
 11
-142.588
 21
-20.0277356588
 31
0.0
  0
LINE
  5
496
330
1F
100
AcDbEntity
  8
0
  6
Continuous
 62
     7
370
    25
100
AcDbLine
 10
-137.0
 20
-16.7810830006
 30
0.0
 11
-137.0
 21
-20.0277356588
 31
0.0
  0
LINE
  5
497
330
1F
100
AcDbEntity
  8
0
  6
Continuous
 62
     7
370
    25
100
AcDbLine
 10
-137.5636142047
 20
-16.7810830006
 30
0.0
 11
-137.0
 21
-16.7810830006
 31
0.0
  0
LINE
  5
498
330
1F
100
AcDbEntity
  8
0
  6
Continuous
 62
     7
370
    25
100
AcDbLine
 10
-137.5636142047
 20
-19.3208695104
 30
0.0
 11
-137.5636142047
 21
-16.7810830006
 31
0.0
  0
LINE
  5
499
330
1F
100
AcDbEntity
  8
0
  6
Continuous
 62
     7
370
    25
100
AcDbLine
 10
-139.5480058836
 20
-19.3208695104
 30
0.0
 11
-137.5636142047
 21
-19.3208695104
 31
0.0
  0
LINE
  5
49A
330
1F
100
AcDbEntity
  8
0
  6
Continuous
 62
     7
370
    25
100
AcDbLine
 10
-139.5480058836
 20
-17.2519357008
 30
0.0
 11
-139.5480058836
 21
-19.3208695104
 31
0.0
  0
LINE
  5
49B
330
1F
100
AcDbEntity
  8
0
  6
Continuous
 62
     7
370
    25
100
AcDbLine
 10
-140.1292330321
 20
-17.2519357008
 30
0.0
 11
-139.5480058836
 21
-17.2519357008
 31
0.0
  0
LINE
  5
49C
330
1F
100
AcDbEntity
  8
0
  6
Continuous
 62
     7
370
    25
100
AcDbLine
 10
-140.1292330321
 20
-19.3208695104
 30
0.0
 11
-140.1292330321
 21
-17.2519357008
 31
0.0
  0
LINE
  5
49D
330
1F
100
AcDbEntity
  8
0
  6
Continuous
 62
     7
370
    25
100
AcDbLine
 10
-142.0114696365
 20
-19.3208695104
 30
0.0
 11
-140.1292330321
 21
-19.3208695104
 31
0.0
  0
LINE
  5
49E
330
1F
100
AcDbEntity
  8
0
  6
Continuous
 62
     7
370
    25
100
AcDbLine
 10
-142.0114696365
 20
-16.9349027107
 30
0.0
 11
-142.0114696365
 21
-19.3208695104
 31
0.0
  0
LINE
  5
49F
330
1F
100
AcDbEntity
  8
0
  6
Continuous
 62
     7
370
    25
100
AcDbLine
 10
-142.588
 20
-16.8538831687
 30
0.0
 11
-142.0114696365
 21
-16.9349027107
 31
0.0
  0
LINE
  5
4A0
330
1F
100
AcDbEntity
  8
0
  6
Continuous
 62
     7
370
    25
100
AcDbLine
 10
-137.0
 20
-23.8603122505
 30
0.0
 11
-142.588
 21
-25.7319810885
 31
0.0
  0
LINE
  5
4A1
330
1F
100
AcDbEntity
  8
0
  6
Continuous
 62
     7
370
    25
100
AcDbLine
 10
-137.0
 20
-23.1299621769
 30
0.0
 11
-137.0
 21
-23.8603122505
 31
0.0
  0
LINE
  5
4A2
330
1F
100
AcDbEntity
  8
0
  6
Continuous
 62
     7
370
    25
100
AcDbLine
 10
-142.588
 20
-21.2594675352
 30
0.0
 11
-137.0
 21
-23.1299621769
 31
0.0
  0
LINE
  5
4A3
330
1F
100
AcDbEntity
  8
0
  6
Continuous
 62
     7
370
    25
100
AcDbLine
 10
-142.588
 20
-21.9698562723
 30
0.0
 11
-142.588
 21
-21.2594675352
 31
0.0
  0
LINE
  5
4A4
330
1F
100
AcDbEntity
  8
0
  6
Continuous
 62
     7
370
    25
100
AcDbLine
 10
-137.7996276529
 20
-23.4798726623
 30
0.0
 11
-142.588
 21
-21.9698562723
 31
0.0
  0
LINE
  5
4A5
330
1F
100
AcDbEntity
  8
0
  6
Continuous
 62
     7
370
    25
100
AcDbLine
 10
-142.588
 20
-24.9722761084
 30
0.0
 11
-137.7996276529
 21
-23.4798726623
 31
0.0
  0
LINE
  5
4A6
330
1F
100
AcDbEntity
  8
0
  6
Continuous
 62
     7
370
    25
100
AcDbLine
 10
-142.588
 20
-25.7319810885
 30
0.0
 11
-142.588
 21
-24.9722761084
 31
0.0
  0
LINE
  5
4A7
330
1F
100
AcDbEntity
  8
0
  6
Continuous
 62
     7
370
    25
100
AcDbLine
 10
-142.588
 20
-29.7970485396
 30
0.0
 11
-142.588
 21
-26.6231960496
 31
0.0
  0
LINE
  5
4A8
330
1F
100
AcDbEntity
  8
0
  6
Continuous
 62
     7
370
    25
100
AcDbLine
 10
-137.0
 20
-29.7970485396
 30
0.0
 11
-142.588
 21
-29.7970485396
 31
0.0
  0
LINE
  5
4A9
330
1F
100
AcDbEntity
  8
0
  6
Continuous
 62
     7
370
    25
100
AcDbLine
 10
-137.0
 20
-26.5503958815
 30
0.0
 11
-137.0
 21
-29.7970485396
 31
0.0
  0
LINE
  5
4AA
330
1F
100
AcDbEntity
  8
0
  6
Continuous
 62
     7
370
    25
100
AcDbLine
 10
-137.5636142047
 20
-26.5503958815
 30
0.0
 11
-137.0
 21
-26.5503958815
 31
0.0
  0
LINE
  5
4AB
330
1F
100
AcDbEntity
  8
0
  6
Continuous
 62
     7
370
    25
100
AcDbLine
 10
-137.5636142047
 20
-29.0901823913
 30
0.0
 11
-137.5636142047
 21
-26.5503958815
 31
0.0
  0
LINE
  5
4AC
330
1F
100
AcDbEntity
  8
0
  6
Continuous
 62
     7
370
    25
100
AcDbLine
 10
-139.5480058836
 20
-29.0901823913
 30
0.0
 11
-137.5636142047
 21
-29.0901823913
 31
0.0
  0
LINE
  5
4AD
330
1F
100
AcDbEntity
  8
0
  6
Continuous
 62
     7
370
    25
100
AcDbLine
 10
-139.5480058836
 20
-27.0212485816
 30
0.0
 11
-139.5480058836
 21
-29.0901823913
 31
0.0
  0
LINE
  5
4AE
330
1F
100
AcDbEntity
  8
0
  6
Continuous
 62
     7
370
    25
100
AcDbLine
 10
-140.1292330321
 20
-27.0212485816
 30
0.0
 11
-139.5480058836
 21
-27.0212485816
 31
0.0
  0
LINE
  5
4AF
330
1F
100
AcDbEntity
  8
0
  6
Continuous
 62
     7
370
    25
100
AcDbLine
 10
-140.1292330321
 20
-29.0901823913
 30
0.0
 11
-140.1292330321
 21
-27.0212485816
 31
0.0
  0
LINE
  5
4B0
330
1F
100
AcDbEntity
  8
0
  6
Continuous
 62
     7
370
    25
100
AcDbLine
 10
-142.0114696365
 20
-29.0901823913
 30
0.0
 11
-140.1292330321
 21
-29.0901823913
 31
0.0
  0
LINE
  5
4B1
330
1F
100
AcDbEntity
  8
0
  6
Continuous
 62
     7
370
    25
100
AcDbLine
 10
-142.0114696365
 20
-26.7042155915
 30
0.0
 11
-142.0114696365
 21
-29.0901823913
 31
0.0
  0
LINE
  5
4B2
330
1F
100
AcDbEntity
  8
0
  6
Continuous
 62
     7
370
    25
100
AcDbLine
 10
-142.588
 20
-26.6231960496
 30
0.0
 11
-142.0114696365
 21
-26.7042155915
 31
0.0
  0
LINE
  5
4B3
330
1F
100
AcDbEntity
  8
0
  6
Continuous
 62
     7
370
    25
100
AcDbLine
 10
-137.0
 20
-103.2606375289
 30
0.0
 11
-142.588
 21
-103.2606375289
 31
0.0
  0
LINE
  5
4B4
330
1F
100
AcDbEntity
  8
0
  6
Continuous
 62
     7
370
    25
100
AcDbLine
 10
-137.0
 20
-102.5549455768
 30
0.0
 11
-137.0
 21
-103.2606375289
 31
0.0
  0
LINE
  5
4B5
330
1F
100
AcDbEntity
  8
0
  6
Continuous
 62
     7
370
    25
100
AcDbLine
 10
-139.3988829586
 20
-102.5549455768
 30
0.0
 11
-137.0
 21
-102.5549455768
 31
0.0
  0
LINE
  5
4B6
330
1F
100
AcDbEntity
  8
0
  6
Continuous
 62
     7
370
    25
100
AcDbLine
 10
-139.3988829586
 20
-101.7999373818
 30
0.0
 11
-139.3988829586
 21
-102.5549455768
 31
0.0
  0
LINE
  5
4B7
330
1F
100
AcDbEntity
  8
0
  6
Continuous
 62
     7
370
    25
100
AcDbLine
 10
-137.0
 20
-100.2746564404
 30
0.0
 11
-139.3988829586
 21
-101.7999373818
 31
0.0
  0
LINE
  5
4B8
330
1F
100
AcDbEntity
  8
0
  6
Continuous
 62
     7
370
    25
100
AcDbLine
 10
-137.0
 20
-99.4304093297
 30
0.0
 11
-137.0
 21
-100.2746564404
 31
0.0
  0
LINE
  5
4B9
330
1F
100
AcDbEntity
  8
0
  6
Continuous
 62
     7
370
    25
100
AcDbLine
 10
-139.4799025005
 20
-101.0860260559
 30
0.0
 11
-137.0
 21
-99.4304093297
 31
0.0
  0
LINE
  5
4BA
330
1F
100
AcDbEntity
  8
0
  6
Continuous
 62
     7
370
    25
100
AcDbLine
 10
-142.588
 20
-103.2606375289
 30
0.0
 11
-142.588
 21
-101.8245955033
 31
0.0
  0
LINE
  5
4BB
330
1F
100
AcDbEntity
  8
0
  6
Continuous
 62
     7
370
    25
100
AcDbLine
 10
-142.0396503467
 20
-119.4316684177
 30
0.0
 11
-141.5817138054
 21
-119.8449855012
 31
0.0
  0
LINE
  5
4BC
330
1F
100
AcDbEntity
  8
0
  6
Continuous
 62
     7
370
    25
100
AcDbLine
 10
-137.6211498214
 20
-123.2701159908
 30
0.0
 11
-138.0920025215
 21
-122.8521021223
 31
0.0
  0
LINE
  5
4BD
330
1F
100
AcDbEntity
  8
0
  6
Continuous
 62
     7
370
    25
100
AcDbLine
 10
-142.588
 20
-132.3748337886
 30
0.0
 11
-142.588
 21
-129.2009812986
 31
0.0
  0
LINE
  5
4BE
330
1F
100
AcDbEntity
  8
0
  6
Continuous
 62
     7
370
    25
100
AcDbLine
 10
-137.0
 20
-132.3748337886
 30
0.0
 11
-142.588
 21
-132.3748337886
 31
0.0
  0
LINE
  5
4BF
330
1F
100
AcDbEntity
  8
0
  6
Continuous
 62
     7
370
    25
100
AcDbLine
 10
-137.0
 20
-129.1281811305
 30
0.0
 11
-137.0
 21
-132.3748337886
 31
0.0
  0
LINE
  5
4C0
330
1F
100
AcDbEntity
  8
0
  6
Continuous
 62
     7
370
    25
100
AcDbLine
 10
-137.5636142047
 20
-129.1281811305
 30
0.0
 11
-137.0
 21
-129.1281811305
 31
0.0
  0
LINE
  5
4C1
330
1F
100
AcDbEntity
  8
0
  6
Continuous
 62
     7
370
    25
100
AcDbLine
 10
-137.5636142047
 20
-131.6679676403
 30
0.0
 11
-137.5636142047
 21
-129.1281811305
 31
0.0
  0
LINE
  5
4C2
330
1F
100
AcDbEntity
  8
0
  6
Continuous
 62
     7
370
    25
100
AcDbLine
 10
-139.5480058836
 20
-131.6679676403
 30
0.0
 11
-137.5636142047
 21
-131.6679676403
 31
0.0
  0
LINE
  5
4C3
330
1F
100
AcDbEntity
  8
0
  6
Continuous
 62
     7
370
    25
100
AcDbLine
 10
-139.5480058836
 20
-129.5990338306
 30
0.0
 11
-139.5480058836
 21
-131.6679676403
 31
0.0
  0
LINE
  5
4C4
330
1F
100
AcDbEntity
  8
0
  6
Continuous
 62
     7
370
    25
100
AcDbLine
 10
-140.1292330321
 20
-129.5990338306
 30
0.0
 11
-139.5480058836
 21
-129.5990338306
 31
0.0
  0
LINE
  5
4C5
330
1F
100
AcDbEntity
  8
0
  6
Continuous
 62
     7
370
    25
100
AcDbLine
 10
-140.1292330321
 20
-131.6679676403
 30
0.0
 11
-140.1292330321
 21
-129.5990338306
 31
0.0
  0
LINE
  5
4C6
330
1F
100
AcDbEntity
  8
0
  6
Continuous
 62
     7
370
    25
100
AcDbLine
 10
-142.0114696365
 20
-131.6679676403
 30
0.0
 11
-140.1292330321
 21
-131.6679676403
 31
0.0
  0
LINE
  5
4C7
330
1F
100
AcDbEntity
  8
0
  6
Continuous
 62
     7
370
    25
100
AcDbLine
 10
-142.0114696365
 20
-129.2820008405
 30
0.0
 11
-142.0114696365
 21
-131.6679676403
 31
0.0
  0
LINE
  5
4C8
330
1F
100
AcDbEntity
  8
0
  6
Continuous
 62
     7
370
    25
100
AcDbLine
 10
-142.588
 20
-129.2009812986
 30
0.0
 11
-142.0114696365
 21
-129.2820008405
 31
0.0
  0
LINE
  5
4C9
330
1F
100
AcDbEntity
  8
0
  6
Continuous
 62
     7
370
    25
100
AcDbLine
 10
-137.0
 20
-151.9944790922
 30
0.0
 11
-142.588
 21
-151.9944790922
 31
0.0
  0
LINE
  5
4CA
330
1F
100
AcDbEntity
  8
0
  6
Continuous
 62
     7
370
    25
100
AcDbLine
 10
-137.0
 20
-151.2876129439
 30
0.0
 11
-137.0
 21
-151.9944790922
 31
0.0
  0
LINE
  5
4CB
330
1F
100
AcDbEntity
  8
0
  6
Continuous
 62
     7
370
    25
100
AcDbLine
 10
-139.0736305947
 20
-151.2876129439
 30
0.0
 11
-137.0
 21
-151.2876129439
 31
0.0
  0
LINE
  5
4CC
330
1F
100
AcDbEntity
  8
0
  6
Continuous
 62
     7
370
    25
100
AcDbLine
 10
-139.0736305947
 20
-150.573701618
 30
0.0
 11
-139.0736305947
 21
-151.2876129439
 31
0.0
  0
LINE
  5
4CD
330
1F
100
AcDbEntity
  8
0
  6
Continuous
 62
     7
370
    25
100
AcDbLine
 10
-142.588
 20
-151.9944790922
 30
0.0
 11
-142.588
 21
-150.5654822442
 31
0.0
  0
LINE
  5
4CE
330
1F
100
AcDbEntity
  8
0
  6
Continuous
 62
     7
370
    25
100
AcDbLine
 10
-142.0396503467
 20
-153.6242635007
 30
0.0
 11
-141.5817138054
 21
-154.0375805842
 31
0.0
  0
LINE
  5
4CF
330
1F
100
AcDbEntity
  8
0
  6
Continuous
 62
     7
370
    25
100
AcDbLine
 10
-137.6211498214
 20
-157.4627110738
 30
0.0
 11
-138.0920025215
 21
-157.0446972053
 31
0.0
  0
LINE
  5
4D0
330
1F
100
AcDbEntity
  8
0
  6
Continuous
 62
     7
370
    25
100
AcDbLine
 10
-140.4803300859
 20
-207.0409902577
 30
0.0
 11
-138.3590097423
 21
-204.9196699141
 31
0.0
  0
LINE
  5
4D1
330
1F
100
AcDbEntity
  8
0
  6
Continuous
 62
     7
370
    25
100
AcDbLine
 10
-139.4196699141
 20
-203.8590097423
 30
0.0
 11
-141.5409902577
 21
-205.9803300859
 31
0.0
  0
LINE
  5
4D2
330
1F
100
AcDbEntity
  8
0
  6
Continuous
 62
     7
370
    25
100
AcDbLine
 10
136.5803300859
 20
72.1409902577
 30
0.0
 11
134.4590097423
 21
70.0196699141
 31
0.0
  0
LINE
  5
4D3
330
1F
100
AcDbEntity
  8
0
  6
Continuous
 62
     7
370
    25
100
AcDbLine
 10
135.5196699141
 20
68.9590097423
 30
0.0
 11
137.6409902577
 21
71.0803300859
 31
0.0
  0
LINE
  5
4D4
330
1F
100
AcDbEntity
  8
0
  6
Continuous
 62
     7
370
    25
100
AcDbLine
 10
-141.5409902577
 20
71.0803300859
 30
0.0
 11
-139.4196699141
 21
68.9590097423
 31
0.0
  0
LINE
  5
4D5
330
1F
100
AcDbEntity
  8
0
  6
Continuous
 62
     7
370
    25
100
AcDbLine
 10
-138.3590097423
 20
70.0196699141
 30
0.0
 11
-140.4803300859
 21
72.1409902577
 31
0.0
  0
LINE
  5
4D6
330
1F
100
AcDbEntity
  8
0
  6
Continuous
 62
     7
370
    25
100
AcDbLine
 10
137.6409902577
 20
-205.9803300859
 30
0.0
 11
135.5196699141
 21
-203.8590097423
 31
0.0
  0
LINE
  5
4D7
330
1F
100
AcDbEntity
  8
0
  6
Continuous
 62
     7
370
    25
100
AcDbLine
 10
134.4590097423
 20
-204.9196699141
 30
0.0
 11
136.5803300859
 21
-207.0409902577
 31
0.0
  0
LINE
  5
4D8
330
1F
100
AcDbEntity
  8
0
  6
Continuous
 62
     7
370
    25
100
AcDbLine
 10
-139.6301996218
 20
-170.9847552007
 30
0.0
 11
-137.5800529523
 21
-170.9847552007
 31
0.0
  0
LINE
  5
4D9
330
1F
100
AcDbEntity
  8
0
  6
Continuous
 62
     7
370
    25
100
AcDbLine
 10
-139.6301996218
 20
-170.0313078378
 30
0.0
 11
-139.6301996218
 21
-170.9847552007
 31
0.0
  0
LINE
  5
4DA
330
1F
100
AcDbEntity
  8
0
  6
Continuous
 62
     7
370
    25
100
AcDbLine
 10
-137.5800529523
 20
-170.9847552007
 30
0.0
 11
-137.5800529523
 21
-170.0641853331
 31
0.0
  0
LINE
  5
4DB
330
1F
100
AcDbEntity
  8
0
  6
Continuous
 62
     7
370
    25
100
AcDbLine
 10
-142.0114696365
 20
-34.320052532
 30
0.0
 11
-137.5636142047
 21
-34.320052532
 31
0.0
  0
LINE
  5
4DC
330
1F
100
AcDbEntity
  8
0
  6
Continuous
 62
     7
370
    25
100
AcDbLine
 10
-142.0114696365
 20
-33.6625026266
 30
0.0
 11
-142.0114696365
 21
-34.320052532
 31
0.0
  0
LINE
  5
4DD
330
1F
100
AcDbEntity
  8
0
  6
Continuous
 62
     7
370
    25
100
AcDbLine
 10
-137.5636142047
 20
-34.320052532
 30
0.0
 11
-137.5636142047
 21
-33.6542832528
 31
0.0
  0
LINE
  5
4DE
330
1F
100
AcDbEntity
  8
0
  6
Continuous
 62
     7
370
    25
100
AcDbLine
 10
-142.0279083841
 20
-4.747919731
 30
0.0
 11
-139.6419415844
 21
-4.747919731
 31
0.0
  0
LINE
  5
4DF
330
1F
100
AcDbEntity
  8
0
  6
Continuous
 62
     7
370
    25
100
AcDbLine
 10
-142.0279083841
 20
-3.9412469006
 30
0.0
 11
-142.0279083841
 21
-4.747919731
 31
0.0
  0
LINE
  5
4E0
330
1F
100
AcDbEntity
  8
0
  6
Continuous
 62
     7
370
    25
100
AcDbLine
 10
-139.6419415844
 20
-4.747919731
 30
0.0
 11
-139.6419415844
 21
-3.9694276108
 31
0.0
  0
LINE
  5
4E1
330
1F
100
AcDbEntity
  8
0
  6
Continuous
 62
     7
370
    25
100
AcDbLine
 10
-142.0279083841
 20
-102.5549455768
 30
0.0
 11
-139.9507552007
 21
-102.5549455768
 31
0.0
  0
LINE
  5
4E2
330
1F
100
AcDbEntity
  8
0
  6
Continuous
 62
     7
370
    25
100
AcDbLine
 10
-142.0279083841
 20
-101.7435759613
 30
0.0
 11
-142.0279083841
 21
-102.5549455768
 31
0.0
  0
LINE
  5
4E3
330
1F
100
AcDbEntity
  8
0
  6
Continuous
 62
     7
370
    25
100
AcDbLine
 10
-139.9507552007
 20
-102.5549455768
 30
0.0
 11
-139.9507552007
 21
-101.7435759613
 31
0.0
  0
LINE
  5
4E4
330
1F
100
AcDbEntity
  8
0
  6
Continuous
 62
     7
370
    25
100
AcDbLine
 10
-142.0279083841
 20
-151.2876129439
 30
0.0
 11
-139.6419415844
 21
-151.2876129439
 31
0.0
  0
LINE
  5
4E5
330
1F
100
AcDbEntity
  8
0
  6
Continuous
 62
     7
370
    25
100
AcDbLine
 10
-142.0279083841
 20
-150.4809401135
 30
0.0
 11
-142.0279083841
 21
-151.2876129439
 31
0.0
  0
LINE
  5
4E6
330
1F
100
AcDbEntity
  8
0
  6
Continuous
 62
     7
370
    25
100
AcDbLine
 10
-139.6419415844
 20
-151.2876129439
 30
0.0
 11
-139.6419415844
 21
-150.5091208237
 31
0.0
  0
LINE
  5
4E7
330
1F
100
AcDbEntity
  8
0
  6
Continuous
 62
     7
370
    25
100
AcDbLine
 10
138.1114696365
 20
29.2216245095
 30
0.0
 11
133.6636142047
 21
29.2216245095
 31
0.0
  0
LINE
  5
4E8
330
1F
100
AcDbEntity
  8
0
  6
Continuous
 62
     7
370
    25
100
AcDbLine
 10
138.1114696365
 20
28.5640746041
 30
0.0
 11
138.1114696365
 21
29.2216245095
 31
0.0
  0
LINE
  5
4E9
330
1F
100
AcDbEntity
  8
0
  6
Continuous
 62
     7
370
    25
100
AcDbLine
 10
133.6636142047
 20
29.2216245095
 30
0.0
 11
133.6636142047
 21
28.5558552303
 31
0.0
  0
LINE
  5
4EA
330
1F
100
AcDbEntity
  8
0
  6
Continuous
 62
     7
370
    25
100
AcDbLine
 10
-142.0279083841
 20
-136.7475406598
 30
0.0
 11
-139.9507552007
 21
-136.7475406598
 31
0.0
  0
LINE
  5
4EB
330
1F
100
AcDbEntity
  8
0
  6
Continuous
 62
     7
370
    25
100
AcDbLine
 10
-142.0279083841
 20
-135.9361710443
 30
0.0
 11
-142.0279083841
 21
-136.7475406598
 31
0.0
  0
LINE
  5
4EC
330
1F
100
AcDbEntity
  8
0
  6
Continuous
 62
     7
370
    25
100
AcDbLine
 10
-139.9507552007
 20
-136.7475406598
 30
0.0
 11
-139.9507552007
 21
-135.9361710443
 31
0.0
  0
LINE
  5
4ED
330
1F
100
AcDbEntity
  8
0
  6
Continuous
 62
     7
370
    25
100
AcDbLine
 10
-142.0196890103
 20
-170.9847552007
 30
0.0
 11
-140.2102525741
 21
-170.9847552007
 31
0.0
  0
LINE
  5
4EE
330
1F
100
AcDbEntity
  8
0
  6
Continuous
 62
     7
370
    25
100
AcDbLine
 10
-142.0196890103
 20
-170.1534242488
 30
0.0
 11
-142.0196890103
 21
-170.9847552007
 31
0.0
  0
LINE
  5
4EF
330
1F
100
AcDbEntity
  8
0
  6
Continuous
 62
     7
370
    25
100
AcDbLine
 10
-140.2102525741
 20
-170.9847552007
 30
0.0
 11
-140.2102525741
 21
-170.0841466695
 31
0.0
  0
LINE
  5
4F0
330
1F
100
AcDbEntity
  8
0
  6
Continuous
 62
     7
370
    25
100
AcDbLine
 10
-139.0090498004
 20
-107.4806988863
 30
0.0
 11
-139.0090498004
 21
-105.6336881698
 31
0.0
  0
LINE
  5
4F1
330
1F
100
AcDbEntity
  8
0
  6
Continuous
 62
     7
370
    25
100
AcDbLine
 10
-141.9950308888
 20
-106.5507354486
 30
0.0
 11
-139.0090498004
 21
-107.4806988863
 31
0.0
  0
LINE
  5
4F2
330
1F
100
AcDbEntity
  8
0
  6
Continuous
 62
     7
370
    25
100
AcDbLine
 10
-139.0090498004
 20
-105.6336881698
 30
0.0
 11
-141.9950308888
 21
-106.5507354486
 31
0.0
  0
ARC
  5
4F3
330
1F
100
AcDbEntity
  8
0
  6
Continuous
 62
     7
370
    25
100
AcDbCircle
 10
63.7
 20
-57.2179446404
 30
0.0
 40
0.5
100
AcDbArc
 50
0.0
 51
138.0685211128
  0
ARC
  5
4F4
330
1F
100
AcDbEntity
  8
0
  6
Continuous
 62
     7
370
    25
100
AcDbCircle
 10
65.45
 20
-63.45
 30
0.0
 40
1.250000000000036
100
AcDbArc
 50
180.0
 51
270.0
  0
ARC
  5
4F5
330
1F
100
AcDbEntity
  8
0
  6
Continuous
 62
     7
370
    25
100
AcDbCircle
 10
121.2548709118
 20
-63.45
 30
0.0
 40
1.250000000000008
100
AcDbArc
 50
270.0
 51
310.8446268396
  0
ARC
  5
4F6
330
1F
100
AcDbEntity
  8
0
  6
Continuous
 62
     7
370
    25
100
AcDbCircle
 10
66.4
 20
0.0
 30
0.0
 40
85.12466460589239
100
AcDbArc
 50
310.8446268396
 51
319.1553731604
  0
ARC
  5
4F7
330
1F
100
AcDbEntity
  8
0
  6
Continuous
 62
     7
370
    25
100
AcDbCircle
 10
129.85
 20
-54.8548709118
 30
0.0
 40
1.249999999999841
100
AcDbArc
 50
319.1553731604
 51
0.0
  0
ARC
  5
4F8
330
1F
100
AcDbEntity
  8
0
  6
Continuous
 62
     7
370
    25
100
AcDbCircle
 10
129.85
 20
54.8548709118
 30
0.0
 40
1.249999999999943
100
AcDbArc
 50
0.0
 51
40.8446268396
  0
ARC
  5
4F9
330
1F
100
AcDbEntity
  8
0
  6
Continuous
 62
     7
370
    25
100
AcDbCircle
 10
66.4
 20
0.0
 30
0.0
 40
85.12466460588834
100
AcDbArc
 50
40.8446268396
 51
49.1553731604
  0
ARC
  5
4FA
330
1F
100
AcDbEntity
  8
0
  6
Continuous
 62
     7
370
    25
100
AcDbCircle
 10
121.2548709118
 20
63.45
 30
0.0
 40
1.249999999999782
100
AcDbArc
 50
49.1553731604
 51
90.0
  0
ARC
  5
4FB
330
1F
100
AcDbEntity
  8
0
  6
Continuous
 62
     7
370
    25
100
AcDbCircle
 10
65.45
 20
63.45
 30
0.0
 40
1.249999999999986
100
AcDbArc
 50
90.0
 51
180.0
  0
ARC
  5
4FC
330
1F
100
AcDbEntity
  8
0
  6
Continuous
 62
     7
370
    25
100
AcDbCircle
 10
63.7
 20
57.2179446404
 30
0.0
 40
0.4999999999999929
100
AcDbArc
 50
221.9314788872
 51
0.0
  0
ARC
  5
4FD
330
1F
100
AcDbEntity
  8
0
  6
Continuous
 62
     7
370
    25
100
AcDbCircle
 10
0.0
 20
0.0
 30
0.0
 40
85.12466460588892
100
AcDbArc
 50
41.9314788872
 51
49.1553731604
  0
ARC
  5
4FE
330
1F
100
AcDbEntity
  8
0
  6
Continuous
 62
     7
370
    25
100
AcDbCircle
 10
54.8548709118
 20
63.45
 30
0.0
 40
1.250000000000324
100
AcDbArc
 50
49.1553731604
 51
90.0
  0
ARC
  5
4FF
330
1F
100
AcDbEntity
  8
0
  6
Continuous
 62
     7
370
    25
100
AcDbCircle
 10
-0.95
 20
63.45
 30
0.0
 40
1.250000000000012
100
AcDbArc
 50
90.0
 51
180.0
  0
ARC
  5
500
330
1F
100
AcDbEntity
  8
0
  6
Continuous
 62
     7
370
    25
100
AcDbCircle
 10
-2.7
 20
57.2179446404
 30
0.0
 40
0.5000000000000036
100
AcDbArc
 50
221.9314788872
 51
0.0
  0
ARC
  5
501
330
1F
100
AcDbEntity
  8
0
  6
Continuous
 62
     7
370
    25
100
AcDbCircle
 10
-66.4
 20
0.0
 30
0.0
 40
85.12466460588799
100
AcDbArc
 50
41.9314788872
 51
49.1553731604
  0
ARC
  5
502
330
1F
100
AcDbEntity
  8
0
  6
Continuous
 62
     7
370
    25
100
AcDbCircle
 10
-11.5451290882
 20
63.45
 30
0.0
 40
1.250000000000464
100
AcDbArc
 50
49.1553731604
 51
90.0
  0
ARC
  5
503
330
1F
100
AcDbEntity
  8
0
  6
Continuous
 62
     7
370
    25
100
AcDbCircle
 10
-67.35
 20
63.45
 30
0.0
 40
1.250000000000021
100
AcDbArc
 50
90.0
 51
180.0
  0
ARC
  5
504
330
1F
100
AcDbEntity
  8
0
  6
Continuous
 62
     7
370
    25
100
AcDbCircle
 10
-69.1
 20
57.2179446404
 30
0.0
 40
0.5
100
AcDbArc
 50
221.9314788872
 51
0.0
  0
ARC
  5
505
330
1F
100
AcDbEntity
  8
0
  6
Continuous
 62
     7
370
    25
100
AcDbCircle
 10
-132.8
 20
0.0
 30
0.0
 40
85.12466460588612
100
AcDbArc
 50
41.9314788872
 51
49.1553731604
  0
ARC
  5
506
330
1F
100
AcDbEntity
  8
0
  6
Continuous
 62
     7
370
    25
100
AcDbCircle
 10
-77.9451290882
 20
63.45
 30
0.0
 40
1.249999999999908
100
AcDbArc
 50
49.1553731604
 51
90.0
  0
ARC
  5
507
330
1F
100
AcDbEntity
  8
0
  6
Continuous
 62
     7
370
    25
100
AcDbCircle
 10
-133.75
 20
63.45
 30
0.0
 40
1.25
100
AcDbArc
 50
90.0
 51
180.0
  0
ARC
  5
508
330
1F
100
AcDbEntity
  8
0
  6
Continuous
 62
     7
370
    25
100
AcDbCircle
 10
-133.75
 20
-63.45
 30
0.0
 40
1.249999999999972
100
AcDbArc
 50
180.0
 51
270.0
  0
ARC
  5
509
330
1F
100
AcDbEntity
  8
0
  6
Continuous
 62
     7
370
    25
100
AcDbCircle
 10
-77.9451290882
 20
-63.45
 30
0.0
 40
1.249999999999872
100
AcDbArc
 50
270.0
 51
310.8446268396
  0
ARC
  5
50A
330
1F
100
AcDbEntity
  8
0
  6
Continuous
 62
     7
370
    25
100
AcDbCircle
 10
-132.8
 20
0.0
 30
0.0
 40
85.12466460588757
100
AcDbArc
 50
310.8446268396
 51
318.0685211128
  0
ARC
  5
50B
330
1F
100
AcDbEntity
  8
0
  6
Continuous
 62
     7
370
    25
100
AcDbCircle
 10
-69.1
 20
-57.2179446404
 30
0.0
 40
0.5000000000000142
100
AcDbArc
 50
0.0
 51
138.0685211128
  0
ARC
  5
50C
330
1F
100
AcDbEntity
  8
0
  6
Continuous
 62
     7
370
    25
100
AcDbCircle
 10
-67.35
 20
-63.45
 30
0.0
 40
1.25
100
AcDbArc
 50
180.0
 51
270.0
  0
ARC
  5
50D
330
1F
100
AcDbEntity
  8
0
  6
Continuous
 62
     7
370
    25
100
AcDbCircle
 10
-11.5451290882
 20
-63.45
 30
0.0
 40
1.249999999999999
100
AcDbArc
 50
270.0
 51
310.8446268396
  0
ARC
  5
50E
330
1F
100
AcDbEntity
  8
0
  6
Continuous
 62
     7
370
    25
100
AcDbCircle
 10
-66.4
 20
0.0
 30
0.0
 40
85.12466460587777
100
AcDbArc
 50
310.8446268396
 51
318.0685211128
  0
ARC
  5
50F
330
1F
100
AcDbEntity
  8
0
  6
Continuous
 62
     7
370
    25
100
AcDbCircle
 10
-2.7
 20
-57.2179446404
 30
0.0
 40
0.4999999999999929
100
AcDbArc
 50
0.0
 51
138.0685211128
  0
ARC
  5
510
330
1F
100
AcDbEntity
  8
0
  6
Continuous
 62
     7
370
    25
100
AcDbCircle
 10
-0.95
 20
-63.45
 30
0.0
 40
1.250000000000021
100
AcDbArc
 50
180.0
 51
270.0
  0
ARC
  5
511
330
1F
100
AcDbEntity
  8
0
  6
Continuous
 62
     7
370
    25
100
AcDbCircle
 10
54.8548709118
 20
-63.45
 30
0.0
 40
1.250000000000117
100
AcDbArc
 50
270.0
 51
310.8446268396
  0
ARC
  5
512
330
1F
100
AcDbEntity
  8
0
  6
Continuous
 62
     7
370
    25
100
AcDbCircle
 10
0.0
 20
0.0
 30
0.0
 40
85.12466460588081
100
AcDbArc
 50
310.8446268396
 51
318.0685211128
  0
ARC
  5
513
330
1F
100
AcDbEntity
  8
0
  6
Continuous
 62
     7
370
    25
100
AcDbCircle
 10
-77.9451290882
 20
-198.35
 30
0.0
 40
1.249999999999838
100
AcDbArc
 50
270.0
 51
310.8446268396
  0
ARC
  5
514
330
1F
100
AcDbEntity
  8
0
  6
Continuous
 62
     7
370
    25
100
AcDbCircle
 10
-132.8
 20
-134.9
 30
0.0
 40
85.1246646058886
100
AcDbArc
 50
310.8446268396
 51
318.0685211128
  0
ARC
  5
515
330
1F
100
AcDbEntity
  8
0
  6
Continuous
 62
     7
370
    25
100
AcDbCircle
 10
-69.1
 20
-192.1179446404
 30
0.0
 40
0.5
100
AcDbArc
 50
0.0
 51
138.0685211128
  0
ARC
  5
516
330
1F
100
AcDbEntity
  8
0
  6
Continuous
 62
     7
370
    25
100
AcDbCircle
 10
-67.35
 20
-198.35
 30
0.0
 40
1.25
100
AcDbArc
 50
180.0
 51
270.0
  0
ARC
  5
517
330
1F
100
AcDbEntity
  8
0
  6
Continuous
 62
     7
370
    25
100
AcDbCircle
 10
-11.5451290882
 20
-198.35
 30
0.0
 40
1.250000000000119
100
AcDbArc
 50
270.0
 51
310.8446268396
  0
ARC
  5
518
330
1F
100
AcDbEntity
  8
0
  6
Continuous
 62
     7
370
    25
100
AcDbCircle
 10
-66.4
 20
-134.9
 30
0.0
 40
85.12466460589003
100
AcDbArc
 50
310.8446268396
 51
318.0685211128
  0
ARC
  5
519
330
1F
100
AcDbEntity
  8
0
  6
Continuous
 62
     7
370
    25
100
AcDbCircle
 10
-2.7
 20
-192.1179446404
 30
0.0
 40
0.5000000000000036
100
AcDbArc
 50
0.0
 51
138.0685211128
  0
ARC
  5
51A
330
1F
100
AcDbEntity
  8
0
  6
Continuous
 62
     7
370
    25
100
AcDbCircle
 10
-0.95
 20
-198.35
 30
0.0
 40
1.249999999999983
100
AcDbArc
 50
180.0
 51
270.0
  0
ARC
  5
51B
330
1F
100
AcDbEntity
  8
0
  6
Continuous
 62
     7
370
    25
100
AcDbCircle
 10
54.8548709118
 20
-198.35
 30
0.0
 40
1.249999999999729
100
AcDbArc
 50
270.0
 51
310.8446268396
  0
ARC
  5
51C
330
1F
100
AcDbEntity
  8
0
  6
Continuous
 62
     7
370
    25
100
AcDbCircle
 10
0.0
 20
-134.9
 30
0.0
 40
85.12466460588672
100
AcDbArc
 50
310.8446268396
 51
318.0685211128
  0
ARC
  5
51D
330
1F
100
AcDbEntity
  8
0
  6
Continuous
 62
     7
370
    25
100
AcDbCircle
 10
63.7
 20
-192.1179446404
 30
0.0
 40
0.4999999999999929
100
AcDbArc
 50
360.0
 51
138.0685211128
  0
ARC
  5
51E
330
1F
100
AcDbEntity
  8
0
  6
Continuous
 62
     7
370
    25
100
AcDbCircle
 10
65.45
 20
-198.35
 30
0.0
 40
1.25
100
AcDbArc
 50
180.0
 51
270.0
  0
ARC
  5
51F
330
1F
100
AcDbEntity
  8
0
  6
Continuous
 62
     7
370
    25
100
AcDbCircle
 10
121.2548709118
 20
-198.35
 30
0.0
 40
1.249999999999869
100
AcDbArc
 50
270.0
 51
310.8446268396
  0
ARC
  5
520
330
1F
100
AcDbEntity
  8
0
  6
Continuous
 62
     7
370
    25
100
AcDbCircle
 10
66.4
 20
-134.9
 30
0.0
 40
85.12466460590028
100
AcDbArc
 50
310.8446268396
 51
319.1553731604
  0
ARC
  5
521
330
1F
100
AcDbEntity
  8
0
  6
Continuous
 62
     7
370
    25
100
AcDbCircle
 10
129.85
 20
-189.7548709118
 30
0.0
 40
1.250000000000028
100
AcDbArc
 50
319.1553731604
 51
0.0
  0
ARC
  5
522
330
1F
100
AcDbEntity
  8
0
  6
Continuous
 62
     7
370
    25
100
AcDbCircle
 10
129.85
 20
-80.0451290882
 30
0.0
 40
1.249999999999773
100
AcDbArc
 50
360.0
 51
40.8446268396
  0
ARC
  5
523
330
1F
100
AcDbEntity
  8
0
  6
Continuous
 62
     7
370
    25
100
AcDbCircle
 10
66.4
 20
-134.9
 30
0.0
 40
85.12466460589071
100
AcDbArc
 50
40.8446268396
 51
49.1553731604
  0
ARC
  5
524
330
1F
100
AcDbEntity
  8
0
  6
Continuous
 62
     7
370
    25
100
AcDbCircle
 10
121.2548709118
 20
-71.45
 30
0.0
 40
1.250000000000057
100
AcDbArc
 50
49.1553731604
 51
90.0
  0
ARC
  5
525
330
1F
100
AcDbEntity
  8
0
  6
Continuous
 62
     7
370
    25
100
AcDbCircle
 10
65.45
 20
-71.45
 30
0.0
 40
1.25
100
AcDbArc
 50
90.0
 51
180.0
  0
ARC
  5
526
330
1F
100
AcDbEntity
  8
0
  6
Continuous
 62
     7
370
    25
100
AcDbCircle
 10
63.7
 20
-77.6820553596
 30
0.0
 40
0.5000000000000071
100
AcDbArc
 50
221.9314788872
 51
0.0
  0
ARC
  5
527
330
1F
100
AcDbEntity
  8
0
  6
Continuous
 62
     7
370
    25
100
AcDbCircle
 10
0.0
 20
-134.9
 30
0.0
 40
85.12466460588995
100
AcDbArc
 50
41.9314788872
 51
49.1553731604
  0
ARC
  5
528
330
1F
100
AcDbEntity
  8
0
  6
Continuous
 62
     7
370
    25
100
AcDbCircle
 10
54.8548709118
 20
-71.45
 30
0.0
 40
1.250000000000014
100
AcDbArc
 50
49.1553731604
 51
90.0
  0
ARC
  5
529
330
1F
100
AcDbEntity
  8
0
  6
Continuous
 62
     7
370
    25
100
AcDbCircle
 10
-0.95
 20
-71.45
 30
0.0
 40
1.25
100
AcDbArc
 50
90.0
 51
180.0
  0
ARC
  5
52A
330
1F
100
AcDbEntity
  8
0
  6
Continuous
 62
     7
370
    25
100
AcDbCircle
 10
-2.7
 20
-77.6820553596
 30
0.0
 40
0.5000000000000027
100
AcDbArc
 50
221.9314788872
 51
360.0
  0
ARC
  5
52B
330
1F
100
AcDbEntity
  8
0
  6
Continuous
 62
     7
370
    25
100
AcDbCircle
 10
-66.4
 20
-134.9
 30
0.0
 40
85.12466460589202
100
AcDbArc
 50
41.9314788872
 51
49.1553731604
  0
ARC
  5
52C
330
1F
100
AcDbEntity
  8
0
  6
Continuous
 62
     7
370
    25
100
AcDbCircle
 10
-11.5451290882
 20
-71.45
 30
0.0
 40
1.249999999999943
100
AcDbArc
 50
49.1553731604
 51
90.0
  0
ARC
  5
52D
330
1F
100
AcDbEntity
  8
0
  6
Continuous
 62
     7
370
    25
100
AcDbCircle
 10
-67.35
 20
-71.45
 30
0.0
 40
1.25
100
AcDbArc
 50
90.0
 51
180.0
  0
ARC
  5
52E
330
1F
100
AcDbEntity
  8
0
  6
Continuous
 62
     7
370
    25
100
AcDbCircle
 10
-69.1
 20
-77.6820553596
 30
0.0
 40
0.5000000000000377
100
AcDbArc
 50
221.9314788872
 51
0.0
  0
ARC
  5
52F
330
1F
100
AcDbEntity
  8
0
  6
Continuous
 62
     7
370
    25
100
AcDbCircle
 10
-132.8
 20
-134.9
 30
0.0
 40
85.12466460588897
100
AcDbArc
 50
41.9314788872
 51
49.1553731604
  0
ARC
  5
530
330
1F
100
AcDbEntity
  8
0
  6
Continuous
 62
     7
370
    25
100
AcDbCircle
 10
-77.9451290882
 20
-71.45
 30
0.0
 40
1.249999999999915
100
AcDbArc
 50
49.1553731604
 51
90.0
  0
ARC
  5
531
330
1F
100
AcDbEntity
  8
0
  6
Continuous
 62
     7
370
    25
100
AcDbCircle
 10
-133.75
 20
-71.45
 30
0.0
 40
1.249999999999943
100
AcDbArc
 50
90.0
 51
180.0
  0
ARC
  5
532
330
1F
100
AcDbEntity
  8
0
  6
Continuous
 62
     7
370
    25
100
AcDbCircle
 10
-133.75
 20
-198.35
 30
0.0
 40
1.249999999999972
100
AcDbArc
 50
180.0
 51
270.0
  0
ARC
  5
533
330
1F
100
AcDbEntity
  8
0
  6
Continuous
 62
     7
370
    25
100
AcDbCircle
 10
133.6
 20
-212.95
 30
0.0
 40
2.500000000000057
100
AcDbArc
 50
180.0
 51
270.0
  0
ARC
  5
534
330
1F
100
AcDbEntity
  8
0
  6
Continuous
 62
     7
370
    25
100
AcDbCircle
 10
128.6
 20
-208.1
 30
0.0
 40
2.5
100
AcDbArc
 50
0.0
 51
90.0
  0
ARC
  5
535
330
1F
100
AcDbEntity
  8
0
  6
Continuous
 62
     7
370
    25
100
AcDbCircle
 10
-132.5
 20
-208.1
 30
0.0
 40
2.5
100
AcDbArc
 50
90.0
 51
180.0
  0
ARC
  5
536
330
1F
100
AcDbEntity
  8
0
  6
Continuous
 62
     7
370
    25
100
AcDbCircle
 10
-137.5
 20
-212.95
 30
0.0
 40
2.499999999999915
100
AcDbArc
 50
270.0
 51
0.0
  0
ARC
  5
537
330
1F
100
AcDbEntity
  8
0
  6
Continuous
 62
     7
370
    25
100
AcDbCircle
 10
-139.95
 20
-205.45
 30
0.0
 40
10.00000000000028
100
AcDbArc
 50
180.0
 51
270.0
  0
ARC
  5
538
330
1F
100
AcDbEntity
  8
0
  6
Continuous
 62
     7
370
    25
100
AcDbCircle
 10
-139.95
 20
70.55
 30
0.0
 40
10.00000000000031
100
AcDbArc
 50
90.0
 51
180.0
  0
ARC
  5
539
330
1F
100
AcDbEntity
  8
0
  6
Continuous
 62
     7
370
    25
100
AcDbCircle
 10
136.05
 20
70.55
 30
0.0
 40
9.999999999997954
100
AcDbArc
 50
0.0
 51
90.0
  0
ARC
  5
53A
330
1F
100
AcDbEntity
  8
0
  6
Continuous
 62
     7
370
    25
100
AcDbCircle
 10
136.05
 20
-205.45
 30
0.0
 40
10.0
100
AcDbArc
 50
270.0
 51
0.0
  0
ARC
  5
53B
330
1F
100
AcDbEntity
  8
0
  6
Continuous
 62
     7
370
    25
100
AcDbCircle
 10
-141.0106601718
 20
-206.5106601718
 30
0.0
 40
0.7500000000011114
100
AcDbArc
 50
135.0000000001
 51
314.9999999999
  0
ARC
  5
53C
330
1F
100
AcDbEntity
  8
0
  6
Continuous
 62
     7
370
    25
100
AcDbCircle
 10
-138.8893398282
 20
-204.3893398282
 30
0.0
 40
0.7500000000005487
100
AcDbArc
 50
314.9999999999
 51
135.0000000001
  0
ARC
  5
53D
330
1F
100
AcDbEntity
  8
0
  6
Continuous
 62
     7
370
    25
100
AcDbCircle
 10
134.9893398282
 20
69.4893398282
 30
0.0
 40
0.7500000000005487
100
AcDbArc
 50
134.9999999999
 51
315.0000000001
  0
ARC
  5
53E
330
1F
100
AcDbEntity
  8
0
  6
Continuous
 62
     7
370
    25
100
AcDbCircle
 10
137.1106601718
 20
71.6106601718
 30
0.0
 40
0.7500000000011616
100
AcDbArc
 50
315.0000000001
 51
134.9999999999
  0
ARC
  5
53F
330
1F
100
AcDbEntity
  8
0
  6
Continuous
 62
     7
370
    25
100
AcDbCircle
 10
-138.8893398282
 20
69.4893398282
 30
0.0
 40
0.7500000000005588
100
AcDbArc
 50
225.0000000001
 51
44.9999999999
  0
ARC
  5
540
330
1F
100
AcDbEntity
  8
0
  6
Continuous
 62
     7
370
    25
100
AcDbCircle
 10
-141.0106601718
 20
71.6106601718
 30
0.0
 40
0.7500000000011616
100
AcDbArc
 50
44.9999999999
 51
225.0000000001
  0
ARC
  5
541
330
1F
100
AcDbEntity
  8
0
  6
Continuous
 62
     7
370
    25
100
AcDbCircle
 10
137.1106601718
 20
-206.5106601718
 30
0.0
 40
0.7500000000011516
100
AcDbArc
 50
224.9999999999
 51
45.0000000001
  0
ARC
  5
542
330
1F
100
AcDbEntity
  8
0
  6
Continuous
 62
     7
370
    25
100
AcDbCircle
 10
134.9893398282
 20
-204.3893398282
 30
0.0
 40
0.7500000000005488
100
AcDbArc
 50
45.0000000001
 51
224.9999999999
  0
ENDSEC
  0
SECTION
  2
OBJECTS
  0
DICTIONARY
  5
C
330
0
100
AcDbDictionary
281
     1
  3
ACAD_GROUP
350
D
  3
ACAD_LAYOUT
350
1A
  3
ACAD_MLINESTYLE
350
17
  3
ACAD_PLOTSETTINGS
350
19
  3
ACAD_PLOTSTYLENAME
350
E
  3
ACAD_SCALELIST
350
47
  3
DWGPROPS
350
543
  0
DICTIONARY
  5
D
102
{ACAD_REACTORS
330
C
102
}
330
C
100
AcDbDictionary
281
     1
  0
DICTIONARY
  5
1A
102
{ACAD_REACTORS
330
C
102
}
330
C
100
AcDbDictionary
281
     1
  3
Layout1
350
1E
  3
Layout2
350
26
  3
Model
350
22
  0
DICTIONARY
  5
17
102
{ACAD_REACTORS
330
C
102
}
330
C
100
AcDbDictionary
281
     1
  3
Standard
350
18
  0
DICTIONARY
  5
19
102
{ACAD_REACTORS
330
C
102
}
330
C
100
AcDbDictionary
281
     1
  0
ACDBDICTIONARYWDFLT
  5
E
102
{ACAD_REACTORS
330
C
102
}
330
C
100
AcDbDictionary
281
     1
  3
Normal
350
F
100
AcDbDictionaryWithDefault
340
F
  0
DICTIONARY
  5
47
102
{ACAD_REACTORS
330
C
102
}
330
C
100
AcDbDictionary
281
     1
  3
A0
350
48
  3
A1
350
49
  3
A2
350
4A
  3
A3
350
4B
  3
A4
350
4C
  3
A5
350
4D
  3
A6
350
4E
  3
A7
350
4F
  3
A8
350
50
  3
A9
350
51
  3
B0
350
52
  3
B1
350
53
  3
B2
350
54
  3
B3
350
55
  3
B4
350
56
  3
B5
350
57
  3
B6
350
58
  0
XRECORD
  5
543
102
{ACAD_REACTORS
330
C
102
}
330
C
100
AcDbXrecord
280
     1
  1
DWGPROPS COOKIE
  2

  3

  4

  6

  7

  8
sambo
  9

300
=
301
=
302
=
303
=
304
=
305
=
306
=
307
=
308
=
309
=
 40
0.0
 41
2460215.641386482
 42
2460215.641424884
  1

 90
        0
  0
LAYOUT
  5
1E
102
{ACAD_REACTORS
330
1A
102
}
330
1A
100
AcDbPlotSettings
  1

  2
none_device
  4

  6

 40
0.0
 41
0.0
 42
0.0
 43
0.0
 44
0.0
 45
0.0
 46
0.0
 47
0.0
 48
0.0
 49
0.0
140
0.0
141
0.0
142
1.0
143
1.0
 70
   688
 72
     1
 73
     0
 74
     5
  7

 75
    16
147
1.0
148
0.0
149
0.0
100
AcDbLayout
  1
Layout1
 70
     1
 71
     1
 10
0.0
 20
0.0
 11
420.0
 21
297.0
 12
0.0
 22
0.0
 32
0.0
 14
1.0000000000E+20
 24
1.0000000000E+20
 34
1.0000000000E+20
 15
-1.0000000000E+20
 25
-1.0000000000E+20
 35
-1.0000000000E+20
146
0.0
 13
0.0
 23
0.0
 33
0.0
 16
1.0
 26
0.0
 36
0.0
 17
0.0
 27
1.0
 37
0.0
 76
     0
330
1B
  0
LAYOUT
  5
26
102
{ACAD_REACTORS
330
1A
102
}
330
1A
100
AcDbPlotSettings
  1

  2
none_device
  4

  6

 40
0.0
 41
0.0
 42
0.0
 43
0.0
 44
0.0
 45
0.0
 46
0.0
 47
0.0
 48
0.0
 49
0.0
140
0.0
141
0.0
142
1.0
143
1.0
 70
   688
 72
     1
 73
     0
 74
     5
  7

 75
    16
147
1.0
148
0.0
149
0.0
100
AcDbLayout
  1
Layout2
 70
     1
 71
     2
 10
0.0
 20
0.0
 11
0.0
 21
0.0
 12
0.0
 22
0.0
 32
0.0
 14
0.0
 24
0.0
 34
0.0
 15
0.0
 25
0.0
 35
0.0
146
0.0
 13
0.0
 23
0.0
 33
0.0
 16
1.0
 26
0.0
 36
0.0
 17
0.0
 27
1.0
 37
0.0
 76
     0
330
23
  0
LAYOUT
  5
22
102
{ACAD_REACTORS
330
1A
102
}
330
1A
100
AcDbPlotSettings
  1

  2
none_device
  4
ANSI_A_(11.00_x_8.50_Inches)
  6

 40
6.35
 41
19.05
 42
6.35000508
 43
19.05000254
 44
279.4
 45
215.9
 46
134.7580885073
 47
137.605507007
 48
0.0
 49
0.0
140
0.0
141
0.0
142
0.0284290541
143
1.0
 70
  1696
 72
     0
 73
     0
 74
     0
  7

 75
     0
147
0.0179189148
148
-1300.4909072572
149
0.0
100
AcDbLayout
  1
Model
 70
     1
 71
     0
 10
0.0
 20
0.0
 11
420.0
 21
297.0
 12
0.0
 22
0.0
 32
0.0
 14
-149.95
 24
-215.45
 34
0.0
 15
146.05
 25
80.55
 35
0.0
146
0.0
 13
0.0
 23
0.0
 33
0.0
 16
1.0
 26
0.0
 36
0.0
 17
0.0
 27
1.0
 37
0.0
 76
     0
330
1F
331
29
  0
MLINESTYLE
  5
18
102
{ACAD_REACTORS
330
17
102
}
330
17
100
AcDbMlineStyle
  2
Standard
 70
     0
  3

 62
   256
 51
90.0
 52
90.0
 71
     2
 49
0.5
 62
   256
  6
BYLAYER
 49
-0.5
 62
   256
  6
BYLAYER
  0
ACDBPLACEHOLDER
  5
F
102
{ACAD_REACTORS
330
E
102
}
330
E
  0
SCALE
  5
48
102
{ACAD_REACTORS
330
47
102
}
330
47
100
AcDbScale
 70
     0
300
1:1
140
1.0
141
1.0
290
     1
  0
SCALE
  5
49
102
{ACAD_REACTORS
330
47
102
}
330
47
100
AcDbScale
 70
     0
300
1:2
140
1.0
141
2.0
290
     0
  0
SCALE
  5
4A
102
{ACAD_REACTORS
330
47
102
}
330
47
100
AcDbScale
 70
     0
300
1:4
140
1.0
141
4.0
290
     0
  0
SCALE
  5
4B
102
{ACAD_REACTORS
330
47
102
}
330
47
100
AcDbScale
 70
     0
300
1:5
140
1.0
141
5.0
290
     0
  0
SCALE
  5
4C
102
{ACAD_REACTORS
330
47
102
}
330
47
100
AcDbScale
 70
     0
300
1:8
140
1.0
141
8.0
290
     0
  0
SCALE
  5
4D
102
{ACAD_REACTORS
330
47
102
}
330
47
100
AcDbScale
 70
     0
300
1:10
140
1.0
141
10.0
290
     0
  0
SCALE
  5
4E
102
{ACAD_REACTORS
330
47
102
}
330
47
100
AcDbScale
 70
     0
300
1:16
140
1.0
141
16.0
290
     0
  0
SCALE
  5
4F
102
{ACAD_REACTORS
330
47
102
}
330
47
100
AcDbScale
 70
     0
300
1:20
140
1.0
141
20.0
290
     0
  0
SCALE
  5
50
102
{ACAD_REACTORS
330
47
102
}
330
47
100
AcDbScale
 70
     0
300
1:30
140
1.0
141
30.0
290
     0
  0
SCALE
  5
51
102
{ACAD_REACTORS
330
47
102
}
330
47
100
AcDbScale
 70
     0
300
1:40
140
1.0
141
40.0
290
     0
  0
SCALE
  5
52
102
{ACAD_REACTORS
330
47
102
}
330
47
100
AcDbScale
 70
     0
300
1:50
140
1.0
141
50.0
290
     0
  0
SCALE
  5
53
102
{ACAD_REACTORS
330
47
102
}
330
47
100
AcDbScale
 70
     0
300
1:100
140
1.0
141
100.0
290
     0
  0
SCALE
  5
54
102
{ACAD_REACTORS
330
47
102
}
330
47
100
AcDbScale
 70
     0
300
2:1
140
2.0
141
1.0
290
     0
  0
SCALE
  5
55
102
{ACAD_REACTORS
330
47
102
}
330
47
100
AcDbScale
 70
     0
300
4:1
140
4.0
141
1.0
290
     0
  0
SCALE
  5
56
102
{ACAD_REACTORS
330
47
102
}
330
47
100
AcDbScale
 70
     0
300
8:1
140
8.0
141
1.0
290
     0
  0
SCALE
  5
57
102
{ACAD_REACTORS
330
47
102
}
330
47
100
AcDbScale
 70
     0
300
10:1
140
10.0
141
1.0
290
     0
  0
SCALE
  5
58
102
{ACAD_REACTORS
330
47
102
}
330
47
100
AcDbScale
 70
     0
300
100:1
140
100.0
141
1.0
290
     0
  0
ENDSEC
  0
EOF
