  0
SECTION
  2
HEADER
  9
$ACADVER
  1
AC1015
  9
$ACADMAINTVER
 70
     6
  9
$DWGCODEPAGE
  3
ANSI_1252
  9
$INSBASE
 10
0.0
 20
0.0
 30
0.0
  9
$EXTMIN
 10
-184.95
 20
-67.45
 30
0.0
  9
$EXTMAX
 10
-1.95
 20
115.55
 30
0.0
  9
$LIMMIN
 10
0.0
 20
0.0
  9
$LIMMAX
 10
420.0
 20
297.0
  9
$ORTHOMODE
 70
     0
  9
$REGENMODE
 70
     1
  9
$FILLMODE
 70
     1
  9
$QTEXTMODE
 70
     0
  9
$MIRRTEXT
 70
     1
  9
$LTSCALE
 40
1.0
  9
$ATTMODE
 70
     1
  9
$TEXTSIZE
 40
3.5
  9
$TRACEWID
 40
1.0
  9
$TEXTSTYLE
  7
Standard
  9
$CLAYER
  8
0
  9
$CELTYPE
  6
ByLayer
  9
$CECOLOR
 62
   256
  9
$CELTSCALE
 40
1.0
  9
$DISPSILH
 70
     0
  9
$DIMSCALE
 40
1.0
  9
$DIMASZ
 40
3.556
  9
$DIMEXO
 40
0.0
  9
$DIMDLI
 40
3.75
  9
$DIMRND
 40
0.0
  9
$DIMDLE
 40
0.0
  9
$DIMEXE
 40
1.0
  9
$DIMTP
 40
0.0
  9
$DIMTM
 40
0.0
  9
$DIMTXT
 40
3.5
  9
$DIMCEN
 40
2.5
  9
$DIMTSZ
 40
0.0
  9
$DIMTOL
 70
     0
  9
$DIMLIM
 70
     0
  9
$DIMTIH
 70
     1
  9
$DIMTOH
 70
     1
  9
$DIMSE1
 70
     0
  9
$DIMSE2
 70
     0
  9
$DIMTAD
 70
     1
  9
$DIMZIN
 70
     1
  9
$DIMBLK
  1

  9
$DIMASO
 70
     1
  9
$DIMSHO
 70
     1
  9
$DIMPOST
  1

  9
$DIMAPOST
  1

  9
$DIMALT
 70
     0
  9
$DIMALTD
 70
     3
  9
$DIMALTF
 40
0.0393700787
  9
$DIMLFAC
 40
1.0
  9
$DIMTOFL
 70
     1
  9
$DIMTVP
 40
0.0
  9
$DIMTIX
 70
     0
  9
$DIMSOXD
 70
     0
  9
$DIMSAH
 70
     0
  9
$DIMBLK1
  1

  9
$DIMBLK2
  1

  9
$DIMSTYLE
  2
ISO-25
  9
$DIMCLRD
 70
     0
  9
$DIMCLRE
 70
     0
  9
$DIMCLRT
 70
     0
  9
$DIMTFAC
 40
1.0
  9
$DIMGAP
 40
1.524
  9
$DIMJUST
 70
     0
  9
$DIMSD1
 70
     0
  9
$DIMSD2
 70
     0
  9
$DIMTOLJ
 70
     0
  9
$DIMTZIN
 70
     1
  9
$DIMALTZ
 70
     0
  9
$DIMALTTZ
 70
     0
  9
$DIMUPT
 70
     0
  9
$DIMDEC
 70
     2
  9
$DIMTDEC
 70
     2
  9
$DIMALTU
 70
     2
  9
$DIMALTTD
 70
     3
  9
$DIMTXSTY
  7
Standard
  9
$DIMAUNIT
 70
     0
  9
$DIMADEC
 70
     2
  9
$DIMALTRND
 40
0.0
  9
$DIMAZIN
 70
     0
  9
$DIMDSEP
 70
    44
  9
$DIMATFIT
 70
     3
  9
$DIMFRAC
 70
     0
  9
$DIMLDRBLK
  1

  9
$DIMLUNIT
 70
     2
  9
$DIMLWD
 70
    -2
  9
$DIMLWE
 70
    -2
  9
$DIMTMOVE
 70
     0
  9
$LUNITS
 70
     2
  9
$LUPREC
 70
     6
  9
$SKETCHINC
 40
1.0
  9
$FILLETRAD
 40
0.0
  9
$AUNITS
 70
     0
  9
$AUPREC
 70
     2
  9
$MENU
  1
.
  9
$ELEVATION
 40
0.0
  9
$PELEVATION
 40
0.0
  9
$THICKNESS
 40
0.0
  9
$LIMCHECK
 70
     0
  9
$CHAMFERA
 40
0.0
  9
$CHAMFERB
 40
0.0
  9
$CHAMFERC
 40
0.0
  9
$CHAMFERD
 40
0.0
  9
$SKPOLY
 70
     0
  9
$TDCREATE
 40
2460215.725675139
  9
$TDUCREATE
 40
2460215.642341806
  9
$TDUPDATE
 40
2460215.72569059
  9
$TDUUPDATE
 40
2460215.642357257
  9
$TDINDWG
 40
0.0000000116
  9
$TDUSRTIMER
 40
0.0000000116
  9
$USRTIMER
 70
     1
  9
$ANGBASE
 50
0.0
  9
$ANGDIR
 70
     0
  9
$PDMODE
 70
     0
  9
$PDSIZE
 40
-1.0
  9
$PLINEWID
 40
0.0
  9
$SPLFRAME
 70
     0
  9
$SPLINETYPE
 70
     6
  9
$SPLINESEGS
 70
     8
  9
$HANDSEED
  5
101
  9
$SURFTAB1
 70
     6
  9
$SURFTAB2
 70
     6
  9
$SURFTYPE
 70
     6
  9
$SURFU
 70
     6
  9
$SURFV
 70
     6
  9
$UCSBASE
  2

  9
$UCSNAME
  2

  9
$UCSORG
 10
0.0
 20
0.0
 30
0.0
  9
$UCSXDIR
 10
1.0
 20
0.0
 30
0.0
  9
$UCSYDIR
 10
0.0
 20
1.0
 30
0.0
  9
$UCSORTHOREF
  2

  9
$UCSORTHOVIEW
 70
     0
  9
$UCSORGTOP
 10
0.0
 20
0.0
 30
0.0
  9
$UCSORGBOTTOM
 10
0.0
 20
0.0
 30
0.0
  9
$UCSORGLEFT
 10
0.0
 20
0.0
 30
0.0
  9
$UCSORGRIGHT
 10
0.0
 20
0.0
 30
0.0
  9
$UCSORGFRONT
 10
0.0
 20
0.0
 30
0.0
  9
$UCSORGBACK
 10
0.0
 20
0.0
 30
0.0
  9
$PUCSBASE
  2

  9
$PUCSNAME
  2

  9
$PUCSORG
 10
0.0
 20
0.0
 30
0.0
  9
$PUCSXDIR
 10
1.0
 20
0.0
 30
0.0
  9
$PUCSYDIR
 10
0.0
 20
1.0
 30
0.0
  9
$PUCSORTHOREF
  2

  9
$PUCSORTHOVIEW
 70
     0
  9
$PUCSORGTOP
 10
0.0
 20
0.0
 30
0.0
  9
$PUCSORGBOTTOM
 10
0.0
 20
0.0
 30
0.0
  9
$PUCSORGLEFT
 10
0.0
 20
0.0
 30
0.0
  9
$PUCSORGRIGHT
 10
0.0
 20
0.0
 30
0.0
  9
$PUCSORGFRONT
 10
0.0
 20
0.0
 30
0.0
  9
$PUCSORGBACK
 10
0.0
 20
0.0
 30
0.0
  9
$USERI1
 70
     0
  9
$USERI2
 70
     0
  9
$USERI3
 70
     0
  9
$USERI4
 70
     0
  9
$USERI5
 70
     0
  9
$USERR1
 40
0.0
  9
$USERR2
 40
0.0
  9
$USERR3
 40
0.0
  9
$USERR4
 40
0.0
  9
$USERR5
 40
0.0
  9
$WORLDVIEW
 70
     1
  9
$SHADEDGE
 70
     3
  9
$SHADEDIF
 70
    70
  9
$TILEMODE
 70
     1
  9
$MAXACTVP
 70
    64
  9
$PINSBASE
 10
0.0
 20
0.0
 30
0.0
  9
$PLIMCHECK
 70
     0
  9
$PEXTMIN
 10
1.0000000000E+20
 20
1.0000000000E+20
 30
1.0000000000E+20
  9
$PEXTMAX
 10
-1.0000000000E+20
 20
-1.0000000000E+20
 30
-1.0000000000E+20
  9
$PLIMMIN
 10
0.0
 20
0.0
  9
$PLIMMAX
 10
420.0
 20
297.0
  9
$UNITMODE
 70
     0
  9
$VISRETAIN
 70
     1
  9
$PLINEGEN
 70
     0
  9
$PSLTSCALE
 70
     1
  9
$TREEDEPTH
 70
  3020
  9
$CMLSTYLE
  2
Standard
  9
$CMLJUST
 70
     0
  9
$CMLSCALE
 40
20.0
  9
$PROXYGRAPHICS
 70
     1
  9
$MEASUREMENT
 70
     1
  9
$CELWEIGHT
370
    -1
  9
$ENDCAPS
280
     0
  9
$JOINSTYLE
280
     0
  9
$LWDISPLAY
290
     1
  9
$INSUNITS
 70
     4
  9
$HYPERLINKBASE
  1

  9
$STYLESHEET
  1

  9
$XEDIT
290
     1
  9
$CEPSNTYPE
380
     0
  9
$PSTYLEMODE
290
     1
  9
$FINGERPRINTGUID
  2
{25bfd15b-1e68-472d-ad59-a9715c3e1320}
  9
$VERSIONGUID
  2
{FAEB1C32-E019-11D5-929B-00C0DF256EC4}
  9
$EXTNAMES
290
     1
  9
$PSVPSCALE
 40
0.0
  9
$OLESTARTUP
290
     0
  0
ENDSEC
  0
SECTION
  2
CLASSES
  0
CLASS
  1
ACDBDICTIONARYWDFLT
  2
AcDbDictionaryWithDefault
  3
ObjectDBX Classes
 90
        0
280
     0
281
     0
  0
CLASS
  1
VISUALSTYLE
  2
AcDbVisualStyle
  3
ObjectDBX Classes
 90
     4095
280
     0
281
     0
  0
CLASS
  1
MATERIAL
  2
AcDbMaterial
  3
ObjectDBX Classes
 90
     1153
280
     0
281
     0
  0
CLASS
  1
SCALE
  2
AcDbScale
  3
ObjectDBX Classes
 90
     1153
280
     0
281
     0
  0
CLASS
  1
TABLESTYLE
  2
AcDbTableStyle
  3
ObjectDBX Classes
 90
     4095
280
     0
281
     0
  0
CLASS
  1
MLEADERSTYLE
  2
AcDbMLeaderStyle
  3
ACDB_MLEADERSTYLE_CLASS
 90
     4095
280
     0
281
     0
  0
CLASS
  1
SUN
  2
AcDbSun
  3
SCENEOE
 90
     1153
280
     0
281
     0
  0
CLASS
  1
ACDBPLACEHOLDER
  2
AcDbPlaceHolder
  3
ObjectDBX Classes
 90
        0
280
     0
281
     0
  0
CLASS
  1
LAYOUT
  2
AcDbLayout
  3
ObjectDBX Classes
 90
        0
280
     0
281
     0
  0
ENDSEC
  0
SECTION
  2
TABLES
  0
TABLE
  2
VPORT
  5
8
330
0
100
AcDbSymbolTable
 70
     1
  0
VPORT
  5
29
330
8
100
AcDbSymbolTableRecord
100
AcDbViewportTableRecord
  2
*Active
 70
     0
 10
0.0
 20
0.0
 11
1.0
 21
1.0
 12
-93.45
 22
24.05
 13
0.0
 23
0.0
 14
10.0
 24
10.0
 15
10.0
 25
10.0
 16
0.0
 26
0.0
 36
1.0
 17
0.0
 27
0.0
 37
0.0
 40
186.66
 41
1.0
 42
50.0
 43
0.0
 44
0.0
 50
0.0
 51
0.0
 71
     0
 72
   100
 73
     1
 74
     3
 75
     0
 76
     0
 77
     0
 78
     0
281
     0
 65
     1
110
0.0
120
0.0
130
0.0
111
1.0
121
0.0
131
0.0
112
0.0
122
1.0
132
0.0
 79
     0
146
0.0
  0
ENDTAB
  0
TABLE
  2
LTYPE
  5
5
330
0
100
AcDbSymbolTable
 70
     6
  0
LTYPE
  5
14
330
5
100
AcDbSymbolTableRecord
100
AcDbLinetypeTableRecord
  2
ByBlock
 70
     0
  3

 72
    65
 73
     0
 40
0.0
  0
LTYPE
  5
15
330
5
100
AcDbSymbolTableRecord
100
AcDbLinetypeTableRecord
  2
ByLayer
 70
     0
  3

 72
    65
 73
     0
 40
0.0
  0
LTYPE
  5
16
330
5
100
AcDbSymbolTableRecord
100
AcDbLinetypeTableRecord
  2
Continuous
 70
     0
  3
Solid line
 72
    65
 73
     0
 40
0.0
  0
LTYPE
  5
5E
330
5
100
AcDbSymbolTableRecord
100
AcDbLinetypeTableRecord
  2
HIDDEN
 70
     0
  3
Hidden __ __ __ __ __ __ __ __ __ __ __ __ __ __
 72
    65
 73
     2
 40
1.905
 49
1.27
 74
     0
 49
-0.635
 74
     0
  0
LTYPE
  5
5F
330
5
100
AcDbSymbolTableRecord
100
AcDbLinetypeTableRecord
  2
PHANTOM
 70
     0
  3
Phantom ______  __  __  ______  __  __  ______
 72
    65
 73
     6
 40
12.7
 49
6.35
 74
     0
 49
-1.27
 74
     0
 49
1.27
 74
     0
 49
-1.27
 74
     0
 49
1.27
 74
     0
 49
-1.27
 74
     0
  0
LTYPE
  5
60
330
5
100
AcDbSymbolTableRecord
100
AcDbLinetypeTableRecord
  2
CENTER
 70
     0
  3
Center ____ _ ____ _ ____ _ ____ _ ____ _ ____
 72
    65
 73
     4
 40
10.16
 49
6.35
 74
     0
 49
-1.27
 74
     0
 49
1.27
 74
     0
 49
-1.27
 74
     0
  0
LTYPE
  5
61
330
5
100
AcDbSymbolTableRecord
100
AcDbLinetypeTableRecord
  2
CENTERX2
 70
     0
  3
Center (2x) ________  __  ________  __  _____
 72
    65
 73
     4
 40
20.32
 49
12.7
 74
     0
 49
-2.54
 74
     0
 49
2.54
 74
     0
 49
-2.54
 74
     0
  0
LTYPE
  5
62
330
5
100
AcDbSymbolTableRecord
100
AcDbLinetypeTableRecord
  2
DOT2
 70
     0
  3
Dot (.5x) ........................................
 72
    65
 73
     2
 40
0.635
 49
0.0
 74
     0
 49
-0.635
 74
     0
  0
ENDTAB
  0
TABLE
  2
LAYER
  5
2
330
0
100
AcDbSymbolTable
 70
     1
  0
LAYER
  5
10
330
2
100
AcDbSymbolTableRecord
100
AcDbLayerTableRecord
  2
0
 70
     0
 62
     7
  6
Continuous
370
    -3
390
F
  0
ENDTAB
  0
TABLE
  2
STYLE
  5
3
330
0
100
AcDbSymbolTable
 70
     1
  0
STYLE
  5
11
330
3
100
AcDbSymbolTableRecord
100
AcDbTextStyleTableRecord
  2
Standard
 70
     0
 40
0.0
 41
1.0
 50
0.0
 71
     0
 42
3.5
  3
txt
  4

  0
ENDTAB
  0
TABLE
  2
VIEW
  5
6
330
0
100
AcDbSymbolTable
 70
     0
  0
ENDTAB
  0
TABLE
  2
UCS
  5
7
330
0
100
AcDbSymbolTable
 70
     0
  0
ENDTAB
  0
TABLE
  2
APPID
  5
9
330
0
100
AcDbSymbolTable
 70
     1
  0
APPID
  5
12
330
9
100
AcDbSymbolTableRecord
100
AcDbRegAppTableRecord
  2
ACAD
 70
     0
  0
ENDTAB
  0
TABLE
  2
DIMSTYLE
  5
A
330
0
100
AcDbSymbolTable
 70
     1
100
AcDbDimStyleTable
  0
DIMSTYLE
105
27
330
A
100
AcDbSymbolTableRecord
100
AcDbDimStyleTableRecord
  2
ISO-25
 70
     0
 41
2.5
 42
0.625
 43
3.75
 44
1.25
 73
     0
 74
     0
 77
     1
 78
     8
140
2.5
141
2.5
143
0.0393700787
147
0.625
171
     3
172
     1
178
     0
271
     2
272
     2
274
     3
278
    44
283
     0
284
     8
340
11
  0
ENDTAB
  0
TABLE
  2
BLOCK_RECORD
  5
1
330
0
100
AcDbSymbolTable
 70
     1
  0
BLOCK_RECORD
  5
1F
330
1
100
AcDbSymbolTableRecord
100
AcDbBlockTableRecord
  2
*Model_Space
340
22
  0
BLOCK_RECORD
  5
1B
330
1
100
AcDbSymbolTableRecord
100
AcDbBlockTableRecord
  2
*Paper_Space
340
1E
  0
BLOCK_RECORD
  5
23
330
1
100
AcDbSymbolTableRecord
100
AcDbBlockTableRecord
  2
*Paper_Space0
340
26
  0
ENDTAB
  0
ENDSEC
  0
SECTION
  2
BLOCKS
  0
BLOCK
  5
20
330
1F
100
AcDbEntity
  8
0
100
AcDbBlockBegin
  2
*Model_Space
 70
     0
 10
0.0
 20
0.0
 30
0.0
  3
*Model_Space
  1

  0
ENDBLK
  5
21
330
1F
100
AcDbEntity
  8
0
100
AcDbBlockEnd
  0
BLOCK
  5
1C
330
1B
100
AcDbEntity
 67
     1
  8
0
100
AcDbBlockBegin
  2
*Paper_Space
 70
     0
 10
0.0
 20
0.0
 30
0.0
  3
*Paper_Space
  1

  0
ENDBLK
  5
1D
330
1B
100
AcDbEntity
 67
     1
  8
0
100
AcDbBlockEnd
  0
BLOCK
  5
24
330
23
100
AcDbEntity
  8
0
100
AcDbBlockBegin
  2
*Paper_Space0
 70
     0
 10
0.0
 20
0.0
 30
0.0
  3
*Paper_Space0
  1

  0
ENDBLK
  5
25
330
23
100
AcDbEntity
  8
0
100
AcDbBlockEnd
  0
ENDSEC
  0
SECTION
  2
ENTITIES
  0
SPLINE
  5
79
330
1F
100
AcDbEntity
  8
0
  6
Continuous
 62
     7
370
    25
100
AcDbSpline
210
0.0
220
0.0
230
1.0
 70
     8
 71
     3
 72
    11
 73
     7
 74
     0
 42
0.00000001
 43
0.00000001
 40
0.0
 40
0.0
 40
0.0
 40
0.0
 40
0.2756221007680206
 40
0.5206609855537796
 40
0.7569467245453195
 40
0.9999999999999999
 40
0.9999999999999999
 40
0.9999999999999999
 40
0.9999999999999999
 10
-55.10102356674113
 20
101.9168358898929
 30
0.0
 10
-55.04457388238867
 20
101.9156910994261
 30
0.0
 10
-54.93793820909813
 20
101.9135285452221
 30
0.0
 10
-54.78428297825918
 20
101.8916520528226
 30
0.0
 10
-54.6390404541509
 20
101.861601958143
 30
0.0
 10
-54.54433418278687
 20
101.8359216344707
 30
0.0
 10
-54.49631249298614
 20
101.8229001891154
 30
0.0
  0
SPLINE
  5
7A
330
1F
100
AcDbEntity
  8
0
  6
Continuous
 62
     7
370
    25
100
AcDbSpline
210
0.0
220
0.0
230
1.0
 70
     8
 71
     3
 72
    19
 73
    15
 74
     0
 42
0.00000001
 43
0.00000001
 40
0.0
 40
0.0
 40
0.0
 40
0.0
 40
0.1393178974407157
 40
0.2688200909301687
 40
0.3903981826234262
 40
0.5057387569377119
 40
0.5623277832398548
 40
0.6197403659412881
 40
0.6775617936341246
 40
0.7370503358989507
 40
0.7988965416212953
 40
0.8628417406263742
 40
0.9300987944543833
 40
1.0
 40
1.0
 40
1.0
 40
1.0
 10
-56.6345238819334
 20
100.8130914057576
 30
0.0
 10
-56.59279372497616
 20
100.8970262467947
 30
0.0
 10
-56.51227352768746
 20
101.0589822625995
 30
0.0
 10
-56.36751614257805
 20
101.2786407735947
 30
0.0
 10
-56.21167140885991
 20
101.4701187096471
 30
0.0
 10
-56.06684187572068
 20
101.6050954370313
 30
0.0
 10
-55.94376979387193
 20
101.6983224725033
 30
0.0
 10
-55.84367685586675
 20
101.7565417810684
 30
0.0
 10
-55.73701180894263
 20
101.8059310044506
 30
0.0
 10
-55.62392110422621
 20
101.8481077944543
 30
0.0
 10
-55.50255451960762
 20
101.8768432849247
 30
0.0
 10
-55.37510518791849
 20
101.901839638349
 30
0.0
 10
-55.24019590981845
 20
101.9137612166264
 30
0.0
 10
-55.14800675856724
 20
101.9157979109332
 30
0.0
 10
-55.10102356674113
 20
101.9168358898929
 30
0.0
  0
SPLINE
  5
86
330
1F
100
AcDbEntity
  8
0
  6
Continuous
 62
     7
370
    25
100
AcDbSpline
210
0.0
220
0.0
230
1.0
 70
     8
 71
     3
 72
    23
 73
    19
 74
     0
 42
0.00000001
 43
0.00000001
 40
0.0
 40
0.0
 40
0.0
 40
0.0
 40
0.0564019062427578
 40
0.1110884278318145
 40
0.1645495502788184
 40
0.2178256952862282
 40
0.2711579618145251
 40
0.3249064892194434
 40
0.3800397501270711
 40
0.4369564395355133
 40
0.4957882392167868
 40
0.5577189984744194
 40
0.6223421544173581
 40
0.6897077641066911
 40
0.7613766415103677
 40
0.8368573456278682
 40
0.9161099853276546
 40
1.0
 40
1.0
 40
1.0
 40
1.0
 10
-55.19026248247973
 20
101.2874666946838
 30
0.0
 10
-55.23063265636479
 20
101.2862879611538
 30
0.0
 10
-55.31014520207354
 20
101.2839663436163
 30
0.0
 10
-55.42695591016366
 20
101.267111420512
 30
0.0
 10
-55.53935472932935
 20
101.2399003268305
 30
0.0
 10
-55.64791275762573
 20
101.2026433415764
 30
0.0
 10
-55.75154693235784
 20
101.1527901974075
 30
0.0
 10
-55.85073966574411
 20
101.0922242189603
 30
0.0
 10
-55.9464607138021
 20
101.0217882008828
 30
0.0
 10
-56.0367097035164
 20
100.9389773156247
 30
0.0
 10
-56.12300240693096
 20
100.8454128449759
 30
0.0
 10
-56.2048140053106
 20
100.7408315050454
 30
0.0
 10
-56.28267376612857
 20
100.6257737059869
 30
0.0
 10
-56.35378402185768
 20
100.4984583513715
 30
0.0
 10
-56.42382933385674
 20
100.3617705754878
 30
0.0
 10
-56.48631150232026
 20
100.2121561248816
 30
0.0
 10
-56.54540204740749
 20
100.051889830258
 30
0.0
 10
-56.58021997796238
 20
99.94043793904795
 30
0.0
 10
-56.59812379788214
 20
99.88312796806058
 30
0.0
  0
SPLINE
  5
87
330
1F
100
AcDbEntity
  8
0
  6
Continuous
 62
     7
370
    25
100
AcDbSpline
210
0.0
220
0.0
230
1.0
 70
     8
 71
     3
 72
     8
 73
     4
 74
     0
 42
0.00000001
 43
0.00000001
 40
0.9274204324963145
 40
0.9274204324963145
 40
0.9274204324963145
 40
0.9274204324963145
 40
0.9999999999999999
 40
0.9999999999999999
 40
0.9999999999999999
 40
0.9999999999999999
 10
-55.15386239843244
 20
101.2868422300108
 30
0.0
 10
-55.16599361760198
 20
101.2870849738876
 30
0.0
 10
-55.17812805004086
 20
101.2872758342857
 30
0.0
 10
-55.19026248247973
 20
101.2874666946838
 30
0.0
  0
CIRCLE
  5
91
330
1F
100
AcDbEntity
  8
0
  6
Continuous
 62
     7
370
    25
100
AcDbCircle
 10
-36.45
 20
103.05
 30
0.0
 40
2.500000000000028
  0
CIRCLE
  5
92
330
1F
100
AcDbEntity
  8
0
  6
Continuous
 62
     7
370
    25
100
AcDbCircle
 10
-105.45
 20
103.05
 30
0.0
 40
2.499999999999957
  0
CIRCLE
  5
93
330
1F
100
AcDbEntity
  8
0
  6
Continuous
 62
     7
370
    25
100
AcDbCircle
 10
-163.2238636074
 20
93.8238636074
 30
0.0
 40
2.499999999999972
  0
CIRCLE
  5
94
330
1F
100
AcDbEntity
  8
0
  6
Continuous
 62
     7
370
    25
100
AcDbCircle
 10
-172.45
 20
36.05
 30
0.0
 40
2.500000000000028
  0
CIRCLE
  5
95
330
1F
100
AcDbEntity
  8
0
  6
Continuous
 62
     7
370
    25
100
AcDbCircle
 10
-172.45
 20
-32.95
 30
0.0
 40
2.500000000000057
  0
SPLINE
  5
96
330
1F
100
AcDbEntity
  8
0
  6
Continuous
 62
     7
370
    25
100
AcDbSpline
210
0.0
220
0.0
230
1.0
 70
     8
 71
     3
 72
    27
 73
    23
 74
     0
 42
0.00000001
 43
0.00000001
 40
0.0
 40
0.0
 40
0.0
 40
0.0
 40
0.0972392500087068
 40
0.1894555798982716
 40
0.2777882717489359
 40
0.3625816612715617
 40
0.403649947332099
 40
0.4437417967159873
 40
0.4831823910718648
 40
0.5218353708702255
 40
0.5601248349458644
 40
0.5980387614413921
 40
0.6360209337423014
 40
0.6740218521529459
 40
0.7120534260847072
 40
0.7505183450916068
 40
0.789216524258128
 40
0.8289319464864332
 40
0.8696900638012838
 40
0.911633452733697
 40
0.9549961187085296
 40
1.0
 40
1.0
 40
1.0
 40
1.0
 10
-59.41384642868691
 20
99.68821138894734
 30
0.0
 10
-59.41604851381467
 20
99.58238916494743
 30
0.0
 10
-59.42033893475914
 20
99.37621099294141
 30
0.0
 10
-59.46175025304038
 20
99.07631715132774
 30
0.0
 10
-59.52584647420539
 20
98.79441199848203
 30
0.0
 10
-59.6048614464402
 20
98.57467916843554
 30
0.0
 10
-59.67831213156705
 20
98.40967708183629
 30
0.0
 10
-59.74123443017916
 20
98.29444191156817
 30
0.0
 10
-59.80902022717459
 20
98.18514491985695
 30
0.0
 10
-59.88309205249084
 20
98.08232707241531
 30
0.0
 10
-59.96432960639157
 20
97.98724127599097
 30
0.0
 10
-60.05176045801117
 20
97.89891193809136
 30
0.0
 10
-60.14438856999605
 20
97.81649319695192
 30
0.0
 10
-60.24310166075611
 20
97.74125536837921
 30
0.0
 10
-60.34782751643334
 20
97.67349130261269
 30
0.0
 10
-60.45974343834386
 20
97.61683659713704
 30
0.0
 10
-60.57657761928986
 20
97.5663762431216
 30
0.0
 10
-60.70032149077642
 20
97.52722933761012
 30
0.0
 10
-60.82963692174366
 20
97.49508959087996
 30
0.0
 10
-60.9651150687646
 20
97.47304035227873
 30
0.0
 10
-61.10639252398119
 20
97.46012373997888
 30
0.0
 10
-61.20251149156925
 20
97.45821207862382
 30
0.0
 10
-61.25146357514625
 20
97.45723849548233
 30
0.0
  0
SPLINE
  5
97
330
1F
100
AcDbEntity
  8
0
  6
Continuous
 62
     7
370
    25
100
AcDbSpline
210
0.0
220
0.0
230
1.0
 70
     8
 71
     3
 72
    27
 73
    23
 74
     0
 42
0.00000001
 43
0.00000001
 40
0.0
 40
0.0
 40
0.0
 40
0.0
 40
0.0453176474693744
 40
0.0889944340826621
 40
0.1308382901797851
 40
0.1713897949033583
 40
0.210955769074066
 40
0.2496732482192344
 40
0.2877750302525218
 40
0.3253852438925797
 40
0.3627039879964079
 40
0.4001747861368752
 40
0.4375419781855711
 40
0.4750127763260371
 40
0.5131247319473371
 40
0.5517252143415262
 40
0.5916067453699844
 40
0.6321582500935555
 40
0.716627522064335
 40
0.8054110332427655
 40
0.8996263853170112
 40
1.0
 40
1.0
 40
1.0
 40
1.0
 10
-61.24324420132822
 20
101.912139104854
 30
0.0
 10
-61.19390005816188
 20
101.9111793594645
 30
0.0
 10
-61.09699842399497
 20
101.9092946191355
 30
0.0
 10
-60.95500964760275
 20
101.8962186760604
 30
0.0
 10
-60.81930783527675
 20
101.8750885758586
 30
0.0
 10
-60.68957117380921
 20
101.8461455250939
 30
0.0
 10
-60.56605942522268
 20
101.8070833323546
 30
0.0
 10
-60.448326374133
 20
101.7599963837155
 30
0.0
 10
-60.33614752079068
 20
101.7053275412558
 30
0.0
 10
-60.23181870296138
 20
101.639770011709
 30
0.0
 10
-60.13230880083072
 20
101.56832930643
 30
0.0
 10
-60.04015321245009
 20
101.4880052856751
 30
0.0
 10
-59.9526565364559
 20
101.4024779667215
 30
0.0
 10
-59.87216375062642
 20
101.3092393976442
 30
0.0
 10
-59.80007780938109
 20
101.2078130758754
 30
0.0
 10
-59.73228877765955
 20
101.1003926362546
 30
0.0
 10
-59.67166105199508
 20
100.9856874071757
 30
0.0
 10
-59.59885777369633
 20
100.8214879309462
 30
0.0
 10
-59.5220783640281
 20
100.6010774135253
 30
0.0
 10
-59.46038436855944
 20
100.3159894943001
 30
0.0
 10
-59.42050647923892
 20
100.0095023570517
 30
0.0
 10
-59.41611279530405
 20
99.79754436154397
 30
0.0
 10
-59.41384642868692
 20
99.68821138894735
 30
0.0
  0
SPLINE
  5
98
330
1F
100
AcDbEntity
  8
0
  6
Continuous
 62
     7
370
    25
100
AcDbSpline
210
0.0
220
0.0
230
1.0
 70
     8
 71
     3
 72
    27
 73
    23
 74
     0
 42
0.00000001
 43
0.00000001
 40
0.0
 40
0.0
 40
0.0
 40
0.0
 40
0.0983001520666752
 40
0.1908745301401976
 40
0.2792185233018885
 40
0.363568186039497
 40
0.4046283661295772
 40
0.4448825916743828
 40
0.4838686735262335
 40
0.5225851926065636
 40
0.5604560804135524
 40
0.5982250367029919
 40
0.6360959245099852
 40
0.6740227578808691
 40
0.7120206755660508
 40
0.7506574557427249
 40
0.789400517987769
 40
0.8289640816913152
 40
0.8698313389596061
 40
0.9116143503658787
 40
0.9551681985364111
 40
1.0
 40
1.0
 40
1.0
 40
1.0
 10
-63.09025491786532
 20
99.67999201512932
 30
0.0
 10
-63.08805860621793
 20
99.78737203828476
 30
0.0
 10
-63.08379391338762
 20
99.99587742749657
 30
0.0
 10
-63.04265764027515
 20
100.2986240694019
 30
0.0
 10
-62.97771424850195
 20
100.5812333270944
 30
0.0
 10
-62.90137807967943
 20
100.8025016623972
 30
0.0
 10
-62.82514896926791
 20
100.9666360884741
 30
0.0
 10
-62.76360988760918
 20
101.0827884224804
 30
0.0
 10
-62.6947256591254
 20
101.1917385711658
 30
0.0
 10
-62.62019237834234
 20
101.2937313460531
 30
0.0
 10
-62.53815295338841
 20
101.387989549846
 30
0.0
 10
-62.45150381748406
 20
101.4767603645643
 30
0.0
 10
-62.35720230774014
 20
101.5574902479318
 30
0.0
 10
-62.25749941371298
 20
101.631810437012
 30
0.0
 10
-62.15116255225135
 20
101.6979716910335
 30
0.0
 10
-62.03881596689724
 20
101.7553220700604
 30
0.0
 10
-61.92043253778812
 20
101.8034691278099
 30
0.0
 10
-61.79663471866402
 20
101.844037759044
 30
0.0
 10
-61.66638733643319
 20
101.8736677940248
 30
0.0
 10
-61.53042445918651
 20
101.8965873975267
 30
0.0
 10
-61.38869049588983
 20
101.9091581321641
 30
0.0
 10
-61.29219138765909
 20
101.9111359151466
 30
0.0
 10
-61.24324420132822
 20
101.912139104854
 30
0.0
  0
SPLINE
  5
99
330
1F
100
AcDbEntity
  8
0
  6
Continuous
 62
     7
370
    25
100
AcDbSpline
210
0.0
220
0.0
230
1.0
 70
     8
 71
     3
 72
    27
 73
    23
 74
     0
 42
0.00000001
 43
0.00000001
 40
0.0
 40
0.0
 40
0.0
 40
0.0
 40
0.0449500724641135
 40
0.0886188202601715
 40
0.1304549748953184
 40
0.1710801821638502
 40
0.2106388741222071
 40
0.2493492272225701
 40
0.2876047310992104
 40
0.3255142390940274
 40
0.3633282140215057
 40
0.4005586394739273
 40
0.4381722354885065
 40
0.4759092675191574
 40
0.5139361558595699
 40
0.5530250870896859
 40
0.592753223973662
 40
0.6337724067957439
 40
0.7183445928021092
 40
0.8071910400360938
 40
0.9007222629826164
 40
1.0
 40
1.0
 40
1.0
 40
1.0
 10
-61.25146357514625
 20
97.45723849548231
 30
0.0
 10
-61.30041821735122
 20
97.45819828503957
 30
0.0
 10
-61.39693202479677
 20
97.46009050486485
 30
0.0
 10
-61.53849765253712
 20
97.47327475359938
 30
0.0
 10
-61.67440598661324
 20
97.4938913670949
 30
0.0
 10
-61.80380233426767
 20
97.52474551775059
 30
0.0
 10
-61.92743872386762
 20
97.56347892958154
 30
0.0
 10
-62.04557868348095
 20
97.61023632818484
 30
0.0
 10
-62.15721079649937
 20
97.66703241727839
 30
0.0
 10
-62.26335604858903
 20
97.73163265223192
 30
0.0
 10
-62.36260421059372
 20
97.80450683895819
 30
0.0
 10
-62.4564855940903
 20
97.88364342825899
 30
0.0
 10
-62.54330270952669
 20
97.97045631180735
 30
0.0
 10
-62.62287042997546
 20
98.06498050084458
 30
0.0
 10
-62.69787397263993
 20
98.16521552604935
 30
0.0
 10
-62.76510871561743
 20
98.27335823666986
 30
0.0
 10
-62.82842431228443
 20
98.38759774150479
 30
0.0
 10
-62.90154990430037
 20
98.5522580264388
 30
0.0
 10
-62.97980084250589
 20
98.77287788245523
 30
0.0
 10
-63.04222501616832
 20
99.05729395177858
 30
0.0
 10
-63.0839230699542
 20
99.36172831954964
 30
0.0
 10
-63.08810277763348
 20
99.57181694314384
 30
0.0
 10
-63.09025491786531
 20
99.6799920151293
 30
0.0
  0
SPLINE
  5
9A
330
1F
100
AcDbEntity
  8
0
  6
Continuous
 62
     7
370
    25
100
AcDbSpline
210
0.0
220
0.0
230
1.0
 70
     8
 71
     3
 72
    15
 73
    11
 74
     0
 42
0.00000001
 43
0.00000001
 40
0.0
 40
0.0
 40
0.0
 40
0.0
 40
0.0998899835124384
 40
0.2055974154314039
 40
0.3171901689159762
 40
0.4360573377576067
 40
0.562074841407312
 40
0.6975689675334287
 40
0.8428440768122919
 40
1.0
 40
1.0
 40
1.0
 40
1.0
 10
-63.96503113135556
 20
98.06547215801648
 30
0.0
 10
-64.01002008442953
 20
98.02457180418712
 30
0.0
 10
-64.10261808224404
 20
97.94038911897825
 30
0.0
 10
-64.26125368960422
 20
97.82968388379885
 30
0.0
 10
-64.43882106523466
 20
97.72815957068164
 30
0.0
 10
-64.63308813883594
 20
97.6313467905043
 30
0.0
 10
-64.85098762021272
 20
97.55178812444173
 30
0.0
 10
-65.09268021947156
 20
97.49650998823813
 30
0.0
 10
-65.3575211708855
 20
97.46391631215533
 30
0.0
 10
-65.54148910535329
 20
97.45952197727222
 30
0.0
 10
-65.63708660519458
 20
97.45723849548231
 30
0.0
  0
SPLINE
  5
9C
330
1F
100
AcDbEntity
  8
0
  6
Continuous
 62
     7
370
    25
100
AcDbSpline
210
0.0
220
0.0
230
1.0
 70
     8
 71
     3
 72
    15
 73
    11
 74
     0
 42
0.00000001
 43
0.00000001
 40
0.0
 40
0.0
 40
0.0
 40
0.0
 40
0.1590670079903206
 40
0.3041764793795671
 40
0.4377768262096345
 40
0.5600051126979244
 40
0.6764787614950648
 40
0.7879435921129101
 40
0.8954883804272407
 40
0.9999999999999999
 40
0.9999999999999999
 40
0.9999999999999999
 40
0.9999999999999999
 10
-65.62886723137655
 20
98.06077537297759
 30
0.0
 10
-65.55403189296005
 20
98.0626181367613
 30
0.0
 10
-65.41092773792312
 20
98.06614196868054
 30
0.0
 10
-65.2062036840817
 20
98.09155578761703
 30
0.0
 10
-65.0220943907729
 20
98.13487690967966
 30
0.0
 10
-64.8586734681406
 20
98.19919710196557
 30
0.0
 10
-64.71208997394149
 20
98.27458558073442
 30
0.0
 10
-64.57533131160599
 20
98.35337145525608
 30
0.0
 10
-64.4474732519989
 20
98.43622907651744
 30
0.0
 10
-64.36892066799791
 20
98.49777345031261
 30
0.0
 10
-64.33020616812797
 20
98.52810548434552
 30
0.0
  0
SPLINE
  5
9D
330
1F
100
AcDbEntity
  8
0
  6
Continuous
 62
     7
370
    25
100
AcDbSpline
210
0.0
220
0.0
230
1.0
 70
     8
 71
     3
 72
    27
 73
    23
 74
     0
 42
0.00000001
 43
0.00000001
 40
0.0
 40
0.0
 40
0.0
 40
0.0
 40
0.0629540066687287
 40
0.1227137618555215
 40
0.1793726248672383
 40
0.2330401402655873
 40
0.2842022290333063
 40
0.3326491690451717
 40
0.3785580973642574
 40
0.422474509830219
 40
0.4641323515408654
 40
0.5043874073119554
 40
0.5430385880392037
 40
0.580374448890984
 40
0.6164259620398829
 40
0.6522102662810041
 40
0.6869299537091345
 40
0.7214488868357145
 40
0.7899535449851962
 40
0.8581822761033543
 40
0.9278272397773888
 40
0.9999999999999999
 40
0.9999999999999999
 40
0.9999999999999999
 40
0.9999999999999999
 10
-67.3255808266697
 20
100.3457612943896
 30
0.0
 10
-67.3249415705862
 20
100.2780347523249
 30
0.0
 10
-67.32369549391936
 20
100.146018075484
 30
0.0
 10
-67.31296097649337
 20
99.95328979380953
 30
0.0
 10
-67.29565771182979
 20
99.77108913971428
 30
0.0
 10
-67.27103819203528
 20
99.599053130625
 30
0.0
 10
-67.23965493192888
 20
99.43710439890535
 30
0.0
 10
-67.2010948266285
 20
99.28528786320182
 30
0.0
 10
-67.1552569973645
 20
99.14366367355733
 30
0.0
 10
-67.10257781645713
 20
99.01228405328948
 30
0.0
 10
-67.04357845069833
 20
98.8903106037618
 30
0.0
 10
-66.97853792353028
 20
98.77803428080148
 30
0.0
 10
-66.91114147487751
 20
98.6725814419233
 30
0.0
 10
-66.83684929588281
 20
98.5774580668067
 30
0.0
 10
-66.75738375072484
 20
98.49082718852577
 30
0.0
 10
-66.67338181604316
 20
98.41269321972638
 30
0.0
 10
-66.58486906950574
 20
98.34216913276674
 30
0.0
 10
-66.45919810901067
 20
98.26329957234614
 30
0.0
 10
-66.29329931869269
 20
98.18172931207067
 30
0.0
 10
-66.08183887251815
 20
98.11238999059422
 30
0.0
 10
-65.85926056780883
 20
98.06838810995566
 30
0.0
 10
-65.7065721961354
 20
98.06334292752479
 30
0.0
 10
-65.62886723137655
 20
98.06077537297759
 30
0.0
  0
SPLINE
  5
9E
330
1F
100
AcDbEntity
  8
0
  6
Continuous
 62
     7
370
    25
100
AcDbSpline
210
0.0
220
0.0
230
1.0
 70
     8
 71
     3
 72
    27
 73
    23
 74
     0
 42
0.00000001
 43
0.00000001
 40
0.0
 40
0.0
 40
0.0
 40
0.0
 40
0.0693155588261765
 40
0.137087569741073
 40
0.2045501333054352
 40
0.2727553199137474
 40
0.3072323602857985
 40
0.3421479901372557
 40
0.3775505389850494
 40
0.4134206020971721
 40
0.451036559518659
 40
0.489818446977668
 40
0.5297601479956124
 40
0.5717153489883322
 40
0.615374443012705
 40
0.6616475433925124
 40
0.710759308147064
 40
0.7621156346109929
 40
0.8170797765049926
 40
0.8745638287489907
 40
0.9355202139848806
 40
1.0
 40
1.0
 40
1.0
 40
1.0
 10
-65.61360268000021
 20
102.6389665896197
 30
0.0
 10
-65.68852682946822
 20
102.636112517124
 30
0.0
 10
-65.83670668604616
 20
102.630467927815
 30
0.0
 10
-66.05488400284273
 20
102.589781784275
 30
0.0
 10
-66.26416319332304
 20
102.5207643979768
 30
0.0
 10
-66.43087262401829
 20
102.4419121304039
 30
0.0
 10
-66.5579553516975
 20
102.3643521927519
 30
0.0
 10
-66.64820837317933
 20
102.2956836701416
 30
0.0
 10
-66.73418762356798
 20
102.2195140515534
 30
0.0
 10
-66.81493910842377
 20
102.13369787924
 30
0.0
 10
-66.89058371209904
 20
102.0387317545532
 30
0.0
 10
-66.96257522801781
 20
101.9355117219101
 30
0.0
 10
-67.02808194764297
 20
101.8226450174497
 30
0.0
 10
-67.09089799303274
 20
101.7022919649495
 30
0.0
 10
-67.14628230074524
 20
101.5707824964031
 30
0.0
 10
-67.19414816090726
 20
101.4282492161893
 30
0.0
 10
-67.2351950509498
 20
101.2749461589053
 30
0.0
 10
-67.26735663082313
 20
101.1100244086929
 30
0.0
 10
-67.29521990546426
 20
100.9351175315099
 30
0.0
 10
-67.3112398411127
 20
100.7483332436569
 30
0.0
 10
-67.32418682728927
 20
100.5510348853317
 30
0.0
 10
-67.3251075395218
 20
100.4154552653916
 30
0.0
 10
-67.3255808266697
 20
100.3457612943896
 30
0.0
  0
SPLINE
  5
9F
330
1F
100
AcDbEntity
  8
0
  6
Continuous
 62
     7
370
    25
100
AcDbSpline
210
0.0
220
0.0
230
1.0
 70
     8
 71
     3
 72
    15
 73
    11
 74
     0
 42
0.00000001
 43
0.00000001
 40
0.0
 40
0.0
 40
0.0
 40
0.0
 40
0.1330081268605213
 40
0.2613622768198983
 40
0.3856891128567193
 40
0.5081634189896858
 40
0.6300792756763874
 40
0.7516167284004922
 40
0.8752314190310777
 40
1.0
 40
1.0
 40
1.0
 40
1.0
 10
-64.44058061654151
 20
102.2244753099391
 30
0.0
 10
-64.48459209007223
 20
102.2597451025517
 30
0.0
 10
-64.57107506821572
 20
102.3290505917557
 30
0.0
 10
-64.70908986034
 20
102.4171921559758
 30
0.0
 10
-64.85075180964643
 20
102.4900191281863
 30
0.0
 10
-64.99747210772539
 20
102.5446205854338
 30
0.0
 10
-65.1468355833268
 20
102.5867611285223
 30
0.0
 10
-65.2994105166972
 20
102.6179033349972
 30
0.0
 10
-65.45544883888913
 20
102.635508130557
 30
0.0
 10
-65.56072171426362
 20
102.6378102050899
 30
0.0
 10
-65.61360268000021
 20
102.6389665896197
 30
0.0
  0
SPLINE
  5
A1
330
1F
100
AcDbEntity
  8
0
  6
Continuous
 62
     7
370
    25
100
AcDbSpline
210
0.0
220
0.0
230
1.0
 70
     8
 71
     3
 72
    15
 73
    11
 74
     0
 42
0.00000001
 43
0.00000001
 40
0.0
 40
0.0
 40
0.0
 40
0.0
 40
0.150698623224622
 40
0.2893390083772045
 40
0.416202806664317
 40
0.5338171654679494
 40
0.6474584192442756
 40
0.7623658658269515
 40
0.8799033097619366
 40
0.9999999999999999
 40
0.9999999999999999
 40
0.9999999999999999
 40
0.9999999999999999
 10
-65.66644151168755
 20
103.2272389157387
 30
0.0
 10
-65.57869708666045
 20
103.2258916629216
 30
0.0
 10
-65.4102291578585
 20
103.223304958506
 30
0.0
 10
-65.16902577970909
 20
103.1974316300744
 30
0.0
 10
-64.94969722358674
 20
103.1550276137685
 30
0.0
 10
-64.75057124754242
 20
103.0922060701212
 30
0.0
 10
-64.5640664848303
 20
103.0151316709373
 30
0.0
 10
-64.38661232875612
 20
102.919377918011
 30
0.0
 10
-64.21177603301751
 20
102.8114097742567
 30
0.0
 10
-64.10246766316847
 20
102.7264987781545
 30
0.0
 10
-64.04722486953584
 20
102.683586047489
 30
0.0
  0
SPLINE
  5
A2
330
1F
100
AcDbEntity
  8
0
  6
Continuous
 62
     7
370
    25
100
AcDbSpline
210
0.0
220
0.0
230
1.0
 70
     8
 71
     3
 72
    31
 73
    27
 74
     0
 42
0.00000001
 43
0.00000001
 40
0.0
 40
0.0
 40
0.0
 40
0.0
 40
0.0550413443681195
 40
0.1076826898847999
 40
0.1586153629209079
 40
0.2074359913451844
 40
0.254797116494384
 40
0.3003089849499532
 40
0.344872269587784
 40
0.3879893906594491
 40
0.4299908492939566
 40
0.4710614459312892
 40
0.5110685673794515
 40
0.5503394555199749
 40
0.5888610543318192
 40
0.6266505165205518
 40
0.664699264708202
 40
0.7024308658173758
 40
0.7401986404892983
 40
0.7773088453854917
 40
0.8141912617055861
 40
0.8507688199355616
 40
0.8875580291502368
 40
0.9246640284474963
 40
0.9619933167474995
 40
1.0
 40
1.0
 40
1.0
 40
1.0
 10
-68.05593090021455
 20
100.3457612943896
 30
0.0
 10
-68.05516783931778
 20
100.4228945107762
 30
0.0
 10
-68.05367498969987
 20
100.5737976603146
 30
0.0
 10
-68.0379023521762
 20
100.7956084007758
 30
0.0
 10
-68.01270702089484
 20
101.0077460423198
 30
0.0
 10
-67.97582268053559
 20
101.2106683943616
 30
0.0
 10
-67.93046497911105
 20
101.4040355203371
 30
0.0
 10
-67.87549035192399
 20
101.5887551367338
 30
0.0
 10
-67.80857509699577
 20
101.7631663132313
 30
0.0
 10
-67.73184925322043
 20
101.9280014108844
 30
0.0
 10
-67.64745555400117
 20
102.0835343557165
 30
0.0
 10
-67.55429908710997
 20
102.2288012742493
 30
0.0
 10
-67.45572708739648
 20
102.3657295684581
 30
0.0
 10
-67.35016484322254
 20
102.4928238851506
 30
0.0
 10
-67.23724496370228
 20
102.6091286324663
 30
0.0
 10
-67.11750928084057
 20
102.715806326667
 30
0.0
 10
-66.99132180226907
 20
102.8130059078013
 30
0.0
 10
-66.85797414785849
 20
102.9000594775027
 30
0.0
 10
-66.72011450426395
 20
102.9770309559939
 30
0.0
 10
-66.57867067893575
 20
103.0445074032422
 30
0.0
 10
-66.43419102327766
 20
103.1008402771415
 30
0.0
 10
-66.28655261296522
 20
103.1466259205769
 30
0.0
 10
-66.13607709161283
 20
103.1834608401997
 30
0.0
 10
-65.98221795333336
 20
103.2089480080633
 30
0.0
 10
-65.82529763555102
 20
103.2248709643638
 30
0.0
 10
-65.71971002205362
 20
103.226444881242
 30
0.0
 10
-65.66644151168755
 20
103.2272389157387
 30
0.0
  0
SPLINE
  5
A3
330
1F
100
AcDbEntity
  8
0
  6
Continuous
 62
     7
370
    25
100
AcDbSpline
210
0.0
220
0.0
230
1.0
 70
     8
 71
     3
 72
    31
 73
    27
 74
     0
 42
0.00000001
 43
0.00000001
 40
0.0
 40
0.0
 40
0.0
 40
0.0
 40
0.0396149910178334
 40
0.0783015603079086
 40
0.1164521970965788
 40
0.1540000842879265
 40
0.1914006360220471
 40
0.2287385995155083
 40
0.2661463268088121
 40
0.3038287654441816
 40
0.3416168768755463
 40
0.3793359280584405
 40
0.4173738358300976
 40
0.4553693839935883
 40
0.4942999851388579
 40
0.5340241951063429
 40
0.5745907891581086
 40
0.6163404935835096
 40
0.6592201314508225
 40
0.7032024260314726
 40
0.7483199286425591
 40
0.7952706639143665
 40
0.8436199052465025
 40
0.8938035122726602
 40
0.9457124577753652
 40
1.0
 40
1.0
 40
1.0
 40
1.0
 10
-65.63708660519458
 20
97.45723849548231
 30
0.0
 10
-65.6931058834906
 20
97.45789158090449
 30
0.0
 10
-65.80383156549132
 20
97.45918244595984
 30
0.0
 10
-65.96764720543665
 20
97.47700813427493
 30
0.0
 10
-66.12743241656042
 20
97.50205681267312
 30
0.0
 10
-66.28322263972305
 20
97.53869152892524
 30
0.0
 10
-66.43472352103045
 20
97.58620862386417
 30
0.0
 10
-66.58338621113286
 20
97.64169074123804
 30
0.0
 10
-66.72652051849292
 20
97.71105256208556
 30
0.0
 10
-66.86656792129614
 20
97.78769422316007
 30
0.0
 10
-67.00013783025258
 20
97.87605921427541
 30
0.0
 10
-67.12773252091027
 20
97.97363354343851
 30
0.0
 10
-67.247039557952
 20
98.0816801703672
 30
0.0
 10
-67.35947052239446
 20
98.1991221777335
 30
0.0
 10
-67.46564451193467
 20
98.32551925757502
 30
0.0
 10
-67.56202924054965
 20
98.46388648477321
 30
0.0
 10
-67.65492978674952
 20
98.6093497934738
 30
0.0
 10
-67.73757116250505
 20
98.76599764125089
 30
0.0
 10
-67.8134129203294
 20
98.93134838139756
 30
0.0
 10
-67.87728179214696
 20
99.10679044291432
 30
0.0
 10
-67.93292056106237
 20
99.29095701751619
 30
0.0
 10
-67.97841205668053
 20
99.48426902878158
 30
0.0
 10
-68.01376177673372
 20
99.68696651066931
 30
0.0
 10
-68.03760459480867
 20
99.89833527389585
 30
0.0
 10
-68.0537568096368
 20
100.1188899833107
 30
0.0
 10
-68.05519546233907
 20
100.269016674483
 30
0.0
 10
-68.05593090021455
 20
100.3457612943896
 30
0.0
  0
SPLINE
  5
B7
330
1F
100
AcDbEntity
  8
0
  6
Continuous
 62
     7
370
    25
100
AcDbSpline
210
0.0
220
0.0
230
1.0
 70
     8
 71
     3
 72
    23
 73
    19
 74
     0
 42
0.00000001
 43
0.00000001
 40
0.0
 40
0.0
 40
0.0
 40
0.0
 40
0.0900672438464957
 40
0.1740938430636591
 40
0.2527882324140517
 40
0.32596703894099
 40
0.394502871602613
 40
0.4580005288194806
 40
0.5177455449854768
 40
0.5739237284958871
 40
0.6274359132541484
 40
0.6790321391979685
 40
0.7299570514542175
 40
0.7802815659242176
 40
0.8317920816351355
 40
0.8853942701316055
 40
0.9409492975190775
 40
1.0
 40
1.0
 40
1.0
 40
1.0
 10
-62.35990484432045
 20
99.67999201512932
 30
0.0
 10
-62.35899132650713
 20
99.61186546489094
 30
0.0
 10
-62.35722555884244
 20
99.480181487019
 30
0.0
 10
-62.34404890187885
 20
99.28935039817772
 30
0.0
 10
-62.32371132125443
 20
99.11201322622215
 30
0.0
 10
-62.29346916547977
 20
98.94789706789207
 30
0.0
 10
-62.25333853928431
 20
98.79784011420142
 30
0.0
 10
-62.20694726974961
 20
98.66025843613042
 30
0.0
 10
-62.15091634953353
 20
98.5363407093866
 30
0.0
 10
-62.08464803421758
 20
98.42632654872214
 30
0.0
 10
-62.01043947260073
 20
98.32919852172991
 30
0.0
 10
-61.9276975671858
 20
98.24452143384326
 30
0.0
 10
-61.83552503716094
 20
98.1741780112286
 30
0.0
 10
-61.73566254702423
 20
98.11547360084073
 30
0.0
 10
-61.62651571494973
 20
98.0706258943301
 30
0.0
 10
-61.50874356419464
 20
98.03994030965167
 30
0.0
 10
-61.38296305963674
 20
98.0185184141733
 30
0.0
 10
-61.29617909089186
 20
98.01695926703435
 30
0.0
 10
-61.25146357514625
 20
98.01615591510829
 30
0.0
  0
SPLINE
  5
B8
330
1F
100
AcDbEntity
  8
0
  6
Continuous
 62
     7
370
    25
100
AcDbSpline
210
0.0
220
0.0
230
1.0
 70
     8
 71
     3
 72
    23
 73
    19
 74
     0
 42
0.00000001
 43
0.00000001
 40
0.0
 40
0.0
 40
0.0
 40
0.0
 40
0.0911828271346872
 40
0.1758007847263403
 40
0.2550793641324651
 40
0.3288323136118314
 40
0.3972978460970136
 40
0.4613417492436817
 40
0.5206691292023012
 40
0.5766317566223074
 40
0.6298774704933737
 40
0.6811519534355763
 40
0.7317125180624852
 40
0.7820817056671648
 40
0.8331596083983006
 40
0.88580998311452
 40
0.9414143267695586
 40
1.0
 40
1.0
 40
1.0
 40
1.0
 10
-60.14419650223177
 20
99.68821138894734
 30
0.0
 10
-60.14510022452895
 20
99.75712138884293
 30
0.0
 10
-60.14684260403186
 20
99.88998009083565
 30
0.0
 10
-60.16008013694695
 20
100.0823669350983
 30
0.0
 10
-60.18031288531819
 20
100.2609000490099
 30
0.0
 10
-60.21082847007763
 20
100.4256300985996
 30
0.0
 10
-60.24958413942666
 20
100.5766938339439
 30
0.0
 10
-60.29543191290756
 20
100.7144494251564
 30
0.0
 10
-60.35248500439791
 20
100.8376763477301
 30
0.0
 10
-60.41712358012414
 20
100.9476059992585
 30
0.0
 10
-60.48968135743614
 20
101.0452645578772
 30
0.0
 10
-60.57329063526773
 20
101.1278808533889
 30
0.0
 10
-60.66390344768534
 20
101.1991818862636
 30
0.0
 10
-60.76353509382844
 20
101.257079739439
 30
0.0
 10
-60.87132399097099
 20
101.3020907636467
 30
0.0
 10
-60.98784214920719
 20
101.3332829200529
 30
0.0
 10
-61.11254333645218
 20
101.3542647677481
 30
0.0
 10
-61.1989254771175
 20
101.3559035102205
 30
0.0
 10
-61.24324420132822
 20
101.3567442740072
 30
0.0
  0
SPLINE
  5
B9
330
1F
100
AcDbEntity
  8
0
  6
Continuous
 62
     7
370
    25
100
AcDbSpline
210
0.0
220
0.0
230
1.0
 70
     8
 71
     3
 72
    23
 73
    19
 74
     0
 42
0.00000001
 43
0.00000001
 40
0.0
 40
0.0
 40
0.0
 40
0.0
 40
0.0588650934749602
 40
0.1142454995120268
 40
0.1676792048490044
 40
0.2190278119760072
 40
0.2691941457180272
 40
0.3195510857418638
 40
0.3709851336961512
 40
0.4243291181959452
 40
0.4803307216427822
 40
0.5398879464261888
 40
0.6036739229762335
 40
0.6724930356598852
 40
0.7459489569083806
 40
0.8249082544911588
 40
0.9097001277387179
 40
1.0
 40
1.0
 40
1.0
 40
1.0
 10
-61.25146357514625
 20
98.01615591510829
 30
0.0
 10
-61.20674772392853
 20
98.0169588320264
 30
0.0
 10
-61.11996310409864
 20
98.01851713490099
 30
0.0
 10
-60.9941872078498
 20
98.03994500599109
 30
0.0
 10
-60.87639857444798
 20
98.07060921755925
 30
0.0
 10
-60.76731015003579
 20
98.11553266150632
 30
0.0
 10
-60.66750347631853
 20
98.17380533666079
 30
0.0
 10
-60.57634144508592
 20
98.24494448800858
 30
0.0
 10
-60.49361973066824
 20
98.32914250201662
 30
0.0
 10
-60.41946015043564
 20
98.42634074704877
 30
0.0
 10
-60.35320416448941
 20
98.53634405466971
 30
0.0
 10
-60.29690853881645
 20
98.66056467768904
 30
0.0
 10
-60.25081363455934
 20
98.7990461253944
 30
0.0
 10
-60.21062452781571
 20
98.95025168768713
 30
0.0
 10
-60.18040406547271
 20
99.11554416373528
 30
0.0
 10
-60.15998983976848
 20
99.29443648805858
 30
0.0
 10
-60.14691824057716
 20
99.48683971842391
 30
0.0
 10
-60.14512257754259
 20
99.61969439403208
 30
0.0
 10
-60.14419650223177
 20
99.68821138894734
 30
0.0
  0
SPLINE
  5
BA
330
1F
100
AcDbEntity
  8
0
  6
Continuous
 62
     7
370
    25
100
AcDbSpline
210
0.0
220
0.0
230
1.0
 70
     8
 71
     3
 72
    23
 73
    19
 74
     0
 42
0.00000001
 43
0.00000001
 40
0.0
 40
0.0
 40
0.0
 40
0.0
 40
0.0585849213974406
 40
0.1142087316272126
 40
0.1673881159166885
 40
0.2184923261509449
 40
0.2693094681323551
 40
0.3198326940443206
 40
0.3706576159459596
 40
0.4240620494409766
 40
0.4797971097693675
 40
0.5392861556538149
 40
0.6029364792406515
 40
0.6709317138559695
 40
0.745047810583657
 40
0.8242027959575736
 40
0.9091033622159733
 40
1.0
 40
1.0
 40
1.0
 40
1.0
 10
-61.24324420132822
 20
101.3567442740072
 30
0.0
 10
-61.28795731403329
 20
101.3559159191358
 30
0.0
 10
-61.37512356376684
 20
101.3543010776896
 30
0.0
 10
-61.50131235711788
 20
101.3330748853441
 30
0.0
 10
-61.61953610906092
 20
101.3023776430405
 30
0.0
 10
-61.72900652080171
 20
101.2567571284548
 30
0.0
 10
-61.83052278345127
 20
101.1995226207224
 30
0.0
 10
-61.92259512883104
 20
101.1283082493266
 30
0.0
 10
-62.00605107999246
 20
101.0445305882435
 30
0.0
 10
-62.08127538867156
 20
100.9481272425354
 30
0.0
 10
-62.14714124466966
 20
100.837417756772
 30
0.0
 10
-62.20491889299277
 20
100.7136211128398
 30
0.0
 10
-62.25211558866528
 20
100.575566874499
 30
0.0
 10
-62.29281276791789
 20
100.4239189267166
 30
0.0
 10
-62.32196030189954
 20
100.257613222682
 30
0.0
 10
-62.34460028891672
 20
100.0773962888913
 30
0.0
 10
-62.35707138352167
 20
99.88330278738144
 30
0.0
 10
-62.35893912250948
 20
99.74928594968897
 30
0.0
 10
-62.35990484432045
 20
99.6799920151293
 30
0.0
  0
LINE
  5
BE
330
1F
100
AcDbEntity
  8
0
  6
Continuous
 62
     7
370
    25
100
AcDbLine
 10
-85.2250286098
 20
103.138
 30
0.0
 11
-83.4061986035
 21
97.55
 31
0.0
  0
LINE
  5
BF
330
1F
100
AcDbEntity
  8
0
  6
Continuous
 62
     7
370
    25
100
AcDbLine
 10
-86.125637141
 20
103.138
 30
0.0
 11
-85.2250286098
 21
103.138
 31
0.0
  0
LINE
  5
C0
330
1F
100
AcDbEntity
  8
0
  6
Continuous
 62
     7
370
    25
100
AcDbLine
 10
-87.9432929511
 20
97.55
 30
0.0
 11
-86.125637141
 21
103.138
 31
0.0
  0
LINE
  5
C1
330
1F
100
AcDbEntity
  8
0
  6
Continuous
 62
     7
370
    25
100
AcDbLine
 10
-87.2493429616
 20
97.55
 30
0.0
 11
-87.9432929511
 21
97.55
 31
0.0
  0
LINE
  5
C2
330
1F
100
AcDbEntity
  8
0
  6
Continuous
 62
     7
370
    25
100
AcDbLine
 10
-86.8031483829
 20
98.974300063
 30
0.0
 11
-87.2493429616
 21
97.55
 31
0.0
  0
LINE
  5
C3
330
1F
100
AcDbEntity
  8
0
  6
Continuous
 62
     7
370
    25
100
AcDbLine
 10
-84.5921368258
 20
98.974300063
 30
0.0
 11
-86.8031483829
 21
98.974300063
 31
0.0
  0
LINE
  5
C4
330
1F
100
AcDbEntity
  8
0
  6
Continuous
 62
     7
370
    25
100
AcDbLine
 10
-84.1447680509
 20
97.55
 30
0.0
 11
-84.5921368258
 21
98.974300063
 31
0.0
  0
LINE
  5
C5
330
1F
100
AcDbEntity
  8
0
  6
Continuous
 62
     7
370
    25
100
AcDbLine
 10
-83.4061986035
 20
97.55
 30
0.0
 11
-84.1447680509
 21
97.55
 31
0.0
  0
LINE
  5
C6
330
1F
100
AcDbEntity
  8
0
  6
Continuous
 62
     7
370
    25
100
AcDbLine
 10
-52.3757140479
 20
97.55
 30
0.0
 11
-53.0567478786
 21
97.55
 31
0.0
  0
LINE
  5
C7
330
1F
100
AcDbEntity
  8
0
  6
Continuous
 62
     7
370
    25
100
AcDbLine
 10
-52.3757140479
 20
103.6288140366
 30
0.0
 11
-52.3757140479
 21
97.55
 31
0.0
  0
LINE
  5
C8
330
1F
100
AcDbEntity
  8
0
  6
Continuous
 62
     7
370
    25
100
AcDbLine
 10
-53.0567478786
 20
103.5442719059
 30
0.0
 11
-52.3757140479
 21
103.6288140366
 31
0.0
  0
LINE
  5
C9
330
1F
100
AcDbEntity
  8
0
  6
Continuous
 62
     7
370
    25
100
AcDbLine
 10
-53.0567478786
 20
97.55
 30
0.0
 11
-53.0567478786
 21
103.5442719059
 31
0.0
  0
LINE
  5
CA
330
1F
100
AcDbEntity
  8
0
  6
Continuous
 62
     7
370
    25
100
AcDbLine
 10
-50.1964057899
 20
97.55
 30
0.0
 11
-52.2982170948
 21
99.8831279681
 31
0.0
  0
LINE
  5
CB
330
1F
100
AcDbEntity
  8
0
  6
Continuous
 62
     7
370
    25
100
AcDbLine
 10
-49.2993198475
 20
97.55
 30
0.0
 11
-50.1964057899
 21
97.55
 31
0.0
  0
LINE
  5
CC
330
1F
100
AcDbEntity
  8
0
  6
Continuous
 62
     7
370
    25
100
AcDbLine
 10
-51.4457506102
 20
99.8995667157
 30
0.0
 11
-49.2993198475
 21
97.55
 31
0.0
  0
LINE
  5
CD
330
1F
100
AcDbEntity
  8
0
  6
Continuous
 62
     7
370
    25
100
AcDbLine
 10
-49.5224171368
 20
101.8229001891
 30
0.0
 11
-51.4457506102
 21
99.8995667157
 31
0.0
  0
LINE
  5
CE
330
1F
100
AcDbEntity
  8
0
  6
Continuous
 62
     7
370
    25
100
AcDbLine
 10
-50.4077611166
 20
101.8229001891
 30
0.0
 11
-49.5224171368
 21
101.8229001891
 31
0.0
  0
LINE
  5
CF
330
1F
100
AcDbEntity
  8
0
  6
Continuous
 62
     7
370
    25
100
AcDbLine
 10
-52.2982170948
 20
99.8831279681
 30
0.0
 11
-50.4077611166
 21
101.8229001891
 31
0.0
  0
LINE
  5
D0
330
1F
100
AcDbEntity
  8
0
  6
Continuous
 62
     7
370
    25
100
AcDbLine
 10
-54.5937707825
 20
100.3786387897
 30
0.0
 11
-55.1538623984
 21
100.3786387897
 31
0.0
  0
LINE
  5
D1
330
1F
100
AcDbEntity
  8
0
  6
Continuous
 62
     7
370
    25
100
AcDbLine
 10
-54.4866610194
 20
101.8202831189
 30
0.0
 11
-54.5937707825
 21
100.3786387897
 31
0.0
  0
LINE
  5
D2
330
1F
100
AcDbEntity
  8
0
  6
Continuous
 62
     7
370
    25
100
AcDbLine
 10
-54.4971563012
 20
101.820329056
 30
0.0
 11
-54.4866610194
 21
101.8202831189
 31
0.0
  0
LINE
  5
D3
330
1F
100
AcDbEntity
  8
0
  6
Continuous
 62
     7
370
    25
100
AcDbLine
 10
-54.496312493
 20
101.8229001891
 30
0.0
 11
-54.4971563012
 21
101.820329056
 31
0.0
  0
LINE
  5
D4
330
1F
100
AcDbEntity
  8
0
  6
Continuous
 62
     7
370
    25
100
AcDbLine
 10
-56.761337078
 20
101.8229001891
 30
0.0
 11
-56.6345238819
 21
100.8130914058
 31
0.0
  0
LINE
  5
D5
330
1F
100
AcDbEntity
  8
0
  6
Continuous
 62
     7
370
    25
100
AcDbLine
 10
-57.946101104
 20
101.8229001891
 30
0.0
 11
-56.761337078
 21
101.8229001891
 31
0.0
  0
LINE
  5
D6
330
1F
100
AcDbEntity
  8
0
  6
Continuous
 62
     7
370
    25
100
AcDbLine
 10
-57.946101104
 20
101.2992086573
 30
0.0
 11
-57.946101104
 21
101.8229001891
 31
0.0
  0
LINE
  5
D7
330
1F
100
AcDbEntity
  8
0
  6
Continuous
 62
     7
370
    25
100
AcDbLine
 10
-57.2803318248
 20
101.2992086573
 30
0.0
 11
-57.946101104
 21
101.2992086573
 31
0.0
  0
LINE
  5
D8
330
1F
100
AcDbEntity
  8
0
  6
Continuous
 62
     7
370
    25
100
AcDbLine
 10
-57.2803318248
 20
98.0736915318
 30
0.0
 11
-57.2803318248
 21
101.2992086573
 31
0.0
  0
LINE
  5
D9
330
1F
100
AcDbEntity
  8
0
  6
Continuous
 62
     7
370
    25
100
AcDbLine
 10
-57.946101104
 20
98.0736915318
 30
0.0
 11
-57.2803318248
 21
98.0736915318
 31
0.0
  0
LINE
  5
DA
330
1F
100
AcDbEntity
  8
0
  6
Continuous
 62
     7
370
    25
100
AcDbLine
 10
-57.946101104
 20
97.55
 30
0.0
 11
-57.946101104
 21
98.0736915318
 31
0.0
  0
LINE
  5
DB
330
1F
100
AcDbEntity
  8
0
  6
Continuous
 62
     7
370
    25
100
AcDbLine
 10
-55.730392762
 20
97.55
 30
0.0
 11
-57.946101104
 21
97.55
 31
0.0
  0
LINE
  5
DC
330
1F
100
AcDbEntity
  8
0
  6
Continuous
 62
     7
370
    25
100
AcDbLine
 10
-55.730392762
 20
98.0736915318
 30
0.0
 11
-55.730392762
 21
97.55
 31
0.0
  0
LINE
  5
DD
330
1F
100
AcDbEntity
  8
0
  6
Continuous
 62
     7
370
    25
100
AcDbLine
 10
-56.5981237979
 20
98.0736915318
 30
0.0
 11
-55.730392762
 21
98.0736915318
 31
0.0
  0
LINE
  5
DE
330
1F
100
AcDbEntity
  8
0
  6
Continuous
 62
     7
370
    25
100
AcDbLine
 10
-56.5981237979
 20
99.8831279681
 30
0.0
 11
-56.5981237979
 21
98.0736915318
 31
0.0
  0
LINE
  5
DF
330
1F
100
AcDbEntity
  8
0
  6
Continuous
 62
     7
370
    25
100
AcDbLine
 10
-55.1538623984
 20
100.3786387897
 30
0.0
 11
-55.1538623984
 21
101.2868422302
 31
0.0
  0
LINE
  5
E0
330
1F
100
AcDbEntity
  8
0
  6
Continuous
 62
     7
370
    25
100
AcDbLine
 10
-1.95
 20
115.55
 30
0.0
 11
-140.95
 21
115.55
 31
0.0
  0
LINE
  5
E1
330
1F
100
AcDbEntity
  8
0
  6
Continuous
 62
     7
370
    25
100
AcDbLine
 10
-1.95
 20
95.55
 30
0.0
 11
-1.95
 21
115.55
 31
0.0
  0
LINE
  5
E2
330
1F
100
AcDbEntity
  8
0
  6
Continuous
 62
     7
370
    25
100
AcDbLine
 10
-140.95
 20
95.55
 30
0.0
 11
-1.95
 21
95.55
 31
0.0
  0
LINE
  5
E3
330
1F
100
AcDbEntity
  8
0
  6
Continuous
 62
     7
370
    25
100
AcDbLine
 10
-164.95
 20
-67.45
 30
0.0
 11
-164.95
 21
71.55
 31
0.0
  0
LINE
  5
E4
330
1F
100
AcDbEntity
  8
0
  6
Continuous
 62
     7
370
    25
100
AcDbLine
 10
-184.95
 20
-67.45
 30
0.0
 11
-164.95
 21
-67.45
 31
0.0
  0
LINE
  5
E5
330
1F
100
AcDbEntity
  8
0
  6
Continuous
 62
     7
370
    25
100
AcDbLine
 10
-184.95
 20
71.55
 30
0.0
 11
-184.95
 21
-67.45
 31
0.0
  0
LINE
  5
E6
330
1F
100
AcDbEntity
  8
0
  6
Continuous
 62
     7
370
    25
100
AcDbLine
 10
-64.3302061681
 20
98.5281054843
 30
0.0
 11
-63.9650311314
 21
98.065472158
 31
0.0
  0
LINE
  5
E7
330
1F
100
AcDbEntity
  8
0
  6
Continuous
 62
     7
370
    25
100
AcDbLine
 10
-64.0472248695
 20
102.6835860475
 30
0.0
 11
-64.4405806165
 21
102.2244753099
 31
0.0
  0
LINE
  5
E8
330
1F
100
AcDbEntity
  8
0
  6
Continuous
 62
     7
370
    25
100
AcDbLine
 10
-77.5328689124
 20
100.3868581635
 30
0.0
 11
-74.2791710767
 21
100.3868581635
 31
0.0
  0
LINE
  5
E9
330
1F
100
AcDbEntity
  8
0
  6
Continuous
 62
     7
370
    25
100
AcDbLine
 10
-77.5328689124
 20
99.7938890523
 30
0.0
 11
-77.5328689124
 21
100.3868581635
 31
0.0
  0
LINE
  5
EA
330
1F
100
AcDbEntity
  8
0
  6
Continuous
 62
     7
370
    25
100
AcDbLine
 10
-74.2791710767
 20
99.7938890523
 30
0.0
 11
-77.5328689124
 21
99.7938890523
 31
0.0
  0
LINE
  5
EB
330
1F
100
AcDbEntity
  8
0
  6
Continuous
 62
     7
370
    25
100
AcDbLine
 10
-74.2791710767
 20
100.3868581635
 30
0.0
 11
-74.2791710767
 21
99.7938890523
 31
0.0
  0
LINE
  5
EC
330
1F
100
AcDbEntity
  8
0
  6
Continuous
 62
     7
370
    25
100
AcDbLine
 10
-91.6878048233
 20
99.453372137
 30
0.0
 11
-90.2358903512
 21
99.453372137
 31
0.0
  0
LINE
  5
ED
330
1F
100
AcDbEntity
  8
0
  6
Continuous
 62
     7
370
    25
100
AcDbLine
 10
-90.2024465548
 20
102.9877028788
 30
0.0
 11
-91.6878048233
 21
99.453372137
 31
0.0
  0
LINE
  5
EE
330
1F
100
AcDbEntity
  8
0
  6
Continuous
 62
     7
370
    25
100
AcDbLine
 10
-90.7707575445
 20
103.2272389157
 30
0.0
 11
-90.2024465548
 21
102.9877028788
 31
0.0
  0
LINE
  5
EF
330
1F
100
AcDbEntity
  8
0
  6
Continuous
 62
     7
370
    25
100
AcDbLine
 10
-92.409935523
 20
99.4040558941
 30
0.0
 11
-90.7707575445
 21
103.2272389157
 31
0.0
  0
LINE
  5
F0
330
1F
100
AcDbEntity
  8
0
  6
Continuous
 62
     7
370
    25
100
AcDbLine
 10
-92.409935523
 20
98.9097192688
 30
0.0
 11
-92.409935523
 21
99.4040558941
 31
0.0
  0
LINE
  5
F1
330
1F
100
AcDbEntity
  8
0
  6
Continuous
 62
     7
370
    25
100
AcDbLine
 10
-90.2358903512
 20
98.9097192688
 30
0.0
 11
-92.409935523
 21
98.9097192688
 31
0.0
  0
LINE
  5
F2
330
1F
100
AcDbEntity
  8
0
  6
Continuous
 62
     7
370
    25
100
AcDbLine
 10
-90.2358903512
 20
98.9097192688
 30
0.0
 11
-90.2358903512
 21
97.5575220505
 31
0.0
  0
LINE
  5
F3
330
1F
100
AcDbEntity
  8
0
  6
Continuous
 62
     7
370
    25
100
AcDbLine
 10
-90.2358903512
 20
97.5575220505
 30
0.0
 11
-89.6327731885
 21
97.5575220505
 31
0.0
  0
LINE
  5
F4
330
1F
100
AcDbEntity
  8
0
  6
Continuous
 62
     7
370
    25
100
AcDbLine
 10
-89.6327731885
 20
97.5575220505
 30
0.0
 11
-89.6327731885
 21
98.9220542456
 31
0.0
  0
LINE
  5
F5
330
1F
100
AcDbEntity
  8
0
  6
Continuous
 62
     7
370
    25
100
AcDbLine
 10
-89.6327731885
 20
98.9220542456
 30
0.0
 11
-89.2348301551
 21
98.9220542456
 31
0.0
  0
LINE
  5
F6
330
1F
100
AcDbEntity
  8
0
  6
Continuous
 62
     7
370
    25
100
AcDbLine
 10
-89.2348301551
 20
98.9220542456
 30
0.0
 11
-89.2348301551
 21
99.4778525371
 31
0.0
  0
LINE
  5
F7
330
1F
100
AcDbEntity
  8
0
  6
Continuous
 62
     7
370
    25
100
AcDbLine
 10
-89.2348301551
 20
99.4778525371
 30
0.0
 11
-89.6327731885
 21
99.4778525371
 31
0.0
  0
LINE
  5
F8
330
1F
100
AcDbEntity
  8
0
  6
Continuous
 62
     7
370
    25
100
AcDbLine
 10
-89.6327731885
 20
99.4778525371
 30
0.0
 11
-89.6327731885
 21
100.2865864407
 31
0.0
  0
LINE
  5
F9
330
1F
100
AcDbEntity
  8
0
  6
Continuous
 62
     7
370
    25
100
AcDbLine
 10
-89.6327731885
 20
100.2865864407
 30
0.0
 11
-90.2358903512
 21
100.2865864407
 31
0.0
  0
LINE
  5
FA
330
1F
100
AcDbEntity
  8
0
  6
Continuous
 62
     7
370
    25
100
AcDbLine
 10
-90.2358903512
 20
100.2865864407
 30
0.0
 11
-90.2358903512
 21
99.453372137
 31
0.0
  0
LINE
  5
FB
330
1F
100
AcDbEntity
  8
0
  6
Continuous
 62
     7
370
    25
100
AcDbLine
 10
-86.6211479626
 20
99.5590498004
 30
0.0
 11
-84.7741372461
 21
99.5590498004
 31
0.0
  0
LINE
  5
FC
330
1F
100
AcDbEntity
  8
0
  6
Continuous
 62
     7
370
    25
100
AcDbLine
 10
-85.6911845249
 20
102.5450308888
 30
0.0
 11
-86.6211479626
 21
99.5590498004
 31
0.0
  0
LINE
  5
FD
330
1F
100
AcDbEntity
  8
0
  6
Continuous
 62
     7
370
    25
100
AcDbLine
 10
-84.7741372461
 20
99.5590498004
 30
0.0
 11
-85.6911845249
 21
102.5450308888
 31
0.0
  0
ARC
  5
FE
330
1F
100
AcDbEntity
  8
0
  6
Continuous
 62
     7
370
    25
100
AcDbCircle
 10
-140.95
 20
71.55
 30
0.0
 40
23.99999999999994
100
AcDbArc
 50
90.0
 51
180.0
  0
ARC
  5
FF
330
1F
100
AcDbEntity
  8
0
  6
Continuous
 62
     7
370
    25
100
AcDbCircle
 10
-140.95
 20
71.55
 30
0.0
 40
43.99999999999997
100
AcDbArc
 50
90.0
 51
180.0
  0
ENDSEC
  0
SECTION
  2
OBJECTS
  0
DICTIONARY
  5
C
330
0
100
AcDbDictionary
281
     1
  3
ACAD_GROUP
350
D
  3
ACAD_LAYOUT
350
1A
  3
ACAD_MLINESTYLE
350
17
  3
ACAD_PLOTSETTINGS
350
19
  3
ACAD_PLOTSTYLENAME
350
E
  3
ACAD_SCALELIST
350
47
  3
DWGPROPS
350
100
  0
DICTIONARY
  5
D
102
{ACAD_REACTORS
330
C
102
}
330
C
100
AcDbDictionary
281
     1
  0
DICTIONARY
  5
1A
102
{ACAD_REACTORS
330
C
102
}
330
C
100
AcDbDictionary
281
     1
  3
Layout1
350
1E
  3
Layout2
350
26
  3
Model
350
22
  0
DICTIONARY
  5
17
102
{ACAD_REACTORS
330
C
102
}
330
C
100
AcDbDictionary
281
     1
  3
Standard
350
18
  0
DICTIONARY
  5
19
102
{ACAD_REACTORS
330
C
102
}
330
C
100
AcDbDictionary
281
     1
  0
ACDBDICTIONARYWDFLT
  5
E
102
{ACAD_REACTORS
330
C
102
}
330
C
100
AcDbDictionary
281
     1
  3
Normal
350
F
100
AcDbDictionaryWithDefault
340
F
  0
DICTIONARY
  5
47
102
{ACAD_REACTORS
330
C
102
}
330
C
100
AcDbDictionary
281
     1
  3
A0
350
48
  3
A1
350
49
  3
A2
350
4A
  3
A3
350
4B
  3
A4
350
4C
  3
A5
350
4D
  3
A6
350
4E
  3
A7
350
4F
  3
A8
350
50
  3
A9
350
51
  3
B0
350
52
  3
B1
350
53
  3
B2
350
54
  3
B3
350
55
  3
B4
350
56
  3
B5
350
57
  3
B6
350
58
  0
XRECORD
  5
100
102
{ACAD_REACTORS
330
C
102
}
330
C
100
AcDbXrecord
280
     1
  1
DWGPROPS COOKIE
  2

  3

  4

  6

  7

  8
sambo
  9

300
=
301
=
302
=
303
=
304
=
305
=
306
=
307
=
308
=
309
=
 40
0.0
 41
2460215.642341806
 42
2460215.642357257
  1

 90
        0
  0
LAYOUT
  5
1E
102
{ACAD_REACTORS
330
1A
102
}
330
1A
100
AcDbPlotSettings
  1

  2
none_device
  4

  6

 40
0.0
 41
0.0
 42
0.0
 43
0.0
 44
0.0
 45
0.0
 46
0.0
 47
0.0
 48
0.0
 49
0.0
140
0.0
141
0.0
142
1.0
143
1.0
 70
   688
 72
     1
 73
     0
 74
     5
  7

 75
    16
147
1.0
148
0.0
149
0.0
100
AcDbLayout
  1
Layout1
 70
     1
 71
     1
 10
0.0
 20
0.0
 11
420.0
 21
297.0
 12
0.0
 22
0.0
 32
0.0
 14
1.0000000000E+20
 24
1.0000000000E+20
 34
1.0000000000E+20
 15
-1.0000000000E+20
 25
-1.0000000000E+20
 35
-1.0000000000E+20
146
0.0
 13
0.0
 23
0.0
 33
0.0
 16
1.0
 26
0.0
 36
0.0
 17
0.0
 27
1.0
 37
0.0
 76
     0
330
1B
  0
LAYOUT
  5
26
102
{ACAD_REACTORS
330
1A
102
}
330
1A
100
AcDbPlotSettings
  1

  2
none_device
  4

  6

 40
0.0
 41
0.0
 42
0.0
 43
0.0
 44
0.0
 45
0.0
 46
0.0
 47
0.0
 48
0.0
 49
0.0
140
0.0
141
0.0
142
1.0
143
1.0
 70
   688
 72
     1
 73
     0
 74
     5
  7

 75
    16
147
1.0
148
0.0
149
0.0
100
AcDbLayout
  1
Layout2
 70
     1
 71
     2
 10
0.0
 20
0.0
 11
0.0
 21
0.0
 12
0.0
 22
0.0
 32
0.0
 14
0.0
 24
0.0
 34
0.0
 15
0.0
 25
0.0
 35
0.0
146
0.0
 13
0.0
 23
0.0
 33
0.0
 16
1.0
 26
0.0
 36
0.0
 17
0.0
 27
1.0
 37
0.0
 76
     0
330
23
  0
LAYOUT
  5
22
102
{ACAD_REACTORS
330
1A
102
}
330
1A
100
AcDbPlotSettings
  1

  2
none_device
  4
ANSI_A_(11.00_x_8.50_Inches)
  6

 40
6.35
 41
19.05
 42
6.35000508
 43
19.05000254
 44
279.4
 45
215.9
 46
242.4980654928
 47
60.8099929923
 48
0.0
 49
0.0
140
0.0
141
0.0
142
0.0459836066
143
1.0
 70
  1696
 72
     0
 73
     0
 74
     0
  7

 75
     0
147
0.0179189148
148
-1300.4909072572
149
0.0
100
AcDbLayout
  1
Model
 70
     1
 71
     0
 10
0.0
 20
0.0
 11
420.0
 21
297.0
 12
0.0
 22
0.0
 32
0.0
 14
-184.95
 24
-67.45
 34
0.0
 15
-1.95
 25
115.55
 35
0.0
146
0.0
 13
0.0
 23
0.0
 33
0.0
 16
1.0
 26
0.0
 36
0.0
 17
0.0
 27
1.0
 37
0.0
 76
     0
330
1F
331
29
  0
MLINESTYLE
  5
18
102
{ACAD_REACTORS
330
17
102
}
330
17
100
AcDbMlineStyle
  2
Standard
 70
     0
  3

 62
   256
 51
90.0
 52
90.0
 71
     2
 49
0.5
 62
   256
  6
BYLAYER
 49
-0.5
 62
   256
  6
BYLAYER
  0
ACDBPLACEHOLDER
  5
F
102
{ACAD_REACTORS
330
E
102
}
330
E
  0
SCALE
  5
48
102
{ACAD_REACTORS
330
47
102
}
330
47
100
AcDbScale
 70
     0
300
1:1
140
1.0
141
1.0
290
     1
  0
SCALE
  5
49
102
{ACAD_REACTORS
330
47
102
}
330
47
100
AcDbScale
 70
     0
300
1:2
140
1.0
141
2.0
290
     0
  0
SCALE
  5
4A
102
{ACAD_REACTORS
330
47
102
}
330
47
100
AcDbScale
 70
     0
300
1:4
140
1.0
141
4.0
290
     0
  0
SCALE
  5
4B
102
{ACAD_REACTORS
330
47
102
}
330
47
100
AcDbScale
 70
     0
300
1:5
140
1.0
141
5.0
290
     0
  0
SCALE
  5
4C
102
{ACAD_REACTORS
330
47
102
}
330
47
100
AcDbScale
 70
     0
300
1:8
140
1.0
141
8.0
290
     0
  0
SCALE
  5
4D
102
{ACAD_REACTORS
330
47
102
}
330
47
100
AcDbScale
 70
     0
300
1:10
140
1.0
141
10.0
290
     0
  0
SCALE
  5
4E
102
{ACAD_REACTORS
330
47
102
}
330
47
100
AcDbScale
 70
     0
300
1:16
140
1.0
141
16.0
290
     0
  0
SCALE
  5
4F
102
{ACAD_REACTORS
330
47
102
}
330
47
100
AcDbScale
 70
     0
300
1:20
140
1.0
141
20.0
290
     0
  0
SCALE
  5
50
102
{ACAD_REACTORS
330
47
102
}
330
47
100
AcDbScale
 70
     0
300
1:30
140
1.0
141
30.0
290
     0
  0
SCALE
  5
51
102
{ACAD_REACTORS
330
47
102
}
330
47
100
AcDbScale
 70
     0
300
1:40
140
1.0
141
40.0
290
     0
  0
SCALE
  5
52
102
{ACAD_REACTORS
330
47
102
}
330
47
100
AcDbScale
 70
     0
300
1:50
140
1.0
141
50.0
290
     0
  0
SCALE
  5
53
102
{ACAD_REACTORS
330
47
102
}
330
47
100
AcDbScale
 70
     0
300
1:100
140
1.0
141
100.0
290
     0
  0
SCALE
  5
54
102
{ACAD_REACTORS
330
47
102
}
330
47
100
AcDbScale
 70
     0
300
2:1
140
2.0
141
1.0
290
     0
  0
SCALE
  5
55
102
{ACAD_REACTORS
330
47
102
}
330
47
100
AcDbScale
 70
     0
300
4:1
140
4.0
141
1.0
290
     0
  0
SCALE
  5
56
102
{ACAD_REACTORS
330
47
102
}
330
47
100
AcDbScale
 70
     0
300
8:1
140
8.0
141
1.0
290
     0
  0
SCALE
  5
57
102
{ACAD_REACTORS
330
47
102
}
330
47
100
AcDbScale
 70
     0
300
10:1
140
10.0
141
1.0
290
     0
  0
SCALE
  5
58
102
{ACAD_REACTORS
330
47
102
}
330
47
100
AcDbScale
 70
     0
300
100:1
140
100.0
141
1.0
290
     0
  0
ENDSEC
  0
EOF
