999
"DXF R12 Output" (www.mydxf.blogspot.com)
 0 
SECTION
 2 
HEADER
 9 
$ACADVER
 1 
AC1009
 9 
$EXTMIN
 10 
 0 
 20 
 0 
 9 
$EXTMAX
 10 
 8.5 
 20 
 11 
 0 
ENDSEC
 0 
SECTION
 2 
ENTITIES
0
LINE
8
Layer 1
10
0.793749
20
900.794000
11
-0.793749
21
899.206000
0
LINE
8
Layer 1
10
0.000000
20
901.323000
11
0.000000
21
898.677000
0
LINE
8
Layer 1
10
2.116660
20
898.942000
11
1.058330
21
897.883670
0
LINE
8
Layer 1
10
1.587500
20
899.471000
11
0.529170
21
898.412670
0
LINE
8
Layer 1
10
1.058330
20
900.000000
11
0.000000
21
898.941670
0
LINE
8
0
10
-151.402000
20
771.638000
11
-151.218827
21
771.633290
0
LINE
8
0
10
-151.218827
20
771.633290
11
-151.038000
21
771.621543
0
LINE
8
0
10
-151.038000
20
771.621543
11
-150.858348
21
771.600403
0
LINE
8
0
10
-150.858348
20
771.600403
11
-150.682218
21
771.571047
0
LINE
8
0
10
-150.682218
20
771.571047
11
-150.510787
21
771.532299
0
LINE
8
0
10
-150.510787
20
771.532299
11
-150.348748
21
771.480634
0
LINE
8
0
10
-150.348748
20
771.480634
11
-150.194927
21
771.418404
0
LINE
8
0
10
-150.194927
20
771.418404
11
-150.049327
21
771.344429
0
LINE
8
0
10
-150.049327
20
771.344429
11
-149.915469
21
771.257538
0
LINE
8
0
10
-149.915469
20
771.257538
11
-149.795700
21
771.155383
0
LINE
8
0
10
-149.795700
20
771.155383
11
-149.688851
21
771.041488
0
LINE
8
0
10
-149.688851
20
771.041488
11
-149.597263
21
770.912327
0
LINE
8
0
10
-149.597263
20
770.912327
11
-149.522113
21
770.767899
0
LINE
8
0
10
-149.522113
20
770.767899
11
-149.468101
21
770.605860
0
LINE
8
0
10
-149.468101
20
770.605860
11
-149.436396
21
770.426208
0
LINE
8
0
10
-149.436396
20
770.426208
11
-149.425839
21
770.230118
0
LINE
8
0
10
-149.182000
20
767.645000
11
-149.193748
21
767.426600
0
LINE
8
0
10
-149.193748
20
767.426600
11
-149.226625
21
767.226988
0
LINE
8
0
10
-149.226625
20
767.226988
11
-149.284158
21
767.046161
0
LINE
8
0
10
-149.284158
20
767.046161
11
-149.362829
21
766.882948
0
LINE
8
0
10
-149.362829
20
766.882948
11
-149.460288
21
766.736173
0
LINE
8
0
10
-149.460288
20
766.736173
11
-149.574186
21
766.605837
0
LINE
8
0
10
-149.574186
20
766.605837
11
-149.702173
21
766.490767
0
LINE
8
0
10
-149.702173
20
766.490767
11
-149.845424
21
766.392133
0
LINE
8
0
10
-149.845424
20
766.392133
11
-150.000419
21
766.307593
0
LINE
8
0
10
-150.000419
20
766.307593
11
-150.164804
21
766.234793
0
LINE
8
0
10
-150.164804
20
766.234793
11
-150.337413
21
766.176082
0
LINE
8
0
10
-150.337413
20
766.176082
11
-150.519412
21
766.130288
0
LINE
8
0
10
-150.519412
20
766.130288
11
-150.706110
21
766.095062
0
LINE
8
0
10
-150.706110
20
766.095062
11
-150.893982
21
766.070403
0
LINE
8
0
10
-150.893982
20
766.070403
11
-151.084201
21
766.055136
0
LINE
8
0
10
-151.084201
20
766.055136
11
-151.275595
21
766.050427
0
LINE
8
0
10
-150.465000
20
769.008000
11
-150.310007
21
768.978645
0
LINE
8
0
10
-150.310007
20
768.978645
11
-150.157361
21
768.936375
0
LINE
8
0
10
-150.157361
20
768.936375
11
-150.007065
21
768.884710
0
LINE
8
0
10
-150.007065
20
768.884710
11
-149.859115
21
768.820130
0
LINE
8
0
10
-149.859115
20
768.820130
11
-149.718211
21
768.741459
0
LINE
8
0
10
-149.718211
20
768.741459
11
-149.590224
21
768.645175
0
LINE
8
0
10
-149.590224
20
768.645175
11
-149.476326
21
768.530103
0
LINE
8
0
10
-149.476326
20
768.530103
11
-149.374173
21
768.398595
0
LINE
8
0
10
-149.374173
20
768.398595
11
-149.290803
21
768.244774
0
LINE
8
0
10
-149.290803
20
768.244774
11
-149.230920
21
768.068646
0
LINE
8
0
10
-149.230920
20
768.068646
11
-149.194521
21
767.867857
0
LINE
8
0
10
-149.194521
20
767.867857
11
-149.182774
21
767.644761
0
LINE
8
0
10
-149.425000
20
770.230000
11
-149.434393
21
770.056219
0
LINE
8
0
10
-149.434393
20
770.056219
11
-149.462573
21
769.896530
0
LINE
8
0
10
-149.462573
20
769.896530
11
-149.508367
21
769.750930
0
LINE
8
0
10
-149.508367
20
769.750930
11
-149.574122
21
769.619419
0
LINE
8
0
10
-149.574122
20
769.619419
11
-149.653968
21
769.500825
0
LINE
8
0
10
-149.653968
20
769.500825
11
-149.744378
21
769.393973
0
LINE
8
0
10
-149.744378
20
769.393973
11
-149.846533
21
769.300038
0
LINE
8
0
10
-149.846533
20
769.300038
11
-149.959256
21
769.219020
0
LINE
8
0
10
-149.959256
20
769.219020
11
-150.080200
21
769.149742
0
LINE
8
0
10
-150.080200
20
769.149742
11
-150.203490
21
769.091031
0
LINE
8
0
10
-150.203490
20
769.091031
11
-150.332651
21
769.044065
0
LINE
8
0
10
-150.332651
20
769.044065
11
-150.464159
21
769.007663
0
LINE
8
0
10
-120.552000
20
770.417000
11
-120.382916
21
770.409962
0
LINE
8
0
10
-120.382916
20
770.409962
11
-120.233794
21
770.391177
0
LINE
8
0
10
-120.233794
20
770.391177
11
-120.091716
21
770.360646
0
LINE
8
0
10
-120.091716
20
770.360646
11
-119.947291
21
770.323073
0
LINE
8
0
10
-122.086000
20
769.313000
11
-121.955666
21
769.561928
0
LINE
8
0
10
-121.955666
20
769.561928
11
-121.812413
21
769.780328
0
LINE
8
0
10
-121.812413
20
769.780328
11
-121.656246
21
769.969375
0
LINE
8
0
10
-121.656246
20
769.969375
11
-121.485987
21
770.129064
0
LINE
8
0
10
-121.485987
20
770.129064
11
-121.394402
21
770.195993
0
LINE
8
0
10
-121.394402
20
770.195993
11
-121.294596
21
770.254704
0
LINE
8
0
10
-121.294596
20
770.254704
11
-121.188916
21
770.304019
0
LINE
8
0
10
-121.188916
20
770.304019
11
-121.076193
21
770.345117
0
LINE
8
0
10
-121.076193
20
770.345117
11
-120.955252
21
770.376819
0
LINE
8
0
10
-120.955252
20
770.376819
11
-120.828440
21
770.399124
0
LINE
8
0
10
-120.828440
20
770.399124
11
-120.693407
21
770.412035
0
LINE
8
0
10
-120.693407
20
770.412035
11
-120.552503
21
770.416719
0
LINE
8
0
10
-120.641000
20
769.788000
11
-120.761941
21
769.782126
0
LINE
8
0
10
-120.761941
20
769.782126
11
-120.878188
21
769.765696
0
LINE
8
0
10
-120.878188
20
769.765696
11
-120.989736
21
769.738690
0
LINE
8
0
10
-120.989736
20
769.738690
11
-121.097763
21
769.701116
0
LINE
8
0
10
-121.097763
20
769.701116
11
-121.201091
21
769.651801
0
LINE
8
0
10
-121.201091
20
769.651801
11
-121.299722
21
769.591915
0
LINE
8
0
10
-121.299722
20
769.591915
11
-121.394835
21
769.521464
0
LINE
8
0
10
-121.394835
20
769.521464
11
-121.485245
21
769.439269
0
LINE
8
0
10
-121.485245
20
769.439269
11
-121.570962
21
769.346509
0
LINE
8
0
10
-121.570962
20
769.346509
11
-121.653158
21
769.242007
0
LINE
8
0
10
-121.653158
20
769.242007
11
-121.730654
21
769.126935
0
LINE
8
0
10
-121.730654
20
769.126935
11
-121.802279
21
769.001295
0
LINE
8
0
10
-121.802279
20
769.001295
11
-121.871555
21
768.863916
0
LINE
8
0
10
-121.871555
20
768.863916
11
-121.934963
21
768.714794
0
LINE
8
0
10
-121.934963
20
768.714794
11
-121.993674
21
768.555102
0
LINE
8
0
10
-121.993674
20
768.555102
11
-122.048860
21
768.383671
0
LINE
8
0
10
-120.605000
20
769.787000
11
-120.641401
21
769.787794
0
LINE
8
0
10
-235.450000
20
704.550000
11
-235.647899
21
705.521507
0
LINE
8
0
10
-235.647899
20
705.521507
11
-236.183997
21
706.314534
0
LINE
8
0
10
-236.183997
20
706.314534
11
-236.978094
21
706.849044
0
LINE
8
0
10
-236.978094
20
706.849044
11
-237.949995
21
707.045000
0
LINE
8
0
10
-237.949995
20
707.045000
11
-238.921896
21
706.849044
0
LINE
8
0
10
-238.921896
20
706.849044
11
-239.715993
21
706.314534
0
LINE
8
0
10
-239.715993
20
706.314534
11
-240.252091
21
705.521507
0
LINE
8
0
10
-240.252091
20
705.521507
11
-240.449990
21
704.550000
0
LINE
8
0
10
-240.449990
20
704.550000
11
-240.252091
21
703.578493
0
LINE
8
0
10
-240.252091
20
703.578493
11
-239.715993
21
702.785466
0
LINE
8
0
10
-239.715993
20
702.785466
11
-238.921896
21
702.250956
0
LINE
8
0
10
-238.921896
20
702.250956
11
-237.949995
21
702.055000
0
LINE
8
0
10
-237.949995
20
702.055000
11
-236.978094
21
702.250956
0
LINE
8
0
10
-236.978094
20
702.250956
11
-236.183997
21
702.785466
0
LINE
8
0
10
-236.183997
20
702.785466
11
-235.647899
21
703.578493
0
LINE
8
0
10
-235.647899
20
703.578493
11
-235.450000
21
704.550000
0
LINE
8
0
10
-235.450000
20
704.550000
11
-235.450000
21
704.550000
0
LINE
8
0
10
-99.449900
20
771.550000
11
-99.647799
21
772.521507
0
LINE
8
0
10
-99.647799
20
772.521507
11
-100.183897
21
773.314534
0
LINE
8
0
10
-100.183897
20
773.314534
11
-100.977994
21
773.849044
0
LINE
8
0
10
-100.977994
20
773.849044
11
-101.949895
21
774.045000
0
LINE
8
0
10
-101.949895
20
774.045000
11
-102.921796
21
773.849044
0
LINE
8
0
10
-102.921796
20
773.849044
11
-103.715893
21
773.314534
0
LINE
8
0
10
-103.715893
20
773.314534
11
-104.251991
21
772.521507
0
LINE
8
0
10
-104.251991
20
772.521507
11
-104.449890
21
771.550000
0
LINE
8
0
10
-104.449890
20
771.550000
11
-104.251991
21
770.578493
0
LINE
8
0
10
-104.251991
20
770.578493
11
-103.715893
21
769.785466
0
LINE
8
0
10
-103.715893
20
769.785466
11
-102.921796
21
769.250956
0
LINE
8
0
10
-102.921796
20
769.250956
11
-101.949895
21
769.055000
0
LINE
8
0
10
-101.949895
20
769.055000
11
-100.977994
21
769.250956
0
LINE
8
0
10
-100.977994
20
769.250956
11
-100.183897
21
769.785466
0
LINE
8
0
10
-100.183897
20
769.785466
11
-99.647799
21
770.578493
0
LINE
8
0
10
-99.647799
20
770.578493
11
-99.449900
21
771.550000
0
LINE
8
0
10
-99.449900
20
771.550000
11
-99.449900
21
771.550000
0
LINE
8
0
10
-226.224000
20
762.324000
11
-226.421899
21
763.295507
0
LINE
8
0
10
-226.421899
20
763.295507
11
-226.957997
21
764.088534
0
LINE
8
0
10
-226.957997
20
764.088534
11
-227.752094
21
764.623044
0
LINE
8
0
10
-227.752094
20
764.623044
11
-228.723995
21
764.819000
0
LINE
8
0
10
-228.723995
20
764.819000
11
-229.695896
21
764.623044
0
LINE
8
0
10
-229.695896
20
764.623044
11
-230.489993
21
764.088534
0
LINE
8
0
10
-230.489993
20
764.088534
11
-231.026091
21
763.295507
0
LINE
8
0
10
-231.026091
20
763.295507
11
-231.223990
21
762.324000
0
LINE
8
0
10
-231.223990
20
762.324000
11
-231.026091
21
761.352493
0
LINE
8
0
10
-231.026091
20
761.352493
11
-230.489993
21
760.559466
0
LINE
8
0
10
-230.489993
20
760.559466
11
-229.695896
21
760.024956
0
LINE
8
0
10
-229.695896
20
760.024956
11
-228.723995
21
759.829000
0
LINE
8
0
10
-228.723995
20
759.829000
11
-227.752094
21
760.024956
0
LINE
8
0
10
-227.752094
20
760.024956
11
-226.957997
21
760.559466
0
LINE
8
0
10
-226.957997
20
760.559466
11
-226.421899
21
761.352493
0
LINE
8
0
10
-226.421899
20
761.352493
11
-226.224000
21
762.324000
0
LINE
8
0
10
-226.224000
20
762.324000
11
-226.224000
21
762.324000
0
LINE
8
0
10
-168.450000
20
771.550000
11
-168.647899
21
772.521507
0
LINE
8
0
10
-168.647899
20
772.521507
11
-169.183997
21
773.314534
0
LINE
8
0
10
-169.183997
20
773.314534
11
-169.978094
21
773.849044
0
LINE
8
0
10
-169.978094
20
773.849044
11
-170.949995
21
774.045000
0
LINE
8
0
10
-170.949995
20
774.045000
11
-171.921896
21
773.849044
0
LINE
8
0
10
-171.921896
20
773.849044
11
-172.715993
21
773.314534
0
LINE
8
0
10
-172.715993
20
773.314534
11
-173.252091
21
772.521507
0
LINE
8
0
10
-173.252091
20
772.521507
11
-173.449990
21
771.550000
0
LINE
8
0
10
-173.449990
20
771.550000
11
-173.252091
21
770.578493
0
LINE
8
0
10
-173.252091
20
770.578493
11
-172.715993
21
769.785466
0
LINE
8
0
10
-172.715993
20
769.785466
11
-171.921896
21
769.250956
0
LINE
8
0
10
-171.921896
20
769.250956
11
-170.949995
21
769.055000
0
LINE
8
0
10
-170.949995
20
769.055000
11
-169.978094
21
769.250956
0
LINE
8
0
10
-169.978094
20
769.250956
11
-169.183997
21
769.785466
0
LINE
8
0
10
-169.183997
20
769.785466
11
-168.647899
21
770.578493
0
LINE
8
0
10
-168.647899
20
770.578493
11
-168.450000
21
771.550000
0
LINE
8
0
10
-168.450000
20
771.550000
11
-168.450000
21
771.550000
0
LINE
8
0
10
-235.450000
20
635.550000
11
-235.647899
21
636.521507
0
LINE
8
0
10
-235.647899
20
636.521507
11
-236.183997
21
637.314534
0
LINE
8
0
10
-236.183997
20
637.314534
11
-236.978094
21
637.849044
0
LINE
8
0
10
-236.978094
20
637.849044
11
-237.949995
21
638.045000
0
LINE
8
0
10
-237.949995
20
638.045000
11
-238.921896
21
637.849044
0
LINE
8
0
10
-238.921896
20
637.849044
11
-239.715993
21
637.314534
0
LINE
8
0
10
-239.715993
20
637.314534
11
-240.252091
21
636.521507
0
LINE
8
0
10
-240.252091
20
636.521507
11
-240.449990
21
635.550000
0
LINE
8
0
10
-240.449990
20
635.550000
11
-240.252091
21
634.578493
0
LINE
8
0
10
-240.252091
20
634.578493
11
-239.715993
21
633.785466
0
LINE
8
0
10
-239.715993
20
633.785466
11
-238.921896
21
633.250956
0
LINE
8
0
10
-238.921896
20
633.250956
11
-237.949995
21
633.055000
0
LINE
8
0
10
-237.949995
20
633.055000
11
-236.978094
21
633.250956
0
LINE
8
0
10
-236.978094
20
633.250956
11
-236.183997
21
633.785466
0
LINE
8
0
10
-236.183997
20
633.785466
11
-235.647899
21
634.578493
0
LINE
8
0
10
-235.647899
20
634.578493
11
-235.450000
21
635.550000
0
LINE
8
0
10
-235.450000
20
635.550000
11
-235.450000
21
635.550000
0
LINE
8
0
10
-124.865000
20
768.188000
11
-124.877912
21
767.870969
0
LINE
8
0
10
-124.877912
20
767.870969
11
-124.917835
21
767.572723
0
LINE
8
0
10
-124.917835
20
767.572723
11
-124.983589
21
767.293265
0
LINE
8
0
10
-124.983589
20
767.293265
11
-125.076349
21
767.032593
0
LINE
8
0
10
-125.076349
20
767.032593
11
-125.131538
21
766.910477
0
LINE
8
0
10
-125.131538
20
766.910477
11
-125.193771
21
766.794232
0
LINE
8
0
10
-125.193771
20
766.794232
11
-125.261872
21
766.685031
0
LINE
8
0
10
-125.261872
20
766.685031
11
-125.335847
21
766.582876
0
LINE
8
0
10
-125.335847
20
766.582876
11
-125.416867
21
766.487766
0
LINE
8
0
10
-125.416867
20
766.487766
11
-125.503756
21
766.399702
0
LINE
8
0
10
-125.503756
20
766.399702
11
-125.596519
21
766.318682
0
LINE
8
0
10
-125.596519
20
766.318682
11
-125.695151
21
766.243535
0
LINE
8
0
10
-125.695151
20
766.243535
11
-125.799653
21
766.176606
0
LINE
8
0
10
-125.799653
20
766.176606
11
-125.911204
21
766.117895
0
LINE
8
0
10
-125.911204
20
766.117895
11
-126.027449
21
766.068579
0
LINE
8
0
10
-126.027449
20
766.068579
11
-126.150739
21
766.028657
0
LINE
8
0
10
-126.150739
20
766.028657
11
-126.279900
21
765.996954
0
LINE
8
0
10
-126.279900
20
765.996954
11
-126.414933
21
765.974650
0
LINE
8
0
10
-126.414933
20
765.974650
11
-126.555837
21
765.961738
0
LINE
8
0
10
-126.555837
20
765.961738
11
-126.702609
21
765.957029
0
LINE
8
0
10
-126.694000
20
770.412000
11
-126.546050
21
770.407317
0
LINE
8
0
10
-126.546050
20
770.407317
11
-126.403974
21
770.394405
0
LINE
8
0
10
-126.403974
20
770.394405
11
-126.268941
21
770.373265
0
LINE
8
0
10
-126.268941
20
770.373265
11
-126.139780
21
770.343909
0
LINE
8
0
10
-126.139780
20
770.343909
11
-126.016490
21
770.305161
0
LINE
8
0
10
-126.016490
20
770.305161
11
-125.899071
21
770.258192
0
LINE
8
0
10
-125.899071
20
770.258192
11
-125.787523
21
770.203006
0
LINE
8
0
10
-125.787523
20
770.203006
11
-125.683018
21
770.138426
0
LINE
8
0
10
-125.683018
20
770.138426
11
-125.584387
21
770.066798
0
LINE
8
0
10
-125.584387
20
770.066798
11
-125.491624
21
769.986955
0
LINE
8
0
10
-125.491624
20
769.986955
11
-125.404735
21
769.901238
0
LINE
8
0
10
-125.404735
20
769.901238
11
-125.324889
21
769.808475
0
LINE
8
0
10
-125.324889
20
769.808475
11
-125.252089
21
769.708669
0
LINE
8
0
10
-125.252089
20
769.708669
11
-125.185160
21
769.600645
0
LINE
8
0
10
-125.185160
20
769.600645
11
-125.124102
21
769.486747
0
LINE
8
0
10
-125.124102
20
769.486747
11
-125.070088
21
769.365803
0
LINE
8
0
10
-125.070088
20
769.365803
11
-124.979677
21
769.105133
0
LINE
8
0
10
-124.979677
20
769.105133
11
-124.916270
21
768.822151
0
LINE
8
0
10
-124.916270
20
768.822151
11
-124.877521
21
768.515687
0
LINE
8
0
10
-124.877521
20
768.515687
11
-124.864610
21
768.188086
0
LINE
8
0
10
-128.541000
20
768.180000
11
-128.528088
21
768.501728
0
LINE
8
0
10
-128.528088
20
768.501728
11
-128.488165
21
768.802323
0
LINE
8
0
10
-128.488165
20
768.802323
11
-128.422411
21
769.084130
0
LINE
8
0
10
-128.422411
20
769.084130
11
-128.330823
21
769.345975
0
LINE
8
0
10
-128.330823
20
769.345975
11
-128.274462
21
769.468091
0
LINE
8
0
10
-128.274462
20
769.468091
11
-128.212229
21
769.583163
0
LINE
8
0
10
-128.212229
20
769.583163
11
-128.144125
21
769.692362
0
LINE
8
0
10
-128.144125
20
769.692362
11
-128.068978
21
769.793343
0
LINE
8
0
10
-128.068978
20
769.793343
11
-127.987958
21
769.888453
0
LINE
8
0
10
-127.987958
20
769.888453
11
-127.901069
21
769.975344
0
LINE
8
0
10
-127.901069
20
769.975344
11
-127.807134
21
770.056362
0
LINE
8
0
10
-127.807134
20
770.056362
11
-127.707325
21
770.130337
0
LINE
8
0
10
-127.707325
20
770.130337
11
-127.601648
21
770.196091
0
LINE
8
0
10
-127.601648
20
770.196091
11
-127.488925
21
770.253628
0
LINE
8
0
10
-127.488925
20
770.253628
11
-127.371506
21
770.301771
0
LINE
8
0
10
-127.371506
20
770.301771
11
-127.248216
21
770.341691
0
LINE
8
0
10
-127.248216
20
770.341691
11
-127.117880
21
770.372222
0
LINE
8
0
10
-127.117880
20
770.372222
11
-126.982847
21
770.394526
0
LINE
8
0
10
-126.982847
20
770.394526
11
-126.840771
21
770.407438
0
LINE
8
0
10
-126.840771
20
770.407438
11
-126.693996
21
770.412121
0
LINE
8
0
10
-126.702000
20
765.957000
11
-126.848775
21
765.961710
0
LINE
8
0
10
-126.848775
20
765.961710
11
-126.990853
21
765.974621
0
LINE
8
0
10
-126.990853
20
765.974621
11
-127.125886
21
765.995761
0
LINE
8
0
10
-127.125886
20
765.995761
11
-127.255047
21
766.026292
0
LINE
8
0
10
-127.255047
20
766.026292
11
-127.378337
21
766.065040
0
LINE
8
0
10
-127.378337
20
766.065040
11
-127.495756
21
766.112006
0
LINE
8
0
10
-127.495756
20
766.112006
11
-127.607304
21
766.168367
0
LINE
8
0
10
-127.607304
20
766.168367
11
-127.712981
21
766.232950
0
LINE
8
0
10
-127.712981
20
766.232950
11
-127.812787
21
766.305750
0
LINE
8
0
10
-127.812787
20
766.305750
11
-127.905550
21
766.384421
0
LINE
8
0
10
-127.905550
20
766.384421
11
-127.992441
21
766.471310
0
LINE
8
0
10
-127.992441
20
766.471310
11
-128.072285
21
766.565247
0
LINE
8
0
10
-128.072285
20
766.565247
11
-128.146260
21
766.666228
0
LINE
8
0
10
-128.146260
20
766.666228
11
-128.214363
21
766.773077
0
LINE
8
0
10
-128.214363
20
766.773077
11
-128.276596
21
766.888149
0
LINE
8
0
10
-128.276596
20
766.888149
11
-128.331783
21
767.010265
0
LINE
8
0
10
-128.331783
20
767.010265
11
-128.423371
21
767.270937
0
LINE
8
0
10
-128.423371
20
767.270937
11
-128.487950
21
767.552744
0
LINE
8
0
10
-128.487950
20
767.552744
11
-128.527873
21
767.855686
0
LINE
8
0
10
-128.527873
20
767.855686
11
-128.540785
21
768.179763
0
LINE
8
0
10
-129.416000
20
766.566000
11
-129.553379
21
766.446231
0
LINE
8
0
10
-129.553379
20
766.446231
11
-129.710721
21
766.334683
0
LINE
8
0
10
-129.710721
20
766.334683
11
-129.886851
21
766.232528
0
LINE
8
0
10
-129.886851
20
766.232528
11
-130.081767
21
766.138593
0
LINE
8
0
10
-130.081767
20
766.138593
11
-130.297820
21
766.059922
0
LINE
8
0
10
-130.297820
20
766.059922
11
-130.538530
21
766.002386
0
LINE
8
0
10
-130.538530
20
766.002386
11
-130.801549
21
765.969509
0
LINE
8
0
10
-130.801549
20
765.969509
11
-131.088053
21
765.957761
0
LINE
8
0
10
-131.080000
20
766.561000
11
-130.854557
21
766.570393
0
LINE
8
0
10
-130.854557
20
766.570393
11
-130.651421
21
766.596216
0
LINE
8
0
10
-130.651421
20
766.596216
11
-130.468245
21
766.640835
0
LINE
8
0
10
-130.468245
20
766.640835
11
-130.307381
21
766.703068
0
LINE
8
0
10
-130.307381
20
766.703068
11
-130.161781
21
766.777043
0
LINE
8
0
10
-130.161781
20
766.777043
11
-130.024399
21
766.855714
0
LINE
8
0
10
-130.024399
20
766.855714
11
-129.898762
21
766.939081
0
LINE
8
0
10
-129.898762
20
766.939081
11
-129.781343
21
767.028320
0
LINE
8
0
10
-132.777000
20
768.846000
11
-132.773481
21
768.642864
0
LINE
8
0
10
-132.773481
20
768.642864
11
-132.762924
21
768.450298
0
LINE
8
0
10
-132.762924
20
768.450298
11
-132.745303
21
768.268297
0
LINE
8
0
10
-132.745303
20
768.268297
11
-132.720644
21
768.096866
0
LINE
8
0
10
-132.720644
20
768.096866
11
-132.688942
21
767.934825
0
LINE
8
0
10
-132.688942
20
767.934825
11
-132.650191
21
767.783354
0
LINE
8
0
10
-132.650191
20
767.783354
11
-132.604399
21
767.642453
0
LINE
8
0
10
-132.604399
20
767.642453
11
-132.551559
21
767.512117
0
LINE
8
0
10
-132.551559
20
767.512117
11
-132.492851
21
767.389999
0
LINE
8
0
10
-132.492851
20
767.389999
11
-132.428269
21
767.277279
0
LINE
8
0
10
-132.428269
20
767.277279
11
-132.360165
21
767.173949
0
LINE
8
0
10
-132.360165
20
767.173949
11
-132.286191
21
767.078839
0
LINE
8
0
10
-132.286191
20
767.078839
11
-132.207519
21
766.991950
0
LINE
8
0
10
-132.207519
20
766.991950
11
-132.122977
21
766.914451
0
LINE
8
0
10
-132.122977
20
766.914451
11
-132.034913
21
766.845175
0
LINE
8
0
10
-132.034913
20
766.845175
11
-131.940979
21
766.785290
0
LINE
8
0
10
-131.940979
20
766.785290
11
-131.742539
21
766.686658
0
LINE
8
0
10
-131.742539
20
766.686658
11
-131.533534
21
766.617380
0
LINE
8
0
10
-131.533534
20
766.617380
11
-131.312784
21
766.575110
0
LINE
8
0
10
-131.312784
20
766.575110
11
-131.080292
21
766.561008
0
LINE
8
0
10
-131.065000
20
771.139000
11
-131.289271
21
771.124924
0
LINE
8
0
10
-131.289271
20
771.124924
11
-131.505322
21
771.085001
0
LINE
8
0
10
-131.505322
20
771.085001
11
-131.713155
21
771.016898
0
LINE
8
0
10
-131.713155
20
771.016898
11
-131.912770
21
770.921788
0
LINE
8
0
10
-131.912770
20
770.921788
11
-132.007880
21
770.863080
0
LINE
8
0
10
-132.007880
20
770.863080
11
-132.098293
21
770.794976
0
LINE
8
0
10
-132.098293
20
770.794976
11
-132.184010
21
770.718652
0
LINE
8
0
10
-132.184010
20
770.718652
11
-132.263853
21
770.632935
0
LINE
8
0
10
-132.263853
20
770.632935
11
-132.340177
21
770.539000
0
LINE
8
0
10
-132.340177
20
770.539000
11
-132.411803
21
770.435672
0
LINE
8
0
10
-132.411803
20
770.435672
11
-132.477557
21
770.324121
0
LINE
8
0
10
-132.477557
20
770.324121
11
-132.539790
21
770.203180
0
LINE
8
0
10
-132.539790
20
770.203180
11
-132.594976
21
770.072844
0
LINE
8
0
10
-132.594976
20
770.072844
11
-132.643120
21
769.930768
0
LINE
8
0
10
-132.643120
20
769.930768
11
-132.684215
21
769.776947
0
LINE
8
0
10
-132.684215
20
769.776947
11
-132.717094
21
769.612559
0
LINE
8
0
10
-132.717094
20
769.612559
11
-132.744100
21
769.437606
0
LINE
8
0
10
-132.744100
20
769.437606
11
-132.761722
21
769.252083
0
LINE
8
0
10
-132.761722
20
769.252083
11
-132.773469
21
769.054818
0
LINE
8
0
10
-132.773469
20
769.054818
11
-132.776988
21
768.845811
0
LINE
8
0
10
-129.892000
20
770.725000
11
-130.025858
21
770.828330
0
LINE
8
0
10
-130.025858
20
770.828330
11
-130.163240
21
770.916394
0
LINE
8
0
10
-130.163240
20
770.916394
11
-130.304144
21
770.988019
0
LINE
8
0
10
-130.304144
20
770.988019
11
-130.449744
21
771.044381
0
LINE
8
0
10
-130.449744
20
771.044381
11
-130.598866
21
771.085478
0
LINE
8
0
10
-130.598866
20
771.085478
11
-130.750337
21
771.116006
0
LINE
8
0
10
-130.750337
20
771.116006
11
-130.906504
21
771.133627
0
LINE
8
0
10
-130.906504
20
771.133627
11
-131.065021
21
771.139501
0
LINE
8
0
10
-131.116000
20
771.727000
11
-130.852981
21
771.718771
0
LINE
8
0
10
-130.852981
20
771.718771
11
-130.613443
21
771.692948
0
LINE
8
0
10
-130.613443
20
771.692948
11
-130.395043
21
771.649504
0
LINE
8
0
10
-130.395043
20
771.649504
11
-130.200127
21
771.589621
0
LINE
8
0
10
-130.200127
20
771.589621
11
-130.016954
21
771.512124
0
LINE
8
0
10
-130.016954
20
771.512124
11
-129.839649
21
771.418189
0
LINE
8
0
10
-129.839649
20
771.418189
11
-129.665868
21
771.308988
0
LINE
8
0
10
-129.665868
20
771.308988
11
-129.496784
21
771.183348
0
LINE
8
0
10
-133.507000
20
768.846000
11
-133.502290
21
769.076142
0
LINE
8
0
10
-133.502290
20
769.076142
11
-133.487024
21
769.298066
0
LINE
8
0
10
-133.487024
20
769.298066
11
-133.461201
21
769.509420
0
LINE
8
0
10
-133.461201
20
769.509420
11
-133.424799
21
769.712556
0
LINE
8
0
10
-133.424799
20
769.712556
11
-133.379005
21
769.905122
0
LINE
8
0
10
-133.379005
20
769.905122
11
-133.323819
21
770.089470
0
LINE
8
0
10
-133.323819
20
770.089470
11
-133.256890
21
770.263251
0
LINE
8
0
10
-133.256890
20
770.263251
11
-133.180568
21
770.428814
0
LINE
8
0
10
-133.180568
20
770.428814
11
-133.096026
21
770.583807
0
LINE
8
0
10
-133.096026
20
770.583807
11
-133.003263
21
770.729407
0
LINE
8
0
10
-133.003263
20
770.729407
11
-132.904632
21
770.865614
0
LINE
8
0
10
-132.904632
20
770.865614
11
-132.798955
21
770.991254
0
LINE
8
0
10
-132.798955
20
770.991254
11
-132.686232
21
771.108673
0
LINE
8
0
10
-132.686232
20
771.108673
11
-132.567638
21
771.214350
0
LINE
8
0
10
-132.567638
20
771.214350
11
-132.440826
21
771.311806
0
LINE
8
0
10
-132.440826
20
771.311806
11
-132.308140
21
771.398698
0
LINE
8
0
10
-132.308140
20
771.398698
11
-132.169586
21
771.476195
0
LINE
8
0
10
-132.169586
20
771.476195
11
-132.028682
21
771.541951
0
LINE
8
0
10
-132.028682
20
771.541951
11
-131.884257
21
771.599485
0
LINE
8
0
10
-131.884257
20
771.599485
11
-131.737482
21
771.645279
0
LINE
8
0
10
-131.737482
20
771.645279
11
-131.587186
21
771.681680
0
LINE
8
0
10
-131.587186
20
771.681680
11
-131.433365
21
771.706339
0
LINE
8
0
10
-131.433365
20
771.706339
11
-131.276023
21
771.722770
0
LINE
8
0
10
-131.276023
20
771.722770
11
-131.116334
21
771.727453
0
LINE
8
0
10
-131.088000
20
765.957000
11
-131.255910
21
765.961710
0
LINE
8
0
10
-131.255910
20
765.961710
11
-131.419123
21
765.978140
0
LINE
8
0
10
-131.419123
20
765.978140
11
-131.578812
21
766.003963
0
LINE
8
0
10
-131.578812
20
766.003963
11
-131.733807
21
766.040362
0
LINE
8
0
10
-131.733807
20
766.040362
11
-131.885278
21
766.087331
0
LINE
8
0
10
-131.885278
20
766.087331
11
-132.033225
21
766.143692
0
LINE
8
0
10
-132.033225
20
766.143692
11
-132.176478
21
766.211796
0
LINE
8
0
10
-132.176478
20
766.211796
11
-132.316207
21
766.289293
0
LINE
8
0
10
-132.316207
20
766.289293
11
-132.450065
21
766.377356
0
LINE
8
0
10
-132.450065
20
766.377356
11
-132.576877
21
766.474815
0
LINE
8
0
10
-132.576877
20
766.474815
11
-132.696646
21
766.582839
0
LINE
8
0
10
-132.696646
20
766.582839
11
-132.808194
21
766.699086
0
LINE
8
0
10
-132.808194
20
766.699086
11
-132.913871
21
766.825898
0
LINE
8
0
10
-132.913871
20
766.825898
11
-133.011330
21
766.963280
0
LINE
8
0
10
-133.011330
20
766.963280
11
-133.102918
21
767.108880
0
LINE
8
0
10
-133.102918
20
767.108880
11
-133.186286
21
767.265047
0
LINE
8
0
10
-133.186286
20
767.265047
11
-133.261433
21
767.430607
0
LINE
8
0
10
-133.261433
20
767.430607
11
-133.326015
21
767.605563
0
LINE
8
0
10
-133.326015
20
767.605563
11
-133.381201
21
767.788736
0
LINE
8
0
10
-133.381201
20
767.788736
11
-133.426995
21
767.981305
0
LINE
8
0
10
-133.426995
20
767.981305
11
-133.462222
21
768.184441
0
LINE
8
0
10
-133.462222
20
768.184441
11
-133.486881
21
768.395795
0
LINE
8
0
10
-133.486881
20
768.395795
11
-133.502147
21
768.615370
0
LINE
8
0
10
-133.502147
20
768.615370
11
-133.506857
21
768.845512
0
LINE
8
0
10
-150.148000
20
770.194000
11
-150.152683
21
770.307898
0
LINE
8
0
10
-150.152683
20
770.307898
11
-150.166759
21
770.413575
0
LINE
8
0
10
-150.166759
20
770.413575
11
-150.189063
21
770.511031
0
LINE
8
0
10
-150.189063
20
770.511031
11
-150.221943
21
770.600270
0
LINE
8
0
10
-150.221943
20
770.600270
11
-150.263038
21
770.680116
0
LINE
8
0
10
-150.263038
20
770.680116
11
-150.313528
21
770.751741
0
LINE
8
0
10
-150.313528
20
770.751741
11
-150.373414
21
770.815149
0
LINE
8
0
10
-150.373414
20
770.815149
11
-150.442690
21
770.869161
0
LINE
8
0
10
-150.442690
20
770.869161
11
-150.520186
21
770.916129
0
LINE
8
0
10
-150.520186
20
770.916129
11
-150.603556
21
770.957227
0
LINE
8
0
10
-150.603556
20
770.957227
11
-150.693967
21
770.991279
0
LINE
8
0
10
-150.693967
20
770.991279
11
-150.790251
21
771.019460
0
LINE
8
0
10
-150.790251
20
771.019460
11
-150.893581
21
771.041764
0
LINE
8
0
10
-150.893581
20
771.041764
11
-151.003954
21
771.057030
0
LINE
8
0
10
-151.003954
20
771.057030
11
-151.121373
21
771.066423
0
LINE
8
0
10
-151.121373
20
771.066423
11
-151.244663
21
771.069942
0
LINE
8
0
10
-151.175000
20
769.260000
11
-151.055231
21
769.263519
0
LINE
8
0
10
-151.055231
20
769.263519
11
-150.941333
21
769.274102
0
LINE
8
0
10
-150.941333
20
769.274102
11
-150.835656
21
769.290533
0
LINE
8
0
10
-150.835656
20
769.290533
11
-150.737025
21
769.315192
0
LINE
8
0
10
-150.737025
20
769.315192
11
-150.645437
21
769.345722
0
LINE
8
0
10
-150.645437
20
769.345722
11
-150.560894
21
769.384470
0
LINE
8
0
10
-150.560894
20
769.384470
11
-150.484573
21
769.429090
0
LINE
8
0
10
-150.484573
20
769.429090
11
-150.414120
21
769.480755
0
LINE
8
0
10
-150.414120
20
769.480755
11
-150.351887
21
769.540638
0
LINE
8
0
10
-150.351887
20
769.540638
11
-150.297875
21
769.607567
0
LINE
8
0
10
-150.297875
20
769.607567
11
-150.252081
21
769.683891
0
LINE
8
0
10
-150.252081
20
769.683891
11
-150.214508
21
769.769605
0
LINE
8
0
10
-150.214508
20
769.769605
11
-150.185152
21
769.862368
0
LINE
8
0
10
-150.185152
20
769.862368
11
-150.164012
21
769.964523
0
LINE
8
0
10
-150.164012
20
769.964523
11
-150.152264
21
770.074896
0
LINE
8
0
10
-150.152264
20
770.074896
11
-150.147581
21
770.193490
0
LINE
8
0
10
-149.924000
20
767.620000
11
-149.934557
21
767.819612
0
LINE
8
0
10
-149.934557
20
767.819612
11
-149.965085
21
767.994568
0
LINE
8
0
10
-149.965085
20
767.994568
11
-150.016750
21
768.144864
0
LINE
8
0
10
-150.016750
20
768.144864
11
-150.088375
21
768.271676
0
LINE
8
0
10
-150.088375
20
768.271676
11
-150.177614
21
768.377356
0
LINE
8
0
10
-150.177614
20
768.377356
11
-150.279769
21
768.465420
0
LINE
8
0
10
-150.279769
20
768.465420
11
-150.396014
21
768.537045
0
LINE
8
0
10
-150.396014
20
768.537045
11
-150.525175
21
768.591057
0
LINE
8
0
10
-150.525175
20
768.591057
11
-150.663732
21
768.629808
0
LINE
8
0
10
-150.663732
20
768.629808
11
-150.809332
21
768.657986
0
LINE
8
0
10
-150.809332
20
768.657986
11
-150.961975
21
768.674417
0
LINE
8
0
10
-150.961975
20
768.674417
11
-151.121667
21
768.680290
0
LINE
8
0
10
-151.155000
20
766.630000
11
-150.944821
21
766.640557
0
LINE
8
0
10
-150.944821
20
766.640557
11
-150.732289
21
766.671087
0
LINE
8
0
10
-150.732289
20
766.671087
11
-150.626612
21
766.694582
0
LINE
8
0
10
-150.626612
20
766.694582
11
-150.524457
21
766.727462
0
LINE
8
0
10
-150.524457
20
766.727462
11
-150.427000
21
766.767385
0
LINE
8
0
10
-150.427000
20
766.767385
11
-150.333066
21
766.816700
0
LINE
8
0
10
-150.333066
20
766.816700
11
-150.244999
21
766.875409
0
LINE
8
0
10
-150.244999
20
766.875409
11
-150.166328
21
766.943512
0
LINE
8
0
10
-150.166328
20
766.943512
11
-150.095878
21
767.024533
0
LINE
8
0
10
-150.095878
20
767.024533
11
-150.035994
21
767.114946
0
LINE
8
0
10
-150.035994
20
767.114946
11
-149.986676
21
767.218274
0
LINE
8
0
10
-149.986676
20
767.218274
11
-149.952624
21
767.336868
0
LINE
8
0
10
-149.952624
20
767.336868
11
-149.931484
21
767.470726
0
LINE
8
0
10
-149.931484
20
767.470726
11
-149.924446
21
767.619850
0
LINE
8
0
10
-125.595000
20
768.188000
11
-125.599683
21
768.394658
0
LINE
8
0
10
-125.599683
20
768.394658
11
-125.612595
21
768.586052
0
LINE
8
0
10
-125.612595
20
768.586052
11
-125.633735
21
768.764532
0
LINE
8
0
10
-125.633735
20
768.764532
11
-125.664263
21
768.928917
0
LINE
8
0
10
-125.664263
20
768.928917
11
-125.703013
21
769.080388
0
LINE
8
0
10
-125.703013
20
769.080388
11
-125.749980
21
769.216595
0
LINE
8
0
10
-125.749980
20
769.216595
11
-125.806341
21
769.339885
0
LINE
8
0
10
-125.806341
20
769.339885
11
-125.870923
21
769.449084
0
LINE
8
0
10
-125.870923
20
769.449084
11
-125.943723
21
769.544196
0
LINE
8
0
10
-125.943723
20
769.544196
11
-126.025916
21
769.627564
0
LINE
8
0
10
-126.025916
20
769.627564
11
-126.116329
21
769.696840
0
LINE
8
0
10
-126.116329
20
769.696840
11
-126.214960
21
769.754376
0
LINE
8
0
10
-126.214960
20
769.754376
11
-126.321812
21
769.798995
0
LINE
8
0
10
-126.321812
20
769.798995
11
-126.436884
21
769.830697
0
LINE
8
0
10
-126.436884
20
769.830697
11
-126.561349
21
769.850647
0
LINE
8
0
10
-126.561349
20
769.850647
11
-126.694032
21
769.856521
0
LINE
8
0
10
-126.702000
20
766.516000
11
-126.568142
21
766.521874
0
LINE
8
0
10
-126.568142
20
766.521874
11
-126.443680
21
766.541823
0
LINE
8
0
10
-126.443680
20
766.541823
11
-126.326261
21
766.573526
0
LINE
8
0
10
-126.326261
20
766.573526
11
-126.218234
21
766.618145
0
LINE
8
0
10
-126.218234
20
766.618145
11
-126.119600
21
766.676856
0
LINE
8
0
10
-126.119600
20
766.676856
11
-126.029187
21
766.747306
0
LINE
8
0
10
-126.029187
20
766.747306
11
-125.946994
21
766.830674
0
LINE
8
0
10
-125.946994
20
766.830674
11
-125.873019
21
766.926958
0
LINE
8
0
10
-125.873019
20
766.926958
11
-125.807265
21
767.036159
0
LINE
8
0
10
-125.807265
20
767.036159
11
-125.750904
21
767.159449
0
LINE
8
0
10
-125.750904
20
767.159449
11
-125.703935
21
767.296828
0
LINE
8
0
10
-125.703935
20
767.296828
11
-125.664012
21
767.447124
0
LINE
8
0
10
-125.664012
20
767.447124
11
-125.633484
21
767.611512
0
LINE
8
0
10
-125.633484
20
767.611512
11
-125.612344
21
767.789989
0
LINE
8
0
10
-125.612344
20
767.789989
11
-125.599432
21
767.982558
0
LINE
8
0
10
-125.599432
20
767.982558
11
-125.594749
21
768.188041
0
LINE
8
0
10
-127.811000
20
768.180000
11
-127.806317
21
767.975689
0
LINE
8
0
10
-127.806317
20
767.975689
11
-127.793405
21
767.785470
0
LINE
8
0
10
-127.793405
20
767.785470
11
-127.772265
21
767.608168
0
LINE
8
0
10
-127.772265
20
767.608168
11
-127.741735
21
767.444955
0
LINE
8
0
10
-127.741735
20
767.444955
11
-127.701812
21
767.295831
0
LINE
8
0
10
-127.701812
20
767.295831
11
-127.654846
21
767.159626
0
LINE
8
0
10
-127.654846
20
767.159626
11
-127.598484
21
767.036336
0
LINE
8
0
10
-127.598484
20
767.036336
11
-127.532730
21
766.927135
0
LINE
8
0
10
-127.532730
20
766.927135
11
-127.458755
21
766.830851
0
LINE
8
0
10
-127.458755
20
766.830851
11
-127.376560
21
766.747483
0
LINE
8
0
10
-127.376560
20
766.747483
11
-127.284974
21
766.677033
0
LINE
8
0
10
-127.284974
20
766.677033
11
-127.186341
21
766.618322
0
LINE
8
0
10
-127.186341
20
766.618322
11
-127.078317
21
766.573702
0
LINE
8
0
10
-127.078317
20
766.573702
11
-126.960895
21
766.542000
0
LINE
8
0
10
-126.960895
20
766.542000
11
-126.836433
21
766.522050
0
LINE
8
0
10
-126.836433
20
766.522050
11
-126.702573
21
766.516177
0
LINE
8
0
10
-126.694000
20
769.857000
11
-126.827858
21
769.851126
0
LINE
8
0
10
-126.827858
20
769.851126
11
-126.953498
21
769.831177
0
LINE
8
0
10
-126.953498
20
769.831177
11
-127.069743
21
769.799474
0
LINE
8
0
10
-127.069743
20
769.799474
11
-127.178944
21
769.754855
0
LINE
8
0
10
-127.178944
20
769.754855
11
-127.278750
21
769.697319
0
LINE
8
0
10
-127.278750
20
769.697319
11
-127.370335
21
769.628043
0
LINE
8
0
10
-127.370335
20
769.628043
11
-127.453706
21
769.544676
0
LINE
8
0
10
-127.453706
20
769.544676
11
-127.528852
21
769.449563
0
LINE
8
0
10
-127.528852
20
769.449563
11
-127.594607
21
769.340364
0
LINE
8
0
10
-127.594607
20
769.340364
11
-127.652143
21
769.217074
0
LINE
8
0
10
-127.652143
20
769.217074
11
-127.700286
21
769.079692
0
LINE
8
0
10
-127.700286
20
769.079692
11
-127.740207
21
768.928221
0
LINE
8
0
10
-127.740207
20
768.928221
11
-127.770737
21
768.762661
0
LINE
8
0
10
-127.770737
20
768.762661
11
-127.793041
21
768.581834
0
LINE
8
0
10
-127.793041
20
768.581834
11
-127.805953
21
768.388093
0
LINE
8
0
10
-127.805953
20
768.388093
11
-127.810636
21
768.180260
0
LINE
8
0
10
-152.778000
20
771.638000
11
-151.402000
21
771.638000
0
LINE
8
0
10
-152.778000
20
766.050000
11
-152.778000
21
771.638000
0
LINE
8
0
10
-151.276000
20
766.050000
11
-152.778000
21
766.050000
0
LINE
8
0
10
-117.827000
20
766.050000
11
-118.508000
21
766.050000
0
LINE
8
0
10
-117.827000
20
772.129000
11
-117.827000
21
766.050000
0
LINE
8
0
10
-118.508000
20
772.044000
11
-117.826963
21
772.128402
0
LINE
8
0
10
-118.508000
20
766.050000
11
-118.508000
21
772.044000
0
LINE
8
0
10
-115.647000
20
766.050000
11
-117.748850
21
768.383090
0
LINE
8
0
10
-114.750000
20
766.050000
11
-115.647000
21
766.050000
0
LINE
8
0
10
-116.897000
20
768.400000
11
-114.750700
21
766.050240
0
LINE
8
0
10
-114.973000
20
770.323000
11
-116.896250
21
768.399750
0
LINE
8
0
10
-115.859000
20
770.323000
11
-114.973000
21
770.323000
0
LINE
8
0
10
-117.749000
20
768.383000
11
-115.858550
21
770.322920
0
LINE
8
0
10
-120.045000
20
768.879000
11
-120.605000
21
768.879000
0
LINE
8
0
10
-119.938000
20
770.320000
11
-120.045156
21
768.878290
0
LINE
8
0
10
-119.948000
20
770.320000
11
-119.938000
21
770.320000
0
LINE
8
0
10
-119.947000
20
770.323000
11
-119.947794
21
770.320354
0
LINE
8
0
10
-122.212000
20
770.323000
11
-122.085265
21
769.313090
0
LINE
8
0
10
-123.397000
20
770.323000
11
-122.212000
21
770.323000
0
LINE
8
0
10
-123.397000
20
769.799000
11
-123.397000
21
770.323000
0
LINE
8
0
10
-122.731000
20
769.799000
11
-123.397000
21
769.799000
0
LINE
8
0
10
-122.731000
20
766.574000
11
-122.731000
21
769.799000
0
LINE
8
0
10
-123.397000
20
766.574000
11
-122.731000
21
766.574000
0
LINE
8
0
10
-123.397000
20
766.050000
11
-123.397000
21
766.574000
0
LINE
8
0
10
-121.181000
20
766.050000
11
-123.397000
21
766.050000
0
LINE
8
0
10
-121.181000
20
766.574000
11
-121.181000
21
766.050000
0
LINE
8
0
10
-122.049000
20
766.574000
11
-121.181000
21
766.574000
0
LINE
8
0
10
-122.049000
20
768.383000
11
-122.049000
21
766.574000
0
LINE
8
0
10
-120.605000
20
768.879000
11
-120.605000
21
769.787000
0
LINE
8
0
10
-67.449900
20
764.050000
11
-206.450000
21
764.050000
0
LINE
8
0
10
-230.450000
20
740.050000
11
-230.450000
21
626.051000
0
LINE
8
0
10
-230.450000
20
626.051000
11
-250.450000
21
626.051000
0
LINE
8
0
10
-250.450000
20
626.051000
11
-250.450000
21
740.050000
0
LINE
8
0
10
-206.450000
20
784.050000
11
-67.449900
21
784.050000
0
LINE
8
0
10
-67.449900
20
784.050000
11
-67.449900
21
764.050000
0
LINE
8
0
10
-129.781000
20
767.028000
11
-129.415875
21
766.565509
0
LINE
8
0
10
-129.497000
20
771.184000
11
-129.891493
21
770.724948
0
LINE
8
0
10
-142.984000
20
768.887000
11
-139.729000
21
768.887000
0
LINE
8
0
10
-142.984000
20
768.294000
11
-142.984000
21
768.887000
0
LINE
8
0
10
-139.729000
20
768.294000
11
-142.984000
21
768.294000
0
LINE
8
0
10
-139.729000
20
768.887000
11
-139.729000
21
768.294000
0
LINE
8
0
10
-157.139000
20
767.954000
11
-155.641000
21
767.954000
0
LINE
8
0
10
-155.653000
20
771.488000
11
-157.138370
21
767.953700
0
LINE
8
0
10
-156.222000
20
771.728000
11
-155.653676
21
771.488288
0
LINE
8
0
10
-157.861000
20
767.904000
11
-156.221910
21
771.727220
0
LINE
8
0
10
-157.861000
20
767.410000
11
-157.861000
21
767.904000
0
LINE
8
0
10
-155.641000
20
767.410000
11
-157.861000
21
767.410000
0
LINE
8
0
10
-155.641000
20
767.410000
11
-155.641000
21
766.025000
0
LINE
8
0
10
-155.641000
20
766.025000
11
-155.126000
21
766.025000
0
LINE
8
0
10
-155.126000
20
766.025000
11
-155.126000
21
767.419000
0
LINE
8
0
10
-155.126000
20
767.419000
11
-154.807000
21
767.419000
0
LINE
8
0
10
-154.807000
20
767.419000
11
-154.807000
21
767.934000
0
LINE
8
0
10
-154.807000
20
767.934000
11
-155.126000
21
767.934000
0
LINE
8
0
10
-155.126000
20
767.934000
11
-155.126000
21
768.328000
0
LINE
8
0
10
-155.126000
20
768.328000
11
-155.641000
21
768.328000
0
LINE
8
0
10
-155.641000
20
768.328000
11
-155.641000
21
767.954000
0
LINE
8
0
10
-152.076000
20
771.070000
11
-152.076000
21
769.261000
0
LINE
8
0
10
-152.076000
20
769.261000
11
-151.175000
21
769.261000
0
LINE
8
0
10
-151.244000
20
771.070000
11
-152.076000
21
771.070000
0
LINE
8
0
10
-152.076000
20
768.680000
11
-152.076000
21
766.630000
0
LINE
8
0
10
-152.076000
20
766.630000
11
-151.155000
21
766.630000
0
LINE
8
0
10
-151.122000
20
768.680000
11
-152.076000
21
768.680000
0
LINE
8
0
10
-206.450000
20
764.050000
11
-208.822105
21
763.932560
0
LINE
8
0
10
-208.822105
20
763.932560
11
-211.154032
21
763.584586
0
LINE
8
0
10
-211.154032
20
763.584586
11
-213.430044
21
763.012596
0
LINE
8
0
10
-213.430044
20
763.012596
11
-215.634402
21
762.223109
0
LINE
8
0
10
-215.634402
20
762.223109
11
-217.751371
21
761.222643
0
LINE
8
0
10
-217.751371
20
761.222643
11
-219.765212
21
760.017718
0
LINE
8
0
10
-219.765212
20
760.017718
11
-221.660189
21
758.614852
0
LINE
8
0
10
-221.660189
20
758.614852
11
-223.420563
21
757.020563
0
LINE
8
0
10
-223.420563
20
757.020563
11
-225.014852
21
755.260189
0
LINE
8
0
10
-225.014852
20
755.260189
11
-226.417718
21
753.365212
0
LINE
8
0
10
-226.417718
20
753.365212
11
-227.622643
21
751.351371
0
LINE
8
0
10
-227.622643
20
751.351371
11
-228.623109
21
749.234402
0
LINE
8
0
10
-228.623109
20
749.234402
11
-229.412596
21
747.030044
0
LINE
8
0
10
-229.412596
20
747.030044
11
-229.984586
21
744.754032
0
LINE
8
0
10
-229.984586
20
744.754032
11
-230.332560
21
742.422105
0
LINE
8
0
10
-230.332560
20
742.422105
11
-230.450000
21
740.050000
0
LINE
8
0
10
-206.450000
20
784.050000
11
-210.798863
21
783.834702
0
LINE
8
0
10
-210.798863
20
783.834702
11
-215.074066
21
783.196757
0
LINE
8
0
10
-215.074066
20
783.196757
11
-219.246758
21
782.148115
0
LINE
8
0
10
-219.246758
20
782.148115
11
-223.288087
21
780.700726
0
LINE
8
0
10
-223.288087
20
780.700726
11
-227.169200
21
778.866542
0
LINE
8
0
10
-227.169200
20
778.866542
11
-230.861246
21
776.657514
0
LINE
8
0
10
-230.861246
20
776.657514
11
-234.335372
21
774.085592
0
LINE
8
0
10
-234.335372
20
774.085592
11
-237.562728
21
771.162728
0
LINE
8
0
10
-237.562728
20
771.162728
11
-240.485592
21
767.935372
0
LINE
8
0
10
-240.485592
20
767.935372
11
-243.057514
21
764.461246
0
LINE
8
0
10
-243.057514
20
764.461246
11
-245.266542
21
760.769200
0
LINE
8
0
10
-245.266542
20
760.769200
11
-247.100726
21
756.888087
0
LINE
8
0
10
-247.100726
20
756.888087
11
-248.548115
21
752.846758
0
LINE
8
0
10
-248.548115
20
752.846758
11
-249.596757
21
748.674066
0
LINE
8
0
10
-249.596757
20
748.674066
11
-250.234702
21
744.398863
0
LINE
8
0
10
-250.234702
20
744.398863
11
-250.450000
21
740.050000
 0 
ENDSEC
 0 
EOF