ISO-10303-21;
HEADER;
FILE_DESCRIPTION (( 'STEP AP214' ),
    '1' );
FILE_NAME ('CONNECTOR.STEP',
    '2023-11-03T06:59:13',
    ( '' ),
    ( '' ),
    'SwSTEP 2.0',
    'SolidWorks 2022',
    '' );
FILE_SCHEMA (( 'AUTOMOTIVE_DESIGN' ));
ENDSEC;

DATA;
#1 = EDGE_CURVE ( 'NONE', #267, #84, #44, .T. ) ;
#2 = VERTEX_POINT ( 'NONE', #211 ) ;
#3 = DIRECTION ( 'NONE',  ( -0.000000000000000000, 1.000000000000000000, -0.000000000000000000 ) ) ;
#4 = STYLED_ITEM ( 'NONE', ( #250 ), #206 ) ;
#5 = CARTESIAN_POINT ( 'NONE',  ( 2.265596578422599156E-16, 0.000000000000000000, -1.449999999999993072 ) ) ;
#6 = ORIENTED_EDGE ( 'NONE', *, *, #262, .T. ) ;
#7 = CARTESIAN_POINT ( 'NONE',  ( 0.000000000000000000, 0.8000000000000055955, 2.250000000000000000 ) ) ;
#8 = VERTEX_POINT ( 'NONE', #45 ) ;
#9 = DIRECTION ( 'NONE',  ( 0.000000000000000000, 1.000000000000000000, 0.000000000000000000 ) ) ;
#10 = AXIS2_PLACEMENT_3D ( 'NONE', #258, #67, #282 ) ;
#11 = DIRECTION ( 'NONE',  ( 0.000000000000000000, 1.000000000000000000, 0.000000000000000000 ) ) ;
#12 = ORIENTED_EDGE ( 'NONE', *, *, #1, .T. ) ;
#13 = EDGE_CURVE ( 'NONE', #299, #8, #156, .T. ) ;
#14 = DIRECTION ( 'NONE',  ( -0.000000000000000000, -1.000000000000000000, -0.000000000000000000 ) ) ;
#15 = CARTESIAN_POINT ( 'NONE',  ( 0.000000000000000000, 30.00000000000000000, 0.000000000000000000 ) ) ;
#16 = APPLICATION_CONTEXT ( 'automotive_design' ) ;
#17 = ORIENTED_EDGE ( 'NONE', *, *, #255, .F. ) ;
#18 =( LENGTH_UNIT ( ) NAMED_UNIT ( * ) SI_UNIT ( .MILLI., .METRE. ) );
#19 = VECTOR ( 'NONE', #265, 1000.000000000000000 ) ;
#20 = FILL_AREA_STYLE_COLOUR ( '', #133 ) ;
#21 = PRODUCT_RELATED_PRODUCT_CATEGORY ( 'part', '', ( #28 ) ) ;
#22 = CARTESIAN_POINT ( 'NONE',  ( 0.000000000000000000, 30.00000000000000000, 0.000000000000000000 ) ) ;
#23 = SHAPE_DEFINITION_REPRESENTATION ( #292, #206 ) ;
#24 = DIRECTION ( 'NONE',  ( 0.000000000000000000, -0.000000000000000000, 1.000000000000000000 ) ) ;
#25 = VECTOR ( 'NONE', #286, 1000.000000000000000 ) ;
#26 = VECTOR ( 'NONE', #303, 1000.000000000000000 ) ;
#27 = UNCERTAINTY_MEASURE_WITH_UNIT (LENGTH_MEASURE( 1.000000000000000082E-05 ), #183, 'distance_accuracy_value', 'NONE');
#28 = PRODUCT ( 'CONNECTOR', 'CONNECTOR', '', ( #142 ) ) ;
#29 = CARTESIAN_POINT ( 'NONE',  ( 2.755455298081544285E-16, 30.00000000000000000, 2.250000000000000000 ) ) ;
#30 = FACE_OUTER_BOUND ( 'NONE', #182, .T. ) ;
#31 = ORIENTED_EDGE ( 'NONE', *, *, #13, .F. ) ;
#32 = DIRECTION ( 'NONE',  ( 0.000000000000000000, 1.000000000000000000, 0.000000000000000000 ) ) ;
#33 = ORIENTED_EDGE ( 'NONE', *, *, #13, .T. ) ;
#34 = DIRECTION ( 'NONE',  ( -0.000000000000000000, 1.000000000000000000, -0.000000000000000000 ) ) ;
#35 = ORIENTED_EDGE ( 'NONE', *, *, #122, .F. ) ;
#36 = DIRECTION ( 'NONE',  ( 8.659560562354941486E-17, 0.7071067811865470176, -0.7071067811865481278 ) ) ;
#37 = AXIS2_PLACEMENT_3D ( 'NONE', #15, #276, #228 ) ;
#38 = EDGE_LOOP ( 'NONE', ( #275, #123, #157, #240 ) ) ;
#39 = DIRECTION ( 'NONE',  ( 0.000000000000000000, 0.000000000000000000, -1.000000000000000000 ) ) ;
#40 = ORIENTED_EDGE ( 'NONE', *, *, #209, .F. ) ;
#41 = DIRECTION ( 'NONE',  ( 0.000000000000000000, -1.000000000000000000, 0.000000000000000000 ) ) ;
#42 = ADVANCED_FACE ( 'NONE', ( #287, #162 ), #189, .T. ) ;
#43 = AXIS2_PLACEMENT_3D ( 'NONE', #298, #34, #263 ) ;
#44 = LINE ( 'NONE', #146, #25 ) ;
#45 = CARTESIAN_POINT ( 'NONE',  ( 0.000000000000000000, 30.00000000000000000, -1.450000000000006839 ) ) ;
#46 = SURFACE_STYLE_FILL_AREA ( #69 ) ;
#47 = CONICAL_SURFACE ( 'NONE', #190, 2.250000000000000000, 0.7853981633974490562 ) ;
#48 = CARTESIAN_POINT ( 'NONE',  ( 0.000000000000000000, 30.00000000000000000, 0.000000000000000000 ) ) ;
#49 = DIRECTION ( 'NONE',  ( 0.000000000000000000, 1.000000000000000000, 0.000000000000000000 ) ) ;
#50 = ORIENTED_EDGE ( 'NONE', *, *, #165, .F. ) ;
#51 = EDGE_CURVE ( 'NONE', #243, #2, #112, .T. ) ;
#52 = CARTESIAN_POINT ( 'NONE',  ( 2.755455298081544285E-16, 29.20000000000000284, 2.250000000000000000 ) ) ;
#53 = PRESENTATION_LAYER_ASSIGNMENT (  '', '', ( #309 ) ) ;
#54 = EDGE_LOOP ( 'NONE', ( #40, #76, #12, #245 ) ) ;
#55 = FACE_OUTER_BOUND ( 'NONE', #109, .T. ) ;
#56 = ORIENTED_EDGE ( 'NONE', *, *, #122, .T. ) ;
#57 = FACE_OUTER_BOUND ( 'NONE', #248, .T. ) ;
#58 =( NAMED_UNIT ( * ) SI_UNIT ( $, .STERADIAN. ) SOLID_ANGLE_UNIT ( ) );
#59 = ORIENTED_EDGE ( 'NONE', *, *, #131, .F. ) ;
#60 = CIRCLE ( 'NONE', #223, 1.450000000000006839 ) ;
#61 = EDGE_CURVE ( 'NONE', #203, #201, #86, .T. ) ;
#62 = CARTESIAN_POINT ( 'NONE',  ( 0.000000000000000000, 30.00000000000000000, -1.450000000000006839 ) ) ;
#63 = CARTESIAN_POINT ( 'NONE',  ( 1.285879139104720732E-16, 0.000000000000000000, 1.050000000000000044 ) ) ;
#64 =( NAMED_UNIT ( * ) PLANE_ANGLE_UNIT ( ) SI_UNIT ( $, .RADIAN. ) );
#65 = ORIENTED_EDGE ( 'NONE', *, *, #165, .T. ) ;
#66 =( GEOMETRIC_REPRESENTATION_CONTEXT ( 3 ) GLOBAL_UNCERTAINTY_ASSIGNED_CONTEXT ( ( #288 ) ) GLOBAL_UNIT_ASSIGNED_CONTEXT ( ( #212, #236, #314 ) ) REPRESENTATION_CONTEXT ( 'NONE', 'WORKASPACE' ) );
#67 = DIRECTION ( 'NONE',  ( -0.000000000000000000, -1.000000000000000000, -0.000000000000000000 ) ) ;
#68 = DIRECTION ( 'NONE',  ( 0.000000000000000000, 0.000000000000000000, 1.000000000000000000 ) ) ;
#69 = FILL_AREA_STYLE ('',( #20 ) ) ;
#70 = CARTESIAN_POINT ( 'NONE',  ( 0.000000000000000000, 29.20000000000000284, -2.250000000000000000 ) ) ;
#71 = PRESENTATION_LAYER_ASSIGNMENT (  '', '', ( #4 ) ) ;
#72 = CARTESIAN_POINT ( 'NONE',  ( 2.755455298081544285E-16, 0.8000000000000055955, -2.250000000000000000 ) ) ;
#73 = EDGE_CURVE ( 'NONE', #201, #203, #241, .T. ) ;
#74 = EDGE_LOOP ( 'NONE', ( #271, #302, #207, #59 ) ) ;
#75 = DIRECTION ( 'NONE',  ( 0.000000000000000000, 0.000000000000000000, 1.000000000000000000 ) ) ;
#76 = ORIENTED_EDGE ( 'NONE', *, *, #188, .T. ) ;
#77 = LINE ( 'NONE', #124, #213 ) ;
#78 = AXIS2_PLACEMENT_3D ( 'NONE', #221, #9, #239 ) ;
#79 = CONICAL_SURFACE ( 'NONE', #145, 2.250000000000000000, 0.7853981633974490562 ) ;
#80 = CARTESIAN_POINT ( 'NONE',  ( 0.000000000000000000, 0.8000000000000055955, 0.000000000000000000 ) ) ;
#81 = MANIFOLD_SOLID_BREP ( 'Chamfer1', #100 ) ;
#82 = ORIENTED_EDGE ( 'NONE', *, *, #51, .F. ) ;
#83 =( NAMED_UNIT ( * ) PLANE_ANGLE_UNIT ( ) SI_UNIT ( $, .RADIAN. ) );
#84 = VERTEX_POINT ( 'NONE', #149 ) ;
#85 = CARTESIAN_POINT ( 'NONE',  ( 0.000000000000000000, 0.000000000000000000, 0.000000000000000000 ) ) ;
#86 = CIRCLE ( 'NONE', #10, 1.449999999999993072 ) ;
#87 = PRODUCT_DEFINITION ( 'UNKNOWN', '', #181, #294 ) ;
#88 = CARTESIAN_POINT ( 'NONE',  ( 0.000000000000000000, 0.8000000000000055955, 0.000000000000000000 ) ) ;
#89 = AXIS2_PLACEMENT_3D ( 'NONE', #119, #3, #194 ) ;
#90 = EDGE_CURVE ( 'NONE', #203, #256, #93, .T. ) ;
#91 = DIRECTION ( 'NONE',  ( 0.000000000000000000, 1.000000000000000000, 0.000000000000000000 ) ) ;
#92 = UNCERTAINTY_MEASURE_WITH_UNIT (LENGTH_MEASURE( 1.000000000000000082E-05 ), #18, 'distance_accuracy_value', 'NONE');
#93 = LINE ( 'NONE', #7, #19 ) ;
#94 = CIRCLE ( 'NONE', #43, 2.250000000000000000 ) ;
#95 = DIRECTION ( 'NONE',  ( 0.000000000000000000, 0.000000000000000000, 1.000000000000000000 ) ) ;
#96 = CARTESIAN_POINT ( 'NONE',  ( 1.285879139104720732E-16, 30.00000000000000000, 1.050000000000000044 ) ) ;
#97 = DIRECTION ( 'NONE',  ( 0.000000000000000000, 0.000000000000000000, -1.000000000000000000 ) ) ;
#98 = ORIENTED_EDGE ( 'NONE', *, *, #131, .T. ) ;
#99 = LINE ( 'NONE', #96, #260 ) ;
#100 = CLOSED_SHELL ( 'NONE', ( #117, #280, #297, #249, #42, #232, #218, #305, #222, #105 ) ) ;
#101 =( GEOMETRIC_REPRESENTATION_CONTEXT ( 3 ) GLOBAL_UNCERTAINTY_ASSIGNED_CONTEXT ( ( #27 ) ) GLOBAL_UNIT_ASSIGNED_CONTEXT ( ( #183, #64, #58 ) ) REPRESENTATION_CONTEXT ( 'NONE', 'WORKASPACE' ) );
#102 = DIRECTION ( 'NONE',  ( 0.000000000000000000, 0.000000000000000000, 1.000000000000000000 ) ) ;
#103 = ORIENTED_EDGE ( 'NONE', *, *, #290, .T. ) ;
#104 = DIRECTION ( 'NONE',  ( 0.000000000000000000, 0.000000000000000000, 1.000000000000000000 ) ) ;
#105 = ADVANCED_FACE ( 'NONE', ( #55 ), #115, .T. ) ;
#106 = CIRCLE ( 'NONE', #78, 1.050000000000000044 ) ;
#107 =( GEOMETRIC_REPRESENTATION_CONTEXT ( 3 ) GLOBAL_UNCERTAINTY_ASSIGNED_CONTEXT ( ( #92 ) ) GLOBAL_UNIT_ASSIGNED_CONTEXT ( ( #18, #83, #306 ) ) REPRESENTATION_CONTEXT ( 'NONE', 'WORKASPACE' ) );
#108 = DIRECTION ( 'NONE',  ( 0.000000000000000000, 0.000000000000000000, 1.000000000000000000 ) ) ;
#109 = EDGE_LOOP ( 'NONE', ( #50, #35, #103, #17 ) ) ;
#110 = EDGE_CURVE ( 'NONE', #195, #256, #172, .T. ) ;
#111 = CIRCLE ( 'NONE', #273, 1.050000000000000044 ) ;
#112 = LINE ( 'NONE', #237, #144 ) ;
#113 = DIRECTION ( 'NONE',  ( 0.000000000000000000, 1.000000000000000000, 0.000000000000000000 ) ) ;
#114 = DIRECTION ( 'NONE',  ( -0.000000000000000000, -1.000000000000000000, -0.000000000000000000 ) ) ;
#115 = CONICAL_SURFACE ( 'NONE', #193, 1.450000000000006839, 0.7853981633974469467 ) ;
#116 = EDGE_LOOP ( 'NONE', ( #56, #33 ) ) ;
#117 = ADVANCED_FACE ( 'NONE', ( #30 ), #281, .T. ) ;
#118 = DIRECTION ( 'NONE',  ( 0.000000000000000000, 0.000000000000000000, 1.000000000000000000 ) ) ;
#119 = CARTESIAN_POINT ( 'NONE',  ( 0.000000000000000000, 0.8000000000000055955, 0.000000000000000000 ) ) ;
#120 = ORIENTED_EDGE ( 'NONE', *, *, #110, .T. ) ;
#121 = LINE ( 'NONE', #72, #252 ) ;
#122 = EDGE_CURVE ( 'NONE', #8, #299, #60, .T. ) ;
#123 = ORIENTED_EDGE ( 'NONE', *, *, #197, .T. ) ;
#124 = CARTESIAN_POINT ( 'NONE',  ( 1.775737858763670544E-16, 30.00000000000000000, 1.450000000000006839 ) ) ;
#125 = VERTEX_POINT ( 'NONE', #216 ) ;
#126 = PLANE ( 'NONE',  #187 ) ;
#127 = AXIS2_PLACEMENT_3D ( 'NONE', #283, #91, #24 ) ;
#128 = ORIENTED_EDGE ( 'NONE', *, *, #1, .F. ) ;
#129 = DIRECTION ( 'NONE',  ( 0.000000000000000000, 0.000000000000000000, -1.000000000000000000 ) ) ;
#130 = ORIENTED_EDGE ( 'NONE', *, *, #110, .F. ) ;
#131 = EDGE_CURVE ( 'NONE', #2, #256, #300, .T. ) ;
#132 = SURFACE_SIDE_STYLE ('',( #160 ) ) ;
#133 = COLOUR_RGB ( '',0.7921568627450980005, 0.8196078431372548767, 0.9333333333333333481 ) ;
#134 = DIRECTION ( 'NONE',  ( -0.000000000000000000, -1.000000000000000000, -0.000000000000000000 ) ) ;
#135 = EDGE_CURVE ( 'NONE', #267, #125, #259, .T. ) ;
#136 = CARTESIAN_POINT ( 'NONE',  ( 0.000000000000000000, 30.00000000000000000, -1.050000000000000044 ) ) ;
#137 = DIRECTION ( 'NONE',  ( 1.000000000000000000, 0.000000000000000000, 0.000000000000000000 ) ) ;
#138 = AXIS2_PLACEMENT_3D ( 'NONE', #217, #266, #75 ) ;
#139 = COLOUR_RGB ( '',0.7921568627450980005, 0.8196078431372548767, 0.9333333333333333481 ) ;
#140 = DIRECTION ( 'NONE',  ( 0.000000000000000000, 0.000000000000000000, 1.000000000000000000 ) ) ;
#141 = ORIENTED_EDGE ( 'NONE', *, *, #312, .T. ) ;
#142 = PRODUCT_CONTEXT ( 'NONE', #311, 'mechanical' ) ;
#143 = PRESENTATION_STYLE_ASSIGNMENT (( #210 ) ) ;
#144 = VECTOR ( 'NONE', #164, 1000.000000000000000 ) ;
#145 = AXIS2_PLACEMENT_3D ( 'NONE', #88, #307, #104 ) ;
#146 = CARTESIAN_POINT ( 'NONE',  ( 0.000000000000000000, 30.00000000000000000, -1.050000000000000044 ) ) ;
#147 = FACE_OUTER_BOUND ( 'NONE', #74, .T. ) ;
#148 = CARTESIAN_POINT ( 'NONE',  ( 0.000000000000000000, 30.00000000000000000, 0.000000000000000000 ) ) ;
#149 = CARTESIAN_POINT ( 'NONE',  ( 0.000000000000000000, 0.000000000000000000, -1.050000000000000044 ) ) ;
#150 = ORIENTED_EDGE ( 'NONE', *, *, #135, .F. ) ;
#151 = DIRECTION ( 'NONE',  ( 0.000000000000000000, -1.000000000000000000, 0.000000000000000000 ) ) ;
#152 = ORIENTED_EDGE ( 'NONE', *, *, #188, .F. ) ;
#153 = FACE_BOUND ( 'NONE', #174, .T. ) ;
#154 = CYLINDRICAL_SURFACE ( 'NONE', #37, 1.050000000000000044 ) ;
#155 = AXIS2_PLACEMENT_3D ( 'NONE', #235, #114, #215 ) ;
#156 = CIRCLE ( 'NONE', #233, 1.450000000000006839 ) ;
#157 = ORIENTED_EDGE ( 'NONE', *, *, #158, .F. ) ;
#158 = EDGE_CURVE ( 'NONE', #256, #2, #94, .T. ) ;
#159 = CYLINDRICAL_SURFACE ( 'NONE', #167, 1.050000000000000044 ) ;
#160 = SURFACE_STYLE_FILL_AREA ( #184 ) ;
#161 = AXIS2_PLACEMENT_3D ( 'NONE', #48, #14, #129 ) ;
#162 = FACE_BOUND ( 'NONE', #199, .T. ) ;
#163 = CARTESIAN_POINT ( 'NONE',  ( 0.000000000000000000, 0.000000000000000000, 0.000000000000000000 ) ) ;
#164 = DIRECTION ( 'NONE',  ( -0.000000000000000000, -1.000000000000000000, -0.000000000000000000 ) ) ;
#165 = EDGE_CURVE ( 'NONE', #299, #195, #77, .T. ) ;
#166 = VECTOR ( 'NONE', #244, 1000.000000000000000 ) ;
#167 = AXIS2_PLACEMENT_3D ( 'NONE', #304, #134, #39 ) ;
#168 = CYLINDRICAL_SURFACE ( 'NONE', #161, 2.250000000000000000 ) ;
#169 = DIRECTION ( 'NONE',  ( 0.000000000000000000, 0.000000000000000000, -1.000000000000000000 ) ) ;
#170 = ORIENTED_EDGE ( 'NONE', *, *, #61, .T. ) ;
#171 = CARTESIAN_POINT ( 'NONE',  ( 0.000000000000000000, 30.00000000000000000, 0.000000000000000000 ) ) ;
#172 = LINE ( 'NONE', #29, #166 ) ;
#173 = AXIS2_PLACEMENT_3D ( 'NONE', #254, #41, #102 ) ;
#174 = EDGE_LOOP ( 'NONE', ( #141, #6 ) ) ;
#175 = DIRECTION ( 'NONE',  ( -0.000000000000000000, 1.000000000000000000, -0.000000000000000000 ) ) ;
#176 = ORIENTED_EDGE ( 'NONE', *, *, #158, .T. ) ;
#177 = APPLICATION_PROTOCOL_DEFINITION ( 'draft international standard', 'automotive_design', 1998, #311 ) ;
#178 = EDGE_CURVE ( 'NONE', #243, #195, #272, .T. ) ;
#179 = ORIENTED_EDGE ( 'NONE', *, *, #178, .F. ) ;
#180 = DIRECTION ( 'NONE',  ( 0.000000000000000000, 0.000000000000000000, 1.000000000000000000 ) ) ;
#181 = PRODUCT_DEFINITION_FORMATION_WITH_SPECIFIED_SOURCE ( 'ANY', '', #28, .NOT_KNOWN. ) ;
#182 = EDGE_LOOP ( 'NONE', ( #31, #65, #179, #269 ) ) ;
#183 =( LENGTH_UNIT ( ) NAMED_UNIT ( * ) SI_UNIT ( .MILLI., .METRE. ) );
#184 = FILL_AREA_STYLE ('',( #251 ) ) ;
#185 = ORIENTED_EDGE ( 'NONE', *, *, #209, .T. ) ;
#186 = MECHANICAL_DESIGN_GEOMETRIC_PRESENTATION_REPRESENTATION (  '', ( #309 ), #66 ) ;
#187 = AXIS2_PLACEMENT_3D ( 'NONE', #224, #11, #289 ) ;
#188 = EDGE_CURVE ( 'NONE', #125, #267, #106, .T. ) ;
#189 = PLANE ( 'NONE',  #127 ) ;
#190 = AXIS2_PLACEMENT_3D ( 'NONE', #80, #175, #268 ) ;
#191 = EDGE_LOOP ( 'NONE', ( #231, #120, #176, #82 ) ) ;
#192 = DIRECTION ( 'NONE',  ( -0.000000000000000000, -1.000000000000000000, -0.000000000000000000 ) ) ;
#193 = AXIS2_PLACEMENT_3D ( 'NONE', #238, #295, #242 ) ;
#194 = DIRECTION ( 'NONE',  ( 0.000000000000000000, 0.000000000000000000, 1.000000000000000000 ) ) ;
#195 = VERTEX_POINT ( 'NONE', #52 ) ;
#196 = CARTESIAN_POINT ( 'NONE',  ( 0.000000000000000000, 0.000000000000000000, 1.449999999999993072 ) ) ;
#197 = EDGE_CURVE ( 'NONE', #201, #2, #121, .T. ) ;
#198 = CARTESIAN_POINT ( 'NONE',  ( 0.000000000000000000, 30.00000000000000000, 0.000000000000000000 ) ) ;
#199 = EDGE_LOOP ( 'NONE', ( #150, #152 ) ) ;
#200 = DIRECTION ( 'NONE',  ( -0.000000000000000000, -1.000000000000000000, -0.000000000000000000 ) ) ;
#201 = VERTEX_POINT ( 'NONE', #5 ) ;
#202 = LINE ( 'NONE', #62, #26 ) ;
#203 = VERTEX_POINT ( 'NONE', #196 ) ;
#204 = CARTESIAN_POINT ( 'NONE',  ( 2.755455298081544285E-16, 0.8000000000000055955, 2.250000000000000000 ) ) ;
#205 = FACE_OUTER_BOUND ( 'NONE', #220, .T. ) ;
#206 = ADVANCED_BREP_SHAPE_REPRESENTATION ( 'CONNECTOR', ( #81, #291 ), #107 ) ;
#207 = ORIENTED_EDGE ( 'NONE', *, *, #90, .T. ) ;
#208 = AXIS2_PLACEMENT_3D ( 'NONE', #171, #32, #95 ) ;
#209 = EDGE_CURVE ( 'NONE', #125, #308, #99, .T. ) ;
#210 = SURFACE_STYLE_USAGE ( .BOTH. , #257 ) ;
#211 = CARTESIAN_POINT ( 'NONE',  ( 0.000000000000000000, 0.8000000000000055955, -2.250000000000000000 ) ) ;
#212 =( LENGTH_UNIT ( ) NAMED_UNIT ( * ) SI_UNIT ( .MILLI., .METRE. ) );
#213 = VECTOR ( 'NONE', #293, 1000.000000000000000 ) ;
#214 = AXIS2_PLACEMENT_3D ( 'NONE', #278, #227, #180 ) ;
#215 = DIRECTION ( 'NONE',  ( 0.000000000000000000, 0.000000000000000000, 1.000000000000000000 ) ) ;
#216 = CARTESIAN_POINT ( 'NONE',  ( 1.285879139104720732E-16, 30.00000000000000000, 1.050000000000000044 ) ) ;
#217 = CARTESIAN_POINT ( 'NONE',  ( 0.000000000000000000, 29.20000000000000284, 0.000000000000000000 ) ) ;
#218 = ADVANCED_FACE ( 'NONE', ( #246 ), #219, .T. ) ;
#219 = CYLINDRICAL_SURFACE ( 'NONE', #313, 2.250000000000000000 ) ;
#220 = EDGE_LOOP ( 'NONE', ( #225, #185, #226, #128 ) ) ;
#221 = CARTESIAN_POINT ( 'NONE',  ( 0.000000000000000000, 30.00000000000000000, 0.000000000000000000 ) ) ;
#222 = ADVANCED_FACE ( 'NONE', ( #147 ), #47, .T. ) ;
#223 = AXIS2_PLACEMENT_3D ( 'NONE', #148, #49, #118 ) ;
#224 = CARTESIAN_POINT ( 'NONE',  ( 0.000000000000000000, 0.000000000000000000, 0.000000000000000000 ) ) ;
#225 = ORIENTED_EDGE ( 'NONE', *, *, #135, .T. ) ;
#226 = ORIENTED_EDGE ( 'NONE', *, *, #312, .F. ) ;
#227 = DIRECTION ( 'NONE',  ( 0.000000000000000000, 1.000000000000000000, 0.000000000000000000 ) ) ;
#228 = DIRECTION ( 'NONE',  ( 0.000000000000000000, 0.000000000000000000, -1.000000000000000000 ) ) ;
#229 = CARTESIAN_POINT ( 'NONE',  ( 2.265596578422607538E-16, 30.00000000000000000, 1.450000000000006839 ) ) ;
#230 = FACE_OUTER_BOUND ( 'NONE', #38, .T. ) ;
#231 = ORIENTED_EDGE ( 'NONE', *, *, #178, .T. ) ;
#232 = ADVANCED_FACE ( 'NONE', ( #57, #153 ), #126, .F. ) ;
#233 = AXIS2_PLACEMENT_3D ( 'NONE', #22, #113, #68 ) ;
#234 = APPLICATION_PROTOCOL_DEFINITION ( 'draft international standard', 'automotive_design', 1998, #16 ) ;
#235 = CARTESIAN_POINT ( 'NONE',  ( 0.000000000000000000, 0.000000000000000000, 0.000000000000000000 ) ) ;
#236 =( NAMED_UNIT ( * ) PLANE_ANGLE_UNIT ( ) SI_UNIT ( $, .RADIAN. ) );
#237 = CARTESIAN_POINT ( 'NONE',  ( 0.000000000000000000, 30.00000000000000000, -2.250000000000000000 ) ) ;
#238 = CARTESIAN_POINT ( 'NONE',  ( 0.000000000000000000, 30.00000000000000000, 0.000000000000000000 ) ) ;
#239 = DIRECTION ( 'NONE',  ( 0.000000000000000000, 0.000000000000000000, 1.000000000000000000 ) ) ;
#240 = ORIENTED_EDGE ( 'NONE', *, *, #90, .F. ) ;
#241 = CIRCLE ( 'NONE', #155, 1.449999999999993072 ) ;
#242 = DIRECTION ( 'NONE',  ( 0.000000000000000000, 0.000000000000000000, -1.000000000000000000 ) ) ;
#243 = VERTEX_POINT ( 'NONE', #70 ) ;
#244 = DIRECTION ( 'NONE',  ( -0.000000000000000000, -1.000000000000000000, -0.000000000000000000 ) ) ;
#245 = ORIENTED_EDGE ( 'NONE', *, *, #262, .F. ) ;
#246 = FACE_OUTER_BOUND ( 'NONE', #264, .T. ) ;
#247 = FACE_OUTER_BOUND ( 'NONE', #54, .T. ) ;
#248 = EDGE_LOOP ( 'NONE', ( #170, #279 ) ) ;
#249 = ADVANCED_FACE ( 'NONE', ( #261 ), #168, .T. ) ;
#250 = PRESENTATION_STYLE_ASSIGNMENT (( #270 ) ) ;
#251 = FILL_AREA_STYLE_COLOUR ( '', #139 ) ;
#252 = VECTOR ( 'NONE', #36, 1000.000000000000000 ) ;
#253 = CIRCLE ( 'NONE', #173, 2.250000000000000000 ) ;
#254 = CARTESIAN_POINT ( 'NONE',  ( 0.000000000000000000, 29.20000000000000284, 0.000000000000000000 ) ) ;
#255 = EDGE_CURVE ( 'NONE', #195, #243, #253, .T. ) ;
#256 = VERTEX_POINT ( 'NONE', #204 ) ;
#257 = SURFACE_SIDE_STYLE ('',( #46 ) ) ;
#258 = CARTESIAN_POINT ( 'NONE',  ( 0.000000000000000000, 0.000000000000000000, 0.000000000000000000 ) ) ;
#259 = CIRCLE ( 'NONE', #208, 1.050000000000000044 ) ;
#260 = VECTOR ( 'NONE', #200, 1000.000000000000000 ) ;
#261 = FACE_OUTER_BOUND ( 'NONE', #191, .T. ) ;
#262 = EDGE_CURVE ( 'NONE', #308, #84, #310, .T. ) ;
#263 = DIRECTION ( 'NONE',  ( 0.000000000000000000, 0.000000000000000000, 1.000000000000000000 ) ) ;
#264 = EDGE_LOOP ( 'NONE', ( #130, #277, #296, #98 ) ) ;
#265 = DIRECTION ( 'NONE',  ( 0.000000000000000000, 0.7071067811865470176, 0.7071067811865481278 ) ) ;
#266 = DIRECTION ( 'NONE',  ( 0.000000000000000000, -1.000000000000000000, 0.000000000000000000 ) ) ;
#267 = VERTEX_POINT ( 'NONE', #136 ) ;
#268 = DIRECTION ( 'NONE',  ( 0.000000000000000000, 0.000000000000000000, 1.000000000000000000 ) ) ;
#269 = ORIENTED_EDGE ( 'NONE', *, *, #290, .F. ) ;
#270 = SURFACE_STYLE_USAGE ( .BOTH. , #132 ) ;
#271 = ORIENTED_EDGE ( 'NONE', *, *, #197, .F. ) ;
#272 = CIRCLE ( 'NONE', #138, 2.250000000000000000 ) ;
#273 = AXIS2_PLACEMENT_3D ( 'NONE', #85, #274, #108 ) ;
#274 = DIRECTION ( 'NONE',  ( 0.000000000000000000, 1.000000000000000000, 0.000000000000000000 ) ) ;
#275 = ORIENTED_EDGE ( 'NONE', *, *, #73, .F. ) ;
#276 = DIRECTION ( 'NONE',  ( -0.000000000000000000, -1.000000000000000000, -0.000000000000000000 ) ) ;
#277 = ORIENTED_EDGE ( 'NONE', *, *, #255, .T. ) ;
#278 = CARTESIAN_POINT ( 'NONE',  ( 0.000000000000000000, 0.000000000000000000, 0.000000000000000000 ) ) ;
#279 = ORIENTED_EDGE ( 'NONE', *, *, #73, .T. ) ;
#280 = ADVANCED_FACE ( 'NONE', ( #230 ), #79, .T. ) ;
#281 = CONICAL_SURFACE ( 'NONE', #284, 1.450000000000006839, 0.7853981633974469467 ) ;
#282 = DIRECTION ( 'NONE',  ( 0.000000000000000000, 0.000000000000000000, 1.000000000000000000 ) ) ;
#283 = CARTESIAN_POINT ( 'NONE',  ( 0.000000000000000000, 30.00000000000000000, 0.000000000000000000 ) ) ;
#284 = AXIS2_PLACEMENT_3D ( 'NONE', #198, #151, #169 ) ;
#285 = MECHANICAL_DESIGN_GEOMETRIC_PRESENTATION_REPRESENTATION (  '', ( #4 ), #101 ) ;
#286 = DIRECTION ( 'NONE',  ( -0.000000000000000000, -1.000000000000000000, -0.000000000000000000 ) ) ;
#287 = FACE_OUTER_BOUND ( 'NONE', #116, .T. ) ;
#288 = UNCERTAINTY_MEASURE_WITH_UNIT (LENGTH_MEASURE( 1.000000000000000082E-05 ), #212, 'distance_accuracy_value', 'NONE');
#289 = DIRECTION ( 'NONE',  ( 0.000000000000000000, -0.000000000000000000, 1.000000000000000000 ) ) ;
#290 = EDGE_CURVE ( 'NONE', #8, #243, #202, .T. ) ;
#291 = AXIS2_PLACEMENT_3D ( 'NONE', #163, #140, #137 ) ;
#292 = PRODUCT_DEFINITION_SHAPE ( 'NONE', 'NONE',  #87 ) ;
#293 = DIRECTION ( 'NONE',  ( 8.659560562354921765E-17, -0.7071067811865484609, 0.7071067811865465735 ) ) ;
#294 = PRODUCT_DEFINITION_CONTEXT ( 'detailed design', #16, 'design' ) ;
#295 = DIRECTION ( 'NONE',  ( 0.000000000000000000, -1.000000000000000000, 0.000000000000000000 ) ) ;
#296 = ORIENTED_EDGE ( 'NONE', *, *, #51, .T. ) ;
#297 = ADVANCED_FACE ( 'NONE', ( #205 ), #159, .F. ) ;
#298 = CARTESIAN_POINT ( 'NONE',  ( 0.000000000000000000, 0.8000000000000055955, 0.000000000000000000 ) ) ;
#299 = VERTEX_POINT ( 'NONE', #229 ) ;
#300 = CIRCLE ( 'NONE', #89, 2.250000000000000000 ) ;
#301 = CARTESIAN_POINT ( 'NONE',  ( 0.000000000000000000, 30.00000000000000000, 0.000000000000000000 ) ) ;
#302 = ORIENTED_EDGE ( 'NONE', *, *, #61, .F. ) ;
#303 = DIRECTION ( 'NONE',  ( 0.000000000000000000, -0.7071067811865484609, -0.7071067811865465735 ) ) ;
#304 = CARTESIAN_POINT ( 'NONE',  ( 0.000000000000000000, 30.00000000000000000, 0.000000000000000000 ) ) ;
#305 = ADVANCED_FACE ( 'NONE', ( #247 ), #154, .F. ) ;
#306 =( NAMED_UNIT ( * ) SI_UNIT ( $, .STERADIAN. ) SOLID_ANGLE_UNIT ( ) );
#307 = DIRECTION ( 'NONE',  ( -0.000000000000000000, 1.000000000000000000, -0.000000000000000000 ) ) ;
#308 = VERTEX_POINT ( 'NONE', #63 ) ;
#309 = STYLED_ITEM ( 'NONE', ( #143 ), #81 ) ;
#310 = CIRCLE ( 'NONE', #214, 1.050000000000000044 ) ;
#311 = APPLICATION_CONTEXT ( 'automotive_design' ) ;
#312 = EDGE_CURVE ( 'NONE', #84, #308, #111, .T. ) ;
#313 = AXIS2_PLACEMENT_3D ( 'NONE', #301, #192, #97 ) ;
#314 =( NAMED_UNIT ( * ) SI_UNIT ( $, .STERADIAN. ) SOLID_ANGLE_UNIT ( ) );
ENDSEC;
END-ISO-10303-21;
