ISO-10303-21;
HEADER;
/* Generated by software containing ST-Developer
 * from STEP Tools, Inc. (www.steptools.com) 
 */

FILE_DESCRIPTION(
/* description */ (''),
/* implementation_level */ '2;1');

FILE_NAME(
/* name */ 
'Lightpipe 1x2 A - Supercon 2023 Badge Enclosure - Basic v4.step',
/* time_stamp */ '2023-10-24T02:44:54-07:00',
/* author */ (''),
/* organization */ (''),
/* preprocessor_version */ 'ST-DEVELOPER v20',
/* originating_system */ 'Autodesk Translation Framework v12.14.0.127',

/* authorisation */ '');

FILE_SCHEMA (('AUTOMOTIVE_DESIGN { 1 0 10303 214 3 1 1 }'));
ENDSEC;

DATA;
#10=MECHANICAL_DESIGN_GEOMETRIC_PRESENTATION_REPRESENTATION('',(#13),#373);
#11=SHAPE_REPRESENTATION_RELATIONSHIP('SRR','None',#379,#12);
#12=ADVANCED_BREP_SHAPE_REPRESENTATION('',(#14),#372);
#13=STYLED_ITEM('',(#392),#14);
#14=MANIFOLD_SOLID_BREP('Lightpipe 1x2 A',#180);
#15=FACE_BOUND('',#43,.T.);
#16=FACE_BOUND('',#48,.T.);
#17=CONICAL_SURFACE('',#194,1.03858486896035,0.0349065850398866);
#18=CONICAL_SURFACE('',#201,1.03858486896035,0.0349065850398866);
#19=(
BOUNDED_SURFACE()
B_SPLINE_SURFACE(2,2,((#292,#293,#294,#295,#296,#297,#298,#299,#300),(#301,
#302,#303,#304,#305,#306,#307,#308,#309),(#310,#311,#312,#313,#314,#315,
#316,#317,#318)),.UNSPECIFIED.,.F.,.T.,.F.)
B_SPLINE_SURFACE_WITH_KNOTS((3,3),(3,2,2,2,3),(0.0349065850398862,1.57079632679489),
(-3.14159265358979,-1.5707963267949,0.,1.5707963267949,3.14159265358979),
 .UNSPECIFIED.)
GEOMETRIC_REPRESENTATION_ITEM()
RATIONAL_B_SPLINE_SURFACE(((1.,0.707106781186548,1.,0.707106781186548,1.,
0.707106781186548,1.,0.707106781186548,1.),(0.719339800338646,0.508650050796834,
0.719339800338646,0.508650050796834,0.719339800338646,0.508650050796834,
0.719339800338646,0.508650050796834,0.719339800338646),(1.,0.707106781186548,
1.,0.707106781186548,1.,0.707106781186548,1.,0.707106781186548,1.)))
REPRESENTATION_ITEM('')
SURFACE()
);
#20=(
BOUNDED_SURFACE()
B_SPLINE_SURFACE(2,2,((#332,#333,#334,#335,#336,#337,#338,#339,#340),(#341,
#342,#343,#344,#345,#346,#347,#348,#349),(#350,#351,#352,#353,#354,#355,
#356,#357,#358)),.UNSPECIFIED.,.F.,.T.,.F.)
B_SPLINE_SURFACE_WITH_KNOTS((3,3),(3,2,2,2,3),(0.0349065850398862,1.57079632679489),
(-3.14159265358979,-1.5707963267949,0.,1.5707963267949,3.14159265358979),
 .UNSPECIFIED.)
GEOMETRIC_REPRESENTATION_ITEM()
RATIONAL_B_SPLINE_SURFACE(((1.,0.707106781186548,1.,0.707106781186548,1.,
0.707106781186548,1.,0.707106781186548,1.),(0.719339800338646,0.508650050796834,
0.719339800338646,0.508650050796834,0.719339800338646,0.508650050796834,
0.719339800338646,0.508650050796834,0.719339800338646),(1.,0.707106781186548,
1.,0.707106781186548,1.,0.707106781186548,1.,0.707106781186548,1.)))
REPRESENTATION_ITEM('')
SURFACE()
);
#21=(
BOUNDED_CURVE()
B_SPLINE_CURVE(2,(#271,#272,#273),.UNSPECIFIED.,.F.,.F.)
B_SPLINE_CURVE_WITH_KNOTS((3,3),(0.,0.0751323098705864),.UNSPECIFIED.)
CURVE()
GEOMETRIC_REPRESENTATION_ITEM()
RATIONAL_B_SPLINE_CURVE((1.,1.0001506697224,1.))
REPRESENTATION_ITEM('')
);
#22=(
BOUNDED_CURVE()
B_SPLINE_CURVE(2,(#276,#277,#278),.UNSPECIFIED.,.F.,.F.)
B_SPLINE_CURVE_WITH_KNOTS((3,3),(0.,0.0751323098705865),.UNSPECIFIED.)
CURVE()
GEOMETRIC_REPRESENTATION_ITEM()
RATIONAL_B_SPLINE_CURVE((1.,1.00015066977507,1.))
REPRESENTATION_ITEM('')
);
#23=(
BOUNDED_CURVE()
B_SPLINE_CURVE(2,(#281,#282,#283),.UNSPECIFIED.,.F.,.F.)
B_SPLINE_CURVE_WITH_KNOTS((3,3),(0.,0.0751323098705864),.UNSPECIFIED.)
CURVE()
GEOMETRIC_REPRESENTATION_ITEM()
RATIONAL_B_SPLINE_CURVE((1.,1.0001506697224,1.))
REPRESENTATION_ITEM('')
);
#24=(
BOUNDED_CURVE()
B_SPLINE_CURVE(2,(#285,#286,#287),.UNSPECIFIED.,.F.,.F.)
B_SPLINE_CURVE_WITH_KNOTS((3,3),(0.,0.0751323098705865),.UNSPECIFIED.)
CURVE()
GEOMETRIC_REPRESENTATION_ITEM()
RATIONAL_B_SPLINE_CURVE((1.,1.00015066977507,1.))
REPRESENTATION_ITEM('')
);
#25=FACE_OUTER_BOUND('',#37,.T.);
#26=FACE_OUTER_BOUND('',#38,.T.);
#27=FACE_OUTER_BOUND('',#39,.T.);
#28=FACE_OUTER_BOUND('',#40,.T.);
#29=FACE_OUTER_BOUND('',#41,.T.);
#30=FACE_OUTER_BOUND('',#42,.T.);
#31=FACE_OUTER_BOUND('',#44,.T.);
#32=FACE_OUTER_BOUND('',#45,.T.);
#33=FACE_OUTER_BOUND('',#46,.T.);
#34=FACE_OUTER_BOUND('',#47,.T.);
#35=FACE_OUTER_BOUND('',#49,.T.);
#36=FACE_OUTER_BOUND('',#50,.T.);
#37=EDGE_LOOP('',(#114,#115,#116,#117));
#38=EDGE_LOOP('',(#118,#119,#120,#121));
#39=EDGE_LOOP('',(#122,#123,#124,#125));
#40=EDGE_LOOP('',(#126,#127,#128,#129));
#41=EDGE_LOOP('',(#130,#131,#132,#133,#134));
#42=EDGE_LOOP('',(#135,#136,#137,#138,#139));
#43=EDGE_LOOP('',(#140,#141,#142,#143));
#44=EDGE_LOOP('',(#144));
#45=EDGE_LOOP('',(#145));
#46=EDGE_LOOP('',(#146,#147,#148,#149));
#47=EDGE_LOOP('',(#150,#151,#152,#153));
#48=EDGE_LOOP('',(#154,#155,#156,#157));
#49=EDGE_LOOP('',(#158));
#50=EDGE_LOOP('',(#159));
#51=LINE('',#265,#57);
#52=LINE('',#268,#58);
#53=LINE('',#275,#59);
#54=LINE('',#288,#60);
#55=LINE('',#329,#61);
#56=LINE('',#367,#62);
#57=VECTOR('',#211,10.);
#58=VECTOR('',#214,10.);
#59=VECTOR('',#217,10.);
#60=VECTOR('',#220,10.);
#61=VECTOR('',#239,1.03858486896035);
#62=VECTOR('',#254,1.03858486896035);
#63=CIRCLE('',#183,1.2969151252387);
#64=CIRCLE('',#184,1.2969151252387);
#65=CIRCLE('',#188,1.27072454811989);
#66=CIRCLE('',#189,1.27072454811989);
#67=CIRCLE('',#190,0.0728960941532787);
#68=CIRCLE('',#191,1.);
#69=CIRCLE('',#192,1.07228692117237);
#70=CIRCLE('',#193,1.07228692117237);
#71=CIRCLE('',#195,1.41572917947123);
#72=CIRCLE('',#198,0.0728960941532787);
#73=CIRCLE('',#199,1.);
#74=CIRCLE('',#200,1.07228692117237);
#75=CIRCLE('',#202,1.41572917947123);
#76=VERTEX_POINT('',#261);
#77=VERTEX_POINT('',#262);
#78=VERTEX_POINT('',#264);
#79=VERTEX_POINT('',#266);
#80=VERTEX_POINT('',#270);
#81=VERTEX_POINT('',#274);
#82=VERTEX_POINT('',#280);
#83=VERTEX_POINT('',#284);
#84=VERTEX_POINT('',#319);
#85=VERTEX_POINT('',#321);
#86=VERTEX_POINT('',#323);
#87=VERTEX_POINT('',#327);
#88=VERTEX_POINT('',#359);
#89=VERTEX_POINT('',#361);
#90=VERTEX_POINT('',#365);
#91=EDGE_CURVE('',#76,#77,#63,.T.);
#92=EDGE_CURVE('',#76,#78,#51,.T.);
#93=EDGE_CURVE('',#79,#78,#64,.T.);
#94=EDGE_CURVE('',#79,#77,#52,.T.);
#95=EDGE_CURVE('',#80,#76,#21,.T.);
#96=EDGE_CURVE('',#81,#80,#53,.T.);
#97=EDGE_CURVE('',#78,#81,#22,.T.);
#98=EDGE_CURVE('',#77,#82,#23,.T.);
#99=EDGE_CURVE('',#83,#79,#24,.T.);
#100=EDGE_CURVE('',#82,#83,#54,.T.);
#101=EDGE_CURVE('',#82,#80,#65,.T.);
#102=EDGE_CURVE('',#81,#83,#66,.T.);
#103=EDGE_CURVE('',#84,#84,#67,.T.);
#104=EDGE_CURVE('',#84,#85,#68,.T.);
#105=EDGE_CURVE('',#85,#86,#69,.T.);
#106=EDGE_CURVE('',#86,#85,#70,.T.);
#107=EDGE_CURVE('',#87,#87,#71,.T.);
#108=EDGE_CURVE('',#87,#86,#55,.T.);
#109=EDGE_CURVE('',#88,#88,#72,.T.);
#110=EDGE_CURVE('',#88,#89,#73,.T.);
#111=EDGE_CURVE('',#89,#89,#74,.T.);
#112=EDGE_CURVE('',#90,#90,#75,.T.);
#113=EDGE_CURVE('',#90,#89,#56,.T.);
#114=ORIENTED_EDGE('',*,*,#91,.F.);
#115=ORIENTED_EDGE('',*,*,#92,.T.);
#116=ORIENTED_EDGE('',*,*,#93,.F.);
#117=ORIENTED_EDGE('',*,*,#94,.T.);
#118=ORIENTED_EDGE('',*,*,#95,.F.);
#119=ORIENTED_EDGE('',*,*,#96,.F.);
#120=ORIENTED_EDGE('',*,*,#97,.F.);
#121=ORIENTED_EDGE('',*,*,#92,.F.);
#122=ORIENTED_EDGE('',*,*,#98,.F.);
#123=ORIENTED_EDGE('',*,*,#94,.F.);
#124=ORIENTED_EDGE('',*,*,#99,.F.);
#125=ORIENTED_EDGE('',*,*,#100,.F.);
#126=ORIENTED_EDGE('',*,*,#101,.F.);
#127=ORIENTED_EDGE('',*,*,#100,.T.);
#128=ORIENTED_EDGE('',*,*,#102,.F.);
#129=ORIENTED_EDGE('',*,*,#96,.T.);
#130=ORIENTED_EDGE('',*,*,#103,.T.);
#131=ORIENTED_EDGE('',*,*,#104,.T.);
#132=ORIENTED_EDGE('',*,*,#105,.T.);
#133=ORIENTED_EDGE('',*,*,#106,.T.);
#134=ORIENTED_EDGE('',*,*,#104,.F.);
#135=ORIENTED_EDGE('',*,*,#107,.T.);
#136=ORIENTED_EDGE('',*,*,#108,.T.);
#137=ORIENTED_EDGE('',*,*,#105,.F.);
#138=ORIENTED_EDGE('',*,*,#106,.F.);
#139=ORIENTED_EDGE('',*,*,#108,.F.);
#140=ORIENTED_EDGE('',*,*,#97,.T.);
#141=ORIENTED_EDGE('',*,*,#102,.T.);
#142=ORIENTED_EDGE('',*,*,#99,.T.);
#143=ORIENTED_EDGE('',*,*,#93,.T.);
#144=ORIENTED_EDGE('',*,*,#103,.F.);
#145=ORIENTED_EDGE('',*,*,#107,.F.);
#146=ORIENTED_EDGE('',*,*,#109,.T.);
#147=ORIENTED_EDGE('',*,*,#110,.T.);
#148=ORIENTED_EDGE('',*,*,#111,.T.);
#149=ORIENTED_EDGE('',*,*,#110,.F.);
#150=ORIENTED_EDGE('',*,*,#112,.T.);
#151=ORIENTED_EDGE('',*,*,#113,.T.);
#152=ORIENTED_EDGE('',*,*,#111,.F.);
#153=ORIENTED_EDGE('',*,*,#113,.F.);
#154=ORIENTED_EDGE('',*,*,#95,.T.);
#155=ORIENTED_EDGE('',*,*,#91,.T.);
#156=ORIENTED_EDGE('',*,*,#98,.T.);
#157=ORIENTED_EDGE('',*,*,#101,.T.);
#158=ORIENTED_EDGE('',*,*,#109,.F.);
#159=ORIENTED_EDGE('',*,*,#112,.F.);
#160=PLANE('',#182);
#161=PLANE('',#185);
#162=PLANE('',#186);
#163=PLANE('',#187);
#164=PLANE('',#196);
#165=PLANE('',#197);
#166=PLANE('',#203);
#167=PLANE('',#204);
#168=ADVANCED_FACE('',(#25),#160,.T.);
#169=ADVANCED_FACE('',(#26),#161,.T.);
#170=ADVANCED_FACE('',(#27),#162,.T.);
#171=ADVANCED_FACE('',(#28),#163,.F.);
#172=ADVANCED_FACE('',(#29),#19,.F.);
#173=ADVANCED_FACE('',(#30,#15),#17,.T.);
#174=ADVANCED_FACE('',(#31),#164,.T.);
#175=ADVANCED_FACE('',(#32),#165,.F.);
#176=ADVANCED_FACE('',(#33),#20,.F.);
#177=ADVANCED_FACE('',(#34,#16),#18,.T.);
#178=ADVANCED_FACE('',(#35),#166,.T.);
#179=ADVANCED_FACE('',(#36),#167,.F.);
#180=CLOSED_SHELL('',(#168,#169,#170,#171,#172,#173,#174,#175,#176,#177,
#178,#179));
#181=AXIS2_PLACEMENT_3D('',#259,#205,#206);
#182=AXIS2_PLACEMENT_3D('',#260,#207,#208);
#183=AXIS2_PLACEMENT_3D('',#263,#209,#210);
#184=AXIS2_PLACEMENT_3D('',#267,#212,#213);
#185=AXIS2_PLACEMENT_3D('',#269,#215,#216);
#186=AXIS2_PLACEMENT_3D('',#279,#218,#219);
#187=AXIS2_PLACEMENT_3D('',#289,#221,#222);
#188=AXIS2_PLACEMENT_3D('',#290,#223,#224);
#189=AXIS2_PLACEMENT_3D('',#291,#225,#226);
#190=AXIS2_PLACEMENT_3D('',#320,#227,#228);
#191=AXIS2_PLACEMENT_3D('',#322,#229,#230);
#192=AXIS2_PLACEMENT_3D('',#324,#231,#232);
#193=AXIS2_PLACEMENT_3D('',#325,#233,#234);
#194=AXIS2_PLACEMENT_3D('',#326,#235,#236);
#195=AXIS2_PLACEMENT_3D('',#328,#237,#238);
#196=AXIS2_PLACEMENT_3D('',#330,#240,#241);
#197=AXIS2_PLACEMENT_3D('',#331,#242,#243);
#198=AXIS2_PLACEMENT_3D('',#360,#244,#245);
#199=AXIS2_PLACEMENT_3D('',#362,#246,#247);
#200=AXIS2_PLACEMENT_3D('',#363,#248,#249);
#201=AXIS2_PLACEMENT_3D('',#364,#250,#251);
#202=AXIS2_PLACEMENT_3D('',#366,#252,#253);
#203=AXIS2_PLACEMENT_3D('',#368,#255,#256);
#204=AXIS2_PLACEMENT_3D('',#369,#257,#258);
#205=DIRECTION('axis',(0.,0.,1.));
#206=DIRECTION('refdir',(1.,0.,0.));
#207=DIRECTION('center_axis',(0.,0.,-1.));
#208=DIRECTION('ref_axis',(-1.,0.,0.));
#209=DIRECTION('center_axis',(0.,0.,-1.));
#210=DIRECTION('ref_axis',(1.,0.,0.));
#211=DIRECTION('',(0.,-1.,0.));
#212=DIRECTION('center_axis',(0.,0.,-1.));
#213=DIRECTION('ref_axis',(-1.,0.,0.));
#214=DIRECTION('',(0.,1.,0.));
#215=DIRECTION('center_axis',(1.,0.,0.));
#216=DIRECTION('ref_axis',(0.,-1.,0.));
#217=DIRECTION('',(0.,1.,0.));
#218=DIRECTION('center_axis',(-1.,0.,0.));
#219=DIRECTION('ref_axis',(0.,1.,0.));
#220=DIRECTION('',(0.,-1.,0.));
#221=DIRECTION('center_axis',(0.,0.,-1.));
#222=DIRECTION('ref_axis',(-1.,0.,0.));
#223=DIRECTION('center_axis',(0.,0.,1.));
#224=DIRECTION('ref_axis',(1.,0.,0.));
#225=DIRECTION('center_axis',(0.,0.,1.));
#226=DIRECTION('ref_axis',(-1.,0.,0.));
#227=DIRECTION('center_axis',(0.,0.,-1.));
#228=DIRECTION('ref_axis',(-1.,0.,0.));
#229=DIRECTION('center_axis',(0.,-1.,0.));
#230=DIRECTION('ref_axis',(-1.,0.,0.));
#231=DIRECTION('center_axis',(0.,0.,1.));
#232=DIRECTION('ref_axis',(-1.,0.,0.));
#233=DIRECTION('center_axis',(0.,0.,1.));
#234=DIRECTION('ref_axis',(-1.,0.,0.));
#235=DIRECTION('center_axis',(0.,0.,-1.));
#236=DIRECTION('ref_axis',(-1.,0.,0.));
#237=DIRECTION('center_axis',(0.,0.,1.));
#238=DIRECTION('ref_axis',(-1.,0.,0.));
#239=DIRECTION('',(-0.034899496702501,4.27395569285714E-18,0.999390827019096));
#240=DIRECTION('center_axis',(0.,0.,1.));
#241=DIRECTION('ref_axis',(1.,0.,0.));
#242=DIRECTION('center_axis',(0.,0.,1.));
#243=DIRECTION('ref_axis',(1.,0.,0.));
#244=DIRECTION('center_axis',(0.,0.,-1.));
#245=DIRECTION('ref_axis',(1.,0.,0.));
#246=DIRECTION('center_axis',(0.,-1.,0.));
#247=DIRECTION('ref_axis',(-1.,0.,0.));
#248=DIRECTION('center_axis',(0.,0.,1.));
#249=DIRECTION('ref_axis',(1.,0.,0.));
#250=DIRECTION('center_axis',(0.,0.,-1.));
#251=DIRECTION('ref_axis',(1.,0.,0.));
#252=DIRECTION('center_axis',(0.,0.,1.));
#253=DIRECTION('ref_axis',(1.,0.,0.));
#254=DIRECTION('',(0.034899496702501,-4.27395569285714E-18,0.999390827019096));
#255=DIRECTION('center_axis',(0.,0.,1.));
#256=DIRECTION('ref_axis',(1.,0.,0.));
#257=DIRECTION('center_axis',(0.,0.,1.));
#258=DIRECTION('ref_axis',(1.,0.,0.));
#259=CARTESIAN_POINT('',(0.,0.,0.));
#260=CARTESIAN_POINT('Origin',(-1.93529145139033,-46.0259720607459,5.60238935057282));
#261=CARTESIAN_POINT('',(-22.8017956677257,-40.6838788223703,5.60238935057282));
#262=CARTESIAN_POINT('',(-24.8789654056464,-40.6838788223703,5.60238935057282));
#263=CARTESIAN_POINT('Origin',(-23.8403805366861,-39.9071354206993,5.60238935057282));
#264=CARTESIAN_POINT('',(-22.8017956677257,-42.6303920190282,5.60238935057282));
#265=CARTESIAN_POINT('',(-22.8017956677257,-42.9665537407226,5.60238935057282));
#266=CARTESIAN_POINT('',(-24.8789654056464,-42.6303920190282,5.60238935057282));
#267=CARTESIAN_POINT('Origin',(-23.8403805366861,-43.4071354206993,5.60238935057282));
#268=CARTESIAN_POINT('',(-24.8789654056464,-44.7165537407226,5.60238935057282));
#269=CARTESIAN_POINT('Origin',(-22.8017956677257,-39.9071354206993,6.35238935057282));
#270=CARTESIAN_POINT('',(-22.8017956677257,-40.6393118660737,6.35238935057282));
#271=CARTESIAN_POINT('Ctrl Pts',(-22.8017956677257,-40.6393118660737,6.35238935057282));
#272=CARTESIAN_POINT('Ctrl Pts',(-22.8017956677257,-40.661368047082,5.98846522624425));
#273=CARTESIAN_POINT('Ctrl Pts',(-22.8017956677257,-40.6838788223703,5.60238935057282));
#274=CARTESIAN_POINT('',(-22.8017956677257,-42.6749589753249,6.35238935057282));
#275=CARTESIAN_POINT('',(-22.8017956677257,-42.9665537407226,6.35238935057282));
#276=CARTESIAN_POINT('Ctrl Pts',(-22.8017956677257,-42.6303920190282,5.60238935057282));
#277=CARTESIAN_POINT('Ctrl Pts',(-22.8017956677257,-42.6529027943142,5.98846522620549));
#278=CARTESIAN_POINT('Ctrl Pts',(-22.8017956677257,-42.6749589753249,6.35238935057282));
#279=CARTESIAN_POINT('Origin',(-24.8789654056464,-43.4071354206993,6.35238935057282));
#280=CARTESIAN_POINT('',(-24.8789654056464,-40.6393118660737,6.35238935057282));
#281=CARTESIAN_POINT('Ctrl Pts',(-24.8789654056464,-40.6838788223703,5.60238935057282));
#282=CARTESIAN_POINT('Ctrl Pts',(-24.8789654056464,-40.661368047082,5.98846522624425));
#283=CARTESIAN_POINT('Ctrl Pts',(-24.8789654056464,-40.6393118660737,6.35238935057282));
#284=CARTESIAN_POINT('',(-24.8789654056464,-42.6749589753249,6.35238935057282));
#285=CARTESIAN_POINT('Ctrl Pts',(-24.8789654056464,-42.6749589753249,6.35238935057282));
#286=CARTESIAN_POINT('Ctrl Pts',(-24.8789654056464,-42.6529027943142,5.98846522620549));
#287=CARTESIAN_POINT('Ctrl Pts',(-24.8789654056464,-42.6303920190282,5.60238935057282));
#288=CARTESIAN_POINT('',(-24.8789654056464,-44.7165537407226,6.35238935057282));
#289=CARTESIAN_POINT('Origin',(-1.93529145139033,-46.0259720607459,6.35238935057282));
#290=CARTESIAN_POINT('Origin',(-23.8403805366861,-39.9071354206993,6.35238935057282));
#291=CARTESIAN_POINT('Origin',(-23.8403805366861,-43.4071354206993,6.35238935057282));
#292=CARTESIAN_POINT('Ctrl Pts',(-24.9126674578585,-43.4071354206993,12.0348994967025));
#293=CARTESIAN_POINT('Ctrl Pts',(-24.9126674578585,-44.4794223418717,12.0348994967025));
#294=CARTESIAN_POINT('Ctrl Pts',(-23.8403805366861,-44.4794223418717,12.0348994967025));
#295=CARTESIAN_POINT('Ctrl Pts',(-22.7680936155137,-44.4794223418717,12.0348994967025));
#296=CARTESIAN_POINT('Ctrl Pts',(-22.7680936155137,-43.4071354206993,12.0348994967025));
#297=CARTESIAN_POINT('Ctrl Pts',(-22.7680936155137,-42.3348484995269,12.0348994967025));
#298=CARTESIAN_POINT('Ctrl Pts',(-23.8403805366861,-42.3348484995269,12.0348994967025));
#299=CARTESIAN_POINT('Ctrl Pts',(-24.9126674578585,-42.3348484995269,12.0348994967025));
#300=CARTESIAN_POINT('Ctrl Pts',(-24.9126674578585,-43.4071354206993,12.0348994967025));
#301=CARTESIAN_POINT('Ctrl Pts',(-24.8789654056464,-43.4071354206993,13.));
#302=CARTESIAN_POINT('Ctrl Pts',(-24.8789654056464,-44.4457202896596,13.));
#303=CARTESIAN_POINT('Ctrl Pts',(-23.8403805366861,-44.4457202896596,13.));
#304=CARTESIAN_POINT('Ctrl Pts',(-22.8017956677257,-44.4457202896596,13.));
#305=CARTESIAN_POINT('Ctrl Pts',(-22.8017956677257,-43.4071354206993,13.));
#306=CARTESIAN_POINT('Ctrl Pts',(-22.8017956677257,-42.3685505517389,13.));
#307=CARTESIAN_POINT('Ctrl Pts',(-23.8403805366861,-42.3685505517389,13.));
#308=CARTESIAN_POINT('Ctrl Pts',(-24.8789654056464,-42.3685505517389,13.));
#309=CARTESIAN_POINT('Ctrl Pts',(-24.8789654056464,-43.4071354206993,13.));
#310=CARTESIAN_POINT('Ctrl Pts',(-23.9132766308394,-43.4071354206993,13.));
#311=CARTESIAN_POINT('Ctrl Pts',(-23.9132766308394,-43.4800315148526,13.));
#312=CARTESIAN_POINT('Ctrl Pts',(-23.8403805366861,-43.4800315148526,13.));
#313=CARTESIAN_POINT('Ctrl Pts',(-23.7674844425328,-43.4800315148526,13.));
#314=CARTESIAN_POINT('Ctrl Pts',(-23.7674844425328,-43.4071354206993,13.));
#315=CARTESIAN_POINT('Ctrl Pts',(-23.7674844425328,-43.334239326546,13.));
#316=CARTESIAN_POINT('Ctrl Pts',(-23.8403805366861,-43.334239326546,13.));
#317=CARTESIAN_POINT('Ctrl Pts',(-23.9132766308394,-43.334239326546,13.));
#318=CARTESIAN_POINT('Ctrl Pts',(-23.9132766308394,-43.4071354206993,13.));
#319=CARTESIAN_POINT('',(-23.9132766308394,-43.4071354206993,13.));
#320=CARTESIAN_POINT('Origin',(-23.8403805366861,-43.4071354206993,13.));
#321=CARTESIAN_POINT('',(-24.9126674578585,-43.4071354206993,12.0348994967025));
#322=CARTESIAN_POINT('Origin',(-23.9132766308394,-43.4071354206993,12.));
#323=CARTESIAN_POINT('',(-22.7680936155137,-43.4071354206993,12.0348994967025));
#324=CARTESIAN_POINT('Origin',(-23.8403805366861,-43.4071354206993,12.0348994967025));
#325=CARTESIAN_POINT('Origin',(-23.8403805366861,-43.4071354206993,12.0348994967025));
#326=CARTESIAN_POINT('Origin',(-23.8403805366861,-43.4071354206993,13.));
#327=CARTESIAN_POINT('',(-22.4246513572149,-43.4071354206993,2.2));
#328=CARTESIAN_POINT('Origin',(-23.8403805366861,-43.4071354206993,2.2));
#329=CARTESIAN_POINT('',(-22.8017956677257,-43.4071354206993,13.));
#330=CARTESIAN_POINT('Origin',(-23.8403805366861,-43.4071354206993,13.));
#331=CARTESIAN_POINT('Origin',(-23.8403805366861,-43.4071354206993,2.2));
#332=CARTESIAN_POINT('Ctrl Pts',(-24.9126674578585,-39.9071354206993,12.0348994967025));
#333=CARTESIAN_POINT('Ctrl Pts',(-24.9126674578585,-40.9794223418717,12.0348994967025));
#334=CARTESIAN_POINT('Ctrl Pts',(-23.8403805366861,-40.9794223418717,12.0348994967025));
#335=CARTESIAN_POINT('Ctrl Pts',(-22.7680936155137,-40.9794223418717,12.0348994967025));
#336=CARTESIAN_POINT('Ctrl Pts',(-22.7680936155137,-39.9071354206993,12.0348994967025));
#337=CARTESIAN_POINT('Ctrl Pts',(-22.7680936155137,-38.8348484995269,12.0348994967025));
#338=CARTESIAN_POINT('Ctrl Pts',(-23.8403805366861,-38.8348484995269,12.0348994967025));
#339=CARTESIAN_POINT('Ctrl Pts',(-24.9126674578585,-38.8348484995269,12.0348994967025));
#340=CARTESIAN_POINT('Ctrl Pts',(-24.9126674578585,-39.9071354206993,12.0348994967025));
#341=CARTESIAN_POINT('Ctrl Pts',(-24.8789654056464,-39.9071354206993,13.));
#342=CARTESIAN_POINT('Ctrl Pts',(-24.8789654056464,-40.9457202896596,13.));
#343=CARTESIAN_POINT('Ctrl Pts',(-23.8403805366861,-40.9457202896596,13.));
#344=CARTESIAN_POINT('Ctrl Pts',(-22.8017956677257,-40.9457202896596,13.));
#345=CARTESIAN_POINT('Ctrl Pts',(-22.8017956677257,-39.9071354206993,13.));
#346=CARTESIAN_POINT('Ctrl Pts',(-22.8017956677257,-38.8685505517389,13.));
#347=CARTESIAN_POINT('Ctrl Pts',(-23.8403805366861,-38.8685505517389,13.));
#348=CARTESIAN_POINT('Ctrl Pts',(-24.8789654056464,-38.8685505517389,13.));
#349=CARTESIAN_POINT('Ctrl Pts',(-24.8789654056464,-39.9071354206993,13.));
#350=CARTESIAN_POINT('Ctrl Pts',(-23.9132766308394,-39.9071354206993,13.));
#351=CARTESIAN_POINT('Ctrl Pts',(-23.9132766308394,-39.9800315148526,13.));
#352=CARTESIAN_POINT('Ctrl Pts',(-23.8403805366861,-39.9800315148526,13.));
#353=CARTESIAN_POINT('Ctrl Pts',(-23.7674844425328,-39.9800315148526,13.));
#354=CARTESIAN_POINT('Ctrl Pts',(-23.7674844425328,-39.9071354206993,13.));
#355=CARTESIAN_POINT('Ctrl Pts',(-23.7674844425328,-39.834239326546,13.));
#356=CARTESIAN_POINT('Ctrl Pts',(-23.8403805366861,-39.834239326546,13.));
#357=CARTESIAN_POINT('Ctrl Pts',(-23.9132766308394,-39.834239326546,13.));
#358=CARTESIAN_POINT('Ctrl Pts',(-23.9132766308394,-39.9071354206993,13.));
#359=CARTESIAN_POINT('',(-23.9132766308394,-39.9071354206993,13.));
#360=CARTESIAN_POINT('Origin',(-23.8403805366861,-39.9071354206993,13.));
#361=CARTESIAN_POINT('',(-24.9126674578585,-39.9071354206993,12.0348994967025));
#362=CARTESIAN_POINT('Origin',(-23.9132766308394,-39.9071354206993,12.));
#363=CARTESIAN_POINT('Origin',(-23.8403805366861,-39.9071354206993,12.0348994967025));
#364=CARTESIAN_POINT('Origin',(-23.8403805366861,-39.9071354206993,13.));
#365=CARTESIAN_POINT('',(-25.2561097161573,-39.9071354206993,2.2));
#366=CARTESIAN_POINT('Origin',(-23.8403805366861,-39.9071354206993,2.2));
#367=CARTESIAN_POINT('',(-24.8789654056464,-39.9071354206993,13.));
#368=CARTESIAN_POINT('Origin',(-23.8403805366861,-39.9071354206993,13.));
#369=CARTESIAN_POINT('Origin',(-23.8403805366861,-39.9071354206993,2.2));
#370=UNCERTAINTY_MEASURE_WITH_UNIT(LENGTH_MEASURE(0.01),#374,
'DISTANCE_ACCURACY_VALUE',
'Maximum model space distance between geometric entities at asserted c
onnectivities');
#371=UNCERTAINTY_MEASURE_WITH_UNIT(LENGTH_MEASURE(0.01),#374,
'DISTANCE_ACCURACY_VALUE',
'Maximum model space distance between geometric entities at asserted c
onnectivities');
#372=(
GEOMETRIC_REPRESENTATION_CONTEXT(3)
GLOBAL_UNCERTAINTY_ASSIGNED_CONTEXT((#370))
GLOBAL_UNIT_ASSIGNED_CONTEXT((#374,#375,#376))
REPRESENTATION_CONTEXT('','3D')
);
#373=(
GEOMETRIC_REPRESENTATION_CONTEXT(3)
GLOBAL_UNCERTAINTY_ASSIGNED_CONTEXT((#371))
GLOBAL_UNIT_ASSIGNED_CONTEXT((#374,#375,#376))
REPRESENTATION_CONTEXT('','3D')
);
#374=(
LENGTH_UNIT()
NAMED_UNIT(*)
SI_UNIT(.MILLI.,.METRE.)
);
#375=(
NAMED_UNIT(*)
PLANE_ANGLE_UNIT()
SI_UNIT($,.RADIAN.)
);
#376=(
NAMED_UNIT(*)
SI_UNIT($,.STERADIAN.)
SOLID_ANGLE_UNIT()
);
#377=SHAPE_DEFINITION_REPRESENTATION(#378,#379);
#378=PRODUCT_DEFINITION_SHAPE('',$,#381);
#379=SHAPE_REPRESENTATION('',(#181),#372);
#380=PRODUCT_DEFINITION_CONTEXT('part definition',#385,'design');
#381=PRODUCT_DEFINITION('Supercon 2023 Badge Enclosure - Basic',
'Supercon 2023 Badge Enclosure - Basic v4',#382,#380);
#382=PRODUCT_DEFINITION_FORMATION('',$,#387);
#383=PRODUCT_RELATED_PRODUCT_CATEGORY(
'Supercon 2023 Badge Enclosure - Basic v4',
'Supercon 2023 Badge Enclosure - Basic v4',(#387));
#384=APPLICATION_PROTOCOL_DEFINITION('international standard',
'automotive_design',2009,#385);
#385=APPLICATION_CONTEXT(
'Core Data for Automotive Mechanical Design Process');
#386=PRODUCT_CONTEXT('part definition',#385,'mechanical');
#387=PRODUCT('Supercon 2023 Badge Enclosure - Basic',
'Supercon 2023 Badge Enclosure - Basic v4',$,(#386));
#388=PRESENTATION_STYLE_ASSIGNMENT((#393));
#389=PRESENTATION_STYLE_ASSIGNMENT((#394));
#390=PRESENTATION_STYLE_ASSIGNMENT((#395));
#391=PRESENTATION_STYLE_ASSIGNMENT((#396));
#392=PRESENTATION_STYLE_ASSIGNMENT((#397));
#393=SURFACE_STYLE_USAGE(.BOTH.,#398);
#394=SURFACE_STYLE_USAGE(.BOTH.,#399);
#395=SURFACE_STYLE_USAGE(.BOTH.,#400);
#396=SURFACE_STYLE_USAGE(.BOTH.,#401);
#397=SURFACE_STYLE_USAGE(.BOTH.,#402);
#398=SURFACE_SIDE_STYLE('',(#403));
#399=SURFACE_SIDE_STYLE('',(#404));
#400=SURFACE_SIDE_STYLE('',(#405));
#401=SURFACE_SIDE_STYLE('',(#406));
#402=SURFACE_SIDE_STYLE('',(#407));
#403=SURFACE_STYLE_FILL_AREA(#408);
#404=SURFACE_STYLE_FILL_AREA(#409);
#405=SURFACE_STYLE_FILL_AREA(#410);
#406=SURFACE_STYLE_FILL_AREA(#411);
#407=SURFACE_STYLE_FILL_AREA(#412);
#408=FILL_AREA_STYLE('Opaque(192,192,192)',(#413));
#409=FILL_AREA_STYLE('ABS (White)',(#414));
#410=FILL_AREA_STYLE('Opaque(142,76,38)',(#415));
#411=FILL_AREA_STYLE('ABS (Red)',(#416));
#412=FILL_AREA_STYLE('Acrylic (Clear)',(#417));
#413=FILL_AREA_STYLE_COLOUR('Opaque(192,192,192)',#418);
#414=FILL_AREA_STYLE_COLOUR('ABS (White)',#419);
#415=FILL_AREA_STYLE_COLOUR('Opaque(142,76,38)',#420);
#416=FILL_AREA_STYLE_COLOUR('ABS (Red)',#421);
#417=FILL_AREA_STYLE_COLOUR('Acrylic (Clear)',#422);
#418=COLOUR_RGB('Opaque(192,192,192)',0.752941176470588,0.752941176470588,
0.752941176470588);
#419=COLOUR_RGB('ABS (White)',0.964705882352941,0.964705882352941,0.952941176470588);
#420=COLOUR_RGB('Opaque(142,76,38)',0.556862745098039,0.298039215686275,
0.149019607843137);
#421=COLOUR_RGB('ABS (Red)',1.,0.,0.);
#422=COLOUR_RGB('Acrylic (Clear)',0.964705882352941,0.964705882352941,0.952941176470588);
ENDSEC;
END-ISO-10303-21;
