ISO-10303-21;
HEADER;
/* Generated by software containing ST-Developer
 * from STEP Tools, Inc. (www.steptools.com) 
 */

FILE_DESCRIPTION(
/* description */ (''),
/* implementation_level */ '2;1');

FILE_NAME(
/* name */ 
'Menu Button - Supercon 2023 Badge Enclosure - Basic v4.step',
/* time_stamp */ '2023-10-24T02:44:15-07:00',
/* author */ (''),
/* organization */ (''),
/* preprocessor_version */ 'ST-DEVELOPER v20',
/* originating_system */ 'Autodesk Translation Framework v12.14.0.127',

/* authorisation */ '');

FILE_SCHEMA (('AUTOMOTIVE_DESIGN { 1 0 10303 214 3 1 1 }'));
ENDSEC;

DATA;
#10=MECHANICAL_DESIGN_GEOMETRIC_PRESENTATION_REPRESENTATION('',(#13),#411);
#11=SHAPE_REPRESENTATION_RELATIONSHIP('SRR','None',#417,#12);
#12=ADVANCED_BREP_SHAPE_REPRESENTATION('',(#14),#410);
#13=STYLED_ITEM('',(#429),#14);
#14=MANIFOLD_SOLID_BREP('Menu Button',#226);
#15=TOROIDAL_SURFACE('',#250,5.15229201724582,1.);
#16=CONICAL_SURFACE('',#237,8.54589753521334,0.0872664625997165);
#17=CONICAL_SURFACE('',#247,8.54589753521334,0.0872664625997165);
#18=CONICAL_SURFACE('',#255,6.17036194629052,0.0349065850398866);
#19=CONICAL_SURFACE('',#258,6.17036194629052,0.0331612557878923);
#20=ELLIPSE('',#234,78.2723593114647,6.31246428241705);
#21=ELLIPSE('',#236,78.2723593114647,6.31246428241705);
#22=ELLIPSE('',#240,78.2723593114647,6.31246428241705);
#23=ELLIPSE('',#249,78.2723593114647,6.31246428241705);
#24=(
BOUNDED_CURVE()
B_SPLINE_CURVE(2,(#353,#354,#355),.UNSPECIFIED.,.F.,.F.)
B_SPLINE_CURVE_WITH_KNOTS((3,3),(0.0512891378079898,0.317331499031179),
 .UNSPECIFIED.)
CURVE()
GEOMETRIC_REPRESENTATION_ITEM()
RATIONAL_B_SPLINE_CURVE((1.,1.,1.))
REPRESENTATION_ITEM('')
);
#25=(
BOUNDED_CURVE()
B_SPLINE_CURVE(2,(#364,#365,#366),.UNSPECIFIED.,.F.,.F.)
B_SPLINE_CURVE_WITH_KNOTS((3,3),(0.0512891378079913,0.317331499031188),
 .UNSPECIFIED.)
CURVE()
GEOMETRIC_REPRESENTATION_ITEM()
RATIONAL_B_SPLINE_CURVE((1.,1.,1.))
REPRESENTATION_ITEM('')
);
#26=(
BOUNDED_CURVE()
B_SPLINE_CURVE(2,(#369,#370,#371),.UNSPECIFIED.,.F.,.F.)
B_SPLINE_CURVE_WITH_KNOTS((3,3),(0.0512891378079899,0.317331499031179),
 .UNSPECIFIED.)
CURVE()
GEOMETRIC_REPRESENTATION_ITEM()
RATIONAL_B_SPLINE_CURVE((1.,1.,1.))
REPRESENTATION_ITEM('')
);
#27=(
BOUNDED_CURVE()
B_SPLINE_CURVE(2,(#388,#389,#390),.UNSPECIFIED.,.F.,.F.)
B_SPLINE_CURVE_WITH_KNOTS((3,3),(0.0512891378079914,0.317331499031188),
 .UNSPECIFIED.)
CURVE()
GEOMETRIC_REPRESENTATION_ITEM()
RATIONAL_B_SPLINE_CURVE((1.,1.,1.))
REPRESENTATION_ITEM('')
);
#28=FACE_OUTER_BOUND('',#41,.T.);
#29=FACE_OUTER_BOUND('',#42,.T.);
#30=FACE_OUTER_BOUND('',#43,.T.);
#31=FACE_OUTER_BOUND('',#44,.T.);
#32=FACE_OUTER_BOUND('',#45,.T.);
#33=FACE_OUTER_BOUND('',#46,.T.);
#34=FACE_OUTER_BOUND('',#47,.T.);
#35=FACE_OUTER_BOUND('',#48,.T.);
#36=FACE_OUTER_BOUND('',#49,.T.);
#37=FACE_OUTER_BOUND('',#50,.T.);
#38=FACE_OUTER_BOUND('',#51,.T.);
#39=FACE_OUTER_BOUND('',#52,.T.);
#40=FACE_OUTER_BOUND('',#53,.T.);
#41=EDGE_LOOP('',(#141,#142,#143,#144,#145,#146,#147,#148));
#42=EDGE_LOOP('',(#149,#150,#151,#152));
#43=EDGE_LOOP('',(#153,#154,#155,#156));
#44=EDGE_LOOP('',(#157,#158,#159,#160));
#45=EDGE_LOOP('',(#161,#162,#163,#164));
#46=EDGE_LOOP('',(#165,#166,#167,#168,#169));
#47=EDGE_LOOP('',(#170,#171,#172,#173));
#48=EDGE_LOOP('',(#174,#175,#176,#177));
#49=EDGE_LOOP('',(#178,#179,#180,#181));
#50=EDGE_LOOP('',(#182,#183,#184,#185,#186));
#51=EDGE_LOOP('',(#187,#188,#189,#190,#191));
#52=EDGE_LOOP('',(#192));
#53=EDGE_LOOP('',(#193,#194,#195,#196,#197,#198,#199,#200,#201,#202,#203,
#204));
#54=LINE('',#339,#64);
#55=LINE('',#343,#65);
#56=LINE('',#347,#66);
#57=LINE('',#350,#67);
#58=LINE('',#357,#68);
#59=LINE('',#363,#69);
#60=LINE('',#376,#70);
#61=LINE('',#382,#71);
#62=LINE('',#403,#72);
#63=LINE('',#407,#73);
#64=VECTOR('',#265,10.);
#65=VECTOR('',#268,10.);
#66=VECTOR('',#271,10.);
#67=VECTOR('',#274,10.);
#68=VECTOR('',#277,10.);
#69=VECTOR('',#284,10.);
#70=VECTOR('',#293,10.);
#71=VECTOR('',#298,10.);
#72=VECTOR('',#325,6.17036194629052);
#73=VECTOR('',#332,6.17036194629052);
#74=CIRCLE('',#229,6.38598915421738);
#75=CIRCLE('',#230,8.53298327677276);
#76=CIRCLE('',#231,6.38598915421738);
#77=CIRCLE('',#232,8.53298327677276);
#78=CIRCLE('',#238,8.30092927734075);
#79=CIRCLE('',#242,6.29800033729446);
#80=CIRCLE('',#243,8.30092927734075);
#81=CIRCLE('',#244,6.29800033729446);
#82=CIRCLE('',#246,6.29800033729446);
#83=CIRCLE('',#251,6.15168284426492);
#84=CIRCLE('',#252,1.);
#85=CIRCLE('',#253,5.15229201724582);
#86=CIRCLE('',#254,6.15168284426492);
#87=CIRCLE('',#256,6.17036194629052);
#88=VERTEX_POINT('',#335);
#89=VERTEX_POINT('',#336);
#90=VERTEX_POINT('',#338);
#91=VERTEX_POINT('',#340);
#92=VERTEX_POINT('',#342);
#93=VERTEX_POINT('',#344);
#94=VERTEX_POINT('',#346);
#95=VERTEX_POINT('',#348);
#96=VERTEX_POINT('',#352);
#97=VERTEX_POINT('',#356);
#98=VERTEX_POINT('',#360);
#99=VERTEX_POINT('',#362);
#100=VERTEX_POINT('',#368);
#101=VERTEX_POINT('',#374);
#102=VERTEX_POINT('',#378);
#103=VERTEX_POINT('',#379);
#104=VERTEX_POINT('',#381);
#105=VERTEX_POINT('',#394);
#106=VERTEX_POINT('',#395);
#107=VERTEX_POINT('',#397);
#108=VERTEX_POINT('',#402);
#109=EDGE_CURVE('',#88,#89,#74,.F.);
#110=EDGE_CURVE('',#90,#89,#54,.T.);
#111=EDGE_CURVE('',#91,#90,#75,.T.);
#112=EDGE_CURVE('',#92,#91,#55,.T.);
#113=EDGE_CURVE('',#92,#93,#76,.F.);
#114=EDGE_CURVE('',#94,#93,#56,.T.);
#115=EDGE_CURVE('',#95,#94,#77,.T.);
#116=EDGE_CURVE('',#88,#95,#57,.T.);
#117=EDGE_CURVE('',#95,#96,#24,.T.);
#118=EDGE_CURVE('',#97,#96,#58,.F.);
#119=EDGE_CURVE('',#88,#97,#20,.T.);
#120=EDGE_CURVE('',#98,#89,#21,.T.);
#121=EDGE_CURVE('',#99,#98,#59,.F.);
#122=EDGE_CURVE('',#90,#99,#25,.T.);
#123=EDGE_CURVE('',#94,#100,#26,.T.);
#124=EDGE_CURVE('',#96,#100,#78,.F.);
#125=EDGE_CURVE('',#101,#93,#22,.T.);
#126=EDGE_CURVE('',#100,#101,#60,.F.);
#127=EDGE_CURVE('',#102,#103,#79,.T.);
#128=EDGE_CURVE('',#102,#104,#61,.F.);
#129=EDGE_CURVE('',#104,#99,#80,.F.);
#130=EDGE_CURVE('',#103,#98,#81,.T.);
#131=EDGE_CURVE('',#97,#101,#82,.T.);
#132=EDGE_CURVE('',#91,#104,#27,.T.);
#133=EDGE_CURVE('',#92,#102,#23,.T.);
#134=EDGE_CURVE('',#105,#106,#83,.T.);
#135=EDGE_CURVE('',#106,#107,#84,.T.);
#136=EDGE_CURVE('',#107,#107,#85,.T.);
#137=EDGE_CURVE('',#106,#105,#86,.T.);
#138=EDGE_CURVE('',#105,#108,#62,.T.);
#139=EDGE_CURVE('',#108,#108,#87,.T.);
#140=EDGE_CURVE('',#103,#108,#63,.T.);
#141=ORIENTED_EDGE('',*,*,#109,.T.);
#142=ORIENTED_EDGE('',*,*,#110,.F.);
#143=ORIENTED_EDGE('',*,*,#111,.F.);
#144=ORIENTED_EDGE('',*,*,#112,.F.);
#145=ORIENTED_EDGE('',*,*,#113,.T.);
#146=ORIENTED_EDGE('',*,*,#114,.F.);
#147=ORIENTED_EDGE('',*,*,#115,.F.);
#148=ORIENTED_EDGE('',*,*,#116,.F.);
#149=ORIENTED_EDGE('',*,*,#116,.T.);
#150=ORIENTED_EDGE('',*,*,#117,.T.);
#151=ORIENTED_EDGE('',*,*,#118,.F.);
#152=ORIENTED_EDGE('',*,*,#119,.F.);
#153=ORIENTED_EDGE('',*,*,#110,.T.);
#154=ORIENTED_EDGE('',*,*,#120,.F.);
#155=ORIENTED_EDGE('',*,*,#121,.F.);
#156=ORIENTED_EDGE('',*,*,#122,.F.);
#157=ORIENTED_EDGE('',*,*,#115,.T.);
#158=ORIENTED_EDGE('',*,*,#123,.T.);
#159=ORIENTED_EDGE('',*,*,#124,.F.);
#160=ORIENTED_EDGE('',*,*,#117,.F.);
#161=ORIENTED_EDGE('',*,*,#114,.T.);
#162=ORIENTED_EDGE('',*,*,#125,.F.);
#163=ORIENTED_EDGE('',*,*,#126,.F.);
#164=ORIENTED_EDGE('',*,*,#123,.F.);
#165=ORIENTED_EDGE('',*,*,#127,.F.);
#166=ORIENTED_EDGE('',*,*,#128,.T.);
#167=ORIENTED_EDGE('',*,*,#129,.T.);
#168=ORIENTED_EDGE('',*,*,#121,.T.);
#169=ORIENTED_EDGE('',*,*,#130,.F.);
#170=ORIENTED_EDGE('',*,*,#131,.F.);
#171=ORIENTED_EDGE('',*,*,#118,.T.);
#172=ORIENTED_EDGE('',*,*,#124,.T.);
#173=ORIENTED_EDGE('',*,*,#126,.T.);
#174=ORIENTED_EDGE('',*,*,#111,.T.);
#175=ORIENTED_EDGE('',*,*,#122,.T.);
#176=ORIENTED_EDGE('',*,*,#129,.F.);
#177=ORIENTED_EDGE('',*,*,#132,.F.);
#178=ORIENTED_EDGE('',*,*,#112,.T.);
#179=ORIENTED_EDGE('',*,*,#132,.T.);
#180=ORIENTED_EDGE('',*,*,#128,.F.);
#181=ORIENTED_EDGE('',*,*,#133,.F.);
#182=ORIENTED_EDGE('',*,*,#134,.T.);
#183=ORIENTED_EDGE('',*,*,#135,.T.);
#184=ORIENTED_EDGE('',*,*,#136,.T.);
#185=ORIENTED_EDGE('',*,*,#135,.F.);
#186=ORIENTED_EDGE('',*,*,#137,.T.);
#187=ORIENTED_EDGE('',*,*,#134,.F.);
#188=ORIENTED_EDGE('',*,*,#138,.T.);
#189=ORIENTED_EDGE('',*,*,#139,.T.);
#190=ORIENTED_EDGE('',*,*,#138,.F.);
#191=ORIENTED_EDGE('',*,*,#137,.F.);
#192=ORIENTED_EDGE('',*,*,#136,.F.);
#193=ORIENTED_EDGE('',*,*,#125,.T.);
#194=ORIENTED_EDGE('',*,*,#113,.F.);
#195=ORIENTED_EDGE('',*,*,#133,.T.);
#196=ORIENTED_EDGE('',*,*,#127,.T.);
#197=ORIENTED_EDGE('',*,*,#140,.T.);
#198=ORIENTED_EDGE('',*,*,#139,.F.);
#199=ORIENTED_EDGE('',*,*,#140,.F.);
#200=ORIENTED_EDGE('',*,*,#130,.T.);
#201=ORIENTED_EDGE('',*,*,#120,.T.);
#202=ORIENTED_EDGE('',*,*,#109,.F.);
#203=ORIENTED_EDGE('',*,*,#119,.T.);
#204=ORIENTED_EDGE('',*,*,#131,.T.);
#205=PLANE('',#228);
#206=PLANE('',#233);
#207=PLANE('',#235);
#208=PLANE('',#239);
#209=PLANE('',#241);
#210=PLANE('',#245);
#211=PLANE('',#248);
#212=PLANE('',#257);
#213=ADVANCED_FACE('',(#28),#205,.F.);
#214=ADVANCED_FACE('',(#29),#206,.T.);
#215=ADVANCED_FACE('',(#30),#207,.T.);
#216=ADVANCED_FACE('',(#31),#16,.T.);
#217=ADVANCED_FACE('',(#32),#208,.T.);
#218=ADVANCED_FACE('',(#33),#209,.F.);
#219=ADVANCED_FACE('',(#34),#210,.F.);
#220=ADVANCED_FACE('',(#35),#17,.T.);
#221=ADVANCED_FACE('',(#36),#211,.T.);
#222=ADVANCED_FACE('',(#37),#15,.T.);
#223=ADVANCED_FACE('',(#38),#18,.T.);
#224=ADVANCED_FACE('',(#39),#212,.T.);
#225=ADVANCED_FACE('',(#40),#19,.T.);
#226=CLOSED_SHELL('',(#213,#214,#215,#216,#217,#218,#219,#220,#221,#222,
#223,#224,#225));
#227=AXIS2_PLACEMENT_3D('',#333,#259,#260);
#228=AXIS2_PLACEMENT_3D('',#334,#261,#262);
#229=AXIS2_PLACEMENT_3D('',#337,#263,#264);
#230=AXIS2_PLACEMENT_3D('',#341,#266,#267);
#231=AXIS2_PLACEMENT_3D('',#345,#269,#270);
#232=AXIS2_PLACEMENT_3D('',#349,#272,#273);
#233=AXIS2_PLACEMENT_3D('',#351,#275,#276);
#234=AXIS2_PLACEMENT_3D('',#358,#278,#279);
#235=AXIS2_PLACEMENT_3D('',#359,#280,#281);
#236=AXIS2_PLACEMENT_3D('',#361,#282,#283);
#237=AXIS2_PLACEMENT_3D('',#367,#285,#286);
#238=AXIS2_PLACEMENT_3D('',#372,#287,#288);
#239=AXIS2_PLACEMENT_3D('',#373,#289,#290);
#240=AXIS2_PLACEMENT_3D('',#375,#291,#292);
#241=AXIS2_PLACEMENT_3D('',#377,#294,#295);
#242=AXIS2_PLACEMENT_3D('',#380,#296,#297);
#243=AXIS2_PLACEMENT_3D('',#383,#299,#300);
#244=AXIS2_PLACEMENT_3D('',#384,#301,#302);
#245=AXIS2_PLACEMENT_3D('',#385,#303,#304);
#246=AXIS2_PLACEMENT_3D('',#386,#305,#306);
#247=AXIS2_PLACEMENT_3D('',#387,#307,#308);
#248=AXIS2_PLACEMENT_3D('',#391,#309,#310);
#249=AXIS2_PLACEMENT_3D('',#392,#311,#312);
#250=AXIS2_PLACEMENT_3D('',#393,#313,#314);
#251=AXIS2_PLACEMENT_3D('',#396,#315,#316);
#252=AXIS2_PLACEMENT_3D('',#398,#317,#318);
#253=AXIS2_PLACEMENT_3D('',#399,#319,#320);
#254=AXIS2_PLACEMENT_3D('',#400,#321,#322);
#255=AXIS2_PLACEMENT_3D('',#401,#323,#324);
#256=AXIS2_PLACEMENT_3D('',#404,#326,#327);
#257=AXIS2_PLACEMENT_3D('',#405,#328,#329);
#258=AXIS2_PLACEMENT_3D('',#406,#330,#331);
#259=DIRECTION('axis',(0.,0.,1.));
#260=DIRECTION('refdir',(1.,0.,0.));
#261=DIRECTION('center_axis',(-1.7486012637846E-15,-2.16840434497099E-16,
1.));
#262=DIRECTION('ref_axis',(1.,0.,1.7486012637846E-15));
#263=DIRECTION('center_axis',(-1.7486012637846E-15,-2.16840434497099E-16,
1.));
#264=DIRECTION('ref_axis',(1.,0.,0.));
#265=DIRECTION('',(1.,1.52982787608257E-16,1.7486012637846E-15));
#266=DIRECTION('center_axis',(-1.7486012637846E-15,-2.16840434497099E-16,
1.));
#267=DIRECTION('ref_axis',(-1.,0.,0.));
#268=DIRECTION('',(-1.,1.52982787608257E-16,-1.7486012637846E-15));
#269=DIRECTION('center_axis',(-1.7486012637846E-15,-2.16840434497099E-16,
1.));
#270=DIRECTION('ref_axis',(1.,0.,0.));
#271=DIRECTION('',(-1.,1.52982787608257E-16,-1.7486012637846E-15));
#272=DIRECTION('center_axis',(-1.7486012637846E-15,-2.16840434497099E-16,
1.));
#273=DIRECTION('ref_axis',(-1.,0.,0.));
#274=DIRECTION('',(1.,1.52982787608257E-16,1.7486012637846E-15));
#275=DIRECTION('center_axis',(0.,-0.996194698091746,0.0871557427476585));
#276=DIRECTION('ref_axis',(1.,0.,0.));
#277=DIRECTION('',(-1.,0.,0.));
#278=DIRECTION('center_axis',(0.,-0.996194698091746,0.0871557427476585));
#279=DIRECTION('ref_axis',(2.83682013520842E-17,0.0871557427476585,0.996194698091745));
#280=DIRECTION('center_axis',(0.,-0.996194698091746,0.0871557427476585));
#281=DIRECTION('ref_axis',(1.,0.,0.));
#282=DIRECTION('center_axis',(0.,-0.996194698091746,0.0871557427476585));
#283=DIRECTION('ref_axis',(2.83682013520842E-17,0.0871557427476585,0.996194698091745));
#284=DIRECTION('',(-1.,0.,0.));
#285=DIRECTION('center_axis',(0.,0.,-1.));
#286=DIRECTION('ref_axis',(1.,3.21624529935327E-16,0.));
#287=DIRECTION('center_axis',(0.,0.,-1.));
#288=DIRECTION('ref_axis',(-1.,0.,0.));
#289=DIRECTION('center_axis',(0.,0.996194698091746,0.0871557427476585));
#290=DIRECTION('ref_axis',(-1.,0.,0.));
#291=DIRECTION('center_axis',(0.,0.996194698091746,0.0871557427476585));
#292=DIRECTION('ref_axis',(1.70209208112505E-16,-0.0871557427476585,0.996194698091745));
#293=DIRECTION('',(1.,0.,0.));
#294=DIRECTION('center_axis',(0.,0.,-1.));
#295=DIRECTION('ref_axis',(-1.,0.,0.));
#296=DIRECTION('center_axis',(0.,0.,1.));
#297=DIRECTION('ref_axis',(1.,0.,0.));
#298=DIRECTION('',(1.,0.,0.));
#299=DIRECTION('center_axis',(0.,0.,-1.));
#300=DIRECTION('ref_axis',(-1.,0.,0.));
#301=DIRECTION('center_axis',(0.,0.,1.));
#302=DIRECTION('ref_axis',(1.,0.,0.));
#303=DIRECTION('center_axis',(0.,0.,-1.));
#304=DIRECTION('ref_axis',(-1.,0.,0.));
#305=DIRECTION('center_axis',(0.,0.,1.));
#306=DIRECTION('ref_axis',(1.,0.,0.));
#307=DIRECTION('center_axis',(0.,0.,-1.));
#308=DIRECTION('ref_axis',(-1.,0.,0.));
#309=DIRECTION('center_axis',(0.,0.996194698091746,0.0871557427476585));
#310=DIRECTION('ref_axis',(-1.,0.,0.));
#311=DIRECTION('center_axis',(0.,0.996194698091746,0.0871557427476585));
#312=DIRECTION('ref_axis',(1.70209208112505E-16,-0.0871557427476585,0.996194698091745));
#313=DIRECTION('center_axis',(0.,0.,-1.));
#314=DIRECTION('ref_axis',(-1.,0.,0.));
#315=DIRECTION('center_axis',(0.,0.,1.));
#316=DIRECTION('ref_axis',(1.,0.,0.));
#317=DIRECTION('center_axis',(0.,-1.,0.));
#318=DIRECTION('ref_axis',(1.,0.,0.));
#319=DIRECTION('center_axis',(0.,0.,-1.));
#320=DIRECTION('ref_axis',(1.,0.,0.));
#321=DIRECTION('center_axis',(0.,0.,1.));
#322=DIRECTION('ref_axis',(1.,0.,0.));
#323=DIRECTION('center_axis',(0.,0.,-1.));
#324=DIRECTION('ref_axis',(1.,0.,0.));
#325=DIRECTION('',(-0.034899496702501,-4.27395569285714E-18,-0.999390827019096));
#326=DIRECTION('center_axis',(0.,0.,1.));
#327=DIRECTION('ref_axis',(1.,0.,0.));
#328=DIRECTION('center_axis',(0.,0.,1.));
#329=DIRECTION('ref_axis',(1.,0.,0.));
#330=DIRECTION('center_axis',(0.,0.,-1.));
#331=DIRECTION('ref_axis',(1.,0.,0.));
#332=DIRECTION('',(0.0331551783885263,-4.06033830886682E-18,0.999450215941757));
#333=CARTESIAN_POINT('',(0.,0.,0.));
#334=CARTESIAN_POINT('Origin',(-4.42875484205935,-0.342048230611716,6.49999999999996));
#335=CARTESIAN_POINT('',(21.5953871929551,28.0887301157647,6.49999999999997));
#336=CARTESIAN_POINT('',(9.15100821299977,28.0887301157647,6.49999999999995));
#337=CARTESIAN_POINT('Origin',(15.3731977029774,29.5258158573241,6.49999999999996));
#338=CARTESIAN_POINT('',(6.96209859685048,28.0887301157647,6.49999999999999));
#339=CARTESIAN_POINT('',(9.68321492019414,28.0887301157647,6.49999999999999));
#340=CARTESIAN_POINT('',(6.96209859685048,30.9629015988836,6.49999999999999));
#341=CARTESIAN_POINT('Origin',(15.3731977029774,29.5258158573241,6.49999999999996));
#342=CARTESIAN_POINT('',(9.15100821299977,30.9629015988836,6.49999999999995));
#343=CARTESIAN_POINT('',(1.26122794072396,30.9629015988836,6.49999999999998));
#344=CARTESIAN_POINT('',(21.5953871929551,30.9629015988836,6.49999999999997));
#345=CARTESIAN_POINT('Origin',(15.3731977029774,29.5258158573241,6.49999999999996));
#346=CARTESIAN_POINT('',(23.7842968091044,30.9629015988836,6.50000000000002));
#347=CARTESIAN_POINT('',(1.26122794072396,30.9629015988836,6.49999999999998));
#348=CARTESIAN_POINT('',(23.7842968091044,28.0887301157647,6.50000000000002));
#349=CARTESIAN_POINT('Origin',(15.3731977029774,29.5258158573241,6.49999999999996));
#350=CARTESIAN_POINT('',(9.68321492019414,28.0887301157647,6.49999999999999));
#351=CARTESIAN_POINT('Origin',(23.7951846824476,28.0758158573241,6.35238935057282));
#352=CARTESIAN_POINT('',(23.586195046693,28.3207841151967,9.15238935057282));
#353=CARTESIAN_POINT('Ctrl Pts',(23.7842968091044,28.0887301157647,6.50000000000002));
#354=CARTESIAN_POINT('Ctrl Pts',(23.6852459278969,28.2061397562296,7.84199833136226));
#355=CARTESIAN_POINT('Ctrl Pts',(23.586195046693,28.3207841151967,9.15238935057283));
#356=CARTESIAN_POINT('',(21.5548404255089,28.3207841151967,9.15238935057282));
#357=CARTESIAN_POINT('',(9.68321492019415,28.3207841151967,9.15238935057282));
#358=CARTESIAN_POINT('Origin',(15.3731977029774,26.9391349740472,-6.63993259683191));
#359=CARTESIAN_POINT('Origin',(23.7951846824476,28.0758158573241,6.35238935057282));
#360=CARTESIAN_POINT('',(9.19155498044595,28.3207841151967,9.15238935057282));
#361=CARTESIAN_POINT('Origin',(15.3731977029774,26.9391349740472,-6.63993259683191));
#362=CARTESIAN_POINT('',(7.16020035926191,28.3207841151967,9.15238935057282));
#363=CARTESIAN_POINT('',(9.68321492019415,28.3207841151967,9.15238935057282));
#364=CARTESIAN_POINT('Ctrl Pts',(6.96209859685048,28.0887301157647,6.49999999999999));
#365=CARTESIAN_POINT('Ctrl Pts',(7.06114947805796,28.2061397562296,7.84199833136217));
#366=CARTESIAN_POINT('Ctrl Pts',(7.16020035926191,28.3207841151967,9.15238935057282));
#367=CARTESIAN_POINT('Origin',(15.3731977029774,29.5258158573241,6.35238935057282));
#368=CARTESIAN_POINT('',(23.586195046693,30.7308475994515,9.15238935057282));
#369=CARTESIAN_POINT('Ctrl Pts',(23.7842968091044,30.9629015988836,6.50000000000002));
#370=CARTESIAN_POINT('Ctrl Pts',(23.6852459278969,30.8454919584186,7.84199833136226));
#371=CARTESIAN_POINT('Ctrl Pts',(23.586195046693,30.7308475994516,9.15238935057282));
#372=CARTESIAN_POINT('Origin',(15.3731977029774,29.5258158573241,9.15238935057282));
#373=CARTESIAN_POINT('Origin',(6.95121072350726,30.9758158573241,6.35238935057282));
#374=CARTESIAN_POINT('',(21.5548404255089,30.7308475994516,9.15238935057282));
#375=CARTESIAN_POINT('Origin',(15.3731977029774,32.1124967406011,-6.63993259683191));
#376=CARTESIAN_POINT('',(1.26122794072396,30.7308475994516,9.15238935057282));
#377=CARTESIAN_POINT('Origin',(-4.42875484205934,-12.6124877681342,9.15238935057282));
#378=CARTESIAN_POINT('',(9.19155498044596,30.7308475994516,9.15238935057282));
#379=CARTESIAN_POINT('',(9.07519736568298,29.5258158573241,9.15238935057282));
#380=CARTESIAN_POINT('Origin',(15.3731977029774,29.5258158573241,9.15238935057282));
#381=CARTESIAN_POINT('',(7.16020035926191,30.7308475994516,9.15238935057282));
#382=CARTESIAN_POINT('',(1.26122794072396,30.7308475994516,9.15238935057282));
#383=CARTESIAN_POINT('Origin',(15.3731977029774,29.5258158573241,9.15238935057282));
#384=CARTESIAN_POINT('Origin',(15.3731977029774,29.5258158573241,9.15238935057282));
#385=CARTESIAN_POINT('Origin',(-4.42875484205934,-12.6124877681342,9.15238935057282));
#386=CARTESIAN_POINT('Origin',(15.3731977029774,29.5258158573241,9.15238935057282));
#387=CARTESIAN_POINT('Origin',(15.3731977029774,29.5258158573241,6.35238935057282));
#388=CARTESIAN_POINT('Ctrl Pts',(6.96209859685048,30.9629015988836,6.49999999999999));
#389=CARTESIAN_POINT('Ctrl Pts',(7.06114947805796,30.8454919584187,7.84199833136217));
#390=CARTESIAN_POINT('Ctrl Pts',(7.16020035926191,30.7308475994516,9.15238935057282));
#391=CARTESIAN_POINT('Origin',(6.95121072350726,30.9758158573241,6.35238935057282));
#392=CARTESIAN_POINT('Origin',(15.3731977029774,32.1124967406011,-6.63993259683191));
#393=CARTESIAN_POINT('Origin',(15.3731977029774,29.5258158573241,13.5));
#394=CARTESIAN_POINT('',(9.22151485871252,29.5258158573241,13.5348994967025));
#395=CARTESIAN_POINT('',(21.5248805472424,29.5258158573241,13.5348994967025));
#396=CARTESIAN_POINT('Origin',(15.3731977029774,29.5258158573241,13.5348994967025));
#397=CARTESIAN_POINT('',(20.5254897202233,29.5258158573241,14.5));
#398=CARTESIAN_POINT('Origin',(20.5254897202233,29.5258158573241,13.5));
#399=CARTESIAN_POINT('Origin',(15.3731977029774,29.5258158573241,14.5));
#400=CARTESIAN_POINT('Origin',(15.3731977029774,29.5258158573241,13.5348994967025));
#401=CARTESIAN_POINT('Origin',(15.3731977029774,29.5258158573241,13.));
#402=CARTESIAN_POINT('',(9.20283575668693,29.5258158573241,13.));
#403=CARTESIAN_POINT('',(9.20283575668693,29.5258158573241,13.));
#404=CARTESIAN_POINT('Origin',(15.3731977029774,29.5258158573241,13.));
#405=CARTESIAN_POINT('Origin',(15.3731977029774,29.5258158573241,14.5));
#406=CARTESIAN_POINT('Origin',(15.3731977029774,29.5258158573241,13.));
#407=CARTESIAN_POINT('',(9.20283575668693,29.5258158573241,13.));
#408=UNCERTAINTY_MEASURE_WITH_UNIT(LENGTH_MEASURE(0.01),#412,
'DISTANCE_ACCURACY_VALUE',
'Maximum model space distance between geometric entities at asserted c
onnectivities');
#409=UNCERTAINTY_MEASURE_WITH_UNIT(LENGTH_MEASURE(0.01),#412,
'DISTANCE_ACCURACY_VALUE',
'Maximum model space distance between geometric entities at asserted c
onnectivities');
#410=(
GEOMETRIC_REPRESENTATION_CONTEXT(3)
GLOBAL_UNCERTAINTY_ASSIGNED_CONTEXT((#408))
GLOBAL_UNIT_ASSIGNED_CONTEXT((#412,#413,#414))
REPRESENTATION_CONTEXT('','3D')
);
#411=(
GEOMETRIC_REPRESENTATION_CONTEXT(3)
GLOBAL_UNCERTAINTY_ASSIGNED_CONTEXT((#409))
GLOBAL_UNIT_ASSIGNED_CONTEXT((#412,#413,#414))
REPRESENTATION_CONTEXT('','3D')
);
#412=(
LENGTH_UNIT()
NAMED_UNIT(*)
SI_UNIT(.MILLI.,.METRE.)
);
#413=(
NAMED_UNIT(*)
PLANE_ANGLE_UNIT()
SI_UNIT($,.RADIAN.)
);
#414=(
NAMED_UNIT(*)
SI_UNIT($,.STERADIAN.)
SOLID_ANGLE_UNIT()
);
#415=SHAPE_DEFINITION_REPRESENTATION(#416,#417);
#416=PRODUCT_DEFINITION_SHAPE('',$,#419);
#417=SHAPE_REPRESENTATION('',(#227),#410);
#418=PRODUCT_DEFINITION_CONTEXT('part definition',#423,'design');
#419=PRODUCT_DEFINITION('Supercon 2023 Badge Enclosure - Basic',
'Supercon 2023 Badge Enclosure - Basic v4',#420,#418);
#420=PRODUCT_DEFINITION_FORMATION('',$,#425);
#421=PRODUCT_RELATED_PRODUCT_CATEGORY(
'Supercon 2023 Badge Enclosure - Basic v4',
'Supercon 2023 Badge Enclosure - Basic v4',(#425));
#422=APPLICATION_PROTOCOL_DEFINITION('international standard',
'automotive_design',2009,#423);
#423=APPLICATION_CONTEXT(
'Core Data for Automotive Mechanical Design Process');
#424=PRODUCT_CONTEXT('part definition',#423,'mechanical');
#425=PRODUCT('Supercon 2023 Badge Enclosure - Basic',
'Supercon 2023 Badge Enclosure - Basic v4',$,(#424));
#426=PRESENTATION_STYLE_ASSIGNMENT((#431));
#427=PRESENTATION_STYLE_ASSIGNMENT((#432));
#428=PRESENTATION_STYLE_ASSIGNMENT((#433));
#429=PRESENTATION_STYLE_ASSIGNMENT((#434));
#430=PRESENTATION_STYLE_ASSIGNMENT((#435));
#431=SURFACE_STYLE_USAGE(.BOTH.,#436);
#432=SURFACE_STYLE_USAGE(.BOTH.,#437);
#433=SURFACE_STYLE_USAGE(.BOTH.,#438);
#434=SURFACE_STYLE_USAGE(.BOTH.,#439);
#435=SURFACE_STYLE_USAGE(.BOTH.,#440);
#436=SURFACE_SIDE_STYLE('',(#441));
#437=SURFACE_SIDE_STYLE('',(#442));
#438=SURFACE_SIDE_STYLE('',(#443));
#439=SURFACE_SIDE_STYLE('',(#444));
#440=SURFACE_SIDE_STYLE('',(#445));
#441=SURFACE_STYLE_FILL_AREA(#446);
#442=SURFACE_STYLE_FILL_AREA(#447);
#443=SURFACE_STYLE_FILL_AREA(#448);
#444=SURFACE_STYLE_FILL_AREA(#449);
#445=SURFACE_STYLE_FILL_AREA(#450);
#446=FILL_AREA_STYLE('Opaque(192,192,192)',(#451));
#447=FILL_AREA_STYLE('ABS (White)',(#452));
#448=FILL_AREA_STYLE('Opaque(142,76,38)',(#453));
#449=FILL_AREA_STYLE('ABS (Red)',(#454));
#450=FILL_AREA_STYLE('Acrylic (Clear)',(#455));
#451=FILL_AREA_STYLE_COLOUR('Opaque(192,192,192)',#456);
#452=FILL_AREA_STYLE_COLOUR('ABS (White)',#457);
#453=FILL_AREA_STYLE_COLOUR('Opaque(142,76,38)',#458);
#454=FILL_AREA_STYLE_COLOUR('ABS (Red)',#459);
#455=FILL_AREA_STYLE_COLOUR('Acrylic (Clear)',#460);
#456=COLOUR_RGB('Opaque(192,192,192)',0.752941176470588,0.752941176470588,
0.752941176470588);
#457=COLOUR_RGB('ABS (White)',0.964705882352941,0.964705882352941,0.952941176470588);
#458=COLOUR_RGB('Opaque(142,76,38)',0.556862745098039,0.298039215686275,
0.149019607843137);
#459=COLOUR_RGB('ABS (Red)',1.,0.,0.);
#460=COLOUR_RGB('Acrylic (Clear)',0.964705882352941,0.964705882352941,0.952941176470588);
ENDSEC;
END-ISO-10303-21;
