ISO-10303-21;
HEADER;
/* Generated by software containing ST-Developer
 * from STEP Tools, Inc. (www.steptools.com) 
 */

FILE_DESCRIPTION(
/* description */ (''),
/* implementation_level */ '2;1');

FILE_NAME(
/* name */ 
'Save Button - Supercon 2023 Badge Enclosure - Basic v4.step',
/* time_stamp */ '2023-10-24T02:42:25-07:00',
/* author */ (''),
/* organization */ (''),
/* preprocessor_version */ 'ST-DEVELOPER v20',
/* originating_system */ 'Autodesk Translation Framework v12.14.0.127',

/* authorisation */ '');

FILE_SCHEMA (('AUTOMOTIVE_DESIGN { 1 0 10303 214 3 1 1 }'));
ENDSEC;

DATA;
#10=MECHANICAL_DESIGN_GEOMETRIC_PRESENTATION_REPRESENTATION('',(#13),#431);
#11=SHAPE_REPRESENTATION_RELATIONSHIP('SRR','None',#437,#12);
#12=ADVANCED_BREP_SHAPE_REPRESENTATION('',(#14),#430);
#13=STYLED_ITEM('',(#449),#14);
#14=MANIFOLD_SOLID_BREP('Save Button',#238);
#15=FACE_BOUND('',#65,.T.);
#16=FACE_BOUND('',#66,.T.);
#17=TOROIDAL_SURFACE('',#262,2.23229201724578,1.);
#18=CONICAL_SURFACE('',#255,5.6258975352133,0.0872664625997165);
#19=CONICAL_SURFACE('',#258,5.6258975352133,0.0872664625997165);
#20=CONICAL_SURFACE('',#267,3.25036194629047,0.0349065850398866);
#21=CONICAL_SURFACE('',#270,3.25036194629047,0.0331612557878923);
#22=CIRCLE('',#243,3.47088590378599);
#23=CIRCLE('',#244,5.6258975352133);
#24=CIRCLE('',#246,3.37800033729442);
#25=CIRCLE('',#247,5.38092927734071);
#26=CIRCLE('',#249,3.37800033729442);
#27=CIRCLE('',#250,5.38092927734071);
#28=CIRCLE('',#259,5.6258975352133);
#29=CIRCLE('',#261,3.47088590378599);
#30=CIRCLE('',#263,3.23168284426487);
#31=CIRCLE('',#264,1.);
#32=CIRCLE('',#265,2.23229201724578);
#33=CIRCLE('',#266,3.23168284426487);
#34=CIRCLE('',#268,3.25036194629047);
#35=CIRCLE('',#271,3.47925852085899);
#36=FACE_OUTER_BOUND('',#51,.T.);
#37=FACE_OUTER_BOUND('',#52,.T.);
#38=FACE_OUTER_BOUND('',#53,.T.);
#39=FACE_OUTER_BOUND('',#54,.T.);
#40=FACE_OUTER_BOUND('',#55,.T.);
#41=FACE_OUTER_BOUND('',#56,.T.);
#42=FACE_OUTER_BOUND('',#57,.T.);
#43=FACE_OUTER_BOUND('',#58,.T.);
#44=FACE_OUTER_BOUND('',#59,.T.);
#45=FACE_OUTER_BOUND('',#60,.T.);
#46=FACE_OUTER_BOUND('',#61,.T.);
#47=FACE_OUTER_BOUND('',#62,.T.);
#48=FACE_OUTER_BOUND('',#63,.T.);
#49=FACE_OUTER_BOUND('',#64,.T.);
#50=FACE_OUTER_BOUND('',#67,.T.);
#51=EDGE_LOOP('',(#149,#150,#151,#152));
#52=EDGE_LOOP('',(#153,#154,#155,#156));
#53=EDGE_LOOP('',(#157,#158,#159,#160));
#54=EDGE_LOOP('',(#161,#162,#163,#164));
#55=EDGE_LOOP('',(#165,#166,#167,#168));
#56=EDGE_LOOP('',(#169,#170,#171,#172));
#57=EDGE_LOOP('',(#173,#174,#175,#176));
#58=EDGE_LOOP('',(#177,#178,#179,#180));
#59=EDGE_LOOP('',(#181,#182,#183,#184));
#60=EDGE_LOOP('',(#185,#186,#187,#188));
#61=EDGE_LOOP('',(#189,#190,#191,#192,#193));
#62=EDGE_LOOP('',(#194,#195,#196,#197,#198));
#63=EDGE_LOOP('',(#199));
#64=EDGE_LOOP('',(#200,#201,#202,#203));
#65=EDGE_LOOP('',(#204,#205,#206,#207));
#66=EDGE_LOOP('',(#208,#209,#210,#211));
#67=EDGE_LOOP('',(#212));
#68=(
BOUNDED_CURVE()
B_SPLINE_CURVE(2,(#359,#360,#361),.UNSPECIFIED.,.F.,.F.)
B_SPLINE_CURVE_WITH_KNOTS((3,3),(0.0363070270610911,0.316313328170522),
 .UNSPECIFIED.)
CURVE()
GEOMETRIC_REPRESENTATION_ITEM()
RATIONAL_B_SPLINE_CURVE((1.,1.,1.))
REPRESENTATION_ITEM('')
);
#69=(
BOUNDED_CURVE()
B_SPLINE_CURVE(2,(#386,#387,#388),.UNSPECIFIED.,.F.,.F.)
B_SPLINE_CURVE_WITH_KNOTS((3,3),(0.0363070270610911,0.316313328170522),
 .UNSPECIFIED.)
CURVE()
GEOMETRIC_REPRESENTATION_ITEM()
RATIONAL_B_SPLINE_CURVE((1.,1.,1.))
REPRESENTATION_ITEM('')
);
#70=(
BOUNDED_CURVE()
B_SPLINE_CURVE(2,(#394,#395,#396),.UNSPECIFIED.,.F.,.F.)
B_SPLINE_CURVE_WITH_KNOTS((3,3),(0.0363070270610927,0.316313328170526),
 .UNSPECIFIED.)
CURVE()
GEOMETRIC_REPRESENTATION_ITEM()
RATIONAL_B_SPLINE_CURVE((1.,1.,1.))
REPRESENTATION_ITEM('')
);
#71=(
BOUNDED_CURVE()
B_SPLINE_CURVE(2,(#402,#403,#404),.UNSPECIFIED.,.F.,.F.)
B_SPLINE_CURVE_WITH_KNOTS((3,3),(0.0363070270610927,0.316313328170526),
 .UNSPECIFIED.)
CURVE()
GEOMETRIC_REPRESENTATION_ITEM()
RATIONAL_B_SPLINE_CURVE((1.,1.,1.))
REPRESENTATION_ITEM('')
);
#72=LINE('',#357,#82);
#73=LINE('',#362,#83);
#74=LINE('',#367,#84);
#75=LINE('',#374,#85);
#76=LINE('',#380,#86);
#77=LINE('',#383,#87);
#78=LINE('',#393,#88);
#79=LINE('',#405,#89);
#80=LINE('',#420,#90);
#81=LINE('',#426,#91);
#82=VECTOR('',#279,10.);
#83=VECTOR('',#280,10.);
#84=VECTOR('',#285,10.);
#85=VECTOR('',#294,10.);
#86=VECTOR('',#299,10.);
#87=VECTOR('',#302,10.);
#88=VECTOR('',#311,10.);
#89=VECTOR('',#318,10.);
#90=VECTOR('',#339,3.25036194629047);
#91=VECTOR('',#348,3.25036194629047);
#92=ELLIPSE('',#241,41.6839657313052,3.36170452945345);
#93=ELLIPSE('',#252,41.6839657313052,3.36170452945345);
#94=ELLIPSE('',#254,41.6839657313052,3.36170452945345);
#95=ELLIPSE('',#257,41.6839657313052,3.36170452945345);
#96=VERTEX_POINT('',#353);
#97=VERTEX_POINT('',#354);
#98=VERTEX_POINT('',#356);
#99=VERTEX_POINT('',#358);
#100=VERTEX_POINT('',#364);
#101=VERTEX_POINT('',#366);
#102=VERTEX_POINT('',#370);
#103=VERTEX_POINT('',#372);
#104=VERTEX_POINT('',#376);
#105=VERTEX_POINT('',#377);
#106=VERTEX_POINT('',#379);
#107=VERTEX_POINT('',#381);
#108=VERTEX_POINT('',#390);
#109=VERTEX_POINT('',#392);
#110=VERTEX_POINT('',#399);
#111=VERTEX_POINT('',#401);
#112=VERTEX_POINT('',#411);
#113=VERTEX_POINT('',#412);
#114=VERTEX_POINT('',#414);
#115=VERTEX_POINT('',#419);
#116=VERTEX_POINT('',#424);
#117=EDGE_CURVE('',#96,#97,#92,.T.);
#118=EDGE_CURVE('',#96,#98,#72,.T.);
#119=EDGE_CURVE('',#98,#99,#68,.T.);
#120=EDGE_CURVE('',#97,#99,#73,.F.);
#121=EDGE_CURVE('',#100,#96,#22,.T.);
#122=EDGE_CURVE('',#101,#100,#74,.T.);
#123=EDGE_CURVE('',#101,#98,#23,.T.);
#124=EDGE_CURVE('',#97,#102,#24,.T.);
#125=EDGE_CURVE('',#99,#103,#25,.F.);
#126=EDGE_CURVE('',#103,#102,#75,.F.);
#127=EDGE_CURVE('',#104,#105,#26,.T.);
#128=EDGE_CURVE('',#104,#106,#76,.F.);
#129=EDGE_CURVE('',#106,#107,#27,.F.);
#130=EDGE_CURVE('',#107,#105,#77,.F.);
#131=EDGE_CURVE('',#102,#100,#93,.T.);
#132=EDGE_CURVE('',#101,#103,#69,.T.);
#133=EDGE_CURVE('',#108,#104,#94,.T.);
#134=EDGE_CURVE('',#108,#109,#78,.T.);
#135=EDGE_CURVE('',#109,#106,#70,.T.);
#136=EDGE_CURVE('',#105,#110,#95,.T.);
#137=EDGE_CURVE('',#111,#107,#71,.T.);
#138=EDGE_CURVE('',#111,#110,#79,.T.);
#139=EDGE_CURVE('',#111,#109,#28,.T.);
#140=EDGE_CURVE('',#110,#108,#29,.T.);
#141=EDGE_CURVE('',#112,#113,#30,.T.);
#142=EDGE_CURVE('',#113,#114,#31,.T.);
#143=EDGE_CURVE('',#114,#114,#32,.T.);
#144=EDGE_CURVE('',#113,#112,#33,.T.);
#145=EDGE_CURVE('',#112,#115,#80,.T.);
#146=EDGE_CURVE('',#115,#115,#34,.T.);
#147=EDGE_CURVE('',#116,#116,#35,.F.);
#148=EDGE_CURVE('',#116,#115,#81,.T.);
#149=ORIENTED_EDGE('',*,*,#117,.F.);
#150=ORIENTED_EDGE('',*,*,#118,.T.);
#151=ORIENTED_EDGE('',*,*,#119,.T.);
#152=ORIENTED_EDGE('',*,*,#120,.F.);
#153=ORIENTED_EDGE('',*,*,#121,.F.);
#154=ORIENTED_EDGE('',*,*,#122,.F.);
#155=ORIENTED_EDGE('',*,*,#123,.T.);
#156=ORIENTED_EDGE('',*,*,#118,.F.);
#157=ORIENTED_EDGE('',*,*,#124,.F.);
#158=ORIENTED_EDGE('',*,*,#120,.T.);
#159=ORIENTED_EDGE('',*,*,#125,.T.);
#160=ORIENTED_EDGE('',*,*,#126,.T.);
#161=ORIENTED_EDGE('',*,*,#127,.F.);
#162=ORIENTED_EDGE('',*,*,#128,.T.);
#163=ORIENTED_EDGE('',*,*,#129,.T.);
#164=ORIENTED_EDGE('',*,*,#130,.T.);
#165=ORIENTED_EDGE('',*,*,#131,.F.);
#166=ORIENTED_EDGE('',*,*,#126,.F.);
#167=ORIENTED_EDGE('',*,*,#132,.F.);
#168=ORIENTED_EDGE('',*,*,#122,.T.);
#169=ORIENTED_EDGE('',*,*,#133,.F.);
#170=ORIENTED_EDGE('',*,*,#134,.T.);
#171=ORIENTED_EDGE('',*,*,#135,.T.);
#172=ORIENTED_EDGE('',*,*,#128,.F.);
#173=ORIENTED_EDGE('',*,*,#125,.F.);
#174=ORIENTED_EDGE('',*,*,#119,.F.);
#175=ORIENTED_EDGE('',*,*,#123,.F.);
#176=ORIENTED_EDGE('',*,*,#132,.T.);
#177=ORIENTED_EDGE('',*,*,#136,.F.);
#178=ORIENTED_EDGE('',*,*,#130,.F.);
#179=ORIENTED_EDGE('',*,*,#137,.F.);
#180=ORIENTED_EDGE('',*,*,#138,.T.);
#181=ORIENTED_EDGE('',*,*,#129,.F.);
#182=ORIENTED_EDGE('',*,*,#135,.F.);
#183=ORIENTED_EDGE('',*,*,#139,.F.);
#184=ORIENTED_EDGE('',*,*,#137,.T.);
#185=ORIENTED_EDGE('',*,*,#140,.F.);
#186=ORIENTED_EDGE('',*,*,#138,.F.);
#187=ORIENTED_EDGE('',*,*,#139,.T.);
#188=ORIENTED_EDGE('',*,*,#134,.F.);
#189=ORIENTED_EDGE('',*,*,#141,.T.);
#190=ORIENTED_EDGE('',*,*,#142,.T.);
#191=ORIENTED_EDGE('',*,*,#143,.T.);
#192=ORIENTED_EDGE('',*,*,#142,.F.);
#193=ORIENTED_EDGE('',*,*,#144,.T.);
#194=ORIENTED_EDGE('',*,*,#141,.F.);
#195=ORIENTED_EDGE('',*,*,#145,.T.);
#196=ORIENTED_EDGE('',*,*,#146,.T.);
#197=ORIENTED_EDGE('',*,*,#145,.F.);
#198=ORIENTED_EDGE('',*,*,#144,.F.);
#199=ORIENTED_EDGE('',*,*,#143,.F.);
#200=ORIENTED_EDGE('',*,*,#147,.F.);
#201=ORIENTED_EDGE('',*,*,#148,.T.);
#202=ORIENTED_EDGE('',*,*,#146,.F.);
#203=ORIENTED_EDGE('',*,*,#148,.F.);
#204=ORIENTED_EDGE('',*,*,#133,.T.);
#205=ORIENTED_EDGE('',*,*,#127,.T.);
#206=ORIENTED_EDGE('',*,*,#136,.T.);
#207=ORIENTED_EDGE('',*,*,#140,.T.);
#208=ORIENTED_EDGE('',*,*,#131,.T.);
#209=ORIENTED_EDGE('',*,*,#121,.T.);
#210=ORIENTED_EDGE('',*,*,#117,.T.);
#211=ORIENTED_EDGE('',*,*,#124,.T.);
#212=ORIENTED_EDGE('',*,*,#147,.T.);
#213=PLANE('',#240);
#214=PLANE('',#242);
#215=PLANE('',#245);
#216=PLANE('',#248);
#217=PLANE('',#251);
#218=PLANE('',#253);
#219=PLANE('',#256);
#220=PLANE('',#260);
#221=PLANE('',#269);
#222=PLANE('',#272);
#223=ADVANCED_FACE('',(#36),#213,.T.);
#224=ADVANCED_FACE('',(#37),#214,.T.);
#225=ADVANCED_FACE('',(#38),#215,.F.);
#226=ADVANCED_FACE('',(#39),#216,.F.);
#227=ADVANCED_FACE('',(#40),#217,.T.);
#228=ADVANCED_FACE('',(#41),#218,.T.);
#229=ADVANCED_FACE('',(#42),#18,.T.);
#230=ADVANCED_FACE('',(#43),#219,.T.);
#231=ADVANCED_FACE('',(#44),#19,.T.);
#232=ADVANCED_FACE('',(#45),#220,.T.);
#233=ADVANCED_FACE('',(#46),#17,.T.);
#234=ADVANCED_FACE('',(#47),#20,.T.);
#235=ADVANCED_FACE('',(#48),#221,.T.);
#236=ADVANCED_FACE('',(#49,#15,#16),#21,.T.);
#237=ADVANCED_FACE('',(#50),#222,.F.);
#238=CLOSED_SHELL('',(#223,#224,#225,#226,#227,#228,#229,#230,#231,#232,
#233,#234,#235,#236,#237));
#239=AXIS2_PLACEMENT_3D('',#351,#273,#274);
#240=AXIS2_PLACEMENT_3D('',#352,#275,#276);
#241=AXIS2_PLACEMENT_3D('',#355,#277,#278);
#242=AXIS2_PLACEMENT_3D('',#363,#281,#282);
#243=AXIS2_PLACEMENT_3D('',#365,#283,#284);
#244=AXIS2_PLACEMENT_3D('',#368,#286,#287);
#245=AXIS2_PLACEMENT_3D('',#369,#288,#289);
#246=AXIS2_PLACEMENT_3D('',#371,#290,#291);
#247=AXIS2_PLACEMENT_3D('',#373,#292,#293);
#248=AXIS2_PLACEMENT_3D('',#375,#295,#296);
#249=AXIS2_PLACEMENT_3D('',#378,#297,#298);
#250=AXIS2_PLACEMENT_3D('',#382,#300,#301);
#251=AXIS2_PLACEMENT_3D('',#384,#303,#304);
#252=AXIS2_PLACEMENT_3D('',#385,#305,#306);
#253=AXIS2_PLACEMENT_3D('',#389,#307,#308);
#254=AXIS2_PLACEMENT_3D('',#391,#309,#310);
#255=AXIS2_PLACEMENT_3D('',#397,#312,#313);
#256=AXIS2_PLACEMENT_3D('',#398,#314,#315);
#257=AXIS2_PLACEMENT_3D('',#400,#316,#317);
#258=AXIS2_PLACEMENT_3D('',#406,#319,#320);
#259=AXIS2_PLACEMENT_3D('',#407,#321,#322);
#260=AXIS2_PLACEMENT_3D('',#408,#323,#324);
#261=AXIS2_PLACEMENT_3D('',#409,#325,#326);
#262=AXIS2_PLACEMENT_3D('',#410,#327,#328);
#263=AXIS2_PLACEMENT_3D('',#413,#329,#330);
#264=AXIS2_PLACEMENT_3D('',#415,#331,#332);
#265=AXIS2_PLACEMENT_3D('',#416,#333,#334);
#266=AXIS2_PLACEMENT_3D('',#417,#335,#336);
#267=AXIS2_PLACEMENT_3D('',#418,#337,#338);
#268=AXIS2_PLACEMENT_3D('',#421,#340,#341);
#269=AXIS2_PLACEMENT_3D('',#422,#342,#343);
#270=AXIS2_PLACEMENT_3D('',#423,#344,#345);
#271=AXIS2_PLACEMENT_3D('',#425,#346,#347);
#272=AXIS2_PLACEMENT_3D('',#427,#349,#350);
#273=DIRECTION('axis',(0.,0.,1.));
#274=DIRECTION('refdir',(1.,0.,0.));
#275=DIRECTION('center_axis',(0.996194698091746,0.,0.087155742747658));
#276=DIRECTION('ref_axis',(0.,1.,0.));
#277=DIRECTION('center_axis',(0.996194698091746,0.,0.087155742747658));
#278=DIRECTION('ref_axis',(-0.087155742747658,1.19854325834002E-16,0.996194698091745));
#279=DIRECTION('',(0.,1.,0.));
#280=DIRECTION('',(0.,-1.,0.));
#281=DIRECTION('center_axis',(0.,0.,-1.));
#282=DIRECTION('ref_axis',(-1.,0.,0.));
#283=DIRECTION('center_axis',(0.,0.,-1.));
#284=DIRECTION('ref_axis',(1.,0.,0.));
#285=DIRECTION('',(0.,-1.,0.));
#286=DIRECTION('center_axis',(0.,0.,-1.));
#287=DIRECTION('ref_axis',(-1.,0.,0.));
#288=DIRECTION('center_axis',(0.,0.,-1.));
#289=DIRECTION('ref_axis',(-1.,0.,0.));
#290=DIRECTION('center_axis',(0.,0.,1.));
#291=DIRECTION('ref_axis',(1.,0.,0.));
#292=DIRECTION('center_axis',(0.,0.,-1.));
#293=DIRECTION('ref_axis',(-1.,0.,0.));
#294=DIRECTION('',(0.,1.,0.));
#295=DIRECTION('center_axis',(0.,0.,-1.));
#296=DIRECTION('ref_axis',(-1.,0.,0.));
#297=DIRECTION('center_axis',(0.,0.,1.));
#298=DIRECTION('ref_axis',(1.,0.,0.));
#299=DIRECTION('',(0.,1.,0.));
#300=DIRECTION('center_axis',(0.,0.,-1.));
#301=DIRECTION('ref_axis',(-1.,0.,0.));
#302=DIRECTION('',(0.,-1.,0.));
#303=DIRECTION('center_axis',(-0.996194698091746,0.,0.087155742747658));
#304=DIRECTION('ref_axis',(0.,-1.,0.));
#305=DIRECTION('center_axis',(-0.996194698091746,0.,0.087155742747658));
#306=DIRECTION('ref_axis',(0.0871557427476579,1.19854325834001E-16,0.996194698091745));
#307=DIRECTION('center_axis',(-0.996194698091746,0.,0.087155742747658));
#308=DIRECTION('ref_axis',(0.,-1.,0.));
#309=DIRECTION('center_axis',(-0.996194698091746,0.,0.087155742747658));
#310=DIRECTION('ref_axis',(0.0871557427476579,1.19854325834001E-16,0.996194698091745));
#311=DIRECTION('',(0.,-1.,0.));
#312=DIRECTION('center_axis',(0.,0.,-1.));
#313=DIRECTION('ref_axis',(-1.,0.,0.));
#314=DIRECTION('center_axis',(0.996194698091746,0.,0.087155742747658));
#315=DIRECTION('ref_axis',(0.,1.,0.));
#316=DIRECTION('center_axis',(0.996194698091746,0.,0.087155742747658));
#317=DIRECTION('ref_axis',(-0.087155742747658,1.19854325834002E-16,0.996194698091745));
#318=DIRECTION('',(0.,1.,0.));
#319=DIRECTION('center_axis',(0.,0.,-1.));
#320=DIRECTION('ref_axis',(-1.,0.,0.));
#321=DIRECTION('center_axis',(0.,0.,-1.));
#322=DIRECTION('ref_axis',(-1.,0.,0.));
#323=DIRECTION('center_axis',(0.,0.,-1.));
#324=DIRECTION('ref_axis',(-1.,0.,0.));
#325=DIRECTION('center_axis',(0.,0.,-1.));
#326=DIRECTION('ref_axis',(1.,0.,0.));
#327=DIRECTION('center_axis',(0.,0.,-1.));
#328=DIRECTION('ref_axis',(-1.,0.,0.));
#329=DIRECTION('center_axis',(0.,0.,1.));
#330=DIRECTION('ref_axis',(1.,0.,0.));
#331=DIRECTION('center_axis',(-8.58696413181112E-17,-1.,0.));
#332=DIRECTION('ref_axis',(1.,-8.58696413181112E-17,0.));
#333=DIRECTION('center_axis',(0.,0.,-1.));
#334=DIRECTION('ref_axis',(1.,0.,0.));
#335=DIRECTION('center_axis',(0.,0.,1.));
#336=DIRECTION('ref_axis',(1.,0.,0.));
#337=DIRECTION('center_axis',(0.,0.,-1.));
#338=DIRECTION('ref_axis',(1.,0.,0.));
#339=DIRECTION('',(-0.034899496702501,-4.27395569285714E-18,-0.999390827019096));
#340=DIRECTION('center_axis',(0.,0.,1.));
#341=DIRECTION('ref_axis',(1.,0.,0.));
#342=DIRECTION('center_axis',(0.,0.,1.));
#343=DIRECTION('ref_axis',(1.,0.,0.));
#344=DIRECTION('center_axis',(0.,0.,-1.));
#345=DIRECTION('ref_axis',(1.,0.,0.));
#346=DIRECTION('center_axis',(0.,0.,1.));
#347=DIRECTION('ref_axis',(1.,0.,0.));
#348=DIRECTION('',(0.0331551783885263,-4.06033830886682E-18,0.999450215941757));
#349=DIRECTION('center_axis',(0.,0.,1.));
#350=DIRECTION('ref_axis',(1.,0.,0.));
#351=CARTESIAN_POINT('',(0.,0.,0.));
#352=CARTESIAN_POINT('Origin',(13.786242371138,7.84916922205895,6.35238935057282));
#353=CARTESIAN_POINT('',(13.786242371138,5.6424064332924,6.35238935057282));
#354=CARTESIAN_POINT('',(13.5412741132654,5.60766778395168,9.15238935057282));
#355=CARTESIAN_POINT('Origin',(14.2137799622471,2.30406119094548,1.46561232279944));
#356=CARTESIAN_POINT('',(13.786242371138,7.84916922205895,6.35238935057282));
#357=CARTESIAN_POINT('',(13.786242371138,-3.52045207474019,6.35238935057282));
#358=CARTESIAN_POINT('',(13.5412741132654,7.63860242054857,9.15238935057282));
#359=CARTESIAN_POINT('Ctrl Pts',(13.786242371138,7.84916922205894,6.35238935057283));
#360=CARTESIAN_POINT('Ctrl Pts',(13.6613876610689,7.74388582130348,7.77948521690896));
#361=CARTESIAN_POINT('Ctrl Pts',(13.5412741132654,7.63860242054857,9.15238935057282));
#362=CARTESIAN_POINT('',(13.5412741132654,-2.38165927303763,9.15238935057282));
#363=CARTESIAN_POINT('Origin',(12.836242371138,2.30406119094548,6.35238935057282));
#364=CARTESIAN_POINT('',(11.886242371138,5.6424064332924,6.35238935057282));
#365=CARTESIAN_POINT('Origin',(12.836242371138,2.30406119094548,6.35238935057282));
#366=CARTESIAN_POINT('',(11.886242371138,7.84916922205895,6.35238935057282));
#367=CARTESIAN_POINT('',(11.886242371138,8.12857445663115,6.35238935057282));
#368=CARTESIAN_POINT('Origin',(12.836242371138,2.30406119094548,6.35238935057282));
#369=CARTESIAN_POINT('Origin',(-4.42875484205934,-12.6124877681342,9.15238935057282));
#370=CARTESIAN_POINT('',(12.1312106290106,5.60766778395168,9.15238935057282));
#371=CARTESIAN_POINT('Origin',(12.836242371138,2.30406119094548,9.15238935057282));
#372=CARTESIAN_POINT('',(12.1312106290106,7.63860242054857,9.15238935057282));
#373=CARTESIAN_POINT('Origin',(12.836242371138,2.30406119094548,9.15238935057282));
#374=CARTESIAN_POINT('',(12.1312106290106,-7.9267673041511,9.15238935057282));
#375=CARTESIAN_POINT('Origin',(-4.42875484205934,-12.6124877681342,9.15238935057282));
#376=CARTESIAN_POINT('',(12.1312106290106,-0.999545402060714,9.15238935057282));
#377=CARTESIAN_POINT('',(13.5412741132654,-0.999545402060711,9.15238935057282));
#378=CARTESIAN_POINT('Origin',(12.836242371138,2.30406119094548,9.15238935057282));
#379=CARTESIAN_POINT('',(12.1312106290106,-3.03048003865761,9.15238935057282));
#380=CARTESIAN_POINT('',(12.1312106290106,-7.9267673041511,9.15238935057282));
#381=CARTESIAN_POINT('',(13.5412741132654,-3.03048003865761,9.15238935057282));
#382=CARTESIAN_POINT('Origin',(12.836242371138,2.30406119094548,9.15238935057282));
#383=CARTESIAN_POINT('',(13.5412741132654,-2.38165927303763,9.15238935057282));
#384=CARTESIAN_POINT('Origin',(11.886242371138,-3.24104684016798,6.35238935057282));
#385=CARTESIAN_POINT('Origin',(11.4587047800289,2.30406119094548,1.46561232279926));
#386=CARTESIAN_POINT('Ctrl Pts',(11.886242371138,7.84916922205894,6.35238935057283));
#387=CARTESIAN_POINT('Ctrl Pts',(12.0110970812071,7.74388582130348,7.77948521690896));
#388=CARTESIAN_POINT('Ctrl Pts',(12.1312106290106,7.63860242054857,9.15238935057282));
#389=CARTESIAN_POINT('Origin',(11.886242371138,-3.24104684016798,6.35238935057282));
#390=CARTESIAN_POINT('',(11.886242371138,-1.03428405140144,6.35238935057282));
#391=CARTESIAN_POINT('Origin',(11.4587047800289,2.30406119094548,1.46561232279926));
#392=CARTESIAN_POINT('',(11.886242371138,-3.24104684016798,6.35238935057282));
#393=CARTESIAN_POINT('',(11.886242371138,8.12857445663115,6.35238935057282));
#394=CARTESIAN_POINT('Ctrl Pts',(11.886242371138,-3.24104684016798,6.35238935057283));
#395=CARTESIAN_POINT('Ctrl Pts',(12.0110970812071,-3.13576343941253,7.77948521690892));
#396=CARTESIAN_POINT('Ctrl Pts',(12.1312106290106,-3.03048003865761,9.15238935057283));
#397=CARTESIAN_POINT('Origin',(12.836242371138,2.30406119094548,6.35238935057282));
#398=CARTESIAN_POINT('Origin',(13.786242371138,7.84916922205895,6.35238935057282));
#399=CARTESIAN_POINT('',(13.786242371138,-1.03428405140143,6.35238935057282));
#400=CARTESIAN_POINT('Origin',(14.2137799622471,2.30406119094548,1.46561232279944));
#401=CARTESIAN_POINT('',(13.786242371138,-3.24104684016798,6.35238935057282));
#402=CARTESIAN_POINT('Ctrl Pts',(13.786242371138,-3.24104684016798,6.35238935057283));
#403=CARTESIAN_POINT('Ctrl Pts',(13.6613876610689,-3.13576343941253,7.77948521690892));
#404=CARTESIAN_POINT('Ctrl Pts',(13.5412741132654,-3.03048003865761,9.15238935057282));
#405=CARTESIAN_POINT('',(13.786242371138,-3.52045207474019,6.35238935057282));
#406=CARTESIAN_POINT('Origin',(12.836242371138,2.30406119094548,6.35238935057282));
#407=CARTESIAN_POINT('Origin',(12.836242371138,2.30406119094548,6.35238935057282));
#408=CARTESIAN_POINT('Origin',(12.836242371138,2.30406119094548,6.35238935057282));
#409=CARTESIAN_POINT('Origin',(12.836242371138,2.30406119094548,6.35238935057282));
#410=CARTESIAN_POINT('Origin',(12.836242371138,2.30406119094548,13.5));
#411=CARTESIAN_POINT('',(9.60455952687309,2.30406119094548,13.5348994967025));
#412=CARTESIAN_POINT('',(16.0679252154028,2.30406119094548,13.5348994967025));
#413=CARTESIAN_POINT('Origin',(12.836242371138,2.30406119094548,13.5348994967025));
#414=CARTESIAN_POINT('',(15.0685343883837,2.30406119094548,14.5));
#415=CARTESIAN_POINT('Origin',(15.0685343883837,2.30406119094548,13.5));
#416=CARTESIAN_POINT('Origin',(12.836242371138,2.30406119094548,14.5));
#417=CARTESIAN_POINT('Origin',(12.836242371138,2.30406119094548,13.5348994967025));
#418=CARTESIAN_POINT('Origin',(12.836242371138,2.30406119094548,13.));
#419=CARTESIAN_POINT('',(9.58588042484749,2.30406119094548,13.));
#420=CARTESIAN_POINT('',(9.58588042484749,2.30406119094548,13.));
#421=CARTESIAN_POINT('Origin',(12.836242371138,2.30406119094548,13.));
#422=CARTESIAN_POINT('Origin',(12.836242371138,2.30406119094548,14.5));
#423=CARTESIAN_POINT('Origin',(12.836242371138,2.30406119094548,13.));
#424=CARTESIAN_POINT('',(9.35698385027898,2.30406119094548,6.1));
#425=CARTESIAN_POINT('Origin',(12.836242371138,2.30406119094548,6.1));
#426=CARTESIAN_POINT('',(9.58588042484749,2.30406119094548,13.));
#427=CARTESIAN_POINT('Origin',(-5.63826531072525,-18.0354163337169,6.1));
#428=UNCERTAINTY_MEASURE_WITH_UNIT(LENGTH_MEASURE(0.01),#432,
'DISTANCE_ACCURACY_VALUE',
'Maximum model space distance between geometric entities at asserted c
onnectivities');
#429=UNCERTAINTY_MEASURE_WITH_UNIT(LENGTH_MEASURE(0.01),#432,
'DISTANCE_ACCURACY_VALUE',
'Maximum model space distance between geometric entities at asserted c
onnectivities');
#430=(
GEOMETRIC_REPRESENTATION_CONTEXT(3)
GLOBAL_UNCERTAINTY_ASSIGNED_CONTEXT((#428))
GLOBAL_UNIT_ASSIGNED_CONTEXT((#432,#433,#434))
REPRESENTATION_CONTEXT('','3D')
);
#431=(
GEOMETRIC_REPRESENTATION_CONTEXT(3)
GLOBAL_UNCERTAINTY_ASSIGNED_CONTEXT((#429))
GLOBAL_UNIT_ASSIGNED_CONTEXT((#432,#433,#434))
REPRESENTATION_CONTEXT('','3D')
);
#432=(
LENGTH_UNIT()
NAMED_UNIT(*)
SI_UNIT(.MILLI.,.METRE.)
);
#433=(
NAMED_UNIT(*)
PLANE_ANGLE_UNIT()
SI_UNIT($,.RADIAN.)
);
#434=(
NAMED_UNIT(*)
SI_UNIT($,.STERADIAN.)
SOLID_ANGLE_UNIT()
);
#435=SHAPE_DEFINITION_REPRESENTATION(#436,#437);
#436=PRODUCT_DEFINITION_SHAPE('',$,#439);
#437=SHAPE_REPRESENTATION('',(#239),#430);
#438=PRODUCT_DEFINITION_CONTEXT('part definition',#443,'design');
#439=PRODUCT_DEFINITION('Supercon 2023 Badge Enclosure - Basic',
'Supercon 2023 Badge Enclosure - Basic v4',#440,#438);
#440=PRODUCT_DEFINITION_FORMATION('',$,#445);
#441=PRODUCT_RELATED_PRODUCT_CATEGORY(
'Supercon 2023 Badge Enclosure - Basic v4',
'Supercon 2023 Badge Enclosure - Basic v4',(#445));
#442=APPLICATION_PROTOCOL_DEFINITION('international standard',
'automotive_design',2009,#443);
#443=APPLICATION_CONTEXT(
'Core Data for Automotive Mechanical Design Process');
#444=PRODUCT_CONTEXT('part definition',#443,'mechanical');
#445=PRODUCT('Supercon 2023 Badge Enclosure - Basic',
'Supercon 2023 Badge Enclosure - Basic v4',$,(#444));
#446=PRESENTATION_STYLE_ASSIGNMENT((#451));
#447=PRESENTATION_STYLE_ASSIGNMENT((#452));
#448=PRESENTATION_STYLE_ASSIGNMENT((#453));
#449=PRESENTATION_STYLE_ASSIGNMENT((#454));
#450=PRESENTATION_STYLE_ASSIGNMENT((#455));
#451=SURFACE_STYLE_USAGE(.BOTH.,#456);
#452=SURFACE_STYLE_USAGE(.BOTH.,#457);
#453=SURFACE_STYLE_USAGE(.BOTH.,#458);
#454=SURFACE_STYLE_USAGE(.BOTH.,#459);
#455=SURFACE_STYLE_USAGE(.BOTH.,#460);
#456=SURFACE_SIDE_STYLE('',(#461));
#457=SURFACE_SIDE_STYLE('',(#462));
#458=SURFACE_SIDE_STYLE('',(#463));
#459=SURFACE_SIDE_STYLE('',(#464));
#460=SURFACE_SIDE_STYLE('',(#465));
#461=SURFACE_STYLE_FILL_AREA(#466);
#462=SURFACE_STYLE_FILL_AREA(#467);
#463=SURFACE_STYLE_FILL_AREA(#468);
#464=SURFACE_STYLE_FILL_AREA(#469);
#465=SURFACE_STYLE_FILL_AREA(#470);
#466=FILL_AREA_STYLE('Opaque(192,192,192)',(#471));
#467=FILL_AREA_STYLE('ABS (White)',(#472));
#468=FILL_AREA_STYLE('Opaque(142,76,38)',(#473));
#469=FILL_AREA_STYLE('ABS (Red)',(#474));
#470=FILL_AREA_STYLE('Acrylic (Clear)',(#475));
#471=FILL_AREA_STYLE_COLOUR('Opaque(192,192,192)',#476);
#472=FILL_AREA_STYLE_COLOUR('ABS (White)',#477);
#473=FILL_AREA_STYLE_COLOUR('Opaque(142,76,38)',#478);
#474=FILL_AREA_STYLE_COLOUR('ABS (Red)',#479);
#475=FILL_AREA_STYLE_COLOUR('Acrylic (Clear)',#480);
#476=COLOUR_RGB('Opaque(192,192,192)',0.752941176470588,0.752941176470588,
0.752941176470588);
#477=COLOUR_RGB('ABS (White)',0.964705882352941,0.964705882352941,0.952941176470588);
#478=COLOUR_RGB('Opaque(142,76,38)',0.556862745098039,0.298039215686275,
0.149019607843137);
#479=COLOUR_RGB('ABS (Red)',1.,0.,0.);
#480=COLOUR_RGB('Acrylic (Clear)',0.964705882352941,0.964705882352941,0.952941176470588);
ENDSEC;
END-ISO-10303-21;
