ISO-10303-21;
HEADER;
/* Generated by software containing ST-Developer
 * from STEP Tools, Inc. (www.steptools.com) 
 */

FILE_DESCRIPTION(
/* description */ (''),
/* implementation_level */ '2;1');

FILE_NAME(
/* name */ 
'Waveform Button - Supercon 2023 Badge Enclosure - Basic v4.step',
/* time_stamp */ '2023-10-24T02:42:10-07:00',
/* author */ (''),
/* organization */ (''),
/* preprocessor_version */ 'ST-DEVELOPER v20',
/* originating_system */ 'Autodesk Translation Framework v12.14.0.127',

/* authorisation */ '');

FILE_SCHEMA (('AUTOMOTIVE_DESIGN { 1 0 10303 214 3 1 1 }'));
ENDSEC;

DATA;
#10=MECHANICAL_DESIGN_GEOMETRIC_PRESENTATION_REPRESENTATION('',(#13),#456);
#11=SHAPE_REPRESENTATION_RELATIONSHIP('SRR','None',#462,#12);
#12=ADVANCED_BREP_SHAPE_REPRESENTATION('',(#14),#455);
#13=STYLED_ITEM('',(#474),#14);
#14=MANIFOLD_SOLID_BREP('Waveform Button',#251);
#15=FACE_BOUND('',#66,.T.);
#16=TOROIDAL_SURFACE('',#277,2.23229201724578,1.);
#17=CONICAL_SURFACE('',#270,5.62589753648665,0.0872664625997165);
#18=CONICAL_SURFACE('',#273,5.62589753648665,0.0872664625997165);
#19=CONICAL_SURFACE('',#282,3.25036194629048,0.0349065850398866);
#20=CONICAL_SURFACE('',#285,3.25036194629048,0.0331612557878923);
#21=CIRCLE('',#256,3.47088590378599);
#22=CIRCLE('',#257,5.62589753648665);
#23=CIRCLE('',#258,3.47088590378599);
#24=CIRCLE('',#260,3.37800033729442);
#25=CIRCLE('',#261,5.38092927861407);
#26=CIRCLE('',#262,3.37800033729442);
#27=CIRCLE('',#264,3.37800033729442);
#28=CIRCLE('',#265,5.38092927861407);
#29=CIRCLE('',#274,5.62589753648665);
#30=CIRCLE('',#276,3.47088590378599);
#31=CIRCLE('',#278,3.23168284426488);
#32=CIRCLE('',#279,1.);
#33=CIRCLE('',#280,2.23229201724578);
#34=CIRCLE('',#281,3.23168284426488);
#35=CIRCLE('',#283,3.25036194629048);
#36=CIRCLE('',#286,3.47925852085899);
#37=FACE_OUTER_BOUND('',#52,.T.);
#38=FACE_OUTER_BOUND('',#53,.T.);
#39=FACE_OUTER_BOUND('',#54,.T.);
#40=FACE_OUTER_BOUND('',#55,.T.);
#41=FACE_OUTER_BOUND('',#56,.T.);
#42=FACE_OUTER_BOUND('',#57,.T.);
#43=FACE_OUTER_BOUND('',#58,.T.);
#44=FACE_OUTER_BOUND('',#59,.T.);
#45=FACE_OUTER_BOUND('',#60,.T.);
#46=FACE_OUTER_BOUND('',#61,.T.);
#47=FACE_OUTER_BOUND('',#62,.T.);
#48=FACE_OUTER_BOUND('',#63,.T.);
#49=FACE_OUTER_BOUND('',#64,.T.);
#50=FACE_OUTER_BOUND('',#65,.T.);
#51=FACE_OUTER_BOUND('',#67,.T.);
#52=EDGE_LOOP('',(#156,#157,#158,#159));
#53=EDGE_LOOP('',(#160,#161,#162,#163,#164));
#54=EDGE_LOOP('',(#165,#166,#167,#168,#169));
#55=EDGE_LOOP('',(#170,#171,#172,#173));
#56=EDGE_LOOP('',(#174,#175,#176,#177));
#57=EDGE_LOOP('',(#178,#179,#180,#181));
#58=EDGE_LOOP('',(#182,#183,#184,#185));
#59=EDGE_LOOP('',(#186,#187,#188,#189));
#60=EDGE_LOOP('',(#190,#191,#192,#193));
#61=EDGE_LOOP('',(#194,#195,#196,#197));
#62=EDGE_LOOP('',(#198,#199,#200,#201,#202));
#63=EDGE_LOOP('',(#203,#204,#205,#206,#207));
#64=EDGE_LOOP('',(#208));
#65=EDGE_LOOP('',(#209,#210,#211,#212,#213,#214,#215,#216,#217,#218,#219,
#220));
#66=EDGE_LOOP('',(#221,#222,#223,#224));
#67=EDGE_LOOP('',(#225));
#68=(
BOUNDED_CURVE()
B_SPLINE_CURVE(2,(#379,#380,#381),.UNSPECIFIED.,.F.,.F.)
B_SPLINE_CURVE_WITH_KNOTS((3,3),(0.0363070270610989,0.316313328170585),
 .UNSPECIFIED.)
CURVE()
GEOMETRIC_REPRESENTATION_ITEM()
RATIONAL_B_SPLINE_CURVE((1.,1.,1.))
REPRESENTATION_ITEM('')
);
#69=(
BOUNDED_CURVE()
B_SPLINE_CURVE(2,(#410,#411,#412),.UNSPECIFIED.,.F.,.F.)
B_SPLINE_CURVE_WITH_KNOTS((3,3),(0.0363070270613454,0.3163133281713),
 .UNSPECIFIED.)
CURVE()
GEOMETRIC_REPRESENTATION_ITEM()
RATIONAL_B_SPLINE_CURVE((1.,1.,1.))
REPRESENTATION_ITEM('')
);
#70=(
BOUNDED_CURVE()
B_SPLINE_CURVE(2,(#418,#419,#420),.UNSPECIFIED.,.F.,.F.)
B_SPLINE_CURVE_WITH_KNOTS((3,3),(0.0363070270613468,0.316313328171304),
 .UNSPECIFIED.)
CURVE()
GEOMETRIC_REPRESENTATION_ITEM()
RATIONAL_B_SPLINE_CURVE((1.,1.,1.))
REPRESENTATION_ITEM('')
);
#71=(
BOUNDED_CURVE()
B_SPLINE_CURVE(2,(#426,#427,#428),.UNSPECIFIED.,.F.,.F.)
B_SPLINE_CURVE_WITH_KNOTS((3,3),(0.03630702706144,0.316313328171574),
 .UNSPECIFIED.)
CURVE()
GEOMETRIC_REPRESENTATION_ITEM()
RATIONAL_B_SPLINE_CURVE((1.,1.,1.))
REPRESENTATION_ITEM('')
);
#72=LINE('',#377,#83);
#73=LINE('',#382,#84);
#74=LINE('',#388,#85);
#75=LINE('',#397,#86);
#76=LINE('',#404,#87);
#77=LINE('',#407,#88);
#78=LINE('',#417,#89);
#79=LINE('',#429,#90);
#80=LINE('',#444,#91);
#81=LINE('',#450,#92);
#82=LINE('',#451,#93);
#83=VECTOR('',#294,10.);
#84=VECTOR('',#295,10.);
#85=VECTOR('',#300,10.);
#86=VECTOR('',#311,10.);
#87=VECTOR('',#318,10.);
#88=VECTOR('',#321,10.);
#89=VECTOR('',#330,10.);
#90=VECTOR('',#337,10.);
#91=VECTOR('',#358,3.25036194629048);
#92=VECTOR('',#367,3.25036194629048);
#93=VECTOR('',#368,3.25036194629048);
#94=ELLIPSE('',#254,41.6839657313043,3.36170452945349);
#95=ELLIPSE('',#267,41.6839657313055,3.36170452945344);
#96=ELLIPSE('',#269,41.6839657313055,3.36170452945344);
#97=ELLIPSE('',#272,41.6839657313043,3.36170452945349);
#98=VERTEX_POINT('',#373);
#99=VERTEX_POINT('',#374);
#100=VERTEX_POINT('',#376);
#101=VERTEX_POINT('',#378);
#102=VERTEX_POINT('',#384);
#103=VERTEX_POINT('',#385);
#104=VERTEX_POINT('',#387);
#105=VERTEX_POINT('',#392);
#106=VERTEX_POINT('',#394);
#107=VERTEX_POINT('',#396);
#108=VERTEX_POINT('',#400);
#109=VERTEX_POINT('',#401);
#110=VERTEX_POINT('',#403);
#111=VERTEX_POINT('',#405);
#112=VERTEX_POINT('',#414);
#113=VERTEX_POINT('',#416);
#114=VERTEX_POINT('',#423);
#115=VERTEX_POINT('',#425);
#116=VERTEX_POINT('',#435);
#117=VERTEX_POINT('',#436);
#118=VERTEX_POINT('',#438);
#119=VERTEX_POINT('',#443);
#120=VERTEX_POINT('',#448);
#121=EDGE_CURVE('',#98,#99,#94,.T.);
#122=EDGE_CURVE('',#100,#98,#72,.T.);
#123=EDGE_CURVE('',#100,#101,#68,.T.);
#124=EDGE_CURVE('',#99,#101,#73,.F.);
#125=EDGE_CURVE('',#102,#103,#21,.T.);
#126=EDGE_CURVE('',#102,#104,#74,.T.);
#127=EDGE_CURVE('',#104,#100,#22,.T.);
#128=EDGE_CURVE('',#103,#98,#23,.T.);
#129=EDGE_CURVE('',#99,#105,#24,.T.);
#130=EDGE_CURVE('',#101,#106,#25,.F.);
#131=EDGE_CURVE('',#106,#107,#75,.F.);
#132=EDGE_CURVE('',#105,#107,#26,.T.);
#133=EDGE_CURVE('',#108,#109,#27,.T.);
#134=EDGE_CURVE('',#108,#110,#76,.F.);
#135=EDGE_CURVE('',#110,#111,#28,.F.);
#136=EDGE_CURVE('',#111,#109,#77,.F.);
#137=EDGE_CURVE('',#107,#102,#95,.T.);
#138=EDGE_CURVE('',#104,#106,#69,.T.);
#139=EDGE_CURVE('',#112,#108,#96,.T.);
#140=EDGE_CURVE('',#113,#112,#78,.T.);
#141=EDGE_CURVE('',#113,#110,#70,.T.);
#142=EDGE_CURVE('',#109,#114,#97,.T.);
#143=EDGE_CURVE('',#115,#111,#71,.T.);
#144=EDGE_CURVE('',#114,#115,#79,.T.);
#145=EDGE_CURVE('',#115,#113,#29,.T.);
#146=EDGE_CURVE('',#114,#112,#30,.T.);
#147=EDGE_CURVE('',#116,#117,#31,.T.);
#148=EDGE_CURVE('',#117,#118,#32,.T.);
#149=EDGE_CURVE('',#118,#118,#33,.T.);
#150=EDGE_CURVE('',#117,#116,#34,.T.);
#151=EDGE_CURVE('',#116,#119,#80,.T.);
#152=EDGE_CURVE('',#119,#119,#35,.T.);
#153=EDGE_CURVE('',#120,#120,#36,.F.);
#154=EDGE_CURVE('',#120,#103,#81,.T.);
#155=EDGE_CURVE('',#105,#119,#82,.T.);
#156=ORIENTED_EDGE('',*,*,#121,.F.);
#157=ORIENTED_EDGE('',*,*,#122,.F.);
#158=ORIENTED_EDGE('',*,*,#123,.T.);
#159=ORIENTED_EDGE('',*,*,#124,.F.);
#160=ORIENTED_EDGE('',*,*,#125,.F.);
#161=ORIENTED_EDGE('',*,*,#126,.T.);
#162=ORIENTED_EDGE('',*,*,#127,.T.);
#163=ORIENTED_EDGE('',*,*,#122,.T.);
#164=ORIENTED_EDGE('',*,*,#128,.F.);
#165=ORIENTED_EDGE('',*,*,#129,.F.);
#166=ORIENTED_EDGE('',*,*,#124,.T.);
#167=ORIENTED_EDGE('',*,*,#130,.T.);
#168=ORIENTED_EDGE('',*,*,#131,.T.);
#169=ORIENTED_EDGE('',*,*,#132,.F.);
#170=ORIENTED_EDGE('',*,*,#133,.F.);
#171=ORIENTED_EDGE('',*,*,#134,.T.);
#172=ORIENTED_EDGE('',*,*,#135,.T.);
#173=ORIENTED_EDGE('',*,*,#136,.T.);
#174=ORIENTED_EDGE('',*,*,#137,.F.);
#175=ORIENTED_EDGE('',*,*,#131,.F.);
#176=ORIENTED_EDGE('',*,*,#138,.F.);
#177=ORIENTED_EDGE('',*,*,#126,.F.);
#178=ORIENTED_EDGE('',*,*,#139,.F.);
#179=ORIENTED_EDGE('',*,*,#140,.F.);
#180=ORIENTED_EDGE('',*,*,#141,.T.);
#181=ORIENTED_EDGE('',*,*,#134,.F.);
#182=ORIENTED_EDGE('',*,*,#130,.F.);
#183=ORIENTED_EDGE('',*,*,#123,.F.);
#184=ORIENTED_EDGE('',*,*,#127,.F.);
#185=ORIENTED_EDGE('',*,*,#138,.T.);
#186=ORIENTED_EDGE('',*,*,#142,.F.);
#187=ORIENTED_EDGE('',*,*,#136,.F.);
#188=ORIENTED_EDGE('',*,*,#143,.F.);
#189=ORIENTED_EDGE('',*,*,#144,.F.);
#190=ORIENTED_EDGE('',*,*,#135,.F.);
#191=ORIENTED_EDGE('',*,*,#141,.F.);
#192=ORIENTED_EDGE('',*,*,#145,.F.);
#193=ORIENTED_EDGE('',*,*,#143,.T.);
#194=ORIENTED_EDGE('',*,*,#146,.F.);
#195=ORIENTED_EDGE('',*,*,#144,.T.);
#196=ORIENTED_EDGE('',*,*,#145,.T.);
#197=ORIENTED_EDGE('',*,*,#140,.T.);
#198=ORIENTED_EDGE('',*,*,#147,.T.);
#199=ORIENTED_EDGE('',*,*,#148,.T.);
#200=ORIENTED_EDGE('',*,*,#149,.T.);
#201=ORIENTED_EDGE('',*,*,#148,.F.);
#202=ORIENTED_EDGE('',*,*,#150,.T.);
#203=ORIENTED_EDGE('',*,*,#147,.F.);
#204=ORIENTED_EDGE('',*,*,#151,.T.);
#205=ORIENTED_EDGE('',*,*,#152,.T.);
#206=ORIENTED_EDGE('',*,*,#151,.F.);
#207=ORIENTED_EDGE('',*,*,#150,.F.);
#208=ORIENTED_EDGE('',*,*,#149,.F.);
#209=ORIENTED_EDGE('',*,*,#153,.F.);
#210=ORIENTED_EDGE('',*,*,#154,.T.);
#211=ORIENTED_EDGE('',*,*,#128,.T.);
#212=ORIENTED_EDGE('',*,*,#121,.T.);
#213=ORIENTED_EDGE('',*,*,#129,.T.);
#214=ORIENTED_EDGE('',*,*,#155,.T.);
#215=ORIENTED_EDGE('',*,*,#152,.F.);
#216=ORIENTED_EDGE('',*,*,#155,.F.);
#217=ORIENTED_EDGE('',*,*,#132,.T.);
#218=ORIENTED_EDGE('',*,*,#137,.T.);
#219=ORIENTED_EDGE('',*,*,#125,.T.);
#220=ORIENTED_EDGE('',*,*,#154,.F.);
#221=ORIENTED_EDGE('',*,*,#139,.T.);
#222=ORIENTED_EDGE('',*,*,#133,.T.);
#223=ORIENTED_EDGE('',*,*,#142,.T.);
#224=ORIENTED_EDGE('',*,*,#146,.T.);
#225=ORIENTED_EDGE('',*,*,#153,.T.);
#226=PLANE('',#253);
#227=PLANE('',#255);
#228=PLANE('',#259);
#229=PLANE('',#263);
#230=PLANE('',#266);
#231=PLANE('',#268);
#232=PLANE('',#271);
#233=PLANE('',#275);
#234=PLANE('',#284);
#235=PLANE('',#287);
#236=ADVANCED_FACE('',(#37),#226,.T.);
#237=ADVANCED_FACE('',(#38),#227,.T.);
#238=ADVANCED_FACE('',(#39),#228,.F.);
#239=ADVANCED_FACE('',(#40),#229,.F.);
#240=ADVANCED_FACE('',(#41),#230,.T.);
#241=ADVANCED_FACE('',(#42),#231,.T.);
#242=ADVANCED_FACE('',(#43),#17,.T.);
#243=ADVANCED_FACE('',(#44),#232,.T.);
#244=ADVANCED_FACE('',(#45),#18,.T.);
#245=ADVANCED_FACE('',(#46),#233,.T.);
#246=ADVANCED_FACE('',(#47),#16,.T.);
#247=ADVANCED_FACE('',(#48),#19,.T.);
#248=ADVANCED_FACE('',(#49),#234,.T.);
#249=ADVANCED_FACE('',(#50,#15),#20,.T.);
#250=ADVANCED_FACE('',(#51),#235,.F.);
#251=CLOSED_SHELL('',(#236,#237,#238,#239,#240,#241,#242,#243,#244,#245,
#246,#247,#248,#249,#250));
#252=AXIS2_PLACEMENT_3D('',#371,#288,#289);
#253=AXIS2_PLACEMENT_3D('',#372,#290,#291);
#254=AXIS2_PLACEMENT_3D('',#375,#292,#293);
#255=AXIS2_PLACEMENT_3D('',#383,#296,#297);
#256=AXIS2_PLACEMENT_3D('',#386,#298,#299);
#257=AXIS2_PLACEMENT_3D('',#389,#301,#302);
#258=AXIS2_PLACEMENT_3D('',#390,#303,#304);
#259=AXIS2_PLACEMENT_3D('',#391,#305,#306);
#260=AXIS2_PLACEMENT_3D('',#393,#307,#308);
#261=AXIS2_PLACEMENT_3D('',#395,#309,#310);
#262=AXIS2_PLACEMENT_3D('',#398,#312,#313);
#263=AXIS2_PLACEMENT_3D('',#399,#314,#315);
#264=AXIS2_PLACEMENT_3D('',#402,#316,#317);
#265=AXIS2_PLACEMENT_3D('',#406,#319,#320);
#266=AXIS2_PLACEMENT_3D('',#408,#322,#323);
#267=AXIS2_PLACEMENT_3D('',#409,#324,#325);
#268=AXIS2_PLACEMENT_3D('',#413,#326,#327);
#269=AXIS2_PLACEMENT_3D('',#415,#328,#329);
#270=AXIS2_PLACEMENT_3D('',#421,#331,#332);
#271=AXIS2_PLACEMENT_3D('',#422,#333,#334);
#272=AXIS2_PLACEMENT_3D('',#424,#335,#336);
#273=AXIS2_PLACEMENT_3D('',#430,#338,#339);
#274=AXIS2_PLACEMENT_3D('',#431,#340,#341);
#275=AXIS2_PLACEMENT_3D('',#432,#342,#343);
#276=AXIS2_PLACEMENT_3D('',#433,#344,#345);
#277=AXIS2_PLACEMENT_3D('',#434,#346,#347);
#278=AXIS2_PLACEMENT_3D('',#437,#348,#349);
#279=AXIS2_PLACEMENT_3D('',#439,#350,#351);
#280=AXIS2_PLACEMENT_3D('',#440,#352,#353);
#281=AXIS2_PLACEMENT_3D('',#441,#354,#355);
#282=AXIS2_PLACEMENT_3D('',#442,#356,#357);
#283=AXIS2_PLACEMENT_3D('',#445,#359,#360);
#284=AXIS2_PLACEMENT_3D('',#446,#361,#362);
#285=AXIS2_PLACEMENT_3D('',#447,#363,#364);
#286=AXIS2_PLACEMENT_3D('',#449,#365,#366);
#287=AXIS2_PLACEMENT_3D('',#452,#369,#370);
#288=DIRECTION('axis',(0.,0.,1.));
#289=DIRECTION('refdir',(1.,0.,0.));
#290=DIRECTION('center_axis',(7.13547284407073E-16,0.996194698091745,0.0871557427476597));
#291=DIRECTION('ref_axis',(-1.,7.16272919113004E-16,0.));
#292=DIRECTION('center_axis',(7.13547284407073E-16,0.996194698091745,0.0871557427476597));
#293=DIRECTION('ref_axis',(-2.42372081130986E-15,-0.0871557427476595,0.996194698091745));
#294=DIRECTION('',(1.,-7.16272919113004E-16,0.));
#295=DIRECTION('',(1.,-7.16272919113005E-16,0.));
#296=DIRECTION('center_axis',(0.,0.,-1.));
#297=DIRECTION('ref_axis',(-1.,0.,0.));
#298=DIRECTION('center_axis',(0.,0.,-1.));
#299=DIRECTION('ref_axis',(1.,0.,0.));
#300=DIRECTION('',(-1.,0.,0.));
#301=DIRECTION('center_axis',(0.,0.,-1.));
#302=DIRECTION('ref_axis',(0.665382399086968,0.746502687862054,0.));
#303=DIRECTION('center_axis',(0.,0.,-1.));
#304=DIRECTION('ref_axis',(1.,0.,0.));
#305=DIRECTION('center_axis',(0.,0.,-1.));
#306=DIRECTION('ref_axis',(-1.,0.,0.));
#307=DIRECTION('center_axis',(0.,0.,1.));
#308=DIRECTION('ref_axis',(1.,0.,0.));
#309=DIRECTION('center_axis',(0.,0.,-1.));
#310=DIRECTION('ref_axis',(0.665382399086968,0.746502687862054,0.));
#311=DIRECTION('',(-1.,0.,0.));
#312=DIRECTION('center_axis',(0.,0.,1.));
#313=DIRECTION('ref_axis',(1.,0.,0.));
#314=DIRECTION('center_axis',(0.,0.,-1.));
#315=DIRECTION('ref_axis',(-1.,0.,0.));
#316=DIRECTION('center_axis',(0.,0.,1.));
#317=DIRECTION('ref_axis',(1.,0.,0.));
#318=DIRECTION('',(-1.,0.,0.));
#319=DIRECTION('center_axis',(0.,0.,-1.));
#320=DIRECTION('ref_axis',(0.665382399086968,0.746502687862054,0.));
#321=DIRECTION('',(1.,-7.16272919113005E-16,0.));
#322=DIRECTION('center_axis',(0.,-0.996194698091746,0.0871557427476574));
#323=DIRECTION('ref_axis',(1.,0.,0.));
#324=DIRECTION('center_axis',(0.,-0.996194698091746,0.0871557427476574));
#325=DIRECTION('ref_axis',(1.33171473148889E-16,0.0871557427476575,0.996194698091746));
#326=DIRECTION('center_axis',(0.,-0.996194698091746,0.0871557427476574));
#327=DIRECTION('ref_axis',(1.,0.,0.));
#328=DIRECTION('center_axis',(0.,-0.996194698091746,0.0871557427476574));
#329=DIRECTION('ref_axis',(1.33171473148889E-16,0.0871557427476575,0.996194698091746));
#330=DIRECTION('',(-1.,0.,0.));
#331=DIRECTION('center_axis',(0.,0.,-1.));
#332=DIRECTION('ref_axis',(0.665382399086968,0.746502687862054,0.));
#333=DIRECTION('center_axis',(7.13547284407073E-16,0.996194698091745,0.0871557427476597));
#334=DIRECTION('ref_axis',(-1.,7.16272919113004E-16,0.));
#335=DIRECTION('center_axis',(7.13547284407073E-16,0.996194698091745,0.0871557427476597));
#336=DIRECTION('ref_axis',(-2.42372081130986E-15,-0.0871557427476595,0.996194698091745));
#337=DIRECTION('',(1.,-7.16272919113004E-16,0.));
#338=DIRECTION('center_axis',(0.,0.,-1.));
#339=DIRECTION('ref_axis',(0.665382399086968,0.746502687862054,0.));
#340=DIRECTION('center_axis',(0.,0.,-1.));
#341=DIRECTION('ref_axis',(0.665382399086968,0.746502687862054,0.));
#342=DIRECTION('center_axis',(0.,0.,-1.));
#343=DIRECTION('ref_axis',(-1.,0.,0.));
#344=DIRECTION('center_axis',(0.,0.,-1.));
#345=DIRECTION('ref_axis',(1.,0.,0.));
#346=DIRECTION('center_axis',(0.,0.,-1.));
#347=DIRECTION('ref_axis',(-1.,0.,0.));
#348=DIRECTION('center_axis',(0.,0.,1.));
#349=DIRECTION('ref_axis',(1.,0.,0.));
#350=DIRECTION('center_axis',(0.,-1.,0.));
#351=DIRECTION('ref_axis',(1.,0.,0.));
#352=DIRECTION('center_axis',(0.,0.,-1.));
#353=DIRECTION('ref_axis',(1.,0.,0.));
#354=DIRECTION('center_axis',(0.,0.,1.));
#355=DIRECTION('ref_axis',(1.,0.,0.));
#356=DIRECTION('center_axis',(0.,0.,-1.));
#357=DIRECTION('ref_axis',(1.,0.,0.));
#358=DIRECTION('',(-0.034899496702501,-4.27395569285714E-18,-0.999390827019096));
#359=DIRECTION('center_axis',(0.,0.,1.));
#360=DIRECTION('ref_axis',(1.,0.,0.));
#361=DIRECTION('center_axis',(0.,0.,1.));
#362=DIRECTION('ref_axis',(1.,0.,0.));
#363=DIRECTION('center_axis',(0.,0.,-1.));
#364=DIRECTION('ref_axis',(1.,0.,0.));
#365=DIRECTION('center_axis',(0.,0.,1.));
#366=DIRECTION('ref_axis',(1.,0.,0.));
#367=DIRECTION('',(0.0331551783885263,-4.06033830886682E-18,0.999450215941757));
#368=DIRECTION('',(0.0331551783885263,-4.06033830886682E-18,0.999450215941757));
#369=DIRECTION('center_axis',(0.,0.,1.));
#370=DIRECTION('ref_axis',(1.,0.,0.));
#371=CARTESIAN_POINT('',(0.,0.,0.));
#372=CARTESIAN_POINT('Origin',(-10.8104885690915,-49.6248938583793,6.35238935057282));
#373=CARTESIAN_POINT('',(-8.603725779033,-49.6248938583793,6.35238935057282));
#374=CARTESIAN_POINT('',(-8.56898712969228,-49.8698621162519,9.15238935057282));
#375=CARTESIAN_POINT('Origin',(-5.26538053668608,-49.1973562672702,1.46561232279959));
#376=CARTESIAN_POINT('',(-10.8104885690915,-49.6248938583793,6.35238935057282));
#377=CARTESIAN_POINT('',(-11.4653805366861,-49.6248938583793,6.35238935057282));
#378=CARTESIAN_POINT('',(-10.5999217675736,-49.8698621162519,9.15238935057282));
#379=CARTESIAN_POINT('Ctrl Pts',(-10.8104885690914,-49.6248938583793,6.35238935057283));
#380=CARTESIAN_POINT('Ctrl Pts',(-10.7052051683318,-49.7497485684484,7.77948521690894));
#381=CARTESIAN_POINT('Ctrl Pts',(-10.5999217675736,-49.8698621162519,9.15238935057283));
#382=CARTESIAN_POINT('',(-7.61962170557541,-49.8698621162519,9.15238935057282));
#383=CARTESIAN_POINT('Origin',(-5.26538053668608,-50.5748938583793,6.35238935057282));
#384=CARTESIAN_POINT('',(-8.60372577903299,-51.5248938583793,6.35238935057282));
#385=CARTESIAN_POINT('',(-8.73626644047207,-50.5748938583793,6.35238935057282));
#386=CARTESIAN_POINT('Origin',(-5.26538053668608,-50.5748938583793,6.35238935057282));
#387=CARTESIAN_POINT('',(-10.8104885690914,-51.5248938583793,6.35238935057282));
#388=CARTESIAN_POINT('',(0.934619463313874,-51.5248938583793,6.35238935057282));
#389=CARTESIAN_POINT('Origin',(-5.26538053668607,-50.5748938583793,6.35238935057282));
#390=CARTESIAN_POINT('Origin',(-5.26538053668608,-50.5748938583793,6.35238935057282));
#391=CARTESIAN_POINT('Origin',(-4.42875484205934,-12.6124877681342,9.15238935057282));
#392=CARTESIAN_POINT('',(-8.6433808739805,-50.5748938583793,9.15238935057282));
#393=CARTESIAN_POINT('Origin',(-5.26538053668608,-50.5748938583793,9.15238935057282));
#394=CARTESIAN_POINT('',(-10.5999217675736,-51.2799256005067,9.15238935057282));
#395=CARTESIAN_POINT('Origin',(-5.26538053668607,-50.5748938583793,9.15238935057282));
#396=CARTESIAN_POINT('',(-8.56898712969227,-51.2799256005067,9.15238935057282));
#397=CARTESIAN_POINT('',(-2.07451367317002,-51.2799256005067,9.15238935057282));
#398=CARTESIAN_POINT('Origin',(-5.26538053668608,-50.5748938583793,9.15238935057282));
#399=CARTESIAN_POINT('Origin',(-4.42875484205934,-12.6124877681342,9.15238935057282));
#400=CARTESIAN_POINT('',(-1.96177394367989,-51.2799256005067,9.15238935057282));
#401=CARTESIAN_POINT('',(-1.96177394367988,-49.8698621162519,9.15238935057282));
#402=CARTESIAN_POINT('Origin',(-5.26538053668608,-50.5748938583793,9.15238935057282));
#403=CARTESIAN_POINT('',(0.0691606942014428,-51.2799256005067,9.15238935057282));
#404=CARTESIAN_POINT('',(-2.07451367317002,-51.2799256005067,9.15238935057282));
#405=CARTESIAN_POINT('',(0.0691606942014467,-49.8698621162519,9.15238935057282));
#406=CARTESIAN_POINT('Origin',(-5.26538053668607,-50.5748938583793,9.15238935057282));
#407=CARTESIAN_POINT('',(-7.61962170557541,-49.8698621162519,9.15238935057282));
#408=CARTESIAN_POINT('Origin',(0.279727495719299,-51.5248938583793,6.35238935057282));
#409=CARTESIAN_POINT('Origin',(-5.26538053668608,-51.9524314494884,1.46561232279936));
#410=CARTESIAN_POINT('Ctrl Pts',(-10.8104885690914,-51.5248938583793,6.35238935057283));
#411=CARTESIAN_POINT('Ctrl Pts',(-10.7052051683323,-51.4000391483107,7.77948521690245));
#412=CARTESIAN_POINT('Ctrl Pts',(-10.5999217675736,-51.2799256005067,9.15238935057283));
#413=CARTESIAN_POINT('Origin',(0.279727495719299,-51.5248938583793,6.35238935057282));
#414=CARTESIAN_POINT('',(-1.92703529433917,-51.5248938583793,6.35238935057282));
#415=CARTESIAN_POINT('Origin',(-5.26538053668608,-51.9524314494884,1.46561232279936));
#416=CARTESIAN_POINT('',(0.279727495719299,-51.5248938583793,6.35238935057282));
#417=CARTESIAN_POINT('',(0.934619463313874,-51.5248938583793,6.35238935057282));
#418=CARTESIAN_POINT('Ctrl Pts',(0.279727495719298,-51.5248938583793,6.35238935057283));
#419=CARTESIAN_POINT('Ctrl Pts',(0.174444094960188,-51.4000391483107,7.77948521690241));
#420=CARTESIAN_POINT('Ctrl Pts',(0.0691606942014428,-51.2799256005067,9.15238935057282));
#421=CARTESIAN_POINT('Origin',(-5.26538053668607,-50.5748938583793,6.35238935057282));
#422=CARTESIAN_POINT('Origin',(-10.8104885690915,-49.6248938583793,6.35238935057282));
#423=CARTESIAN_POINT('',(-1.92703529433916,-49.6248938583793,6.35238935057282));
#424=CARTESIAN_POINT('Origin',(-5.26538053668608,-49.1973562672702,1.46561232279959));
#425=CARTESIAN_POINT('',(0.279727495719306,-49.6248938583793,6.35238935057282));
#426=CARTESIAN_POINT('Ctrl Pts',(0.279727495719305,-49.6248938583793,6.35238935057283));
#427=CARTESIAN_POINT('Ctrl Pts',(0.174444094960382,-49.7497485684476,7.77948521689996));
#428=CARTESIAN_POINT('Ctrl Pts',(0.0691606942014467,-49.8698621162519,9.15238935057283));
#429=CARTESIAN_POINT('',(-11.4653805366861,-49.6248938583793,6.35238935057282));
#430=CARTESIAN_POINT('Origin',(-5.26538053668607,-50.5748938583793,6.35238935057282));
#431=CARTESIAN_POINT('Origin',(-5.26538053668607,-50.5748938583793,6.35238935057282));
#432=CARTESIAN_POINT('Origin',(-5.26538053668608,-50.5748938583793,6.35238935057282));
#433=CARTESIAN_POINT('Origin',(-5.26538053668608,-50.5748938583793,6.35238935057282));
#434=CARTESIAN_POINT('Origin',(-5.26538053668608,-50.5748938583793,13.5));
#435=CARTESIAN_POINT('',(-8.49706338095096,-50.5748938583793,13.5348994967025));
#436=CARTESIAN_POINT('',(-2.0336976924212,-50.5748938583793,13.5348994967025));
#437=CARTESIAN_POINT('Origin',(-5.26538053668608,-50.5748938583793,13.5348994967025));
#438=CARTESIAN_POINT('',(-3.0330885194403,-50.5748938583793,14.5));
#439=CARTESIAN_POINT('Origin',(-3.0330885194403,-50.5748938583793,13.5));
#440=CARTESIAN_POINT('Origin',(-5.26538053668608,-50.5748938583793,14.5));
#441=CARTESIAN_POINT('Origin',(-5.26538053668608,-50.5748938583793,13.5348994967025));
#442=CARTESIAN_POINT('Origin',(-5.26538053668608,-50.5748938583793,13.));
#443=CARTESIAN_POINT('',(-8.51574248297655,-50.5748938583793,13.));
#444=CARTESIAN_POINT('',(-8.51574248297655,-50.5748938583793,13.));
#445=CARTESIAN_POINT('Origin',(-5.26538053668608,-50.5748938583793,13.));
#446=CARTESIAN_POINT('Origin',(-5.26538053668608,-50.5748938583793,14.5));
#447=CARTESIAN_POINT('Origin',(-5.26538053668608,-50.5748938583793,13.));
#448=CARTESIAN_POINT('',(-8.74463905754507,-50.5748938583793,6.1));
#449=CARTESIAN_POINT('Origin',(-5.26538053668608,-50.5748938583793,6.1));
#450=CARTESIAN_POINT('',(-8.51574248297655,-50.5748938583793,13.));
#451=CARTESIAN_POINT('',(-8.51574248297655,-50.5748938583793,13.));
#452=CARTESIAN_POINT('Origin',(-5.63826531072525,-18.0354163337169,6.1));
#453=UNCERTAINTY_MEASURE_WITH_UNIT(LENGTH_MEASURE(0.01),#457,
'DISTANCE_ACCURACY_VALUE',
'Maximum model space distance between geometric entities at asserted c
onnectivities');
#454=UNCERTAINTY_MEASURE_WITH_UNIT(LENGTH_MEASURE(0.01),#457,
'DISTANCE_ACCURACY_VALUE',
'Maximum model space distance between geometric entities at asserted c
onnectivities');
#455=(
GEOMETRIC_REPRESENTATION_CONTEXT(3)
GLOBAL_UNCERTAINTY_ASSIGNED_CONTEXT((#453))
GLOBAL_UNIT_ASSIGNED_CONTEXT((#457,#458,#459))
REPRESENTATION_CONTEXT('','3D')
);
#456=(
GEOMETRIC_REPRESENTATION_CONTEXT(3)
GLOBAL_UNCERTAINTY_ASSIGNED_CONTEXT((#454))
GLOBAL_UNIT_ASSIGNED_CONTEXT((#457,#458,#459))
REPRESENTATION_CONTEXT('','3D')
);
#457=(
LENGTH_UNIT()
NAMED_UNIT(*)
SI_UNIT(.MILLI.,.METRE.)
);
#458=(
NAMED_UNIT(*)
PLANE_ANGLE_UNIT()
SI_UNIT($,.RADIAN.)
);
#459=(
NAMED_UNIT(*)
SI_UNIT($,.STERADIAN.)
SOLID_ANGLE_UNIT()
);
#460=SHAPE_DEFINITION_REPRESENTATION(#461,#462);
#461=PRODUCT_DEFINITION_SHAPE('',$,#464);
#462=SHAPE_REPRESENTATION('',(#252),#455);
#463=PRODUCT_DEFINITION_CONTEXT('part definition',#468,'design');
#464=PRODUCT_DEFINITION('Supercon 2023 Badge Enclosure - Basic',
'Supercon 2023 Badge Enclosure - Basic v4',#465,#463);
#465=PRODUCT_DEFINITION_FORMATION('',$,#470);
#466=PRODUCT_RELATED_PRODUCT_CATEGORY(
'Supercon 2023 Badge Enclosure - Basic v4',
'Supercon 2023 Badge Enclosure - Basic v4',(#470));
#467=APPLICATION_PROTOCOL_DEFINITION('international standard',
'automotive_design',2009,#468);
#468=APPLICATION_CONTEXT(
'Core Data for Automotive Mechanical Design Process');
#469=PRODUCT_CONTEXT('part definition',#468,'mechanical');
#470=PRODUCT('Supercon 2023 Badge Enclosure - Basic',
'Supercon 2023 Badge Enclosure - Basic v4',$,(#469));
#471=PRESENTATION_STYLE_ASSIGNMENT((#476));
#472=PRESENTATION_STYLE_ASSIGNMENT((#477));
#473=PRESENTATION_STYLE_ASSIGNMENT((#478));
#474=PRESENTATION_STYLE_ASSIGNMENT((#479));
#475=PRESENTATION_STYLE_ASSIGNMENT((#480));
#476=SURFACE_STYLE_USAGE(.BOTH.,#481);
#477=SURFACE_STYLE_USAGE(.BOTH.,#482);
#478=SURFACE_STYLE_USAGE(.BOTH.,#483);
#479=SURFACE_STYLE_USAGE(.BOTH.,#484);
#480=SURFACE_STYLE_USAGE(.BOTH.,#485);
#481=SURFACE_SIDE_STYLE('',(#486));
#482=SURFACE_SIDE_STYLE('',(#487));
#483=SURFACE_SIDE_STYLE('',(#488));
#484=SURFACE_SIDE_STYLE('',(#489));
#485=SURFACE_SIDE_STYLE('',(#490));
#486=SURFACE_STYLE_FILL_AREA(#491);
#487=SURFACE_STYLE_FILL_AREA(#492);
#488=SURFACE_STYLE_FILL_AREA(#493);
#489=SURFACE_STYLE_FILL_AREA(#494);
#490=SURFACE_STYLE_FILL_AREA(#495);
#491=FILL_AREA_STYLE('Opaque(192,192,192)',(#496));
#492=FILL_AREA_STYLE('ABS (White)',(#497));
#493=FILL_AREA_STYLE('Opaque(142,76,38)',(#498));
#494=FILL_AREA_STYLE('ABS (Red)',(#499));
#495=FILL_AREA_STYLE('Acrylic (Clear)',(#500));
#496=FILL_AREA_STYLE_COLOUR('Opaque(192,192,192)',#501);
#497=FILL_AREA_STYLE_COLOUR('ABS (White)',#502);
#498=FILL_AREA_STYLE_COLOUR('Opaque(142,76,38)',#503);
#499=FILL_AREA_STYLE_COLOUR('ABS (Red)',#504);
#500=FILL_AREA_STYLE_COLOUR('Acrylic (Clear)',#505);
#501=COLOUR_RGB('Opaque(192,192,192)',0.752941176470588,0.752941176470588,
0.752941176470588);
#502=COLOUR_RGB('ABS (White)',0.964705882352941,0.964705882352941,0.952941176470588);
#503=COLOUR_RGB('Opaque(142,76,38)',0.556862745098039,0.298039215686275,
0.149019607843137);
#504=COLOUR_RGB('ABS (Red)',1.,0.,0.);
#505=COLOUR_RGB('Acrylic (Clear)',0.964705882352941,0.964705882352941,0.952941176470588);
ENDSEC;
END-ISO-10303-21;
