0
SECTION
2
HEADER
9
$INSUNITS
70
4
9
$ACADVER
1
AC1014
9
$HANDSEED
5
FFFF
0
ENDSEC
0
SECTION
2
TABLES
0
TABLE
2
VPORT
5
8
100
AcDbSymbolTable
0
ENDTAB
0
TABLE
2
LTYPE
5
5
100
AcDbSymbolTable
0
LTYPE
5
14
100
AcDbSymbolTableRecord
100
AcDbLinetypeTableRecord
2
BYBLOCK
70
0
0
LTYPE
5
15
100
AcDbSymbolTableRecord
100
AcDbLinetypeTableRecord
2
BYLAYER
70
0
0
ENDTAB
0
TABLE
2
LAYER
5
2
100
AcDbSymbolTable
70
2
0
LAYER
5
50
100
AcDbSymbolTableRecord
100
AcDbLayerTableRecord
2
0
70
0
6
CONTINUOUS
0
ENDTAB
0
TABLE
2
STYLE
5
3
100
AcDbSymbolTable
70
1
0
STYLE
5
11
100
AcDbSymbolTableRecord
100
AcDbTextStyleTableRecord
2
STANDARD
70
0
0
ENDTAB
0
TABLE
2
VIEW
5
6
100
AcDbSymbolTable
70
0
0
ENDTAB
0
TABLE
2
UCS
5
7
100
AcDbSymbolTable
70
0
0
ENDTAB
0
TABLE
2
APPID
5
9
100
AcDbSymbolTable
70
2
0
APPID
5
12
100
AcDbSymbolTableRecord
100
AcDbRegAppTableRecord
2
ACAD
70
0
0
ENDTAB
0
TABLE
2
DIMSTYLE
5
A
100
AcDbSymbolTable
70
1
0
ENDTAB
0
TABLE
2
BLOCK_RECORD
5
1
100
AcDbSymbolTable
70
1
0
BLOCK_RECORD
5
1F
100
AcDbSymbolTableRecord
100
AcDbBlockTableRecord
2
*MODEL_SPACE
0
BLOCK_RECORD
5
1B
100
AcDbSymbolTableRecord
100
AcDbBlockTableRecord
2
*PAPER_SPACE
0
ENDTAB
0
ENDSEC
0
SECTION
2
BLOCKS
0
BLOCK
5
20
100
AcDbEntity
100
AcDbBlockBegin
2
*MODEL_SPACE
0
ENDBLK
5
21
100
AcDbEntity
100
AcDbBlockEnd
0
BLOCK
5
1C
100
AcDbEntity
100
AcDbBlockBegin
2
*PAPER_SPACE
0
ENDBLK
5
1D
100
AcDbEntity
100
AcDbBlockEnd
0
ENDSEC
0
SECTION
2
ENTITIES
0
LWPOLYLINE
5
100
100
AcDbEntity
8
0
100
AcDbPolyline
90
70
70
1
43
0.0
10
7.0710575805698568
20
-0.01202880981494403
10
0.012028809814944464
20
7.0710575805698568
10
7.0710575805698568
20
-0.01202880981494403
10
-0.012028809814945331
20
-7.0710575805698568
10
7.0710575805698568
20
-0.01202880981494403
10
14.130086351324769
20
-7.0951152001997464
10
7.0710575805698568
20
-0.01202880981494403
10
14.154143970954657
20
7.0469999609399565
10
7.0951152001997499
20
14.130086351324763
10
0.012028809814939034
20
7.0710575805698559
10
-7.0469999609399689
20
14.154143970954653
10
-14.106028731694874
20
21.237230361339449
10
-21.189115122079677
20
14.178201590584543
10
-28.272201512464473
20
7.1191728198296369
10
-35.355287902849284
20
0.060144049074725148
10
-42.438374293234077
20
-6.9988847216801844
10
-49.497403063988976
20
0.084201668704610988
10
-42.414316673604191
20
7.1432304394595159
10
-35.331230283219391
20
14.202259210214443
10
-42.414316673604198
20
7.1432304394595283
10
-35.355287902849284
20
0.060144049074725148
10
-28.29625913209437
20
-7.0229423413100767
10
-21.23723036133946
20
-14.106028731694877
10
-28.320316751724263
20
-21.165057502449788
10
-35.403403142109077
20
-28.224086273204708
10
-42.486489532493877
20
-35.283115043959597
10
-49.569575922878684
20
-42.342143814714525
10
-42.510547152123763
20
-49.425230205099325
10
-35.427460761738956
20
-42.366201434344404
10
-28.344374371354164
20
-35.307172663589498
10
-21.26128798096935
20
-28.248143892834563
10
-14.202259210214459
20
-35.331230283219369
10
-7.11917281982966
20
-28.272201512464477
10
-0.060144049074746186
20
-35.355287902849291
10
6.9988847216801666
20
-42.438374293234105
10
-0.084201668704648736
20
-49.497403063989019
10
-7.1432304394595629
20
-42.414316673604205
10
-0.060144049074746242
20
-35.355287902849291
10
7.0229423413100633
20
-28.296259132094374
10
14.106028731694874
20
-21.237230361339464
10
21.165057502449773
20
-28.320316751724274
10
14.081971112064968
20
-35.379345522479177
10
21.140999882819894
20
-42.462431912864005
10
14.05791349243508
20
-49.521460683618919
10
6.9988847216801666
20
-42.438374293234105
10
-0.060144049074746242
20
-35.355287902849291
10
-7.1432304394595505
20
-42.414316673604219
10
-14.202259210214475
20
-35.331230283219398
10
-7.11917281982966
20
-28.272201512464477
10
-14.178201590584543
20
-21.189115122079674
10
-7.0951152001997499
20
-14.130086351324762
10
-0.036086429444845483
20
-21.213172741709563
10
7.0229423413100633
20
-28.296259132094374
10
-0.036086429444845969
20
-21.213172741709563
10
7.0469999609399654
20
-14.154143970954658
10
14.130086351324769
20
-7.0951152001997464
10
21.189115122079684
20
-14.178201590584553
10
28.248143892834573
20
-21.261287980969357
10
35.331230283219377
20
-14.202259210214462
10
42.414316673604226
20
-7.1432304394594599
10
49.473345444359175
20
-14.226316829844309
10
42.390259053974326
20
-21.285345600599257
10
35.331230283219412
20
-14.202259210214443
10
28.248143892834598
20
-21.261287980969357
10
21.165057502449784
20
-28.32031675172427
10
28.248143892834587
20
-21.261287980969364
10
21.189115122079663
20
-14.178201590584544
10
28.272201512464466
20
-7.1191728198296449
10
21.213172741709563
20
-0.036086429444844179
10
14.154143970954662
20
7.0469999609399592
0
LWPOLYLINE
5
101
100
AcDbEntity
8
0
100
AcDbPolyline
90
86
70
1
43
0.0
10
0.012028809814944464
20
7.0710575805698568
10
-7.0710575805698568
20
0.012028809814944898
10
-14.154143970954658
20
-7.0469999609399689
10
-7.0710575805698568
20
0.012028809814944585
10
-0.012028809814945331
20
-7.0710575805698568
10
7.0469999609399654
20
-14.154143970954658
10
-0.012028809814945696
20
-7.0710575805698568
10
-7.0951152001997446
20
-14.130086351324769
10
-14.178201590584541
20
-21.189115122079663
10
-7.1191728198296449
20
-28.272201512464463
10
-0.036086429444845483
20
-21.213172741709563
10
-7.11917281982966
20
-28.272201512464477
10
-0.060144049074746186
20
-35.355287902849291
10
7.0229423413100633
20
-28.296259132094374
10
14.081971112064968
20
-35.379345522479177
10
21.165057502449784
20
-28.32031675172427
10
28.224086273204698
20
-35.403403142109084
10
35.283115043959612
20
-42.486489532493898
10
28.200028653574797
20
-49.545518303248812
10
21.140999882819884
20
-42.462431912863998
10
28.224086273204698
20
-35.403403142109084
10
35.307172663589512
20
-28.344374371354171
10
28.224086273204698
20
-35.403403142109084
10
21.165057502449784
20
-28.32031675172427
10
14.106028731694876
20
-21.237230361339464
10
21.189115122079684
20
-14.178201590584553
10
28.272201512464466
20
-7.1191728198296449
10
35.355287902849255
20
-0.060144049074743779
10
28.272201512464466
20
-7.1191728198296449
10
35.331230283219348
20
-14.202259210214436
10
42.414316673604148
20
-7.1432304394595452
10
35.355287902849255
20
-0.060144049074744022
10
42.414316673604148
20
-7.1432304394595452
10
49.497403063988934
20
-0.084201668704661697
10
42.438374293234055
20
6.9988847216801355
10
35.355287902849255
20
-0.060144049074744022
10
28.296259132094363
20
7.0229423413100589
10
21.23723036133946
20
14.10602873169486
10
14.17820159058456
20
21.189115122079663
10
7.1191728198296564
20
28.272201512464477
10
0.036086429444843068
20
21.213172741709574
10
-7.0469999609399689
20
14.154143970954667
10
0.012028809814939034
20
7.0710575805698559
10
-7.0710575805698568
20
0.012028809814944898
10
-14.130086351324767
20
7.0951152001997455
10
-7.0710575805698568
20
0.012028809814944898
10
-0.012028809814945331
20
-7.0710575805698568
10
-7.0951152001997499
20
-14.130086351324762
10
-14.154143970954658
20
-7.0469999609399689
10
-21.21317274170957
20
0.036086429444833756
10
-14.154143970954658
20
-7.0469999609399689
10
-21.237230361339453
20
-14.106028731694879
10
-28.32031675172427
20
-21.165057502449791
10
-35.379345522479177
20
-14.081971112064984
10
-28.29625913209437
20
-7.0229423413100767
10
-35.379345522479177
20
-14.081971112064984
10
-42.462431912863977
20
-21.140999882819891
10
-49.545518303248784
20
-28.200028653574797
10
-42.486489532493877
20
-35.283115043959597
10
-35.427460761738956
20
-42.366201434344404
10
-28.368431990984035
20
-49.449287824729197
10
-21.28534560059925
20
-42.390259053974269
10
-28.344374371354164
20
-35.307172663589498
10
-35.403403142109077
20
-28.224086273204708
10
-42.462431912863977
20
-21.140999882819891
10
-49.521460683618884
20
-14.057913492435086
10
-42.438374293234077
20
-6.9988847216801844
10
-35.355287902849284
20
0.060144049074725148
10
-28.272201512464473
20
7.1191728198296369
10
-21.21317274170957
20
0.036086429444834187
10
-28.29625913209437
20
-7.0229423413100767
10
-35.355287902849284
20
0.060144049074725148
10
-42.414316673604191
20
7.1432304394595159
10
-49.473345444359111
20
14.226316829844324
10
-42.390259053974304
20
21.28534560059925
10
-35.331230283219391
20
14.202259210214443
10
-28.272201512464473
20
7.1191728198296369
10
-35.331230283219384
20
14.20225921021445
10
-28.248143892834584
20
21.261287980969339
10
-21.189115122079677
20
14.178201590584543
10
-14.130086351324767
20
7.0951152001997455
10
-7.0469999609399689
20
14.154143970954653
10
0.036086429444827095
20
21.213172741709563
10
-7.022942341310082
20
28.296259132094356
10
0.036086429444843068
20
21.213172741709574
10
7.0951152001997499
20
14.130086351324763
0
LWPOLYLINE
5
102
100
AcDbEntity
8
0
100
AcDbPolyline
90
2
70
1
43
0.0
10
14.130086351324769
20
-7.0951152001997464
10
21.213172741709563
20
-0.036086429444844179
0
LWPOLYLINE
5
103
100
AcDbEntity
8
0
100
AcDbPolyline
90
98
70
1
43
0.0
10
-14.154143970954658
20
-7.0469999609399689
10
-7.0951152001997446
20
-14.130086351324769
10
-0.036086429444845483
20
-21.213172741709563
10
7.0469999609399654
20
-14.154143970954658
10
14.130086351324769
20
-7.0951152001997464
10
21.189115122079663
20
-14.178201590584544
10
14.106028731694876
20
-21.237230361339464
10
7.0469999609399654
20
-14.154143970954658
10
14.106028731694874
20
-21.237230361339464
10
7.0229423413100633
20
-28.296259132094374
10
14.081971112064981
20
-35.379345522479191
10
6.9988847216801666
20
-42.438374293234105
10
14.081971112064968
20
-35.379345522479177
10
21.140999882819884
20
-42.462431912863998
10
28.224086273204698
20
-35.403403142109084
10
35.283115043959597
20
-42.486489532493898
10
42.342143814714504
20
-49.56957592287872
10
49.425230205099325
20
-42.51054715212382
10
42.366201434344418
20
-35.427460761738992
10
35.307172663589512
20
-28.344374371354171
10
42.390259053974326
20
-21.285345600599257
10
35.331230283219377
20
-14.202259210214462
10
28.272201512464466
20
-7.1191728198296449
10
21.213172741709563
20
-0.036086429444843748
10
14.154143970954662
20
7.0469999609399592
10
21.23723036133946
20
14.106028731694868
10
28.296259132094363
20
7.0229423413100589
10
35.37934552247917
20
14.081971112064968
10
28.320316751724267
20
21.165057502449773
10
21.26128798096935
20
28.248143892834587
10
28.344374371354114
20
35.307172663589441
10
35.403403142108971
20
28.224086273204676
10
42.486489532493721
20
35.283115043959548
10
35.427460761738857
20
42.366201434344298
10
28.368431990983982
20
49.449287824729062
10
21.285345600599221
20
42.390259053974184
10
14.226316829844336
20
49.473345444359005
10
7.143230439459515
20
42.41431667360412
10
0.08420166870461919
20
49.497403063988934
10
-6.998884721680195
20
42.438374293234034
10
-14.081971112064977
20
35.379345522479106
10
-21.165057502449752
20
28.320316751724228
10
-14.106028731694868
20
21.237230361339453
10
-7.022942341310082
20
28.296259132094356
10
0.060144049074732239
20
35.355287902849255
10
-6.998884721680195
20
42.438374293234034
10
-14.057913492435114
20
49.521460683618827
10
-21.140999882819898
20
42.462431912863899
10
-14.081971112064977
20
35.379345522479106
10
-7.022942341310082
20
28.296259132094356
10
-14.081971112064977
20
35.379345522479106
10
-21.165057502449784
20
28.320316751724249
10
-28.248143892834584
20
21.261287980969339
10
-35.307172663589512
20
28.344374371354128
10
-42.36620143434439
20
35.427460761738899
10
-35.307172663589512
20
28.344374371354128
10
-42.39025905397429
20
21.285345600599243
10
-35.331230283219384
20
14.20225921021445
10
-28.248143892834573
20
21.26128798096935
10
-21.189115122079677
20
14.178201590584543
10
-14.106028731694874
20
21.237230361339449
10
-7.022942341310082
20
28.296259132094356
10
0.060144049074731809
20
35.355287902849255
10
-6.998884721680195
20
42.438374293234034
10
-14.081971112064977
20
35.379345522479106
10
-21.140999882819926
20
42.462431912863906
10
-28.224086273204684
20
35.403403142109006
10
-35.283115043959612
20
42.486489532493778
10
-42.36620143434439
20
35.427460761738899
10
-49.425230205099268
20
42.510547152123678
10
-42.34214381471449
20
49.569575922878556
10
-35.283115043959612
20
42.486489532493778
10
-28.200028653574883
20
49.545518303248635
10
-21.140999882820019
20
42.462431912863906
10
-28.224086273204684
20
35.403403142109006
10
-21.165057502449784
20
28.320316751724249
10
-28.248143892834584
20
21.261287980969339
10
-35.30717266358949
20
28.344374371354149
10
-42.39025905397429
20
21.285345600599243
10
-49.449287824729154
20
28.368431990984028
10
-42.36620143434439
20
35.427460761738899
10
-35.283115043959612
20
42.486489532493778
10
-28.22408627320474
20
35.403403142108999
10
-35.307172663589512
20
28.344374371354128
10
-28.224086273204726
20
35.403403142109056
10
-21.165057502449784
20
28.320316751724249
10
-14.106028731694874
20
21.237230361339449
10
-7.0469999609399681
20
14.154143970954642
10
-14.130086351324767
20
7.0951152001997455
10
-21.21317274170957
20
0.036086429444834187
10
-14.130086351324774
20
7.0951152001997464
10
-21.189115122079677
20
14.178201590584543
10
-28.272201512464473
20
7.1191728198296369
10
-21.213172741709563
20
0.036086429444827095
10
-28.29625913209437
20
-7.0229423413100767
10
-21.237230361339453
20
-14.106028731694879
10
-14.178201590584543
20
-21.189115122079674
10
-21.23723036133946
20
-14.106028731694877
0
LWPOLYLINE
5
104
100
AcDbEntity
8
0
100
AcDbPolyline
90
46
70
1
43
0.0
10
7.0951152001997499
20
14.130086351324763
10
0.036086429444843068
20
21.213172741709574
10
7.119172819829628
20
28.272201512464438
10
14.202259210214441
20
35.331230283219334
10
7.1432304394595452
20
42.414316673604148
10
0.060144049074732239
20
35.355287902849255
10
7.143230439459515
20
42.41431667360412
10
14.202259210214434
20
35.331230283219334
10
7.119172819829628
20
28.272201512464438
10
0.060144049074731809
20
35.355287902849255
10
7.119172819829628
20
28.272201512464438
10
14.178201590584553
20
21.189115122079674
10
7.0951152001997499
20
14.130086351324763
10
14.154143970954662
20
7.0469999609399592
10
21.23723036133946
20
14.10602873169486
10
28.320316751724253
20
21.165057502449773
10
35.379345522479156
20
14.081971112064966
10
28.296259132094363
20
7.0229423413100589
10
21.213172741709563
20
-0.036086429444843748
10
28.296259132094363
20
7.0229423413100536
10
35.355287902849255
20
-0.060144049074743779
10
42.438374293234062
20
6.9988847216801702
10
35.379345522479156
20
14.081971112064966
10
42.462431912863963
20
21.140999882819891
10
35.403403142109049
20
28.224086273204687
10
42.486489532493849
20
35.283115043959668
10
35.427460761738857
20
42.366201434344298
10
28.3443743713541
20
35.307172663589427
10
21.285345600599221
20
42.390259053974184
10
14.202259210214434
20
35.331230283219334
10
21.285345600599221
20
42.390259053974184
10
28.3443743713541
20
35.307172663589427
10
35.427460761738857
20
42.366201434344298
10
42.510547152123607
20
49.425230205099162
10
49.569575922878464
20
42.342143814714419
10
42.486489532493849
20
35.283115043959668
10
49.545518303248798
20
28.20002865357484
10
42.462431912863963
20
21.140999882819891
10
49.521460683618876
20
14.057913492435077
10
42.438374293234062
20
6.9988847216801631
10
35.379345522479156
20
14.081971112064966
10
42.462431912863963
20
21.140999882819891
10
35.403403142109049
20
28.224086273204687
10
28.320316751724253
20
21.165057502449773
10
21.261287980969353
20
28.248143892834566
10
14.17820159058456
20
21.189115122079663
0
LWPOLYLINE
5
105
100
AcDbEntity
8
0
100
AcDbPolyline
90
8
70
1
43
0.0
10
21.23723036133946
20
14.106028731694868
10
14.178201590584553
20
21.189115122079674
10
21.261287980969328
20
28.248143892834531
10
14.202259210214434
20
35.331230283219334
10
21.26128798096935
20
28.248143892834552
10
28.3443743713541
20
35.307172663589427
10
35.403403142108971
20
28.224086273204676
10
28.320316751724267
20
21.165057502449773
0
LWPOLYLINE
5
106
100
AcDbEntity
8
0
100
AcDbPolyline
90
4
70
1
43
0.0
10
-28.320316751724263
20
-21.165057502449788
10
-21.261287980969353
20
-28.248143892834587
10
-14.178201590584543
20
-21.189115122079674
10
-21.26128798096935
20
-28.248143892834563
0
LWPOLYLINE
5
107
100
AcDbEntity
8
0
100
AcDbPolyline
90
2
70
1
43
0.0
10
-42.438374293234077
20
-6.9988847216801844
10
-35.379345522479177
20
-14.081971112064984
0
LWPOLYLINE
5
108
100
AcDbEntity
8
0
100
AcDbPolyline
90
14
70
1
43
0.0
10
-35.379345522479177
20
-14.081971112064984
10
-42.462431912863991
20
-21.140999882819894
10
-35.403403142109077
20
-28.224086273204708
10
-42.486489532493863
20
-35.283115043959619
10
-35.427460761738956
20
-42.366201434344404
10
-28.344374371354164
20
-35.307172663589498
10
-21.285345600599243
20
-42.390259053974326
10
-14.226316829844341
20
-49.473345444359111
10
-7.143230439459554
20
-42.414316673604205
10
-14.202259210214416
20
-35.331230283219405
10
-21.26128798096935
20
-28.248143892834563
10
-28.344374371354164
20
-35.307172663589498
10
-35.40340314210907
20
-28.224086273204691
10
-28.320316751724263
20
-21.165057502449788
0
LWPOLYLINE
5
109
100
AcDbEntity
8
0
100
AcDbPolyline
90
2
70
1
43
0.0
10
-21.285345600599243
20
-42.390259053974326
10
-14.202259210214416
20
-35.331230283219405
0
LWPOLYLINE
5
110
100
AcDbEntity
8
0
100
AcDbPolyline
90
2
70
1
43
0.0
10
35.307172663589512
20
-28.344374371354171
10
28.248143892834598
20
-21.261287980969357
0
LWPOLYLINE
5
111
100
AcDbEntity
8
0
100
AcDbPolyline
90
2
70
1
43
0.0
10
35.283115043959597
20
-42.486489532493898
10
42.366201434344418
20
-35.427460761738992
0
LWPOLYLINE
5
112
100
AcDbEntity
8
0
100
AcDbPolyline
90
4
70
1
43
0.0
10
42.366201434344418
20
-35.427460761738992
10
49.449287824729225
20
-28.368431990984078
10
42.390259053974319
20
-21.285345600599264
10
35.307172663589512
20
-28.344374371354171
0
LWPOLYLINE
5
113
100
AcDbEntity
8
0
100
AcDbPolyline
90
230
70
1
43
0.0
10
-92.119172819829657
20
-28.272201512464477
10
-99.202259210214478
20
-35.331230283219398
10
-92.143230439459543
20
-42.414316673604219
10
-85.060144049074751
20
-35.355287902849291
10
-92.119172819829657
20
-28.272201512464477
10
-99.202259210214464
20
-35.331230283219369
10
-106.26128798096936
20
-28.248143892834563
10
-113.32031675172428
20
-21.165057502449788
10
-120.40340314210907
20
-28.224086273204691
10
-113.34437437135418
20
-35.307172663589498
10
-120.42746076173896
20
-42.366201434344404
10
-127.48648953249388
20
-35.283115043959597
10
-134.54551830324877
20
-28.200028653574797
10
-127.46243191286398
20
-21.140999882819891
10
-134.52146068361887
20
-14.057913492435086
10
-127.43837429323408
20
-6.9988847216801844
10
-120.37934552247918
20
-14.081971112064984
10
-113.29625913209438
20
-7.0229423413100767
10
-120.35528790284928
20
0.060144049074725148
10
-127.43837429323408
20
-6.9988847216801844
10
-134.49740306398897
20
0.084201668704610988
10
-127.41431667360419
20
7.1432304394595159
10
-120.33123028321938
20
14.202259210214443
10
-127.41431667360419
20
7.1432304394595283
10
-120.35528790284928
20
0.060144049074725148
10
-113.29625913209438
20
-7.0229423413100767
10
-106.21317274170956
20
0.036086429444826665
10
-113.27220151246448
20
7.1191728198296369
10
-106.18911512207967
20
14.178201590584543
10
-113.24814389283459
20
21.261287980969339
10
-120.30717266358951
20
28.344374371354128
10
-127.36620143434439
20
35.427460761738899
10
-120.30717266358951
20
28.344374371354128
10
-113.22408627320473
20
35.403403142108999
10
-120.28311504395961
20
42.486489532493778
10
-127.36620143434439
20
35.427460761738899
10
-120.28311504395961
20
42.486489532493778
10
-113.22408627320469
20
35.403403142109006
10
-106.1650575024498
20
28.320316751724249
10
-99.081971112064977
20
35.379345522479106
10
-91.998884721680199
20
42.438374293234034
10
-99.081971112064977
20
35.379345522479106
10
-106.16505750244976
20
28.320316751724228
10
-99.106028731694877
20
21.237230361339453
10
-92.022942341310085
20
28.296259132094356
10
-84.963913570555164
20
21.213172741709563
10
-92.046999960939957
20
14.154143970954653
10
-84.987971190185064
20
7.0710575805698559
10
-77.904884799800257
20
14.130086351324763
10
-84.96391357055515
20
21.213172741709574
10
-77.880827180170343
20
28.272201512464477
10
-70.821798409415436
20
21.189115122079663
10
-77.904884799800257
20
14.130086351324763
10
-70.821798409415436
20
21.189115122079674
10
-63.738712019030679
20
28.248143892834531
10
-70.797740789785564
20
35.331230283219334
10
-63.738712019030643
20
28.248143892834552
10
-56.6556256286459
20
35.307172663589427
10
-49.596596857891022
20
28.224086273204676
10
-42.513510467506279
20
35.283115043959548
10
-49.572539238261143
20
42.366201434344298
10
-42.489452847876393
20
49.425230205099162
10
-35.430424077121536
20
42.342143814714419
10
-42.513510467506151
20
35.283115043959668
10
-49.596596857890951
20
28.224086273204687
10
-56.679683248275751
20
21.165057502449773
10
-49.620654477520851
20
14.081971112064966
10
-42.537568087136037
20
21.140999882819891
10
-49.596596857890951
20
28.224086273204687
10
-42.537568087136037
20
21.140999882819891
10
-35.454481696751188
20
28.20002865357484
10
-42.513510467506151
20
35.283115043959668
10
-49.572539238261143
20
42.366201434344298
10
-56.6556256286459
20
35.307172663589427
10
-63.714654399400779
20
42.390259053974184
10
-56.6556256286459
20
35.307172663589427
10
-49.572539238261143
20
42.366201434344298
10
-56.631568009016021
20
49.449287824729062
10
-63.714654399400779
20
42.390259053974184
10
-70.773683170155664
20
49.473345444359005
10
-77.856769560540485
20
42.41431667360412
10
-84.915798331295377
20
49.497403063988934
10
-91.998884721680199
20
42.438374293234034
10
-84.939855950925264
20
35.355287902849255
10
-92.022942341310085
20
28.296259132094356
10
-84.939855950925264
20
35.355287902849255
10
-77.880827180170371
20
28.272201512464438
10
-70.797740789785564
20
35.331230283219334
10
-77.856769560540457
20
42.414316673604148
10
-84.939855950925264
20
35.355287902849255
10
-77.880827180170371
20
28.272201512464438
10
-84.96391357055515
20
21.213172741709574
10
-92.046999960939957
20
14.154143970954667
10
-84.987971190185064
20
7.0710575805698559
10
-92.071057580569857
20
0.012028809814944585
10
-99.154143970954664
20
-7.0469999609399689
10
-106.21317274170957
20
0.036086429444834187
10
-113.29625913209438
20
-7.0229423413100767
10
-106.23723036133946
20
-14.106028731694877
10
-99.154143970954664
20
-7.0469999609399689
10
-106.21317274170957
20
0.036086429444834187
10
-99.130086351324778
20
7.0951152001997464
10
-106.18911512207967
20
14.178201590584543
10
-113.24814389283458
20
21.26128798096935
10
-120.33123028321938
20
14.20225921021445
10
-113.24814389283459
20
21.261287980969339
10
-106.1650575024498
20
28.320316751724249
10
-113.22408627320472
20
35.403403142109056
10
-120.30717266358951
20
28.344374371354128
10
-127.39025905397429
20
21.285345600599243
10
-134.44928782472917
20
28.368431990984028
10
-127.36620143434439
20
35.427460761738899
10
-134.42523020509927
20
42.510547152123678
10
-127.34214381471449
20
49.569575922878556
10
-120.28311504395961
20
42.486489532493778
10
-113.20002865357488
20
49.545518303248635
10
-106.14099988282001
20
42.462431912863906
10
-113.22408627320469
20
35.403403142109006
10
-106.14099988281993
20
42.462431912863906
10
-99.081971112064977
20
35.379345522479106
10
-106.1409998828199
20
42.462431912863899
10
-99.057913492435119
20
49.521460683618827
10
-91.998884721680199
20
42.438374293234034
10
-84.939855950925264
20
35.355287902849255
10
-77.856769560540485
20
42.41431667360412
10
-70.797740789785564
20
35.331230283219334
10
-77.880827180170371
20
28.272201512464438
10
-70.821798409415436
20
21.189115122079674
10
-63.762769638660544
20
14.106028731694868
10
-56.70374086790563
20
7.0229423413100589
10
-63.762769638660544
20
14.10602873169486
10
-70.821798409415436
20
21.189115122079663
10
-63.738712019030643
20
28.248143892834566
10
-56.679683248275751
20
21.165057502449773
10
-63.762769638660544
20
14.10602873169486
10
-70.845856029045336
20
7.0469999609399592
10
-63.786827258290444
20
-0.036086429444844179
10
-70.869913648675222
20
-7.0951152001997464
10
-63.810884877920344
20
-14.178201590584544
10
-56.72779848753553
20
-7.1191728198296449
10
-49.668769716780652
20
-14.202259210214436
10
-42.585683326395852
20
-7.1432304394595452
10
-49.644712097150752
20
-0.060144049074743779
10
-42.585683326395852
20
-7.1432304394595452
10
-35.502596936011059
20
-0.084201668704661697
10
-42.561625706765938
20
6.9988847216801355
10
-49.644712097150752
20
-0.060144049074743779
10
-56.72779848753553
20
-7.1191728198296449
10
-49.668769716780616
20
-14.202259210214462
10
-42.609740946025667
20
-21.285345600599257
10
-49.668769716780581
20
-14.202259210214443
10
-56.751856107165395
20
-21.261287980969357
10
-63.834942497550209
20
-28.32031675172427
10
-56.751856107165409
20
-21.261287980969364
10
-63.810884877920344
20
-14.178201590584544
10
-70.893971268305123
20
-21.237230361339464
10
-77.953000039060043
20
-14.154143970954658
10
-70.893971268305123
20
-21.237230361339464
10
-77.977057658689944
20
-28.296259132094374
10
-85.060144049074751
20
-35.355287902849291
10
-92.119172819829657
20
-28.272201512464477
10
-85.03608642944485
20
-21.213172741709563
10
-92.095115200199743
20
-14.130086351324769
10
-99.178201590584536
20
-21.189115122079663
10
-92.119172819829643
20
-28.272201512464463
10
-85.03608642944485
20
-21.213172741709563
10
-77.953000039060043
20
-14.154143970954658
10
-85.01202880981495
20
-7.0710575805698568
10
-77.953000039060043
20
-14.154143970954658
10
-70.869913648675222
20
-7.0951152001997464
10
-63.810884877920309
20
-14.178201590584553
10
-56.75185610716543
20
-21.261287980969357
10
-49.668769716780616
20
-14.202259210214462
10
-42.585683326395767
20
-7.1432304394594599
10
-35.526654555640818
20
-14.226316829844309
10
-42.609740946025667
20
-21.285345600599257
10
-49.692827336410481
20
-28.344374371354171
10
-42.633798565655582
20
-35.427460761738992
10
-35.550712175270789
20
-28.368431990984078
10
-42.609740946025681
20
-21.285345600599264
10
-49.692827336410481
20
-28.344374371354171
10
-56.775913726795295
20
-35.403403142109084
10
-49.716884956040403
20
-42.486489532493898
10
-42.633798565655582
20
-35.427460761738992
10
-49.716884956040403
20
-42.486489532493898
10
-42.657856185285503
20
-49.56957592287872
10
-35.574769794900689
20
-42.51054715212382
10
-42.633798565655582
20
-35.427460761738992
10
-49.692827336410481
20
-28.344374371354171
10
-56.751856107165395
20
-21.261287980969357
10
-49.692827336410481
20
-28.344374371354171
10
-56.775913726795295
20
-35.403403142109084
10
-63.834942497550209
20
-28.32031675172427
10
-70.918028887935023
20
-35.379345522479177
10
-63.83494249755023
20
-28.320316751724274
10
-70.893971268305123
20
-21.237230361339464
10
-77.977057658689944
20
-28.296259132094374
10
-85.03608642944485
20
-21.213172741709563
10
-77.977057658689944
20
-28.296259132094374
10
-70.918028887935023
20
-35.379345522479177
10
-63.859000117180109
20
-42.462431912864005
10
-70.942086507564923
20
-49.521460683618919
10
-78.001115278319844
20
-42.438374293234105
10
-85.060144049074751
20
-35.355287902849291
10
-78.001115278319844
20
-42.438374293234105
10
-70.918028887935023
20
-35.379345522479191
10
-77.977057658689944
20
-28.296259132094374
10
-85.060144049074751
20
-35.355287902849291
10
-92.143230439459558
20
-42.414316673604205
10
-85.084201668704651
20
-49.497403063989019
10
-78.001115278319844
20
-42.438374293234105
10
-70.918028887935023
20
-35.379345522479177
10
-63.859000117180109
20
-42.462431912863998
10
-56.775913726795295
20
-35.403403142109084
10
-63.859000117180109
20
-42.462431912863998
10
-56.799971346425195
20
-49.545518303248812
10
-49.716884956040381
20
-42.486489532493898
10
-56.775913726795295
20
-35.403403142109084
10
-63.834942497550209
20
-28.32031675172427
10
-70.893971268305123
20
-21.237230361339464
10
-63.810884877920309
20
-14.178201590584553
10
-56.72779848753553
20
-7.1191728198296449
10
-63.786827258290444
20
-0.036086429444843748
10
-70.845856029045336
20
7.0469999609399592
10
-77.904884799800257
20
14.130086351324763
10
-70.845856029045336
20
7.0469999609399565
10
-77.928942419430143
20
-0.012028809814943475
10
-85.01202880981495
20
-7.0710575805698568
10
-92.095115200199743
20
-14.130086351324762
10
-99.178201590584536
20
-21.189115122079674
0
LWPOLYLINE
5
114
100
AcDbEntity
8
0
100
AcDbPolyline
90
4
70
1
43
0.0
10
-49.596596857891022
20
28.224086273204676
10
-56.655625628645879
20
35.307172663589441
10
-63.738712019030643
20
28.248143892834587
10
-56.67968324827573
20
21.165057502449773
0
LWPOLYLINE
5
115
100
AcDbEntity
8
0
100
AcDbPolyline
90
4
70
1
43
0.0
10
-92.095115200199743
20
-14.130086351324769
10
-85.01202880981495
20
-7.0710575805698568
10
-92.071057580569857
20
0.012028809814944898
10
-99.154143970954664
20
-7.0469999609399689
0
LWPOLYLINE
5
116
100
AcDbEntity
8
0
100
AcDbPolyline
90
38
70
1
43
0.0
10
-120.37934552247918
20
-14.081971112064984
10
-127.43837429323408
20
-6.9988847216801844
10
-120.35528790284928
20
0.060144049074725148
10
-113.27220151246448
20
7.1191728198296369
10
-106.18911512207967
20
14.178201590584543
10
-99.106028731694877
20
21.237230361339449
10
-92.022942341310085
20
28.296259132094356
10
-84.96391357055515
20
21.213172741709574
10
-77.904884799800257
20
14.130086351324763
10
-84.98797119018505
20
7.0710575805698568
10
-77.928942419430143
20
-0.012028809814943475
10
-70.845856029045336
20
7.0469999609399592
10
-63.762769638660544
20
14.106028731694868
10
-56.67968324827573
20
21.165057502449773
10
-49.62065447752083
20
14.081971112064968
10
-56.70374086790563
20
7.0229423413100589
10
-49.620654477520851
20
14.081971112064966
10
-42.537568087136037
20
21.140999882819891
10
-35.478539316381124
20
14.057913492435077
10
-42.561625706765938
20
6.9988847216801631
10
-49.620654477520851
20
14.081971112064966
10
-42.561625706765938
20
6.9988847216801702
10
-49.644712097150752
20
-0.060144049074743779
10
-56.70374086790563
20
7.0229423413100536
10
-63.786827258290444
20
-0.036086429444843748
10
-56.72779848753553
20
-7.1191728198296449
10
-49.644712097150752
20
-0.060144049074744022
10
-56.70374086790563
20
7.0229423413100589
10
-63.786827258290444
20
-0.036086429444843748
10
-70.869913648675222
20
-7.0951152001997464
10
-77.928942419430143
20
-0.01202880981494403
10
-70.869913648675222
20
-7.0951152001997464
10
-77.953000039060043
20
-14.154143970954658
10
-85.03608642944485
20
-21.213172741709563
10
-92.095115200199743
20
-14.130086351324762
10
-99.154143970954664
20
-7.0469999609399689
10
-106.23723036133946
20
-14.106028731694879
10
-113.32031675172428
20
-21.165057502449791
0
LWPOLYLINE
5
117
100
AcDbEntity
8
0
100
AcDbPolyline
90
10
70
1
43
0.0
10
-120.42746076173896
20
-42.366201434344404
10
-113.36843199098404
20
-49.449287824729197
10
-106.28534560059926
20
-42.390259053974269
10
-113.34437437135418
20
-35.307172663589498
10
-120.42746076173896
20
-42.366201434344404
10
-127.48648953249386
20
-35.283115043959619
10
-120.40340314210908
20
-28.224086273204708
10
-127.48648953249388
20
-35.283115043959597
10
-134.56957592287867
20
-42.342143814714525
10
-127.51054715212376
20
-49.425230205099325
0
LWPOLYLINE
5
118
100
AcDbEntity
8
0
100
AcDbPolyline
90
4
70
1
43
0.0
10
-120.37934552247918
20
-14.081971112064984
10
-127.46243191286399
20
-21.140999882819894
10
-120.40340314210908
20
-28.224086273204708
10
-113.32031675172428
20
-21.165057502449788
0
LWPOLYLINE
5
119
100
AcDbEntity
8
0
100
AcDbPolyline
90
12
70
1
43
0.0
10
-113.34437437135418
20
-35.307172663589498
10
-120.40340314210908
20
-28.224086273204708
10
-127.46243191286398
20
-21.140999882819891
10
-120.37934552247918
20
-14.081971112064984
10
-113.29625913209438
20
-7.0229423413100767
10
-106.23723036133946
20
-14.106028731694879
10
-99.178201590584536
20
-21.189115122079674
10
-106.26128798096936
20
-28.248143892834563
10
-113.34437437135418
20
-35.307172663589498
10
-106.28534560059924
20
-42.390259053974326
10
-99.202259210214407
20
-35.331230283219405
10
-106.26128798096936
20
-28.248143892834563
0
LWPOLYLINE
5
120
100
AcDbEntity
8
0
100
AcDbPolyline
90
26
70
1
43
0.0
10
-120.30717266358948
20
28.344374371354149
10
-127.39025905397429
20
21.285345600599243
10
-120.33123028321938
20
14.20225921021445
10
-113.27220151246448
20
7.1191728198296369
10
-120.35528790284928
20
0.060144049074725148
10
-127.41431667360419
20
7.1432304394595159
10
-134.4733454443591
20
14.226316829844324
10
-127.39025905397429
20
21.28534560059925
10
-120.33123028321938
20
14.202259210214443
10
-113.27220151246448
20
7.1191728198296369
10
-106.21317274170957
20
0.036086429444833756
10
-99.130086351324763
20
7.0951152001997455
10
-92.046999960939957
20
14.154143970954642
10
-99.106028731694877
20
21.237230361339449
10
-106.18911512207967
20
14.178201590584543
10
-99.130086351324763
20
7.0951152001997455
10
-92.071057580569857
20
0.012028809814944585
10
-84.98797119018505
20
7.0710575805698568
10
-77.928942419430143
20
-0.01202880981494403
10
-85.01202880981495
20
-7.0710575805698568
10
-92.071057580569857
20
0.012028809814944898
10
-99.130086351324763
20
7.0951152001997455
10
-92.046999960939957
20
14.154143970954653
10
-99.106028731694877
20
21.237230361339449
10
-106.1650575024498
20
28.320316751724249
10
-113.24814389283459
20
21.261287980969339
0
LWPOLYLINE
5
121
100
AcDbEntity
8
0
100
AcDbPolyline
90
4
70
1
43
0.0
10
-92.143230439459543
20
-42.414316673604205
10
-99.202259210214407
20
-35.331230283219405
10
-106.28534560059924
20
-42.390259053974326
10
-99.226316829844336
20
-49.473345444359111
0
LWPOLYLINE
5
122
100
AcDbEntity
8
0
100
AcDbPolyline
90
2
70
1
43
0.0
10
-63.714654399400779
20
42.390259053974184
10
-70.797740789785564
20
35.331230283219334
0
LWPOLYLINE
5
123
100
AcDbEntity
8
0
100
AcDbPolyline
90
2
70
1
43
0.0
10
-99.081971112064977
20
35.379345522479106
10
-92.022942341310085
20
28.296259132094356
0
LWPOLYLINE
5
124
100
AcDbEntity
8
0
100
AcDbPolyline
90
4
70
1
43
0.0
10
-106.26128798096936
20
-28.248143892834587
10
-99.178201590584536
20
-21.189115122079674
10
-106.23723036133946
20
-14.106028731694877
10
-113.32031675172428
20
-21.165057502449788
0
ENDSEC
0
SECTION
2
OBJECTS
0
DICTIONARY
5
C
100
AcDbDictionary
3
ACAD_GROUP
350
D
3
ACAD_MLINESTYLE
350
17
0
DICTIONARY
5
D
100
AcDbDictionary
0
DICTIONARY
5
1A
330
C
100
AcDbDictionary
0
DICTIONARY
5
17
100
AcDbDictionary
0
ENDSEC
0
EOF
