  0
SECTION
  2
HEADER
  9
$ACADVER
  1
AC1014
  9
$ACADMAINTVER
 70
     9
  9
$DWGCODEPAGE
  3
ANSI_1252
  9
$INSBASE
 10
0.0
 20
0.0
 30
0.0
  9
$EXTMIN
 10
86.84493837938348
 20
73.27365254057082
 30
0.0
  9
$EXTMAX
 10
1142.644938379384
 20
756.313652540571
 30
0.0
  9
$LIMMIN
 10
0.0
 20
0.0
  9
$LIMMAX
 10
420.0
 20
297.0
  9
$ORTHOMODE
 70
     0
  9
$REGENMODE
 70
     1
  9
$FILLMODE
 70
     1
  9
$QTEXTMODE
 70
     0
  9
$MIRRTEXT
 70
     1
  9
$DRAGMODE
 70
     2
  9
$LTSCALE
 40
12.7
  9
$OSMODE
 70
    23
  9
$ATTMODE
 70
     1
  9
$TEXTSIZE
 40
3.5
  9
$TRACEWID
 40
1.0
  9
$TEXTSTYLE
  7
ONSHAPE-STANDARD
  9
$CLAYER
  8
0
  9
$CELTYPE
  6
BYLAYER
  9
$CECOLOR
 62
   256
  9
$CELTSCALE
 40
1.0
  9
$DELOBJ
 70
     1
  9
$DISPSILH
 70
     0
  9
$DIMSCALE
 40
1.0
  9
$DIMASZ
 40
2.5
  9
$DIMEXO
 40
0.625
  9
$DIMDLI
 40
3.75
  9
$DIMRND
 40
0.0
  9
$DIMDLE
 40
0.0
  9
$DIMEXE
 40
1.25
  9
$DIMTP
 40
0.0
  9
$DIMTM
 40
0.0
  9
$DIMTXT
 40
3.5
  9
$DIMCEN
 40
2.5
  9
$DIMTSZ
 40
0.0
  9
$DIMTOL
 70
     0
  9
$DIMLIM
 70
     0
  9
$DIMTIH
 70
     0
  9
$DIMTOH
 70
     0
  9
$DIMSE1
 70
     0
  9
$DIMSE2
 70
     0
  9
$DIMTAD
 70
     1
  9
$DIMZIN
 70
     8
  9
$DIMBLK
  1

  9
$DIMASO
 70
     1
  9
$DIMSHO
 70
     1
  9
$DIMPOST
  1

  9
$DIMAPOST
  1

  9
$DIMALT
 70
     0
  9
$DIMALTD
 70
     3
  9
$DIMALTF
 40
0.03937
  9
$DIMLFAC
 40
1.0
  9
$DIMTOFL
 70
     1
  9
$DIMTVP
 40
0.0
  9
$DIMTIX
 70
     0
  9
$DIMSOXD
 70
     0
  9
$DIMSAH
 70
     0
  9
$DIMBLK1
  1

  9
$DIMBLK2
  1

  9
$DIMSTYLE
  2
ONSHAPE-ISO-25
  9
$DIMCLRD
 70
     7
  9
$DIMCLRE
 70
     7
  9
$DIMCLRT
 70
     7
  9
$DIMTFAC
 40
1.0
  9
$DIMGAP
 40
0.625
  9
$DIMJUST
 70
     0
  9
$DIMSD1
 70
     0
  9
$DIMSD2
 70
     0
  9
$DIMTOLJ
 70
     0
  9
$DIMTZIN
 70
     8
  9
$DIMALTZ
 70
     8
  9
$DIMALTTZ
 70
     0
  9
$DIMFIT
 70
     3
  9
$DIMUPT
 70
     1
  9
$DIMUNIT
 70
     2
  9
$DIMDEC
 70
     2
  9
$DIMTDEC
 70
     2
  9
$DIMALTU
 70
     2
  9
$DIMALTTD
 70
     3
  9
$DIMTXSTY
  7
ONSHAPE-STANDARD-DIMENSION
  9
$DIMAUNIT
 70
     0
  9
$LUNITS
 70
     2
  9
$LUPREC
 70
     4
  9
$SKETCHINC
 40
1.0
  9
$FILLETRAD
 40
10.0
  9
$AUNITS
 70
     0
  9
$AUPREC
 70
     0
  9
$MENU
  1
.
  9
$ELEVATION
 40
0.0
  9
$PELEVATION
 40
0.0
  9
$THICKNESS
 40
0.0
  9
$LIMCHECK
 70
     0
  9
$CHAMFERA
 40
0.0
  9
$CHAMFERB
 40
0.0
  9
$CHAMFERC
 40
0.0
  9
$CHAMFERD
 40
0.0
  9
$SKPOLY
 70
     0
  9
$TDCREATE
 40
2460272.674112269
  9
$TDUPDATE
 40
2460272.674113056
  9
$TDINDWG
 40
0.0
  9
$TDUSRTIMER
 40
0.0
  9
$USRTIMER
 70
     1
  9
$ANGBASE
 50
0.0
  9
$ANGDIR
 70
     0
  9
$PDMODE
 70
    33
  9
$PDSIZE
 40
1.0
  9
$PLINEWID
 40
0.0
  9
$COORDS
 70
     1
  9
$SPLFRAME
 70
     0
  9
$SPLINETYPE
 70
     6
  9
$SPLINESEGS
 70
     8
  9
$ATTDIA
 70
     0
  9
$ATTREQ
 70
     1
  9
$HANDLING
 70
     1
  9
$HANDSEED
  5
59D
  9
$SURFTAB1
 70
     6
  9
$SURFTAB2
 70
     6
  9
$SURFTYPE
 70
     6
  9
$SURFU
 70
     6
  9
$SURFV
 70
     6
  9
$UCSNAME
  2

  9
$UCSORG
 10
0.0
 20
0.0
 30
0.0
  9
$UCSXDIR
 10
1.0
 20
0.0
 30
0.0
  9
$UCSYDIR
 10
0.0
 20
1.0
 30
0.0
  9
$PUCSNAME
  2

  9
$PUCSORG
 10
0.0
 20
0.0
 30
0.0
  9
$PUCSXDIR
 10
1.0
 20
0.0
 30
0.0
  9
$PUCSYDIR
 10
0.0
 20
1.0
 30
0.0
  9
$USERI1
 70
     0
  9
$USERI2
 70
     0
  9
$USERI3
 70
     0
  9
$USERI4
 70
     0
  9
$USERI5
 70
     0
  9
$USERR1
 40
0.0
  9
$USERR2
 40
0.0
  9
$USERR3
 40
0.0
  9
$USERR4
 40
0.0
  9
$USERR5
 40
0.0
  9
$WORLDVIEW
 70
     1
  9
$SHADEDGE
 70
     3
  9
$SHADEDIF
 70
    70
  9
$TILEMODE
 70
     1
  9
$MAXACTVP
 70
    64
  9
$PINSBASE
 10
0.0
 20
0.0
 30
0.0
  9
$PLIMCHECK
 70
     0
  9
$PEXTMIN
 10
1.000000000000000E+20
 20
1.000000000000000E+20
 30
1.000000000000000E+20
  9
$PEXTMAX
 10
-1.000000000000000E+20
 20
-1.000000000000000E+20
 30
-1.000000000000000E+20
  9
$PLIMMIN
 10
0.0
 20
0.0
  9
$PLIMMAX
 10
420.0
 20
297.0
  9
$UNITMODE
 70
     0
  9
$VISRETAIN
 70
     1
  9
$PLINEGEN
 70
     0
  9
$PSLTSCALE
 70
     1
  9
$TREEDEPTH
 70
  3020
  9
$PICKSTYLE
 70
     1
  9
$CMLSTYLE
  2
STANDARD
  9
$CMLJUST
 70
     0
  9
$CMLSCALE
 40
20.0
  9
$PROXYGRAPHICS
 70
     1
  9
$MEASUREMENT
 70
     1
  0
ENDSEC
  0
SECTION
  2
CLASSES
  0
CLASS
  1
ACDBDICTIONARYWDFLT
  2
AcDbDictionaryWithDefault
  3
ObjectDBX Classes
 90
        0
280
     0
281
     0
  0
CLASS
  1
VISUALSTYLE
  2
AcDbVisualStyle
  3
ObjectDBX Classes
 90
     4095
280
     0
281
     0
  0
CLASS
  1
MATERIAL
  2
AcDbMaterial
  3
ObjectDBX Classes
 90
     1153
280
     0
281
     0
  0
CLASS
  1
SCALE
  2
AcDbScale
  3
ObjectDBX Classes
 90
     1153
280
     0
281
     0
  0
CLASS
  1
TABLESTYLE
  2
AcDbTableStyle
  3
ObjectDBX Classes
 90
     4095
280
     0
281
     0
  0
CLASS
  1
MLEADERSTYLE
  2
AcDbMLeaderStyle
  3
ACDB_MLEADERSTYLE_CLASS
 90
     4095
280
     0
281
     0
  0
CLASS
  1
SUN
  2
AcDbSun
  3
SCENEOE
 90
     1153
280
     0
281
     0
  0
CLASS
  1
DICTIONARYVAR
  2
AcDbDictionaryVar
  3
ObjectDBX Classes
 90
        0
280
     0
281
     0
  0
CLASS
  1
XRECORD
  2
AcDbXrecord
  3
ObjectDBX Classes
 90
        0
280
     0
281
     0
  0
CLASS
  1
LWPOLYLINE
  2
AcDbPolyline
  3
ObjectDBX Classes
 90
        0
280
     0
281
     1
  0
CLASS
  1
HATCH
  2
AcDbHatch
  3
ObjectDBX Classes
 90
        0
280
     0
281
     1
  0
CLASS
  1
ACDBPLACEHOLDER
  2
AcDbPlaceHolder
  3
ObjectDBX Classes
 90
        0
280
     0
281
     0
  0
CLASS
  1
LAYOUT
  2
AcDbLayout
  3
ObjectDBX Classes
 90
        0
280
     0
281
     0
  0
ENDSEC
  0
SECTION
  2
TABLES
  0
TABLE
  2
VPORT
  5
8
102
{ACAD_XDICTIONARY
360
591
102
}
330
0
100
AcDbSymbolTable
 70
     1
  0
VPORT
  5
29
330
8
100
AcDbSymbolTableRecord
100
AcDbViewportTableRecord
  2
*ACTIVE
 70
     0
 10
0.0
 20
0.0
 11
1.0
 21
1.0
 12
614.7449383793837
 22
443.8136525405709
 13
0.0
 23
0.0
 14
10.0
 24
10.0
 15
10.0
 25
10.0
 16
0.0
 26
0.0
 36
1.0
 17
0.0
 27
0.0
 37
0.0
 40
637.5000000000001
 41
1.68928
 42
50.0
 43
0.0
 44
0.0
 50
0.0
 51
0.0
 71
     0
 72
   100
 73
     1
 74
     3
 75
     0
 76
     0
 77
     0
 78
     0
  0
ENDTAB
  0
TABLE
  2
LTYPE
  5
5
330
0
100
AcDbSymbolTable
 70
     1
  0
LTYPE
  5
14
330
5
100
AcDbSymbolTableRecord
100
AcDbLinetypeTableRecord
  2
BYBLOCK
 70
     0
  3

 72
    65
 73
     0
 40
0.0
  0
LTYPE
  5
15
330
5
100
AcDbSymbolTableRecord
100
AcDbLinetypeTableRecord
  2
BYLAYER
 70
     0
  3

 72
    65
 73
     0
 40
0.0
  0
LTYPE
  5
16
330
5
100
AcDbSymbolTableRecord
100
AcDbLinetypeTableRecord
  2
CONTINUOUS
 70
     0
  3
Solid line
 72
    65
 73
     0
 40
0.0
  0
ENDTAB
  0
TABLE
  2
LAYER
  5
2
330
0
100
AcDbSymbolTable
 70
     4
  0
LAYER
  5
10
330
2
100
AcDbSymbolTableRecord
100
AcDbLayerTableRecord
  2
0
 70
     0
 62
     7
  6
CONTINUOUS
  0
LAYER
  5
73
330
2
100
AcDbSymbolTableRecord
100
AcDbLayerTableRecord
  2
VISIBLE
 70
     0
 62
     7
  6
CONTINUOUS
  0
LAYER
  5
75
330
2
100
AcDbSymbolTableRecord
100
AcDbLayerTableRecord
  2
TANGENT_LINES
 70
     0
 62
     7
  6
CONTINUOUS
  0
LAYER
  5
502
330
2
100
AcDbSymbolTableRecord
100
AcDbLayerTableRecord
  2
ANNOTATION_TEXT
 70
     0
 62
     7
  6
CONTINUOUS
  0
ENDTAB
  0
TABLE
  2
STYLE
  5
3
330
0
100
AcDbSymbolTable
 70
    33
  0
STYLE
  5
11
330
3
100
AcDbSymbolTableRecord
100
AcDbTextStyleTableRecord
  2
STANDARD
 70
     0
 40
0.0
 41
1.0
 50
0.0
 71
     0
 42
3.5
  3
txt
  4

  0
STYLE
  5
70
330
3
100
AcDbSymbolTableRecord
100
AcDbTextStyleTableRecord
  2
ONSHAPE-STANDARD
 70
     0
 40
0.0
 41
1.0
 50
0.0
 71
     0
 42
3.5
  3
NotoSans-Regular.ttf
  4

1001
ACAD
1000
Noto Sans
1071
        0
  0
STYLE
  5
72
330
3
100
AcDbSymbolTableRecord
100
AcDbTextStyleTableRecord
  2
ONSHAPE-STANDARD-DIMENSION
 70
     0
 40
0.0
 41
1.0
 50
0.0
 71
     0
 42
3.5
  3

  4

1001
ACAD
1000
Noto Sans
1071
        0
  0
STYLE
  5
505
330
3
100
AcDbSymbolTableRecord
100
AcDbTextStyleTableRecord
  2
ONSHAPE-STANDARD-VIEW-LABE
 70
     0
 40
3.5
 41
1.0
 50
0.0
 71
     0
 42
3.5
  3
NotoSans-Regular.ttf
  4

1001
ACAD
1000
Noto Sans
1071
        0
  0
STYLE
  5
507
330
3
100
AcDbSymbolTableRecord
100
AcDbTextStyleTableRecord
  2
ONSHAPE-STANDARD-NOTESTYLE
 70
     0
 40
3.5
 41
1.0
 50
0.0
 71
     0
 42
3.5
  3
Noto Sans
  4

1001
ACAD
1000
Noto Sans
1071
        0
  0
STYLE
  5
516
330
3
100
AcDbSymbolTableRecord
100
AcDbTextStyleTableRecord
  2
ONSHAPE-STANDARD-BOLD
 70
     0
 40
0.0
 41
1.0
 50
0.0
 71
     0
 42
3.5
  3
NotoSans-Bold.ttf
  4

1001
ACAD
1000
Noto Sans
1071
 33554432
  0
STYLE
  5
517
330
3
100
AcDbSymbolTableRecord
100
AcDbTextStyleTableRecord
  2
ONSHAPE-STANDARD-FIELDS
 70
     0
 40
0.0
 41
1.0
 50
0.0
 71
     0
 42
3.5
  3

  4

1001
ACAD
1000
Noto Sans
1071
        0
  0
STYLE
  5
518
330
3
100
AcDbSymbolTableRecord
100
AcDbTextStyleTableRecord
  2
ONSHAPE-STANDARD-TCFIELDS
 70
     0
 40
0.0
 41
1.0
 50
0.0
 71
     0
 42
3.5
  3
NotoSansTC-Regular.otf
  4

1001
ACAD
1000
Noto Sans TC
1071
        0
  0
STYLE
  5
519
330
3
100
AcDbSymbolTableRecord
100
AcDbTextStyleTableRecord
  2
ONSHAPE-STANDARD-SCFIELDS
 70
     0
 40
0.0
 41
1.0
 50
0.0
 71
     0
 42
3.5
  3
NotoSansSC-Regular.otf
  4

1001
ACAD
1000
Noto Sans SC
1071
        0
  0
STYLE
  5
51A
330
3
100
AcDbSymbolTableRecord
100
AcDbTextStyleTableRecord
  2
ONSHAPE-STANDARD-KOREANFIE
 70
     0
 40
0.0
 41
1.0
 50
0.0
 71
     0
 42
3.5
  3
NotoSansKR-Regular.otf
  4

1001
ACAD
1000
Noto Sans KR
1071
        0
  0
STYLE
  5
51B
330
3
100
AcDbSymbolTableRecord
100
AcDbTextStyleTableRecord
  2
ONSHAPE-STANDARD-JAPANESEF
 70
     0
 40
0.0
 41
1.0
 50
0.0
 71
     0
 42
3.5
  3
NotoSansJP-Regular.otf
  4

1001
ACAD
1000
Noto Sans JP
1071
        0
  0
STYLE
  5
51D
330
3
100
AcDbSymbolTableRecord
100
AcDbTextStyleTableRecord
  2
TTFSTYLE
 70
     0
 40
0.0
 41
1.0
 50
0.0
 71
     0
 42
3.5
  3
Verdana.ttf
  4

1001
ACAD
1000
Verdana
1071
       34
  0
STYLE
  5
51E
330
3
100
AcDbSymbolTableRecord
100
AcDbTextStyleTableRecord
  2
ONSHAPE-STANDARD-GTOLERANC
 70
     0
 40
0.0
 41
1.0
 50
0.0
 71
     0
 42
3.5
  3

  4

1001
ACAD
1000
Noto Sans
1071
        0
  0
STYLE
  5
51F
330
3
100
AcDbSymbolTableRecord
100
AcDbTextStyleTableRecord
  2
ONSHAPE-STANDARD-TABLE-DAT
 70
     0
 40
0.0
 41
1.0
 50
0.0
 71
     0
 42
3.5
  3
NotoSans-Regular.ttf
  4

1001
ACAD
1000
Noto Sans
1071
        0
  0
STYLE
  5
520
330
3
100
AcDbSymbolTableRecord
100
AcDbTextStyleTableRecord
  2
ONSHAPE-STANDARD-TABLE-TIT
 70
     0
 40
0.0
 41
1.0
 50
0.0
 71
     0
 42
3.5
  3
NotoSans-Bold.ttf
  4

1001
ACAD
1000
Noto Sans
1071
 33554432
  0
STYLE
  5
521
330
3
100
AcDbSymbolTableRecord
100
AcDbTextStyleTableRecord
  2
ONSHAPE-STANDARD-TABLE-HEA
 70
     0
 40
0.0
 41
1.0
 50
0.0
 71
     0
 42
3.5
  3
NotoSans-Bold.ttf
  4

1001
ACAD
1000
Noto Sans
1071
 33554432
  0
STYLE
  5
522
330
3
100
AcDbSymbolTableRecord
100
AcDbTextStyleTableRecord
  2
ONSHAPE-STANDARD-BOMTABLE-
 70
     0
 40
0.0
 41
1.0
 50
0.0
 71
     0
 42
3.5
  3
NotoSans-Regular.ttf
  4

1001
ACAD
1000
Noto Sans
1071
        0
  0
STYLE
  5
523
330
3
100
AcDbSymbolTableRecord
100
AcDbTextStyleTableRecord
  2
ONSHAPE-STANDARD-BOMTABLE0
 70
     0
 40
0.0
 41
1.0
 50
0.0
 71
     0
 42
3.5
  3
NotoSans-Bold.ttf
  4

1001
ACAD
1000
Noto Sans
1071
 33554432
  0
STYLE
  5
524
330
3
100
AcDbSymbolTableRecord
100
AcDbTextStyleTableRecord
  2
ONSHAPE-STANDARD-BOMTABLE1
 70
     0
 40
0.0
 41
1.0
 50
0.0
 71
     0
 42
3.5
  3
NotoSans-Bold.ttf
  4

1001
ACAD
1000
Noto Sans
1071
 33554432
  0
STYLE
  5
525
330
3
100
AcDbSymbolTableRecord
100
AcDbTextStyleTableRecord
  2
ONSHAPE-STANDARD-DATUM-DIM
 70
     0
 40
3.5
 41
1.0
 50
0.0
 71
     0
 42
3.5
  3
Noto Sans
  4

1001
ACAD
1000
Noto Sans
1071
        0
  0
STYLE
  5
526
330
3
100
AcDbSymbolTableRecord
100
AcDbTextStyleTableRecord
  2
ONSHAPE-DETAIL-VIEW-LEADER
 70
     0
 40
3.5
 41
1.0
 50
0.0
 71
     0
 42
3.5
  3
Noto Sans
  4

1001
ACAD
1000
Noto Sans
1071
        0
  0
STYLE
  5
527
330
3
100
AcDbSymbolTableRecord
100
AcDbTextStyleTableRecord
  2
ONSHAPE-STANDARD-HOLE-CALL
 70
     0
 40
3.5
 41
1.0
 50
0.0
 71
     0
 42
3.5
  3
Noto Sans
  4

1001
ACAD
1000
Noto Sans
1071
        0
  0
STYLE
  5
528
330
3
100
AcDbSymbolTableRecord
100
AcDbTextStyleTableRecord
  2
ONSHAPE-STANDARD-HOLETABLE
 70
     0
 40
0.0
 41
1.0
 50
0.0
 71
     0
 42
3.5
  3
NotoSans-Regular.ttf
  4

1001
ACAD
1000
Noto Sans
1071
        0
  0
STYLE
  5
529
330
3
100
AcDbSymbolTableRecord
100
AcDbTextStyleTableRecord
  2
ONSHAPE-STANDARD-HOLETABL0
 70
     0
 40
0.0
 41
1.0
 50
0.0
 71
     0
 42
3.5
  3
NotoSans-Bold.ttf
  4

1001
ACAD
1000
Noto Sans
1071
 33554432
  0
STYLE
  5
52A
330
3
100
AcDbSymbolTableRecord
100
AcDbTextStyleTableRecord
  2
ONSHAPE-STANDARD-HOLETABL1
 70
     0
 40
0.0
 41
1.0
 50
0.0
 71
     0
 42
3.5
  3
NotoSans-Bold.ttf
  4

1001
ACAD
1000
Noto Sans
1071
 33554432
  0
STYLE
  5
52B
330
3
100
AcDbSymbolTableRecord
100
AcDbTextStyleTableRecord
  2
ONSHAPE-STANDARD-HOLE-TAG
 70
     0
 40
3.5
 41
1.0
 50
0.0
 71
     0
 42
3.5
  3
Noto Sans
  4

1001
ACAD
1000
Noto Sans
1071
        0
  0
STYLE
  5
52C
330
3
100
AcDbSymbolTableRecord
100
AcDbTextStyleTableRecord
  2
ONSHAPE-STANDARD-REVISIONT
 70
     0
 40
0.0
 41
1.0
 50
0.0
 71
     0
 42
3.5
  3
NotoSans-Regular.ttf
  4

1001
ACAD
1000
Noto Sans
1071
        0
  0
STYLE
  5
52D
330
3
100
AcDbSymbolTableRecord
100
AcDbTextStyleTableRecord
  2
ONSHAPE-STANDARD-REVISION0
 70
     0
 40
0.0
 41
1.0
 50
0.0
 71
     0
 42
3.5
  3
NotoSans-Bold.ttf
  4

1001
ACAD
1000
Noto Sans
1071
 33554432
  0
STYLE
  5
52E
330
3
100
AcDbSymbolTableRecord
100
AcDbTextStyleTableRecord
  2
ONSHAPE-STANDARD-REVISION1
 70
     0
 40
0.0
 41
1.0
 50
0.0
 71
     0
 42
3.5
  3
NotoSans-Bold.ttf
  4

1001
ACAD
1000
Noto Sans
1071
 33554432
  0
STYLE
  5
52F
330
3
100
AcDbSymbolTableRecord
100
AcDbTextStyleTableRecord
  2
ONSHAPE-STANDARD-REVISION-
 70
     0
 40
3.5
 41
1.0
 50
0.0
 71
     0
 42
3.5
  3
Noto Sans
  4

1001
ACAD
1000
Noto Sans
1071
        0
  0
STYLE
  5
530
330
3
100
AcDbSymbolTableRecord
100
AcDbTextStyleTableRecord
  2
ONSHAPE-STANDARD-CUTLISTTA
 70
     0
 40
0.0
 41
1.0
 50
0.0
 71
     0
 42
3.5
  3
NotoSans-Regular.ttf
  4

1001
ACAD
1000
Noto Sans
1071
        0
  0
STYLE
  5
531
330
3
100
AcDbSymbolTableRecord
100
AcDbTextStyleTableRecord
  2
ONSHAPE-STANDARD-CUTLISTT0
 70
     0
 40
0.0
 41
1.0
 50
0.0
 71
     0
 42
3.5
  3
NotoSans-Bold.ttf
  4

1001
ACAD
1000
Noto Sans
1071
 33554432
  0
STYLE
  5
532
330
3
100
AcDbSymbolTableRecord
100
AcDbTextStyleTableRecord
  2
ONSHAPE-STANDARD-CUTLISTT1
 70
     0
 40
0.0
 41
1.0
 50
0.0
 71
     0
 42
3.5
  3
NotoSans-Bold.ttf
  4

1001
ACAD
1000
Noto Sans
1071
 33554432
  0
ENDTAB
  0
TABLE
  2
VIEW
  5
6
330
0
100
AcDbSymbolTable
 70
     0
  0
ENDTAB
  0
TABLE
  2
UCS
  5
7
330
0
100
AcDbSymbolTable
 70
     0
  0
ENDTAB
  0
TABLE
  2
APPID
  5
9
330
0
100
AcDbSymbolTable
 70
     3
  0
APPID
  5
12
330
9
100
AcDbSymbolTableRecord
100
AcDbRegAppTableRecord
  2
ACAD
 70
     0
  0
APPID
  5
508
330
9
100
AcDbSymbolTableRecord
100
AcDbRegAppTableRecord
  2
ONSHAPE_NOTES_ANNOTATION_D
 70
     0
  0
APPID
  5
59B
330
9
100
AcDbSymbolTableRecord
100
AcDbRegAppTableRecord
  2
ACAD_MLEADERVER
 70
     0
  0
ENDTAB
  0
TABLE
  2
DIMSTYLE
  5
A
330
0
100
AcDbSymbolTable
 70
    18
  0
DIMSTYLE
105
27
330
A
100
AcDbSymbolTableRecord
100
AcDbDimStyleTableRecord
  2
ISO-25
 70
     0
  3

  4

  5

  6

  7

 40
1.0
 41
2.5
 42
0.625
 43
3.75
 44
1.25
 45
0.0
 46
0.0
 47
0.0
 48
0.0
140
2.5
141
2.5
142
0.0
143
0.03937007874016
144
1.0
145
0.0
146
1.0
147
0.625
 71
     0
 72
     0
 73
     0
 74
     0
 75
     0
 76
     0
 77
     1
 78
     8
170
     0
171
     3
172
     1
173
     0
174
     0
175
     0
176
     0
177
     0
178
     0
270
     2
271
     2
272
     2
273
     2
274
     3
340
11
275
     0
280
     0
281
     0
282
     0
283
     0
284
     8
285
     0
286
     0
287
     3
288
     0
  0
DIMSTYLE
105
71
330
A
100
AcDbSymbolTableRecord
100
AcDbDimStyleTableRecord
  2
ONSHAPE-ISO-25
 70
     0
  3

  4

  5

  6

  7

 40
1.0
 41
2.5
 42
0.625
 43
3.75
 44
1.25
 45
0.0
 46
0.0
 47
0.0
 48
0.0
140
3.5
141
2.5
142
0.0
143
0.03937
144
1.0
145
0.0
146
1.0
147
0.625
 71
     0
 72
     0
 73
     0
 74
     0
 75
     0
 76
     0
 77
     1
 78
     8
170
     0
171
     3
172
     1
173
     0
174
     0
175
     0
176
     7
177
     7
178
     7
179
     1
270
     2
271
     2
272
     2
273
     2
274
     3
340
72
275
     0
280
     0
281
     0
282
     0
283
     0
284
     8
285
     8
286
     0
287
     3
288
     1
  0
DIMSTYLE
105
535
330
A
100
AcDbSymbolTableRecord
100
AcDbDimStyleTableRecord
  2
ISO
 70
     0
  3

  4
"
  5

  6

  7

 40
1.0
 41
3.5
 42
1.0
 43
10.0
 44
1.0
 45
0.0
 46
0.0
 47
0.1
 48
0.1
140
3.5
141
0.0
142
0.0
143
0.03937
144
1.0
145
0.0
146
0.71
147
1.5
 71
     0
 72
     0
 73
     0
 74
     0
 75
     0
 76
     0
 77
     1
 78
     8
170
     0
171
     3
172
     1
173
     0
174
     0
175
     0
176
     7
177
     7
178
     7
270
     2
271
     2
272
     3
273
     2
274
     3
340
11
275
     0
280
     0
281
     0
282
     0
283
     0
284
     8
285
     8
286
     0
287
     3
288
     1
  0
DIMSTYLE
105
536
330
A
100
AcDbSymbolTableRecord
100
AcDbDimStyleTableRecord
  2
ISO$3
 70
     0
  3

  4
"
  5

  6

  7

 40
1.0
 41
3.5
 42
1.0
 43
10.0
 44
1.0
 45
0.0
 46
0.0
 47
0.1
 48
0.1
140
3.5
141
0.0
142
0.0
143
0.03937
144
1.0
145
0.0
146
0.71
147
1.5
 71
     0
 72
     0
 73
     0
 74
     1
 75
     0
 76
     0
 77
     1
 78
     8
170
     0
171
     3
172
     0
173
     0
174
     0
175
     0
176
     7
177
     7
178
     7
270
     2
271
     2
272
     3
273
     2
274
     3
340
11
275
     0
280
     0
281
     0
282
     0
283
     0
284
     8
285
     8
286
     0
288
     1
  0
DIMSTYLE
105
537
330
A
100
AcDbSymbolTableRecord
100
AcDbDimStyleTableRecord
  2
ISO$4
 70
     0
  3

  4
"
  5

  6

  7

 40
1.0
 41
3.5
 42
1.0
 43
10.0
 44
1.0
 45
0.0
 46
0.0
 47
0.1
 48
0.1
140
3.5
141
0.0
142
0.0
143
0.03937
144
1.0
145
0.0
146
0.71
147
1.5
 71
     0
 72
     0
 73
     0
 74
     0
 75
     0
 76
     0
 77
     1
 78
     8
170
     0
171
     3
172
     1
173
     0
174
     0
175
     0
176
     7
177
     7
178
     7
270
     2
271
     2
272
     3
273
     2
274
     3
340
11
275
     0
280
     0
281
     0
282
     0
283
     0
284
     8
285
     8
286
     0
287
     3
288
     1
  0
DIMSTYLE
105
538
330
A
100
AcDbSymbolTableRecord
100
AcDbDimStyleTableRecord
  2
ISO$6
 70
     0
  3

  4
"
  5

  6

  7

 40
1.0
 41
0.5
 42
1.0
 43
10.0
 44
1.0
 45
0.0
 46
0.0
 47
0.1
 48
0.1
140
3.5
141
0.0
142
0.0
143
0.03937
144
1.0
145
0.0
146
0.71
147
1.5
 71
     0
 72
     0
 73
     0
 74
     0
 75
     0
 76
     0
 77
     0
 78
     8
170
     0
171
     3
172
     1
173
     0
174
     0
175
     0
176
     7
177
     7
178
     7
270
     2
271
     2
272
     3
273
     2
274
     3
340
11
275
     0
280
     0
281
     0
282
     0
283
     0
284
     8
285
     8
286
     0
287
     3
288
     1
  0
DIMSTYLE
105
539
330
A
100
AcDbSymbolTableRecord
100
AcDbDimStyleTableRecord
  2
ISO$7
 70
     0
  3

  4
"
  5

  6

  7

 40
1.0
 41
3.5
 42
1.0
 43
10.0
 44
1.0
 45
0.0
 46
0.0
 47
0.1
 48
0.1
140
3.5
141
0.0
142
0.0
143
0.03937
144
1.0
145
0.0
146
0.71
147
1.5
 71
     0
 72
     0
 73
     0
 74
     0
 75
     0
 76
     0
 77
     1
 78
     8
170
     0
171
     3
172
     1
173
     0
174
     0
175
     0
176
     7
177
     7
178
     7
270
     2
271
     2
272
     3
273
     2
274
     3
340
11
275
     0
280
     0
281
     0
282
     0
283
     0
284
     8
285
     8
286
     0
287
     3
288
     1
  0
DIMSTYLE
105
53A
330
A
100
AcDbSymbolTableRecord
100
AcDbDimStyleTableRecord
  2
ISO$SF
 70
     0
  3

  4
"
  5

  6

  7

 40
1.0
 41
3.5
 42
1.0
 43
10.0
 44
1.0
 45
0.0
 46
0.0
 47
0.1
 48
0.1
140
3.5
141
0.0
142
0.0
143
0.03937
144
1.0
145
0.0
146
0.71
147
1.5
 71
     0
 72
     0
 73
     0
 74
     0
 75
     1
 76
     1
 77
     1
 78
     8
170
     0
171
     3
172
     1
173
     0
174
     0
175
     0
176
     7
177
     7
178
     7
270
     2
271
     2
272
     3
273
     2
274
     3
340
11
275
     0
280
     0
281
     0
282
     0
283
     0
284
     8
285
     8
286
     0
287
     3
288
     1
  0
DIMSTYLE
105
53B
330
A
100
AcDbSymbolTableRecord
100
AcDbDimStyleTableRecord
  2
ISO$SH
 70
     0
  3

  4
"
  5

  6

  7

 40
1.0
 41
3.5
 42
1.0
 43
10.0
 44
1.0
 45
0.0
 46
0.0
 47
0.1
 48
0.1
140
3.5
141
0.0
142
0.0
143
0.03937
144
2.0
145
0.0
146
0.71
147
1.5
 71
     0
 72
     0
 73
     0
 74
     0
 75
     1
 76
     1
 77
     1
 78
     8
170
     0
171
     3
172
     1
173
     1
174
     0
175
     0
176
     7
177
     7
178
     7
270
     2
271
     2
272
     3
273
     2
274
     3
340
11
275
     0
280
     0
281
     0
282
     0
283
     0
284
     8
285
     8
286
     0
287
     3
288
     1
  0
DIMSTYLE
105
53E
330
A
100
AcDbSymbolTableRecord
100
AcDbDimStyleTableRecord
  2
ONSHAPE-ISO-25$0
 70
     0
  3

  4

  5

  6

  7

 40
1.0
 41
2.5
 42
0.625
 43
3.75
 44
1.25
 45
0.0
 46
0.0
 47
0.0
 48
0.0
140
3.5
141
2.5
142
0.0
143
0.03937
144
1.0
145
0.0
146
1.0
147
0.625
 71
     0
 72
     0
 73
     0
 74
     0
 75
     0
 76
     0
 77
     1
 78
     8
170
     0
171
     3
172
     1
173
     0
174
     0
175
     0
176
     7
177
     7
178
     7
179
     1
270
     2
271
     2
272
     2
273
     2
274
     3
340
72
275
     0
280
     0
281
     0
282
     0
283
     0
284
     8
285
     8
286
     0
287
     3
288
     1
  0
DIMSTYLE
105
53F
330
A
100
AcDbSymbolTableRecord
100
AcDbDimStyleTableRecord
  2
ONSHAPE-ISO-25$2
 70
     0
  3

  4

  5

  6

  7

 40
1.0
 41
2.5
 42
0.625
 43
3.75
 44
1.25
 45
0.0
 46
0.0
 47
0.0
 48
0.0
140
3.5
141
2.5
142
0.0
143
0.03937
144
1.0
145
0.0
146
1.0
147
0.625
 71
     0
 72
     0
 73
     0
 74
     0
 75
     0
 76
     0
 77
     1
 78
     8
170
     0
171
     3
172
     1
173
     0
174
     0
175
     0
176
     7
177
     7
178
     7
179
     1
270
     2
271
     2
272
     2
273
     2
274
     3
340
72
275
     0
280
     0
281
     0
282
     0
283
     0
284
     8
285
     8
286
     0
287
     3
288
     1
  0
DIMSTYLE
105
540
330
A
100
AcDbSymbolTableRecord
100
AcDbDimStyleTableRecord
  2
ONSHAPE-ISO-25$3
 70
     0
  3

  4

  5

  6

  7

 40
1.0
 41
2.5
 42
0.625
 43
3.75
 44
1.25
 45
0.0
 46
0.0
 47
0.0
 48
0.0
140
3.5
141
0.0
142
0.0
143
0.03937
144
1.0
145
0.0
146
1.0
147
0.625
 71
     0
 72
     0
 73
     0
 74
     0
 75
     0
 76
     0
 77
     1
 78
     8
170
     0
171
     3
172
     1
173
     0
174
     0
175
     0
176
     7
177
     7
178
     7
179
     1
270
     2
271
     2
272
     2
273
     2
274
     3
340
72
275
     0
280
     0
281
     0
282
     0
283
     0
284
     8
285
     8
286
     0
287
     3
288
     1
  0
DIMSTYLE
105
541
330
A
100
AcDbSymbolTableRecord
100
AcDbDimStyleTableRecord
  2
ONSHAPE-ISO-25$4
 70
     0
  3

  4

  5

  6

  7

 40
1.0
 41
2.5
 42
0.625
 43
3.75
 44
1.25
 45
0.0
 46
0.0
 47
0.0
 48
0.0
140
3.5
141
0.0
142
0.0
143
0.03937
144
1.0
145
0.0
146
1.0
147
0.625
 71
     0
 72
     0
 73
     0
 74
     0
 75
     0
 76
     0
 77
     1
 78
     8
170
     0
171
     3
172
     1
173
     0
174
     0
175
     0
176
     7
177
     7
178
     7
179
     1
270
     2
271
     2
272
     2
273
     2
274
     3
340
72
275
     0
280
     0
281
     0
282
     0
283
     0
284
     8
285
     8
286
     0
287
     3
288
     1
  0
DIMSTYLE
105
542
330
A
100
AcDbSymbolTableRecord
100
AcDbDimStyleTableRecord
  2
ONSHAPE-ISO-25$6
 70
     0
  3

  4

  5

  6

  7

 40
1.0
 41
0.5
 42
0.625
 43
3.75
 44
1.25
 45
0.0
 46
0.0
 47
0.0
 48
0.0
140
3.5
141
2.5
142
0.0
143
0.03937
144
1.0
145
0.0
146
1.0
147
0.625
 71
     0
 72
     0
 73
     0
 74
     0
 75
     0
 76
     0
 77
     1
 78
     8
170
     0
171
     3
172
     1
173
     0
174
     0
175
     0
176
     7
177
     7
178
     7
179
     1
270
     2
271
     2
272
     2
273
     2
274
     3
340
72
275
     0
280
     0
281
     0
282
     0
283
     0
284
     8
285
     8
286
     0
287
     3
288
     1
  0
DIMSTYLE
105
543
330
A
100
AcDbSymbolTableRecord
100
AcDbDimStyleTableRecord
  2
ONSHAPE-ISO-25$7
 70
     0
  3

  4

  5

  6

  7

 40
1.0
 41
2.5
 42
0.625
 43
3.75
 44
1.25
 45
0.0
 46
0.0
 47
0.0
 48
0.0
140
3.5
141
2.5
142
0.0
143
0.03937
144
1.0
145
0.0
146
1.0
147
0.625
 71
     0
 72
     0
 73
     0
 74
     0
 75
     0
 76
     0
 77
     1
 78
     8
170
     0
171
     3
172
     1
173
     0
174
     0
175
     0
176
     7
177
     7
178
     7
179
     1
270
     2
271
     2
272
     2
273
     2
274
     3
340
72
275
     0
280
     0
281
     0
282
     0
283
     0
284
     8
285
     8
286
     0
287
     3
288
     1
  0
DIMSTYLE
105
544
330
A
100
AcDbSymbolTableRecord
100
AcDbDimStyleTableRecord
  2
ONSHAPE-STANDARD-GTOLERANC
 70
     0
  3

  4

  5

  6

  7

 40
1.0
 41
2.5
 42
0.625
 43
3.75
 44
1.25
 45
0.0
 46
0.0
 47
0.0
 48
0.0
140
3.5
141
2.5
142
0.0
143
0.03937
144
1.0
145
0.0
146
1.0
147
0.625
 71
     0
 72
     0
 73
     0
 74
     0
 75
     0
 76
     0
 77
     1
 78
     8
170
     0
171
     3
172
     1
173
     0
174
     0
175
     0
176
     7
177
     7
178
     7
179
     1
270
     2
271
     2
272
     2
273
     2
274
     3
340
51E
275
     0
280
     0
281
     0
282
     0
283
     0
284
     8
285
     8
286
     0
287
     3
288
     1
  0
DIMSTYLE
105
546
330
A
100
AcDbSymbolTableRecord
100
AcDbDimStyleTableRecord
  2
ONSHAPE-ORDINATESTYLE
 70
     0
  3

  4

  5

  6

  7

 40
1.0
 41
2.5
 42
0.625
 43
3.75
 44
1.25
 45
0.0
 46
0.0
 47
0.0
 48
0.0
140
3.5
141
2.5
142
0.0
143
0.03937
144
1.0
145
0.0
146
1.0
147
0.625
 71
     0
 72
     0
 73
     0
 74
     0
 75
     0
 76
     0
 77
     1
 78
     8
170
     0
171
     3
172
     1
173
     0
174
     0
175
     0
176
     7
177
     7
178
     7
179
     1
270
     2
271
     2
272
     2
273
     2
274
     3
340
72
275
     0
280
     0
281
     0
282
     0
283
     0
284
     8
285
     8
286
     0
287
     3
288
     1
  0
DIMSTYLE
105
547
330
A
100
AcDbSymbolTableRecord
100
AcDbDimStyleTableRecord
  2
ONSHAPE-CHAMFERDIMSTYLE
 70
     0
  3

  4

  5

  6

  7

 40
1.0
 41
2.5
 42
0.625
 43
3.75
 44
1.25
 45
0.0
 46
0.0
 47
0.0
 48
0.0
140
3.5
141
2.5
142
0.0
143
0.03937
144
1.0
145
0.0
146
1.0
147
0.625
 71
     0
 72
     0
 73
     0
 74
     0
 75
     0
 76
     0
 77
     1
 78
     8
170
     0
171
     3
172
     1
173
     0
174
     0
175
     0
176
     7
177
     7
178
     7
179
     1
270
     2
271
     2
272
     2
273
     2
274
     3
340
72
275
     0
280
     0
281
     0
282
     0
283
     0
284
     8
285
     8
286
     0
287
     3
288
     1
  0
ENDTAB
  0
TABLE
  2
BLOCK_RECORD
  5
1
330
0
100
AcDbSymbolTable
 70
     0
  0
BLOCK_RECORD
  5
1F
330
1
100
AcDbSymbolTableRecord
100
AcDbBlockTableRecord
  2
*MODEL_SPACE
  0
BLOCK_RECORD
  5
1B
330
1
100
AcDbSymbolTableRecord
100
AcDbBlockTableRecord
  2
*PAPER_SPACE
  0
ENDTAB
  0
ENDSEC
  0
SECTION
  2
BLOCKS
  0
BLOCK
  5
20
330
1F
100
AcDbEntity
  8
0
100
AcDbBlockBegin
  2
*MODEL_SPACE
 70
     0
 10
0.0
 20
0.0
 30
0.0
  3
*MODEL_SPACE
  1

  0
ENDBLK
  5
21
330
1F
100
AcDbEntity
  8
0
100
AcDbBlockEnd
  0
BLOCK
  5
1C
330
1B
100
AcDbEntity
 67
     1
  8
0
100
AcDbBlockBegin
  2
*PAPER_SPACE
 70
     0
 10
0.0
 20
0.0
 30
0.0
  3
*PAPER_SPACE
  1

  0
ENDBLK
  5
1D
330
1B
100
AcDbEntity
 67
     1
  8
0
100
AcDbBlockEnd
  0
ENDSEC
  0
SECTION
  2
ENTITIES
  0
LINE
  5
76
330
1F
100
AcDbEntity
  8
VISIBLE
100
AcDbLine
 10
213.8449383793837
 20
727.313652540571
 30
0.0
 11
213.8449383793837
 21
749.7136525405709
 31
0.0
  0
LINE
  5
77
330
1F
100
AcDbEntity
  8
VISIBLE
100
AcDbLine
 10
209.8449383793837
 20
727.313652540571
 30
0.0
 11
213.8449383793837
 21
727.313652540571
 31
0.0
  0
LINE
  5
78
330
1F
100
AcDbEntity
  8
VISIBLE
100
AcDbLine
 10
209.8449383793837
 20
749.7136525405709
 30
0.0
 11
213.8449383793837
 21
749.7136525405709
 31
0.0
  0
LINE
  5
79
330
1F
100
AcDbEntity
  8
VISIBLE
100
AcDbLine
 10
209.8449383793837
 20
727.313652540571
 30
0.0
 11
209.8449383793837
 21
749.7136525405709
 31
0.0
  0
LINE
  5
7A
330
1F
100
AcDbEntity
  8
VISIBLE
100
AcDbLine
 10
177.8449383793838
 20
697.313652540571
 30
0.0
 11
177.8449383793838
 21
719.7136525405709
 31
0.0
  0
LINE
  5
7B
330
1F
100
AcDbEntity
  8
VISIBLE
100
AcDbLine
 10
173.8449383793838
 20
697.313652540571
 30
0.0
 11
177.8449383793838
 21
697.313652540571
 31
0.0
  0
LINE
  5
7C
330
1F
100
AcDbEntity
  8
VISIBLE
100
AcDbLine
 10
173.8449383793838
 20
697.313652540571
 30
0.0
 11
173.8449383793838
 21
719.7136525405709
 31
0.0
  0
LINE
  5
7D
330
1F
100
AcDbEntity
  8
VISIBLE
100
AcDbLine
 10
173.8449383793838
 20
719.7136525405709
 30
0.0
 11
177.8449383793838
 21
719.7136525405709
 31
0.0
  0
LINE
  5
7E
330
1F
100
AcDbEntity
  8
VISIBLE
100
AcDbLine
 10
306.8449383793835
 20
298.3136525405709
 30
0.0
 11
306.8449383793835
 21
161.3136525405709
 31
0.0
  0
ARC
  5
7F
330
1F
100
AcDbEntity
  8
VISIBLE
100
AcDbCircle
 10
336.8449383793835
 20
298.3136525405709
 30
0.0
 40
29.99999999999998
100
AcDbArc
 50
90.0
 51
180.0
  0
LINE
  5
80
330
1F
100
AcDbEntity
  8
VISIBLE
100
AcDbLine
 10
503.8449383793836
 20
298.3136525405708
 30
0.0
 11
503.8449383793836
 21
161.3136525405709
 31
0.0
  0
LINE
  5
81
330
1F
100
AcDbEntity
  8
VISIBLE
100
AcDbLine
 10
336.8449383793835
 20
131.3136525405709
 30
0.0
 11
473.8449383793835
 21
131.3136525405709
 31
0.0
  0
ARC
  5
82
330
1F
100
AcDbEntity
  8
VISIBLE
100
AcDbCircle
 10
336.8449383793835
 20
161.3136525405708
 30
0.0
 40
30.0
100
AcDbArc
 50
180.0
 51
270.0
  0
LINE
  5
83
330
1F
100
AcDbEntity
  8
VISIBLE
100
AcDbLine
 10
336.8449383793835
 20
328.3136525405708
 30
0.0
 11
473.8449383793835
 21
328.3136525405708
 31
0.0
  0
ARC
  5
84
330
1F
100
AcDbEntity
  8
VISIBLE
100
AcDbCircle
 10
473.8449383793836
 20
298.3136525405708
 30
0.0
 40
29.99999999999999
100
AcDbArc
 50
0.0
 51
90.00000000000011
  0
ARC
  5
85
330
1F
100
AcDbEntity
  8
VISIBLE
100
AcDbCircle
 10
473.8449383793835
 20
161.3136525405708
 30
0.0
 40
29.99999999999999
100
AcDbArc
 50
270.0
 51
0.0000000000000543
  0
ARC
  5
86
330
1F
100
AcDbEntity
  8
VISIBLE
100
AcDbCircle
 10
244.2449383793836
 20
348.7136525405709
 30
0.0
 40
14.89999999999988
100
AcDbArc
 50
179.9999999999998
 51
270.0000000000002
  0
LINE
  5
87
330
1F
100
AcDbEntity
  8
VISIBLE
100
AcDbLine
 10
244.2449383793837
 20
329.3136525405708
 30
0.0
 11
244.2449383793837
 21
333.813652540571
 31
0.0
  0
ARC
  5
88
330
1F
100
AcDbEntity
  8
VISIBLE
100
AcDbCircle
 10
244.2449383793835
 20
348.7136525405708
 30
0.0
 40
19.39999999999996
100
AcDbArc
 50
179.9999999999997
 51
270.0000000000003
  0
LINE
  5
89
330
1F
100
AcDbEntity
  8
VISIBLE
100
AcDbLine
 10
224.8449383793836
 20
348.7136525405709
 30
0.0
 11
229.3449383793836
 21
348.7136525405709
 31
0.0
  0
LINE
  5
8A
330
1F
100
AcDbEntity
  8
VISIBLE
100
AcDbLine
 10
208.8449383793838
 20
697.313652540571
 30
0.0
 11
212.8449383793839
 21
697.313652540571
 31
0.0
  0
LINE
  5
8B
330
1F
100
AcDbEntity
  8
VISIBLE
100
AcDbLine
 10
208.8449383793838
 20
697.313652540571
 30
0.0
 11
208.8449383793838
 21
719.7136525405709
 31
0.0
  0
LINE
  5
8C
330
1F
100
AcDbEntity
  8
VISIBLE
100
AcDbLine
 10
212.8449383793839
 20
697.313652540571
 30
0.0
 11
212.8449383793839
 21
719.7136525405709
 31
0.0
  0
LINE
  5
8D
330
1F
100
AcDbEntity
  8
VISIBLE
100
AcDbLine
 10
208.8449383793838
 20
719.7136525405709
 30
0.0
 11
212.8449383793839
 21
719.7136525405709
 31
0.0
  0
LINE
  5
8E
330
1F
100
AcDbEntity
  8
VISIBLE
100
AcDbLine
 10
169.8449383793836
 20
727.313652540571
 30
0.0
 11
173.8449383793836
 21
727.313652540571
 31
0.0
  0
LINE
  5
8F
330
1F
100
AcDbEntity
  8
VISIBLE
100
AcDbLine
 10
169.8449383793836
 20
749.7136525405709
 30
0.0
 11
173.8449383793836
 21
749.7136525405709
 31
0.0
  0
LINE
  5
90
330
1F
100
AcDbEntity
  8
VISIBLE
100
AcDbLine
 10
173.8449383793836
 20
727.313652540571
 30
0.0
 11
173.8449383793836
 21
749.7136525405709
 31
0.0
  0
LINE
  5
91
330
1F
100
AcDbEntity
  8
VISIBLE
100
AcDbLine
 10
169.8449383793836
 20
727.313652540571
 30
0.0
 11
169.8449383793836
 21
749.7136525405709
 31
0.0
  0
LINE
  5
92
330
1F
100
AcDbEntity
  8
VISIBLE
100
AcDbLine
 10
168.8449383793836
 20
727.3136525405708
 30
0.0
 11
168.8449383793836
 21
749.7136525405709
 31
0.0
  0
LINE
  5
93
330
1F
100
AcDbEntity
  8
VISIBLE
100
AcDbLine
 10
164.8449383793836
 20
727.3136525405708
 30
0.0
 11
168.8449383793836
 21
727.3136525405708
 31
0.0
  0
LINE
  5
94
330
1F
100
AcDbEntity
  8
VISIBLE
100
AcDbLine
 10
164.8449383793836
 20
727.3136525405708
 30
0.0
 11
164.8449383793836
 21
749.7136525405709
 31
0.0
  0
LINE
  5
95
330
1F
100
AcDbEntity
  8
VISIBLE
100
AcDbLine
 10
164.8449383793836
 20
749.7136525405709
 30
0.0
 11
168.8449383793836
 21
749.7136525405709
 31
0.0
  0
ARC
  5
96
330
1F
100
AcDbEntity
  8
VISIBLE
100
AcDbCircle
 10
224.8449383793832
 20
377.3136525405714
 30
0.0
 40
14.90000000000005
100
AcDbArc
 50
0.0
 51
89.9999999999999
  0
LINE
  5
97
330
1F
100
AcDbEntity
  8
VISIBLE
100
AcDbLine
 10
239.7449383793831
 20
377.3136525405714
 30
0.0
 11
244.2449383793832
 21
377.3136525405714
 31
0.0
  0
ARC
  5
98
330
1F
100
AcDbEntity
  8
VISIBLE
100
AcDbCircle
 10
224.8449383793831
 20
377.3136525405714
 30
0.0
 40
19.40000000000011
100
AcDbArc
 50
0.0
 51
89.99999999999983
  0
LINE
  5
99
330
1F
100
AcDbEntity
  8
VISIBLE
100
AcDbLine
 10
224.8449383793832
 20
392.2136525405713
 30
0.0
 11
224.8449383793831
 21
396.7136525405715
 31
0.0
  0
LINE
  5
9A
330
1F
100
AcDbEntity
  8
VISIBLE
100
AcDbLine
 10
203.8449383793838
 20
697.313652540571
 30
0.0
 11
203.8449383793838
 21
719.7136525405709
 31
0.0
  0
LINE
  5
9B
330
1F
100
AcDbEntity
  8
VISIBLE
100
AcDbLine
 10
203.8449383793838
 20
697.313652540571
 30
0.0
 11
207.8449383793838
 21
697.313652540571
 31
0.0
  0
LINE
  5
9C
330
1F
100
AcDbEntity
  8
VISIBLE
100
AcDbLine
 10
203.8449383793838
 20
719.7136525405709
 30
0.0
 11
207.8449383793838
 21
719.7136525405709
 31
0.0
  0
LINE
  5
9D
330
1F
100
AcDbEntity
  8
VISIBLE
100
AcDbLine
 10
207.8449383793838
 20
697.313652540571
 30
0.0
 11
207.8449383793838
 21
719.7136525405709
 31
0.0
  0
LINE
  5
9E
330
1F
100
AcDbEntity
  8
VISIBLE
100
AcDbLine
 10
566.8449383793835
 20
155.2136525405709
 30
0.0
 11
566.8449383793835
 21
150.7136525405709
 31
0.0
  0
LINE
  5
9F
330
1F
100
AcDbEntity
  8
VISIBLE
100
AcDbLine
 10
586.2449383793836
 20
135.8136525405709
 30
0.0
 11
581.7449383793836
 21
135.8136525405709
 31
0.0
  0
LINE
  5
A0
330
1F
100
AcDbEntity
  8
VISIBLE
100
AcDbLine
 10
586.2449383793835
 20
131.3136525405709
 30
0.0
 11
586.2449383793836
 21
135.8136525405709
 31
0.0
  0
ARC
  5
A1
330
1F
100
AcDbEntity
  8
VISIBLE
100
AcDbCircle
 10
581.7449383793835
 20
150.7136525405708
 30
0.0
 40
14.89999999999996
100
AcDbArc
 50
179.9999999999998
 51
270.0000000000004
  0
LINE
  5
A2
330
1F
100
AcDbEntity
  8
VISIBLE
100
AcDbLine
 10
586.2449383793835
 20
131.3136525405709
 30
0.0
 11
581.7449383793836
 21
131.3136525405709
 31
0.0
  0
ARC
  5
A3
330
1F
100
AcDbEntity
  8
VISIBLE
100
AcDbCircle
 10
581.7449383793836
 20
150.713652540571
 30
0.0
 40
19.40000000000006
100
AcDbArc
 50
180.0000000000003
 51
270.0
  0
LINE
  5
A4
330
1F
100
AcDbEntity
  8
VISIBLE
100
AcDbLine
 10
562.3449383793835
 20
155.2136525405709
 30
0.0
 11
566.8449383793835
 21
155.2136525405709
 31
0.0
  0
LINE
  5
A5
330
1F
100
AcDbEntity
  8
VISIBLE
100
AcDbLine
 10
562.3449383793835
 20
155.2136525405709
 30
0.0
 11
562.3449383793835
 21
150.7136525405709
 31
0.0
  0
LINE
  5
A6
330
1F
100
AcDbEntity
  8
VISIBLE
100
AcDbLine
 10
237.8449383793839
 20
697.313652540571
 30
0.0
 11
237.8449383793839
 21
719.7136525405709
 31
0.0
  0
LINE
  5
A7
330
1F
100
AcDbEntity
  8
VISIBLE
100
AcDbLine
 10
233.844938379384
 20
719.7136525405709
 30
0.0
 11
237.8449383793839
 21
719.7136525405709
 31
0.0
  0
LINE
  5
A8
330
1F
100
AcDbEntity
  8
VISIBLE
100
AcDbLine
 10
233.844938379384
 20
697.313652540571
 30
0.0
 11
237.8449383793839
 21
697.313652540571
 31
0.0
  0
LINE
  5
A9
330
1F
100
AcDbEntity
  8
VISIBLE
100
AcDbLine
 10
233.844938379384
 20
697.313652540571
 30
0.0
 11
233.844938379384
 21
719.7136525405709
 31
0.0
  0
LINE
  5
AA
330
1F
100
AcDbEntity
  8
VISIBLE
100
AcDbLine
 10
158.8449383793836
 20
727.3136525405711
 30
0.0
 11
158.8449383793836
 21
749.713652540571
 31
0.0
  0
LINE
  5
AB
330
1F
100
AcDbEntity
  8
VISIBLE
100
AcDbLine
 10
154.8449383793836
 20
727.3136525405711
 30
0.0
 11
154.8449383793836
 21
749.713652540571
 31
0.0
  0
LINE
  5
AC
330
1F
100
AcDbEntity
  8
VISIBLE
100
AcDbLine
 10
154.8449383793836
 20
749.713652540571
 30
0.0
 11
158.8449383793836
 21
749.713652540571
 31
0.0
  0
LINE
  5
AD
330
1F
100
AcDbEntity
  8
VISIBLE
100
AcDbLine
 10
154.8449383793836
 20
727.3136525405711
 30
0.0
 11
158.8449383793836
 21
727.3136525405711
 31
0.0
  0
LINE
  5
AE
330
1F
100
AcDbEntity
  8
VISIBLE
100
AcDbLine
 10
220.0449383793836
 20
750.7136525405709
 30
0.0
 11
242.4449383793836
 21
750.7136525405709
 31
0.0
  0
LINE
  5
AF
330
1F
100
AcDbEntity
  8
VISIBLE
100
AcDbLine
 10
242.4449383793836
 20
754.7136525405709
 30
0.0
 11
242.4449383793836
 21
750.7136525405709
 31
0.0
  0
LINE
  5
B0
330
1F
100
AcDbEntity
  8
VISIBLE
100
AcDbLine
 10
220.0449383793836
 20
754.7136525405709
 30
0.0
 11
220.0449383793836
 21
750.7136525405709
 31
0.0
  0
LINE
  5
B1
330
1F
100
AcDbEntity
  8
VISIBLE
100
AcDbLine
 10
220.0449383793836
 20
754.7136525405709
 30
0.0
 11
242.4449383793836
 21
754.7136525405709
 31
0.0
  0
LINE
  5
B2
330
1F
100
AcDbEntity
  8
VISIBLE
100
AcDbLine
 10
178.8449383793838
 20
697.313652540571
 30
0.0
 11
182.8449383793839
 21
697.313652540571
 31
0.0
  0
LINE
  5
B3
330
1F
100
AcDbEntity
  8
VISIBLE
100
AcDbLine
 10
178.8449383793838
 20
697.313652540571
 30
0.0
 11
178.8449383793838
 21
719.7136525405709
 31
0.0
  0
LINE
  5
B4
330
1F
100
AcDbEntity
  8
VISIBLE
100
AcDbLine
 10
178.8449383793838
 20
719.7136525405709
 30
0.0
 11
182.8449383793839
 21
719.7136525405709
 31
0.0
  0
LINE
  5
B5
330
1F
100
AcDbEntity
  8
VISIBLE
100
AcDbLine
 10
182.8449383793839
 20
697.313652540571
 30
0.0
 11
182.8449383793839
 21
719.7136525405709
 31
0.0
  0
LINE
  5
B6
330
1F
100
AcDbEntity
  8
VISIBLE
100
AcDbLine
 10
404.0000444104994
 20
387.8049785723957
 30
0.0
 11
416.3532717127168
 21
392.3136525405709
 31
0.0
  0
LINE
  5
B7
330
1F
100
AcDbEntity
  8
VISIBLE
100
AcDbLine
 10
423.6449383793835
 20
392.3136525405709
 30
0.0
 11
404.8571872676422
 21
385.456509683428
 31
0.0
  0
LINE
  5
B8
330
1F
100
AcDbEntity
  8
VISIBLE
100
AcDbLine
 10
423.6449383793835
 20
392.3136525405709
 30
0.0
 11
441.3532717127168
 21
392.3136525405709
 31
0.0
  0
LINE
  5
B9
330
1F
100
AcDbEntity
  8
VISIBLE
100
AcDbLine
 10
429.0000444104994
 20
387.8049785723957
 30
0.0
 11
441.3532717127168
 21
392.3136525405709
 31
0.0
  0
LINE
  5
BA
330
1F
100
AcDbEntity
  8
VISIBLE
100
AcDbLine
 10
429.8571872676422
 20
385.456509683428
 30
0.0
 11
429.0000444104994
 21
387.8049785723957
 31
0.0
  0
LINE
  5
BB
330
1F
100
AcDbEntity
  8
VISIBLE
100
AcDbLine
 10
448.6449383793835
 20
392.3136525405709
 30
0.0
 11
429.8571872676422
 21
385.456509683428
 31
0.0
  0
LINE
  5
BC
330
1F
100
AcDbEntity
  8
VISIBLE
100
AcDbLine
 10
448.6449383793835
 20
392.3136525405709
 30
0.0
 11
473.6449383793835
 21
392.3136525405709
 31
0.0
  0
LINE
  5
BD
330
1F
100
AcDbEntity
  8
VISIBLE
100
AcDbLine
 10
473.6449383793835
 20
380.3136525405709
 30
0.0
 11
473.6449383793835
 21
392.3136525405709
 31
0.0
  0
LINE
  5
BE
330
1F
100
AcDbEntity
  8
VISIBLE
100
AcDbLine
 10
306.8449383793835
 20
380.3136525405709
 30
0.0
 11
473.6449383793835
 21
380.3136525405709
 31
0.0
  0
LINE
  5
BF
330
1F
100
AcDbEntity
  8
VISIBLE
100
AcDbLine
 10
306.8449383793835
 20
380.3136525405709
 30
0.0
 11
306.8449383793835
 21
392.3136525405709
 31
0.0
  0
LINE
  5
C0
330
1F
100
AcDbEntity
  8
VISIBLE
100
AcDbLine
 10
306.8449383793835
 20
392.3136525405709
 30
0.0
 11
341.3532717127168
 21
392.3136525405709
 31
0.0
  0
LINE
  5
C1
330
1F
100
AcDbEntity
  8
VISIBLE
100
AcDbLine
 10
329.0000444104994
 20
387.8049785723957
 30
0.0
 11
341.3532717127168
 21
392.3136525405709
 31
0.0
  0
LINE
  5
C2
330
1F
100
AcDbEntity
  8
VISIBLE
100
AcDbLine
 10
329.8571872676422
 20
385.4565096834281
 30
0.0
 11
329.0000444104994
 21
387.8049785723957
 31
0.0
  0
LINE
  5
C3
330
1F
100
AcDbEntity
  8
VISIBLE
100
AcDbLine
 10
348.6449383793835
 20
392.3136525405709
 30
0.0
 11
329.8571872676422
 21
385.4565096834281
 31
0.0
  0
LINE
  5
C4
330
1F
100
AcDbEntity
  8
VISIBLE
100
AcDbLine
 10
348.6449383793835
 20
392.3136525405709
 30
0.0
 11
366.3532717127168
 21
392.3136525405709
 31
0.0
  0
LINE
  5
C5
330
1F
100
AcDbEntity
  8
VISIBLE
100
AcDbLine
 10
354.0000444104994
 20
387.8049785723957
 30
0.0
 11
366.3532717127168
 21
392.3136525405709
 31
0.0
  0
LINE
  5
C6
330
1F
100
AcDbEntity
  8
VISIBLE
100
AcDbLine
 10
354.8571872676422
 20
385.4565096834281
 30
0.0
 11
354.0000444104994
 21
387.8049785723957
 31
0.0
  0
LINE
  5
C7
330
1F
100
AcDbEntity
  8
VISIBLE
100
AcDbLine
 10
373.6449383793835
 20
392.3136525405709
 30
0.0
 11
354.8571872676422
 21
385.4565096834281
 31
0.0
  0
LINE
  5
C8
330
1F
100
AcDbEntity
  8
VISIBLE
100
AcDbLine
 10
373.6449383793835
 20
392.3136525405709
 30
0.0
 11
391.3532717127168
 21
392.3136525405709
 31
0.0
  0
LINE
  5
C9
330
1F
100
AcDbEntity
  8
VISIBLE
100
AcDbLine
 10
379.0000444104994
 20
387.8049785723957
 30
0.0
 11
391.3532717127168
 21
392.3136525405709
 31
0.0
  0
LINE
  5
CA
330
1F
100
AcDbEntity
  8
VISIBLE
100
AcDbLine
 10
379.8571872676422
 20
385.456509683428
 30
0.0
 11
379.0000444104994
 21
387.8049785723957
 31
0.0
  0
LINE
  5
CB
330
1F
100
AcDbEntity
  8
VISIBLE
100
AcDbLine
 10
398.6449383793835
 20
392.3136525405709
 30
0.0
 11
379.8571872676422
 21
385.456509683428
 31
0.0
  0
LINE
  5
CC
330
1F
100
AcDbEntity
  8
VISIBLE
100
AcDbLine
 10
398.6449383793835
 20
392.3136525405709
 30
0.0
 11
416.3532717127168
 21
392.3136525405709
 31
0.0
  0
LINE
  5
CD
330
1F
100
AcDbEntity
  8
VISIBLE
100
AcDbLine
 10
392.4949383793835
 20
384.3136525405709
 30
0.0
 11
392.4949383793835
 21
388.3136525405709
 31
0.0
  0
LINE
  5
CE
330
1F
100
AcDbEntity
  8
VISIBLE
100
AcDbLine
 10
387.9949383793835
 20
388.3136525405709
 30
0.0
 11
392.4949383793835
 21
388.3136525405709
 31
0.0
  0
LINE
  5
CF
330
1F
100
AcDbEntity
  8
VISIBLE
100
AcDbLine
 10
387.9949383793835
 20
384.3136525405709
 30
0.0
 11
387.9949383793835
 21
388.3136525405709
 31
0.0
  0
LINE
  5
D0
330
1F
100
AcDbEntity
  8
VISIBLE
100
AcDbLine
 10
387.9949383793835
 20
384.3136525405709
 30
0.0
 11
392.4949383793835
 21
384.3136525405709
 31
0.0
  0
LINE
  5
D1
330
1F
100
AcDbEntity
  8
VISIBLE
100
AcDbLine
 10
404.8571872676422
 20
385.456509683428
 30
0.0
 11
404.0000444104994
 21
387.8049785723957
 31
0.0
  0
LINE
  5
D2
330
1F
100
AcDbEntity
  8
VISIBLE
100
AcDbLine
 10
149.8449383793835
 20
727.313652540571
 30
0.0
 11
153.8449383793836
 21
727.313652540571
 31
0.0
  0
LINE
  5
D3
330
1F
100
AcDbEntity
  8
VISIBLE
100
AcDbLine
 10
149.8449383793835
 20
727.313652540571
 30
0.0
 11
149.8449383793835
 21
749.713652540571
 31
0.0
  0
LINE
  5
D4
330
1F
100
AcDbEntity
  8
VISIBLE
100
AcDbLine
 10
149.8449383793835
 20
749.713652540571
 30
0.0
 11
153.8449383793836
 21
749.713652540571
 31
0.0
  0
LINE
  5
D5
330
1F
100
AcDbEntity
  8
VISIBLE
100
AcDbLine
 10
153.8449383793836
 20
727.313652540571
 30
0.0
 11
153.8449383793836
 21
749.713652540571
 31
0.0
  0
LINE
  5
D6
330
1F
100
AcDbEntity
  8
VISIBLE
100
AcDbLine
 10
91.3449383793835
 20
659.3136525405708
 30
0.0
 11
91.3449383793835
 21
663.813652540571
 31
0.0
  0
LINE
  5
D7
330
1F
100
AcDbEntity
  8
VISIBLE
100
AcDbLine
 10
86.8449383793835
 20
663.813652540571
 30
0.0
 11
91.3449383793835
 21
663.813652540571
 31
0.0
  0
LINE
  5
D8
330
1F
100
AcDbEntity
  8
VISIBLE
100
AcDbLine
 10
86.8449383793835
 20
663.813652540571
 30
0.0
 11
86.8449383793835
 21
668.3136525405708
 31
0.0
  0
LINE
  5
D9
330
1F
100
AcDbEntity
  8
VISIBLE
100
AcDbLine
 10
86.8449383793835
 20
668.3136525405708
 30
0.0
 11
91.3449383793835
 21
668.3136525405708
 31
0.0
  0
LINE
  5
DA
330
1F
100
AcDbEntity
  8
VISIBLE
100
AcDbLine
 10
91.3449383793835
 20
668.3136525405708
 30
0.0
 11
91.3449383793835
 21
672.813652540571
 31
0.0
  0
LINE
  5
DB
330
1F
100
AcDbEntity
  8
VISIBLE
100
AcDbLine
 10
86.8449383793835
 20
672.813652540571
 30
0.0
 11
91.3449383793835
 21
672.813652540571
 31
0.0
  0
LINE
  5
DC
330
1F
100
AcDbEntity
  8
VISIBLE
100
AcDbLine
 10
221.8449383793835
 20
677.3136525405708
 30
0.0
 11
86.8449383793835
 21
677.3136525405708
 31
0.0
  0
LINE
  5
DD
330
1F
100
AcDbEntity
  8
TANGENT_LINES
100
AcDbLine
 10
221.8449383793835
 20
659.3136525405708
 30
0.0
 11
221.8449383793835
 21
677.3136525405708
 31
0.0
  0
LINE
  5
DE
330
1F
100
AcDbEntity
  8
VISIBLE
100
AcDbLine
 10
86.8449383793835
 20
672.813652540571
 30
0.0
 11
86.8449383793835
 21
677.3136525405708
 31
0.0
  0
LINE
  5
DF
330
1F
100
AcDbEntity
  8
VISIBLE
100
AcDbLine
 10
221.8449383793835
 20
659.3136525405708
 30
0.0
 11
91.3449383793835
 21
659.3136525405708
 31
0.0
  0
LINE
  5
E0
330
1F
100
AcDbEntity
  8
VISIBLE
100
AcDbLine
 10
223.8449383793835
 20
677.3136525405708
 30
0.0
 11
223.8449383793835
 21
659.3136525405708
 31
0.0
  0
LINE
  5
E1
330
1F
100
AcDbEntity
  8
VISIBLE
100
AcDbLine
 10
221.8449383793835
 20
677.3136525405708
 30
0.0
 11
223.8449383793835
 21
677.3136525405708
 31
0.0
  0
LINE
  5
E2
330
1F
100
AcDbEntity
  8
VISIBLE
100
AcDbLine
 10
223.8449383793835
 20
659.3136525405708
 30
0.0
 11
221.8449383793835
 21
659.3136525405708
 31
0.0
  0
LINE
  5
E3
330
1F
100
AcDbEntity
  8
VISIBLE
100
AcDbLine
 10
580.2449383793829
 20
298.3136525405721
 30
0.0
 11
580.2449383793828
 21
293.813652540572
 31
0.0
  0
ARC
  5
E4
330
1F
100
AcDbEntity
  8
VISIBLE
100
AcDbCircle
 10
560.8449383793828
 20
298.3136525405721
 30
0.0
 40
19.4
100
AcDbArc
 50
0.0
 51
90.0
  0
LINE
  5
E5
330
1F
100
AcDbEntity
  8
VISIBLE
100
AcDbLine
 10
556.3449383793828
 20
317.7136525405721
 30
0.0
 11
556.3449383793828
 21
313.2136525405721
 31
0.0
  0
LINE
  5
E6
330
1F
100
AcDbEntity
  8
VISIBLE
100
AcDbLine
 10
556.3449383793828
 20
317.7136525405721
 30
0.0
 11
560.8449383793828
 21
317.7136525405721
 31
0.0
  0
ARC
  5
E7
330
1F
100
AcDbEntity
  8
VISIBLE
100
AcDbCircle
 10
560.8449383793828
 20
298.313652540572
 30
0.0
 40
14.89999999999995
100
AcDbArc
 50
0.0
 51
90.0
  0
LINE
  5
E8
330
1F
100
AcDbEntity
  8
VISIBLE
100
AcDbLine
 10
556.3449383793828
 20
313.2136525405721
 30
0.0
 11
560.8449383793828
 21
313.213652540572
 31
0.0
  0
LINE
  5
E9
330
1F
100
AcDbEntity
  8
VISIBLE
100
AcDbLine
 10
580.2449383793828
 20
293.813652540572
 30
0.0
 11
575.7449383793829
 21
293.8136525405721
 31
0.0
  0
LINE
  5
EA
330
1F
100
AcDbEntity
  8
VISIBLE
100
AcDbLine
 10
575.7449383793829
 20
293.8136525405721
 30
0.0
 11
575.7449383793827
 21
298.3136525405721
 31
0.0
  0
LINE
  5
EB
330
1F
100
AcDbEntity
  8
VISIBLE
100
AcDbLine
 10
86.8449383793835
 20
491.3136525405708
 30
0.0
 11
86.8449383793835
 21
628.313652540571
 31
0.0
  0
ARC
  5
EC
330
1F
100
AcDbEntity
  8
VISIBLE
100
AcDbCircle
 10
116.8449383793835
 20
628.313652540571
 30
0.0
 40
29.99999999999999
100
AcDbArc
 50
90.0
 51
180.0
  0
LINE
  5
ED
330
1F
100
AcDbEntity
  8
VISIBLE
100
AcDbLine
 10
116.8449383793835
 20
658.3136525405708
 30
0.0
 11
253.8449383793835
 21
658.3136525405708
 31
0.0
  0
LINE
  5
EE
330
1F
100
AcDbEntity
  8
VISIBLE
100
AcDbLine
 10
283.8449383793835
 20
491.3136525405708
 30
0.0
 11
283.8449383793835
 21
628.3136525405708
 31
0.0
  0
ARC
  5
EF
330
1F
100
AcDbEntity
  8
VISIBLE
100
AcDbCircle
 10
253.8449383793835
 20
491.3136525405708
 30
0.0
 40
30.0
100
AcDbArc
 50
269.9999999999999
 51
0.0
  0
LINE
  5
F0
330
1F
100
AcDbEntity
  8
VISIBLE
100
AcDbLine
 10
116.8449383793834
 20
461.3136525405708
 30
0.0
 11
253.8449383793835
 21
461.3136525405708
 31
0.0
  0
ARC
  5
F1
330
1F
100
AcDbEntity
  8
VISIBLE
100
AcDbCircle
 10
116.8449383793834
 20
491.3136525405708
 30
0.0
 40
29.99999999999998
100
AcDbArc
 50
180.0
 51
270.0
  0
LINE
  5
F2
330
1F
100
AcDbEntity
  8
VISIBLE
100
AcDbLine
 10
89.34493837938345
 20
628.313652540571
 30
0.0
 11
89.34493837938345
 21
491.3136525405708
 31
0.0
  0
ARC
  5
F3
330
1F
100
AcDbEntity
  8
VISIBLE
100
AcDbCircle
 10
116.8449383793835
 20
491.3136525405708
 30
0.0
 40
27.5
100
AcDbArc
 50
180.0
 51
270.0
  0
LINE
  5
F4
330
1F
100
AcDbEntity
  8
VISIBLE
100
AcDbLine
 10
116.8449383793835
 20
463.8136525405708
 30
0.0
 11
253.8449383793835
 21
463.8136525405708
 31
0.0
  0
LINE
  5
F5
330
1F
100
AcDbEntity
  8
VISIBLE
100
AcDbLine
 10
281.3449383793835
 20
628.3136525405708
 30
0.0
 11
281.3449383793835
 21
491.3136525405708
 31
0.0
  0
ARC
  5
F6
330
1F
100
AcDbEntity
  8
VISIBLE
100
AcDbCircle
 10
253.8449383793834
 20
628.3136525405708
 30
0.0
 40
27.50000000000002
100
AcDbArc
 50
0.0
 51
89.99999999999994
  0
ARC
  5
F7
330
1F
100
AcDbEntity
  8
VISIBLE
100
AcDbCircle
 10
116.8449383793835
 20
628.313652540571
 30
0.0
 40
27.5
100
AcDbArc
 50
90.00000000000011
 51
180.0
  0
ARC
  5
F8
330
1F
100
AcDbEntity
  8
VISIBLE
100
AcDbCircle
 10
253.8449383793835
 20
628.313652540571
 30
0.0
 40
29.99999999999999
100
AcDbArc
 50
359.9999999999998
 51
90.00000000000006
  0
ARC
  5
F9
330
1F
100
AcDbEntity
  8
VISIBLE
100
AcDbCircle
 10
253.8449383793835
 20
491.3136525405709
 30
0.0
 40
27.50000000000002
100
AcDbArc
 50
270.0
 51
0.0
  0
LINE
  5
FA
330
1F
100
AcDbEntity
  8
VISIBLE
100
AcDbLine
 10
116.8449383793834
 20
655.813652540571
 30
0.0
 11
253.8449383793835
 21
655.813652540571
 31
0.0
  0
LINE
  5
FB
330
1F
100
AcDbEntity
  8
VISIBLE
100
AcDbLine
 10
224.8449383793837
 20
727.313652540571
 30
0.0
 11
224.8449383793837
 21
749.7136525405709
 31
0.0
  0
LINE
  5
FC
330
1F
100
AcDbEntity
  8
VISIBLE
100
AcDbLine
 10
224.8449383793837
 20
749.7136525405709
 30
0.0
 11
228.8449383793837
 21
749.7136525405709
 31
0.0
  0
LINE
  5
FD
330
1F
100
AcDbEntity
  8
VISIBLE
100
AcDbLine
 10
228.8449383793837
 20
727.313652540571
 30
0.0
 11
228.8449383793837
 21
749.7136525405709
 31
0.0
  0
LINE
  5
FE
330
1F
100
AcDbEntity
  8
VISIBLE
100
AcDbLine
 10
224.8449383793837
 20
727.313652540571
 30
0.0
 11
228.8449383793837
 21
727.313652540571
 31
0.0
  0
LINE
  5
FF
330
1F
100
AcDbEntity
  8
VISIBLE
100
AcDbLine
 10
137.8449383793837
 20
697.313652540571
 30
0.0
 11
137.8449383793837
 21
719.7136525405709
 31
0.0
  0
LINE
  5
100
330
1F
100
AcDbEntity
  8
VISIBLE
100
AcDbLine
 10
133.8449383793837
 20
697.313652540571
 30
0.0
 11
137.8449383793837
 21
697.313652540571
 31
0.0
  0
LINE
  5
101
330
1F
100
AcDbEntity
  8
VISIBLE
100
AcDbLine
 10
133.8449383793837
 20
697.313652540571
 30
0.0
 11
133.8449383793837
 21
719.7136525405709
 31
0.0
  0
LINE
  5
102
330
1F
100
AcDbEntity
  8
VISIBLE
100
AcDbLine
 10
133.8449383793837
 20
719.7136525405709
 30
0.0
 11
137.8449383793837
 21
719.7136525405709
 31
0.0
  0
LINE
  5
103
330
1F
100
AcDbEntity
  8
VISIBLE
100
AcDbLine
 10
128.8449383793836
 20
697.313652540571
 30
0.0
 11
128.8449383793836
 21
719.7136525405709
 31
0.0
  0
LINE
  5
104
330
1F
100
AcDbEntity
  8
VISIBLE
100
AcDbLine
 10
128.8449383793836
 20
697.313652540571
 30
0.0
 11
132.8449383793836
 21
697.313652540571
 31
0.0
  0
LINE
  5
105
330
1F
100
AcDbEntity
  8
VISIBLE
100
AcDbLine
 10
128.8449383793836
 20
719.7136525405709
 30
0.0
 11
132.8449383793836
 21
719.7136525405709
 31
0.0
  0
LINE
  5
106
330
1F
100
AcDbEntity
  8
VISIBLE
100
AcDbLine
 10
132.8449383793836
 20
697.313652540571
 30
0.0
 11
132.8449383793836
 21
719.7136525405709
 31
0.0
  0
LINE
  5
107
330
1F
100
AcDbEntity
  8
VISIBLE
100
AcDbLine
 10
205.5782717127169
 20
353.3136525405708
 30
0.0
 11
205.5782717127169
 21
355.8136525405708
 31
0.0
  0
LINE
  5
108
330
1F
100
AcDbEntity
  8
VISIBLE
100
AcDbLine
 10
205.5782717127169
 20
355.8136525405708
 30
0.0
 11
196.4449383793836
 21
355.8136525405708
 31
0.0
  0
LINE
  5
109
330
1F
100
AcDbEntity
  8
VISIBLE
100
AcDbLine
 10
196.4449383793836
 20
353.3136525405708
 30
0.0
 11
196.4449383793836
 21
355.8136525405708
 31
0.0
  0
LINE
  5
10A
330
1F
100
AcDbEntity
  8
VISIBLE
100
AcDbLine
 10
196.4449383793836
 20
353.3136525405708
 30
0.0
 11
187.3116050460503
 21
353.3136525405708
 31
0.0
  0
LINE
  5
10B
330
1F
100
AcDbEntity
  8
VISIBLE
100
AcDbLine
 10
187.3116050460503
 20
353.3136525405708
 30
0.0
 11
187.3116050460503
 21
355.8136525405708
 31
0.0
  0
LINE
  5
10C
330
1F
100
AcDbEntity
  8
VISIBLE
100
AcDbLine
 10
187.3116050460503
 20
355.8136525405708
 30
0.0
 11
178.1782717127169
 21
355.8136525405708
 31
0.0
  0
LINE
  5
10D
330
1F
100
AcDbEntity
  8
VISIBLE
100
AcDbLine
 10
178.1782717127169
 20
353.3136525405708
 30
0.0
 11
178.1782717127169
 21
355.8136525405708
 31
0.0
  0
LINE
  5
10E
330
1F
100
AcDbEntity
  8
VISIBLE
100
AcDbLine
 10
178.1782717127169
 20
353.3136525405708
 30
0.0
 11
169.0449383793836
 21
353.3136525405708
 31
0.0
  0
LINE
  5
10F
330
1F
100
AcDbEntity
  8
VISIBLE
100
AcDbLine
 10
169.0449383793836
 20
353.3136525405708
 30
0.0
 11
169.0449383793836
 21
355.8136525405708
 31
0.0
  0
LINE
  5
110
330
1F
100
AcDbEntity
  8
VISIBLE
100
AcDbLine
 10
169.0449383793836
 20
355.8136525405708
 30
0.0
 11
159.9116050460502
 21
355.8136525405708
 31
0.0
  0
LINE
  5
111
330
1F
100
AcDbEntity
  8
VISIBLE
100
AcDbLine
 10
159.9116050460502
 20
353.3136525405708
 30
0.0
 11
159.9116050460502
 21
355.8136525405708
 31
0.0
  0
LINE
  5
112
330
1F
100
AcDbEntity
  8
VISIBLE
100
AcDbLine
 10
159.9116050460502
 20
353.3136525405708
 30
0.0
 11
150.7782717127169
 21
353.3136525405708
 31
0.0
  0
LINE
  5
113
330
1F
100
AcDbEntity
  8
VISIBLE
100
AcDbLine
 10
150.7782717127169
 20
353.3136525405708
 30
0.0
 11
150.7782717127169
 21
355.8136525405708
 31
0.0
  0
LINE
  5
114
330
1F
100
AcDbEntity
  8
VISIBLE
100
AcDbLine
 10
150.7782717127169
 20
355.8136525405708
 30
0.0
 11
141.6449383793835
 21
355.8136525405708
 31
0.0
  0
LINE
  5
115
330
1F
100
AcDbEntity
  8
VISIBLE
100
AcDbLine
 10
141.6449383793835
 20
353.3136525405708
 30
0.0
 11
141.6449383793835
 21
355.8136525405708
 31
0.0
  0
LINE
  5
116
330
1F
100
AcDbEntity
  8
VISIBLE
100
AcDbLine
 10
141.6449383793835
 20
353.3136525405708
 30
0.0
 11
132.5116050460502
 21
353.3136525405708
 31
0.0
  0
LINE
  5
117
330
1F
100
AcDbEntity
  8
VISIBLE
100
AcDbLine
 10
132.5116050460502
 20
353.3136525405708
 30
0.0
 11
132.5116050460502
 21
355.8136525405708
 31
0.0
  0
LINE
  5
118
330
1F
100
AcDbEntity
  8
VISIBLE
100
AcDbLine
 10
132.5116050460502
 20
355.8136525405708
 30
0.0
 11
123.3782717127169
 21
355.8136525405708
 31
0.0
  0
LINE
  5
119
330
1F
100
AcDbEntity
  8
VISIBLE
100
AcDbLine
 10
123.3782717127169
 20
353.3136525405708
 30
0.0
 11
123.3782717127169
 21
355.8136525405708
 31
0.0
  0
LINE
  5
11A
330
1F
100
AcDbEntity
  8
VISIBLE
100
AcDbLine
 10
123.3782717127169
 20
353.3136525405708
 30
0.0
 11
114.2449383793835
 21
353.3136525405708
 31
0.0
  0
LINE
  5
11B
330
1F
100
AcDbEntity
  8
VISIBLE
100
AcDbLine
 10
114.2449383793835
 20
353.3136525405708
 30
0.0
 11
114.2449383793835
 21
355.8136525405708
 31
0.0
  0
LINE
  5
11C
330
1F
100
AcDbEntity
  8
VISIBLE
100
AcDbLine
 10
114.2449383793835
 20
355.8136525405708
 30
0.0
 11
105.1116050460502
 21
355.8136525405708
 31
0.0
  0
LINE
  5
11D
330
1F
100
AcDbEntity
  8
VISIBLE
100
AcDbLine
 10
105.1116050460502
 20
353.3136525405708
 30
0.0
 11
105.1116050460502
 21
355.8136525405708
 31
0.0
  0
LINE
  5
11E
330
1F
100
AcDbEntity
  8
VISIBLE
100
AcDbLine
 10
105.1116050460502
 20
353.3136525405708
 30
0.0
 11
95.97827171271686
 21
353.3136525405708
 31
0.0
  0
LINE
  5
11F
330
1F
100
AcDbEntity
  8
VISIBLE
100
AcDbLine
 10
95.97827171271686
 20
353.3136525405708
 30
0.0
 11
95.97827171271686
 21
355.8136525405708
 31
0.0
  0
LINE
  5
120
330
1F
100
AcDbEntity
  8
VISIBLE
100
AcDbLine
 10
95.97827171271686
 20
355.8136525405708
 30
0.0
 11
86.8449383793835
 21
355.8136525405708
 31
0.0
  0
LINE
  5
121
330
1F
100
AcDbEntity
  8
VISIBLE
100
AcDbLine
 10
86.8449383793835
 20
355.8136525405708
 30
0.0
 11
86.8449383793835
 21
373.8136525405708
 31
0.0
  0
LINE
  5
122
330
1F
100
AcDbEntity
  8
VISIBLE
100
AcDbLine
 10
95.97827171271685
 20
373.8136525405708
 30
0.0
 11
86.8449383793835
 21
373.8136525405708
 31
0.0
  0
LINE
  5
123
330
1F
100
AcDbEntity
  8
VISIBLE
100
AcDbLine
 10
95.97827171271685
 20
373.8136525405708
 30
0.0
 11
95.97827171271685
 21
376.3136525405708
 31
0.0
  0
LINE
  5
124
330
1F
100
AcDbEntity
  8
VISIBLE
100
AcDbLine
 10
105.1116050460502
 20
376.3136525405708
 30
0.0
 11
95.97827171271685
 21
376.3136525405708
 31
0.0
  0
LINE
  5
125
330
1F
100
AcDbEntity
  8
VISIBLE
100
AcDbLine
 10
105.1116050460501
 20
373.8136525405708
 30
0.0
 11
105.1116050460502
 21
376.3136525405708
 31
0.0
  0
LINE
  5
126
330
1F
100
AcDbEntity
  8
VISIBLE
100
AcDbLine
 10
114.2449383793835
 20
373.8136525405708
 30
0.0
 11
105.1116050460501
 21
373.8136525405708
 31
0.0
  0
LINE
  5
127
330
1F
100
AcDbEntity
  8
VISIBLE
100
AcDbLine
 10
114.2449383793835
 20
373.8136525405708
 30
0.0
 11
114.2449383793835
 21
376.3136525405708
 31
0.0
  0
LINE
  5
128
330
1F
100
AcDbEntity
  8
VISIBLE
100
AcDbLine
 10
123.3782717127169
 20
376.3136525405708
 30
0.0
 11
114.2449383793835
 21
376.3136525405708
 31
0.0
  0
LINE
  5
129
330
1F
100
AcDbEntity
  8
VISIBLE
100
AcDbLine
 10
123.3782717127168
 20
373.8136525405708
 30
0.0
 11
123.3782717127169
 21
376.3136525405708
 31
0.0
  0
LINE
  5
12A
330
1F
100
AcDbEntity
  8
VISIBLE
100
AcDbLine
 10
132.5116050460502
 20
373.8136525405708
 30
0.0
 11
123.3782717127168
 21
373.8136525405708
 31
0.0
  0
LINE
  5
12B
330
1F
100
AcDbEntity
  8
VISIBLE
100
AcDbLine
 10
132.5116050460502
 20
373.8136525405708
 30
0.0
 11
132.5116050460502
 21
376.3136525405708
 31
0.0
  0
LINE
  5
12C
330
1F
100
AcDbEntity
  8
VISIBLE
100
AcDbLine
 10
141.6449383793835
 20
376.3136525405708
 30
0.0
 11
132.5116050460502
 21
376.3136525405708
 31
0.0
  0
LINE
  5
12D
330
1F
100
AcDbEntity
  8
VISIBLE
100
AcDbLine
 10
141.6449383793835
 20
373.8136525405708
 30
0.0
 11
141.6449383793835
 21
376.3136525405708
 31
0.0
  0
LINE
  5
12E
330
1F
100
AcDbEntity
  8
VISIBLE
100
AcDbLine
 10
150.7782717127168
 20
373.8136525405708
 30
0.0
 11
141.6449383793835
 21
373.8136525405708
 31
0.0
  0
LINE
  5
12F
330
1F
100
AcDbEntity
  8
VISIBLE
100
AcDbLine
 10
150.7782717127168
 20
373.8136525405708
 30
0.0
 11
150.7782717127168
 21
376.3136525405708
 31
0.0
  0
LINE
  5
130
330
1F
100
AcDbEntity
  8
VISIBLE
100
AcDbLine
 10
159.9116050460502
 20
376.3136525405708
 30
0.0
 11
150.7782717127168
 21
376.3136525405708
 31
0.0
  0
LINE
  5
131
330
1F
100
AcDbEntity
  8
VISIBLE
100
AcDbLine
 10
159.9116050460502
 20
373.8136525405708
 30
0.0
 11
159.9116050460502
 21
376.3136525405708
 31
0.0
  0
LINE
  5
132
330
1F
100
AcDbEntity
  8
VISIBLE
100
AcDbLine
 10
169.0449383793835
 20
373.8136525405708
 30
0.0
 11
159.9116050460502
 21
373.8136525405708
 31
0.0
  0
LINE
  5
133
330
1F
100
AcDbEntity
  8
VISIBLE
100
AcDbLine
 10
169.0449383793835
 20
373.8136525405708
 30
0.0
 11
169.0449383793835
 21
376.3136525405708
 31
0.0
  0
LINE
  5
134
330
1F
100
AcDbEntity
  8
VISIBLE
100
AcDbLine
 10
178.1782717127169
 20
376.3136525405708
 30
0.0
 11
169.0449383793835
 21
376.3136525405708
 31
0.0
  0
LINE
  5
135
330
1F
100
AcDbEntity
  8
VISIBLE
100
AcDbLine
 10
178.1782717127168
 20
373.8136525405708
 30
0.0
 11
178.1782717127169
 21
376.3136525405708
 31
0.0
  0
LINE
  5
136
330
1F
100
AcDbEntity
  8
VISIBLE
100
AcDbLine
 10
187.3116050460502
 20
373.8136525405708
 30
0.0
 11
178.1782717127168
 21
373.8136525405708
 31
0.0
  0
LINE
  5
137
330
1F
100
AcDbEntity
  8
VISIBLE
100
AcDbLine
 10
187.3116050460502
 20
373.8136525405708
 30
0.0
 11
187.3116050460502
 21
376.3136525405708
 31
0.0
  0
LINE
  5
138
330
1F
100
AcDbEntity
  8
VISIBLE
100
AcDbLine
 10
196.4449383793836
 20
376.3136525405708
 30
0.0
 11
187.3116050460502
 21
376.3136525405708
 31
0.0
  0
LINE
  5
139
330
1F
100
AcDbEntity
  8
VISIBLE
100
AcDbLine
 10
196.4449383793835
 20
373.8136525405708
 30
0.0
 11
196.4449383793836
 21
376.3136525405708
 31
0.0
  0
LINE
  5
13A
330
1F
100
AcDbEntity
  8
VISIBLE
100
AcDbLine
 10
205.5782717127169
 20
373.8136525405708
 30
0.0
 11
196.4449383793835
 21
373.8136525405708
 31
0.0
  0
LINE
  5
13B
330
1F
100
AcDbEntity
  8
VISIBLE
100
AcDbLine
 10
205.5782717127169
 20
373.8136525405708
 30
0.0
 11
205.5782717127169
 21
376.3136525405708
 31
0.0
  0
LINE
  5
13C
330
1F
100
AcDbEntity
  8
VISIBLE
100
AcDbLine
 10
214.7116050460502
 20
376.3136525405708
 30
0.0
 11
205.5782717127169
 21
376.3136525405708
 31
0.0
  0
LINE
  5
13D
330
1F
100
AcDbEntity
  8
VISIBLE
100
AcDbLine
 10
214.7116050460502
 20
373.8136525405708
 30
0.0
 11
214.7116050460502
 21
376.3136525405708
 31
0.0
  0
LINE
  5
13E
330
1F
100
AcDbEntity
  8
VISIBLE
100
AcDbLine
 10
223.8449383793836
 20
373.8136525405708
 30
0.0
 11
214.7116050460502
 21
373.8136525405708
 31
0.0
  0
LINE
  5
13F
330
1F
100
AcDbEntity
  8
VISIBLE
100
AcDbLine
 10
223.8449383793836
 20
369.3136525405709
 30
0.0
 11
223.8449383793836
 21
373.8136525405708
 31
0.0
  0
LINE
  5
140
330
1F
100
AcDbEntity
  8
VISIBLE
100
AcDbLine
 10
219.3449383793836
 20
369.3136525405709
 30
0.0
 11
223.8449383793836
 21
369.3136525405709
 31
0.0
  0
LINE
  5
141
330
1F
100
AcDbEntity
  8
VISIBLE
100
AcDbLine
 10
219.3449383793836
 20
364.8136525405708
 30
0.0
 11
219.3449383793836
 21
369.3136525405709
 31
0.0
  0
LINE
  5
142
330
1F
100
AcDbEntity
  8
VISIBLE
100
AcDbLine
 10
219.3449383793836
 20
364.8136525405708
 30
0.0
 11
223.8449383793836
 21
364.8136525405708
 31
0.0
  0
LINE
  5
143
330
1F
100
AcDbEntity
  8
VISIBLE
100
AcDbLine
 10
223.8449383793836
 20
360.3136525405708
 30
0.0
 11
223.8449383793836
 21
364.8136525405708
 31
0.0
  0
LINE
  5
144
330
1F
100
AcDbEntity
  8
VISIBLE
100
AcDbLine
 10
219.3449383793836
 20
360.3136525405708
 30
0.0
 11
223.8449383793836
 21
360.3136525405708
 31
0.0
  0
LINE
  5
145
330
1F
100
AcDbEntity
  8
VISIBLE
100
AcDbLine
 10
219.3449383793836
 20
360.3136525405708
 30
0.0
 11
219.3449383793836
 21
355.8136525405708
 31
0.0
  0
LINE
  5
146
330
1F
100
AcDbEntity
  8
VISIBLE
100
AcDbLine
 10
219.3449383793836
 20
355.8136525405708
 30
0.0
 11
214.7116050460502
 21
355.8136525405708
 31
0.0
  0
LINE
  5
147
330
1F
100
AcDbEntity
  8
VISIBLE
100
AcDbLine
 10
214.7116050460502
 20
353.3136525405708
 30
0.0
 11
214.7116050460502
 21
355.8136525405708
 31
0.0
  0
LINE
  5
148
330
1F
100
AcDbEntity
  8
VISIBLE
100
AcDbLine
 10
214.7116050460502
 20
353.3136525405708
 30
0.0
 11
205.5782717127169
 21
353.3136525405708
 31
0.0
  0
LINE
  5
149
330
1F
100
AcDbEntity
  8
VISIBLE
100
AcDbLine
 10
198.8449383793836
 20
727.313652540571
 30
0.0
 11
198.8449383793836
 21
749.7136525405709
 31
0.0
  0
LINE
  5
14A
330
1F
100
AcDbEntity
  8
VISIBLE
100
AcDbLine
 10
194.8449383793836
 20
727.313652540571
 30
0.0
 11
198.8449383793836
 21
727.313652540571
 31
0.0
  0
LINE
  5
14B
330
1F
100
AcDbEntity
  8
VISIBLE
100
AcDbLine
 10
194.8449383793836
 20
749.7136525405709
 30
0.0
 11
198.8449383793836
 21
749.7136525405709
 31
0.0
  0
LINE
  5
14C
330
1F
100
AcDbEntity
  8
VISIBLE
100
AcDbLine
 10
194.8449383793836
 20
727.313652540571
 30
0.0
 11
194.8449383793836
 21
749.7136525405709
 31
0.0
  0
LINE
  5
14D
330
1F
100
AcDbEntity
  8
VISIBLE
100
AcDbLine
 10
311.3449383793836
 20
370.3136525405709
 30
0.0
 11
311.3449383793836
 21
365.8136525405709
 31
0.0
  0
LINE
  5
14E
330
1F
100
AcDbEntity
  8
VISIBLE
100
AcDbLine
 10
306.8449383793836
 20
370.3136525405709
 30
0.0
 11
311.3449383793836
 21
370.3136525405709
 31
0.0
  0
LINE
  5
14F
330
1F
100
AcDbEntity
  8
VISIBLE
100
AcDbLine
 10
306.8449383793836
 20
374.8136525405709
 30
0.0
 11
306.8449383793836
 21
370.3136525405709
 31
0.0
  0
LINE
  5
150
330
1F
100
AcDbEntity
  8
VISIBLE
100
AcDbLine
 10
306.8449383793836
 20
374.8136525405709
 30
0.0
 11
311.3449383793836
 21
374.8136525405709
 31
0.0
  0
LINE
  5
151
330
1F
100
AcDbEntity
  8
VISIBLE
100
AcDbLine
 10
311.3449383793836
 20
379.3136525405709
 30
0.0
 11
311.3449383793836
 21
374.8136525405709
 31
0.0
  0
LINE
  5
152
330
1F
100
AcDbEntity
  8
VISIBLE
100
AcDbLine
 10
311.3449383793836
 20
379.3136525405709
 30
0.0
 11
439.3449383793836
 21
379.3136525405709
 31
0.0
  0
LINE
  5
153
330
1F
100
AcDbEntity
  8
VISIBLE
100
AcDbLine
 10
439.3449383793836
 20
379.3136525405709
 30
0.0
 11
439.3449383793836
 21
374.8136525405709
 31
0.0
  0
LINE
  5
154
330
1F
100
AcDbEntity
  8
VISIBLE
100
AcDbLine
 10
439.3449383793836
 20
374.8136525405709
 30
0.0
 11
443.8449383793836
 21
374.8136525405709
 31
0.0
  0
LINE
  5
155
330
1F
100
AcDbEntity
  8
VISIBLE
100
AcDbLine
 10
443.8449383793836
 20
374.8136525405709
 30
0.0
 11
443.8449383793836
 21
370.3136525405709
 31
0.0
  0
LINE
  5
156
330
1F
100
AcDbEntity
  8
VISIBLE
100
AcDbLine
 10
439.3449383793836
 20
370.3136525405709
 30
0.0
 11
443.8449383793836
 21
370.3136525405709
 31
0.0
  0
LINE
  5
157
330
1F
100
AcDbEntity
  8
VISIBLE
100
AcDbLine
 10
439.3449383793836
 20
370.3136525405709
 30
0.0
 11
439.3449383793836
 21
365.8136525405709
 31
0.0
  0
LINE
  5
158
330
1F
100
AcDbEntity
  8
VISIBLE
100
AcDbLine
 10
425.578271712717
 20
363.3136525405709
 30
0.0
 11
434.7116050460503
 21
363.3136525405709
 31
0.0
  0
LINE
  5
159
330
1F
100
AcDbEntity
  8
VISIBLE
100
AcDbLine
 10
425.578271712717
 20
363.3136525405709
 30
0.0
 11
425.578271712717
 21
365.8136525405709
 31
0.0
  0
LINE
  5
15A
330
1F
100
AcDbEntity
  8
VISIBLE
100
AcDbLine
 10
425.578271712717
 20
365.8136525405709
 30
0.0
 11
416.4449383793836
 21
365.8136525405709
 31
0.0
  0
LINE
  5
15B
330
1F
100
AcDbEntity
  8
VISIBLE
100
AcDbLine
 10
416.4449383793836
 20
363.3136525405709
 30
0.0
 11
416.4449383793836
 21
365.8136525405709
 31
0.0
  0
LINE
  5
15C
330
1F
100
AcDbEntity
  8
VISIBLE
100
AcDbLine
 10
407.3116050460503
 20
363.3136525405709
 30
0.0
 11
416.4449383793836
 21
363.3136525405709
 31
0.0
  0
LINE
  5
15D
330
1F
100
AcDbEntity
  8
VISIBLE
100
AcDbLine
 10
407.3116050460503
 20
363.3136525405709
 30
0.0
 11
407.3116050460503
 21
365.8136525405709
 31
0.0
  0
LINE
  5
15E
330
1F
100
AcDbEntity
  8
VISIBLE
100
AcDbLine
 10
407.3116050460503
 20
365.8136525405709
 30
0.0
 11
398.1782717127169
 21
365.8136525405709
 31
0.0
  0
LINE
  5
15F
330
1F
100
AcDbEntity
  8
VISIBLE
100
AcDbLine
 10
398.1782717127169
 20
363.3136525405709
 30
0.0
 11
398.1782717127169
 21
365.8136525405709
 31
0.0
  0
LINE
  5
160
330
1F
100
AcDbEntity
  8
VISIBLE
100
AcDbLine
 10
389.0449383793836
 20
363.3136525405709
 30
0.0
 11
398.1782717127169
 21
363.3136525405709
 31
0.0
  0
LINE
  5
161
330
1F
100
AcDbEntity
  8
VISIBLE
100
AcDbLine
 10
389.0449383793836
 20
363.3136525405709
 30
0.0
 11
389.0449383793836
 21
365.8136525405709
 31
0.0
  0
LINE
  5
162
330
1F
100
AcDbEntity
  8
VISIBLE
100
AcDbLine
 10
389.0449383793836
 20
365.8136525405709
 30
0.0
 11
379.9116050460503
 21
365.8136525405709
 31
0.0
  0
LINE
  5
163
330
1F
100
AcDbEntity
  8
VISIBLE
100
AcDbLine
 10
379.9116050460503
 20
363.3136525405709
 30
0.0
 11
379.9116050460503
 21
365.8136525405709
 31
0.0
  0
LINE
  5
164
330
1F
100
AcDbEntity
  8
VISIBLE
100
AcDbLine
 10
370.7782717127169
 20
363.3136525405709
 30
0.0
 11
379.9116050460503
 21
363.3136525405709
 31
0.0
  0
LINE
  5
165
330
1F
100
AcDbEntity
  8
VISIBLE
100
AcDbLine
 10
352.5116050460502
 20
363.3136525405709
 30
0.0
 11
361.6449383793836
 21
363.3136525405709
 31
0.0
  0
LINE
  5
166
330
1F
100
AcDbEntity
  8
VISIBLE
100
AcDbLine
 10
334.2449383793836
 20
363.3136525405709
 30
0.0
 11
343.3782717127169
 21
363.3136525405709
 31
0.0
  0
LINE
  5
167
330
1F
100
AcDbEntity
  8
VISIBLE
100
AcDbLine
 10
315.9782717127169
 20
363.3136525405709
 30
0.0
 11
325.1116050460502
 21
363.3136525405709
 31
0.0
  0
LINE
  5
168
330
1F
100
AcDbEntity
  8
VISIBLE
100
AcDbLine
 10
325.1116050460502
 20
363.3136525405709
 30
0.0
 11
325.1116050460502
 21
365.8136525405709
 31
0.0
  0
LINE
  5
169
330
1F
100
AcDbEntity
  8
VISIBLE
100
AcDbLine
 10
352.5116050460502
 20
363.3136525405709
 30
0.0
 11
352.5116050460502
 21
365.8136525405709
 31
0.0
  0
LINE
  5
16A
330
1F
100
AcDbEntity
  8
VISIBLE
100
AcDbLine
 10
434.7116050460503
 20
363.3136525405709
 30
0.0
 11
434.7116050460503
 21
365.8136525405709
 31
0.0
  0
LINE
  5
16B
330
1F
100
AcDbEntity
  8
VISIBLE
100
AcDbLine
 10
315.9782717127169
 20
363.3136525405709
 30
0.0
 11
315.9782717127169
 21
365.8136525405709
 31
0.0
  0
LINE
  5
16C
330
1F
100
AcDbEntity
  8
VISIBLE
100
AcDbLine
 10
334.2449383793836
 20
365.8136525405709
 30
0.0
 11
325.1116050460502
 21
365.8136525405709
 31
0.0
  0
LINE
  5
16D
330
1F
100
AcDbEntity
  8
VISIBLE
100
AcDbLine
 10
352.5116050460502
 20
365.8136525405709
 30
0.0
 11
343.3782717127169
 21
365.8136525405709
 31
0.0
  0
LINE
  5
16E
330
1F
100
AcDbEntity
  8
VISIBLE
100
AcDbLine
 10
343.3782717127169
 20
363.3136525405709
 30
0.0
 11
343.3782717127169
 21
365.8136525405709
 31
0.0
  0
LINE
  5
16F
330
1F
100
AcDbEntity
  8
VISIBLE
100
AcDbLine
 10
370.7782717127169
 20
363.3136525405709
 30
0.0
 11
370.7782717127169
 21
365.8136525405709
 31
0.0
  0
LINE
  5
170
330
1F
100
AcDbEntity
  8
VISIBLE
100
AcDbLine
 10
361.6449383793836
 20
363.3136525405709
 30
0.0
 11
361.6449383793836
 21
365.8136525405709
 31
0.0
  0
LINE
  5
171
330
1F
100
AcDbEntity
  8
VISIBLE
100
AcDbLine
 10
439.3449383793836
 20
365.8136525405709
 30
0.0
 11
434.7116050460503
 21
365.8136525405709
 31
0.0
  0
LINE
  5
172
330
1F
100
AcDbEntity
  8
VISIBLE
100
AcDbLine
 10
315.9782717127169
 20
365.8136525405709
 30
0.0
 11
311.3449383793836
 21
365.8136525405709
 31
0.0
  0
LINE
  5
173
330
1F
100
AcDbEntity
  8
VISIBLE
100
AcDbLine
 10
370.7782717127169
 20
365.8136525405709
 30
0.0
 11
361.6449383793836
 21
365.8136525405709
 31
0.0
  0
LINE
  5
174
330
1F
100
AcDbEntity
  8
VISIBLE
100
AcDbLine
 10
334.2449383793836
 20
363.3136525405709
 30
0.0
 11
334.2449383793836
 21
365.8136525405709
 31
0.0
  0
ARC
  5
175
330
1F
100
AcDbEntity
  8
VISIBLE
100
AcDbCircle
 10
580.3449383793835
 20
323.313652540571
 30
0.0
 40
23.99999999999999
100
AcDbArc
 50
90.0
 51
180.0
  0
LINE
  5
176
330
1F
100
AcDbEntity
  8
VISIBLE
100
AcDbLine
 10
580.3449383793835
 20
347.313652540571
 30
0.0
 11
580.3449383793835
 21
342.813652540571
 31
0.0
  0
ARC
  5
177
330
1F
100
AcDbEntity
  8
VISIBLE
100
AcDbCircle
 10
580.3449383793835
 20
323.313652540571
 30
0.0
 40
19.49999999999993
100
AcDbArc
 50
90.0
 51
180.0
  0
LINE
  5
178
330
1F
100
AcDbEntity
  8
VISIBLE
100
AcDbLine
 10
556.3449383793835
 20
323.313652540571
 30
0.0
 11
560.8449383793836
 21
323.313652540571
 31
0.0
  0
LINE
  5
179
330
1F
100
AcDbEntity
  8
VISIBLE
100
AcDbLine
 10
188.8449383793839
 20
697.313652540571
 30
0.0
 11
192.8449383793839
 21
697.313652540571
 31
0.0
  0
LINE
  5
17A
330
1F
100
AcDbEntity
  8
VISIBLE
100
AcDbLine
 10
188.8449383793839
 20
697.313652540571
 30
0.0
 11
188.8449383793839
 21
719.7136525405709
 31
0.0
  0
LINE
  5
17B
330
1F
100
AcDbEntity
  8
VISIBLE
100
AcDbLine
 10
188.8449383793839
 20
719.7136525405709
 30
0.0
 11
192.8449383793839
 21
719.7136525405709
 31
0.0
  0
LINE
  5
17C
330
1F
100
AcDbEntity
  8
VISIBLE
100
AcDbLine
 10
192.8449383793839
 20
697.313652540571
 30
0.0
 11
192.8449383793839
 21
719.7136525405709
 31
0.0
  0
LINE
  5
17D
330
1F
100
AcDbEntity
  8
VISIBLE
100
AcDbLine
 10
179.8449383793836
 20
727.313652540571
 30
0.0
 11
183.8449383793836
 21
727.313652540571
 31
0.0
  0
LINE
  5
17E
330
1F
100
AcDbEntity
  8
VISIBLE
100
AcDbLine
 10
179.8449383793836
 20
727.313652540571
 30
0.0
 11
179.8449383793836
 21
749.7136525405709
 31
0.0
  0
LINE
  5
17F
330
1F
100
AcDbEntity
  8
VISIBLE
100
AcDbLine
 10
179.8449383793836
 20
749.7136525405709
 30
0.0
 11
183.8449383793836
 21
749.7136525405709
 31
0.0
  0
LINE
  5
180
330
1F
100
AcDbEntity
  8
VISIBLE
100
AcDbLine
 10
183.8449383793836
 20
727.313652540571
 30
0.0
 11
183.8449383793836
 21
749.7136525405709
 31
0.0
  0
LINE
  5
181
330
1F
100
AcDbEntity
  8
VISIBLE
100
AcDbLine
 10
127.8449383793836
 20
697.3136525405708
 30
0.0
 11
127.8449383793836
 21
726.3136525405708
 31
0.0
  0
LINE
  5
182
330
1F
100
AcDbEntity
  8
VISIBLE
100
AcDbLine
 10
127.8449383793836
 20
697.3136525405708
 30
0.0
 11
114.6946393055392
 21
697.3136525405708
 31
0.0
  0
LINE
  5
183
330
1F
100
AcDbEntity
  8
VISIBLE
100
AcDbLine
 10
114.6946393055392
 20
697.3136525405708
 30
0.0
 11
114.6946393055392
 21
726.313652540571
 31
0.0
  0
LINE
  5
184
330
1F
100
AcDbEntity
  8
VISIBLE
100
AcDbLine
 10
127.8449383793836
 20
726.3136525405708
 30
0.0
 11
114.6946393055392
 21
726.313652540571
 31
0.0
  0
LINE
  5
185
330
1F
100
AcDbEntity
  8
VISIBLE
100
AcDbLine
 10
114.6946393055392
 20
697.3136525405708
 30
0.0
 11
107.8449383793835
 21
697.3136525405708
 31
0.0
  0
LINE
  5
186
330
1F
100
AcDbEntity
  8
VISIBLE
100
AcDbLine
 10
107.8449383793835
 20
697.3136525405708
 30
0.0
 11
107.8449383793835
 21
726.313652540571
 31
0.0
  0
LINE
  5
187
330
1F
100
AcDbEntity
  8
VISIBLE
100
AcDbLine
 10
114.6946393055392
 20
726.313652540571
 30
0.0
 11
107.8449383793835
 21
726.313652540571
 31
0.0
  0
ARC
  5
188
330
1F
100
AcDbEntity
  8
VISIBLE
100
AcDbCircle
 10
550.8449383793835
 20
317.813652540571
 30
0.0
 40
19.49999999999999
100
AcDbArc
 50
180.0
 51
270.0
  0
LINE
  5
189
330
1F
100
AcDbEntity
  8
VISIBLE
100
AcDbLine
 10
555.3449383793835
 20
298.313652540571
 30
0.0
 11
550.8449383793835
 21
298.313652540571
 31
0.0
  0
ARC
  5
18A
330
1F
100
AcDbEntity
  8
VISIBLE
100
AcDbCircle
 10
550.8449383793835
 20
317.813652540571
 30
0.0
 40
23.99999999999999
100
AcDbArc
 50
180.0
 51
270.0
  0
LINE
  5
18B
330
1F
100
AcDbEntity
  8
VISIBLE
100
AcDbLine
 10
526.8449383793836
 20
322.313652540571
 30
0.0
 11
526.8449383793836
 21
317.813652540571
 31
0.0
  0
LINE
  5
18C
330
1F
100
AcDbEntity
  8
VISIBLE
100
AcDbLine
 10
531.3449383793835
 20
322.313652540571
 30
0.0
 11
526.8449383793836
 21
322.313652540571
 31
0.0
  0
LINE
  5
18D
330
1F
100
AcDbEntity
  8
VISIBLE
100
AcDbLine
 10
531.3449383793835
 20
317.813652540571
 30
0.0
 11
531.3449383793835
 21
322.313652540571
 31
0.0
  0
LINE
  5
18E
330
1F
100
AcDbEntity
  8
VISIBLE
100
AcDbLine
 10
555.3449383793835
 20
293.813652540571
 30
0.0
 11
555.3449383793835
 21
298.313652540571
 31
0.0
  0
LINE
  5
18F
330
1F
100
AcDbEntity
  8
VISIBLE
100
AcDbLine
 10
550.8449383793835
 20
293.813652540571
 30
0.0
 11
555.3449383793835
 21
293.813652540571
 31
0.0
  0
LINE
  5
190
330
1F
100
AcDbEntity
  8
VISIBLE
100
AcDbLine
 10
526.8449383793836
 20
166.8136525405709
 30
0.0
 11
526.8449383793836
 21
171.3136525405709
 31
0.0
  0
ARC
  5
191
330
1F
100
AcDbEntity
  8
VISIBLE
100
AcDbCircle
 10
556.8449383793836
 20
171.3136525405709
 30
0.0
 40
30.0
100
AcDbArc
 50
90.0
 51
180.0
  0
LINE
  5
192
330
1F
100
AcDbEntity
  8
VISIBLE
100
AcDbLine
 10
561.3449383793836
 20
201.3136525405709
 30
0.0
 11
556.8449383793836
 21
201.3136525405709
 31
0.0
  0
LINE
  5
193
330
1F
100
AcDbEntity
  8
VISIBLE
100
AcDbLine
 10
561.3449383793836
 20
198.8136525405709
 30
0.0
 11
561.3449383793836
 21
201.3136525405709
 31
0.0
  0
LINE
  5
194
330
1F
100
AcDbEntity
  8
VISIBLE
100
AcDbLine
 10
556.8449383793836
 20
198.8136525405709
 30
0.0
 11
561.3449383793836
 21
198.8136525405709
 31
0.0
  0
ARC
  5
195
330
1F
100
AcDbEntity
  8
VISIBLE
100
AcDbCircle
 10
556.8449383793836
 20
171.3136525405709
 30
0.0
 40
27.50000000000002
100
AcDbArc
 50
90.0
 51
180.0
  0
LINE
  5
196
330
1F
100
AcDbEntity
  8
VISIBLE
100
AcDbLine
 10
529.3449383793836
 20
166.8136525405709
 30
0.0
 11
526.8449383793836
 21
166.8136525405709
 31
0.0
  0
LINE
  5
197
330
1F
100
AcDbEntity
  8
VISIBLE
100
AcDbLine
 10
529.3449383793836
 20
171.3136525405709
 30
0.0
 11
529.3449383793836
 21
166.8136525405709
 31
0.0
  0
LINE
  5
198
330
1F
100
AcDbEntity
  8
VISIBLE
100
AcDbLine
 10
227.8449383793839
 20
697.313652540571
 30
0.0
 11
227.8449383793839
 21
719.7136525405709
 31
0.0
  0
LINE
  5
199
330
1F
100
AcDbEntity
  8
VISIBLE
100
AcDbLine
 10
223.8449383793839
 20
719.7136525405709
 30
0.0
 11
227.8449383793839
 21
719.7136525405709
 31
0.0
  0
LINE
  5
19A
330
1F
100
AcDbEntity
  8
VISIBLE
100
AcDbLine
 10
223.8449383793839
 20
697.313652540571
 30
0.0
 11
227.8449383793839
 21
697.313652540571
 31
0.0
  0
LINE
  5
19B
330
1F
100
AcDbEntity
  8
VISIBLE
100
AcDbLine
 10
223.8449383793839
 20
697.313652540571
 30
0.0
 11
223.8449383793839
 21
719.7136525405709
 31
0.0
  0
LINE
  5
19C
330
1F
100
AcDbEntity
  8
VISIBLE
100
AcDbLine
 10
178.8449383793836
 20
727.313652540571
 30
0.0
 11
178.8449383793836
 21
749.7136525405709
 31
0.0
  0
LINE
  5
19D
330
1F
100
AcDbEntity
  8
VISIBLE
100
AcDbLine
 10
174.8449383793836
 20
727.313652540571
 30
0.0
 11
174.8449383793836
 21
749.7136525405709
 31
0.0
  0
LINE
  5
19E
330
1F
100
AcDbEntity
  8
VISIBLE
100
AcDbLine
 10
174.8449383793836
 20
749.7136525405709
 30
0.0
 11
178.8449383793836
 21
749.7136525405709
 31
0.0
  0
LINE
  5
19F
330
1F
100
AcDbEntity
  8
VISIBLE
100
AcDbLine
 10
174.8449383793836
 20
727.313652540571
 30
0.0
 11
178.8449383793836
 21
727.313652540571
 31
0.0
  0
LINE
  5
1A0
330
1F
100
AcDbEntity
  8
VISIBLE
100
AcDbLine
 10
232.8449383793839
 20
697.313652540571
 30
0.0
 11
232.8449383793839
 21
719.7136525405709
 31
0.0
  0
LINE
  5
1A1
330
1F
100
AcDbEntity
  8
VISIBLE
100
AcDbLine
 10
228.8449383793839
 20
697.313652540571
 30
0.0
 11
232.8449383793839
 21
697.313652540571
 31
0.0
  0
LINE
  5
1A2
330
1F
100
AcDbEntity
  8
VISIBLE
100
AcDbLine
 10
228.8449383793839
 20
719.7136525405709
 30
0.0
 11
232.8449383793839
 21
719.7136525405709
 31
0.0
  0
LINE
  5
1A3
330
1F
100
AcDbEntity
  8
VISIBLE
100
AcDbLine
 10
228.8449383793839
 20
697.313652540571
 30
0.0
 11
228.8449383793839
 21
719.7136525405709
 31
0.0
  0
LINE
  5
1A4
330
1F
100
AcDbEntity
  8
VISIBLE
100
AcDbLine
 10
196.4449383793836
 20
403.8136525405708
 30
0.0
 11
205.5782717127169
 21
403.8136525405708
 31
0.0
  0
LINE
  5
1A5
330
1F
100
AcDbEntity
  8
VISIBLE
100
AcDbLine
 10
196.4449383793836
 20
403.8136525405708
 30
0.0
 11
196.4449383793836
 21
401.3136525405708
 31
0.0
  0
LINE
  5
1A6
330
1F
100
AcDbEntity
  8
VISIBLE
100
AcDbLine
 10
178.1782717127169
 20
403.8136525405708
 30
0.0
 11
187.3116050460502
 21
403.8136525405708
 31
0.0
  0
LINE
  5
1A7
330
1F
100
AcDbEntity
  8
VISIBLE
100
AcDbLine
 10
178.1782717127169
 20
403.8136525405708
 30
0.0
 11
178.1782717127169
 21
401.3136525405708
 31
0.0
  0
LINE
  5
1A8
330
1F
100
AcDbEntity
  8
VISIBLE
100
AcDbLine
 10
159.9116050460502
 20
403.8136525405708
 30
0.0
 11
169.0449383793836
 21
403.8136525405708
 31
0.0
  0
LINE
  5
1A9
330
1F
100
AcDbEntity
  8
VISIBLE
100
AcDbLine
 10
159.9116050460502
 20
403.8136525405708
 30
0.0
 11
159.9116050460502
 21
401.3136525405708
 31
0.0
  0
LINE
  5
1AA
330
1F
100
AcDbEntity
  8
VISIBLE
100
AcDbLine
 10
141.6449383793835
 20
403.8136525405708
 30
0.0
 11
150.7782717127169
 21
403.8136525405708
 31
0.0
  0
LINE
  5
1AB
330
1F
100
AcDbEntity
  8
VISIBLE
100
AcDbLine
 10
141.6449383793835
 20
403.8136525405708
 30
0.0
 11
141.6449383793835
 21
401.3136525405708
 31
0.0
  0
LINE
  5
1AC
330
1F
100
AcDbEntity
  8
VISIBLE
100
AcDbLine
 10
123.3782717127169
 20
403.8136525405708
 30
0.0
 11
132.5116050460502
 21
403.8136525405708
 31
0.0
  0
LINE
  5
1AD
330
1F
100
AcDbEntity
  8
VISIBLE
100
AcDbLine
 10
123.3782717127169
 20
403.8136525405708
 30
0.0
 11
123.3782717127169
 21
401.3136525405708
 31
0.0
  0
LINE
  5
1AE
330
1F
100
AcDbEntity
  8
VISIBLE
100
AcDbLine
 10
114.2449383793835
 20
403.8136525405708
 30
0.0
 11
114.2449383793835
 21
401.3136525405708
 31
0.0
  0
LINE
  5
1AF
330
1F
100
AcDbEntity
  8
VISIBLE
100
AcDbLine
 10
105.1116050460502
 20
403.8136525405708
 30
0.0
 11
114.2449383793835
 21
403.8136525405708
 31
0.0
  0
LINE
  5
1B0
330
1F
100
AcDbEntity
  8
VISIBLE
100
AcDbLine
 10
105.1116050460502
 20
403.8136525405708
 30
0.0
 11
105.1116050460502
 21
401.3136525405708
 31
0.0
  0
LINE
  5
1B1
330
1F
100
AcDbEntity
  8
VISIBLE
100
AcDbLine
 10
105.1116050460502
 20
401.3136525405708
 30
0.0
 11
95.97827171271685
 21
401.3136525405708
 31
0.0
  0
LINE
  5
1B2
330
1F
100
AcDbEntity
  8
VISIBLE
100
AcDbLine
 10
95.97827171271685
 20
403.8136525405708
 30
0.0
 11
95.97827171271685
 21
401.3136525405708
 31
0.0
  0
LINE
  5
1B3
330
1F
100
AcDbEntity
  8
VISIBLE
100
AcDbLine
 10
91.3449383793835
 20
403.8136525405708
 30
0.0
 11
95.97827171271685
 21
403.8136525405708
 31
0.0
  0
LINE
  5
1B4
330
1F
100
AcDbEntity
  8
VISIBLE
100
AcDbLine
 10
91.3449383793835
 20
417.3136525405709
 30
0.0
 11
91.3449383793835
 21
412.8136525405709
 31
0.0
  0
LINE
  5
1B5
330
1F
100
AcDbEntity
  8
VISIBLE
100
AcDbLine
 10
219.3449383793836
 20
417.3136525405709
 30
0.0
 11
219.3449383793836
 21
412.8136525405709
 31
0.0
  0
LINE
  5
1B6
330
1F
100
AcDbEntity
  8
VISIBLE
100
AcDbLine
 10
219.3449383793836
 20
412.8136525405709
 30
0.0
 11
223.8449383793836
 21
412.8136525405709
 31
0.0
  0
LINE
  5
1B7
330
1F
100
AcDbEntity
  8
VISIBLE
100
AcDbLine
 10
214.7116050460502
 20
403.8136525405708
 30
0.0
 11
219.3449383793836
 21
403.8136525405708
 31
0.0
  0
LINE
  5
1B8
330
1F
100
AcDbEntity
  8
VISIBLE
100
AcDbLine
 10
214.7116050460502
 20
403.8136525405708
 30
0.0
 11
214.7116050460502
 21
401.3136525405708
 31
0.0
  0
LINE
  5
1B9
330
1F
100
AcDbEntity
  8
VISIBLE
100
AcDbLine
 10
187.3116050460502
 20
403.8136525405708
 30
0.0
 11
187.3116050460502
 21
401.3136525405708
 31
0.0
  0
LINE
  5
1BA
330
1F
100
AcDbEntity
  8
VISIBLE
100
AcDbLine
 10
178.1782717127169
 20
401.3136525405708
 30
0.0
 11
169.0449383793836
 21
401.3136525405708
 31
0.0
  0
LINE
  5
1BB
330
1F
100
AcDbEntity
  8
VISIBLE
100
AcDbLine
 10
159.9116050460502
 20
401.3136525405708
 30
0.0
 11
150.7782717127169
 21
401.3136525405708
 31
0.0
  0
LINE
  5
1BC
330
1F
100
AcDbEntity
  8
VISIBLE
100
AcDbLine
 10
141.6449383793835
 20
401.3136525405708
 30
0.0
 11
132.5116050460502
 21
401.3136525405708
 31
0.0
  0
LINE
  5
1BD
330
1F
100
AcDbEntity
  8
VISIBLE
100
AcDbLine
 10
123.3782717127169
 20
401.3136525405708
 30
0.0
 11
114.2449383793835
 21
401.3136525405708
 31
0.0
  0
LINE
  5
1BE
330
1F
100
AcDbEntity
  8
VISIBLE
100
AcDbLine
 10
86.8449383793835
 20
412.8136525405709
 30
0.0
 11
91.3449383793835
 21
412.8136525405709
 31
0.0
  0
LINE
  5
1BF
330
1F
100
AcDbEntity
  8
VISIBLE
100
AcDbLine
 10
223.8449383793836
 20
412.8136525405709
 30
0.0
 11
223.8449383793836
 21
408.3136525405708
 31
0.0
  0
LINE
  5
1C0
330
1F
100
AcDbEntity
  8
VISIBLE
100
AcDbLine
 10
169.0449383793836
 20
403.8136525405708
 30
0.0
 11
169.0449383793836
 21
401.3136525405708
 31
0.0
  0
LINE
  5
1C1
330
1F
100
AcDbEntity
  8
VISIBLE
100
AcDbLine
 10
214.7116050460502
 20
401.3136525405708
 30
0.0
 11
205.5782717127169
 21
401.3136525405708
 31
0.0
  0
LINE
  5
1C2
330
1F
100
AcDbEntity
  8
VISIBLE
100
AcDbLine
 10
196.4449383793836
 20
401.3136525405708
 30
0.0
 11
187.3116050460502
 21
401.3136525405708
 31
0.0
  0
LINE
  5
1C3
330
1F
100
AcDbEntity
  8
VISIBLE
100
AcDbLine
 10
132.5116050460502
 20
403.8136525405708
 30
0.0
 11
132.5116050460502
 21
401.3136525405708
 31
0.0
  0
LINE
  5
1C4
330
1F
100
AcDbEntity
  8
VISIBLE
100
AcDbLine
 10
91.3449383793835
 20
408.3136525405708
 30
0.0
 11
91.3449383793835
 21
403.8136525405708
 31
0.0
  0
LINE
  5
1C5
330
1F
100
AcDbEntity
  8
VISIBLE
100
AcDbLine
 10
86.8449383793835
 20
408.3136525405708
 30
0.0
 11
91.3449383793835
 21
408.3136525405708
 31
0.0
  0
LINE
  5
1C6
330
1F
100
AcDbEntity
  8
VISIBLE
100
AcDbLine
 10
219.3449383793836
 20
408.3136525405708
 30
0.0
 11
219.3449383793836
 21
403.8136525405708
 31
0.0
  0
LINE
  5
1C7
330
1F
100
AcDbEntity
  8
VISIBLE
100
AcDbLine
 10
219.3449383793836
 20
417.3136525405709
 30
0.0
 11
91.3449383793835
 21
417.3136525405709
 31
0.0
  0
LINE
  5
1C8
330
1F
100
AcDbEntity
  8
VISIBLE
100
AcDbLine
 10
86.8449383793835
 20
412.8136525405709
 30
0.0
 11
86.8449383793835
 21
408.3136525405708
 31
0.0
  0
LINE
  5
1C9
330
1F
100
AcDbEntity
  8
VISIBLE
100
AcDbLine
 10
205.5782717127169
 20
403.8136525405708
 30
0.0
 11
205.5782717127169
 21
401.3136525405708
 31
0.0
  0
LINE
  5
1CA
330
1F
100
AcDbEntity
  8
VISIBLE
100
AcDbLine
 10
219.3449383793836
 20
408.3136525405708
 30
0.0
 11
223.8449383793836
 21
408.3136525405708
 31
0.0
  0
LINE
  5
1CB
330
1F
100
AcDbEntity
  8
VISIBLE
100
AcDbLine
 10
150.7782717127169
 20
403.8136525405708
 30
0.0
 11
150.7782717127169
 21
401.3136525405708
 31
0.0
  0
LINE
  5
1CC
330
1F
100
AcDbEntity
  8
VISIBLE
100
AcDbLine
 10
159.8449383793836
 20
727.313652540571
 30
0.0
 11
159.8449383793836
 21
749.7136525405709
 31
0.0
  0
LINE
  5
1CD
330
1F
100
AcDbEntity
  8
VISIBLE
100
AcDbLine
 10
163.8449383793836
 20
727.313652540571
 30
0.0
 11
163.8449383793836
 21
749.7136525405709
 31
0.0
  0
LINE
  5
1CE
330
1F
100
AcDbEntity
  8
VISIBLE
100
AcDbLine
 10
159.8449383793836
 20
727.313652540571
 30
0.0
 11
163.8449383793836
 21
727.313652540571
 31
0.0
  0
LINE
  5
1CF
330
1F
100
AcDbEntity
  8
VISIBLE
100
AcDbLine
 10
159.8449383793836
 20
749.7136525405709
 30
0.0
 11
163.8449383793836
 21
749.7136525405709
 31
0.0
  0
ARC
  5
1D0
330
1F
100
AcDbEntity
  8
VISIBLE
100
AcDbCircle
 10
596.2449383793836
 20
386.8136525405709
 30
0.0
 40
19.39999999999996
100
AcDbArc
 50
90.0
 51
180.0
  0
LINE
  5
1D1
330
1F
100
AcDbEntity
  8
VISIBLE
100
AcDbLine
 10
596.2449383793836
 20
406.2136525405709
 30
0.0
 11
600.7449383793835
 21
406.2136525405709
 31
0.0
  0
LINE
  5
1D2
330
1F
100
AcDbEntity
  8
VISIBLE
100
AcDbLine
 10
600.7449383793835
 20
406.2136525405709
 30
0.0
 11
600.7449383793835
 21
401.7136525405708
 31
0.0
  0
LINE
  5
1D3
330
1F
100
AcDbEntity
  8
VISIBLE
100
AcDbLine
 10
600.7449383793835
 20
401.7136525405708
 30
0.0
 11
596.2449383793836
 21
401.7136525405709
 31
0.0
  0
ARC
  5
1D4
330
1F
100
AcDbEntity
  8
VISIBLE
100
AcDbCircle
 10
596.2449383793835
 20
386.813652540571
 30
0.0
 40
14.89999999999995
100
AcDbArc
 50
89.99999999999957
 51
180.0000000000002
  0
LINE
  5
1D5
330
1F
100
AcDbEntity
  8
VISIBLE
100
AcDbLine
 10
581.3449383793836
 20
382.3136525405709
 30
0.0
 11
581.3449383793835
 21
386.8136525405709
 31
0.0
  0
LINE
  5
1D6
330
1F
100
AcDbEntity
  8
VISIBLE
100
AcDbLine
 10
576.8449383793836
 20
382.3136525405709
 30
0.0
 11
581.3449383793836
 21
382.3136525405709
 31
0.0
  0
LINE
  5
1D7
330
1F
100
AcDbEntity
  8
VISIBLE
100
AcDbLine
 10
576.8449383793836
 20
386.8136525405709
 30
0.0
 11
576.8449383793836
 21
382.3136525405709
 31
0.0
  0
LINE
  5
1D8
330
1F
100
AcDbEntity
  8
VISIBLE
100
AcDbLine
 10
162.8449383793838
 20
697.313652540571
 30
0.0
 11
162.8449383793838
 21
719.7136525405709
 31
0.0
  0
LINE
  5
1D9
330
1F
100
AcDbEntity
  8
VISIBLE
100
AcDbLine
 10
158.8449383793838
 20
719.7136525405709
 30
0.0
 11
162.8449383793838
 21
719.7136525405709
 31
0.0
  0
LINE
  5
1DA
330
1F
100
AcDbEntity
  8
VISIBLE
100
AcDbLine
 10
158.8449383793838
 20
697.313652540571
 30
0.0
 11
158.8449383793838
 21
719.7136525405709
 31
0.0
  0
LINE
  5
1DB
330
1F
100
AcDbEntity
  8
VISIBLE
100
AcDbLine
 10
158.8449383793838
 20
697.313652540571
 30
0.0
 11
162.8449383793838
 21
697.313652540571
 31
0.0
  0
LINE
  5
1DC
330
1F
100
AcDbEntity
  8
VISIBLE
100
AcDbLine
 10
444.1449383793835
 20
397.3136525405709
 30
0.0
 11
444.1449383793835
 21
393.3136525405709
 31
0.0
  0
LINE
  5
1DD
330
1F
100
AcDbEntity
  8
VISIBLE
100
AcDbLine
 10
306.8449383793835
 20
393.3136525405709
 30
0.0
 11
306.8449383793835
 21
405.3136525405709
 31
0.0
  0
LINE
  5
1DE
330
1F
100
AcDbEntity
  8
VISIBLE
100
AcDbLine
 10
444.1449383793835
 20
405.3136525405709
 30
0.0
 11
306.8449383793835
 21
405.3136525405709
 31
0.0
  0
LINE
  5
1DF
330
1F
100
AcDbEntity
  8
VISIBLE
100
AcDbLine
 10
444.1449383793835
 20
405.3136525405709
 30
0.0
 11
444.1449383793835
 21
401.3136525405709
 31
0.0
  0
LINE
  5
1E0
330
1F
100
AcDbEntity
  8
VISIBLE
100
AcDbLine
 10
448.6449383793835
 20
401.3136525405709
 30
0.0
 11
444.1449383793835
 21
401.3136525405709
 31
0.0
  0
LINE
  5
1E1
330
1F
100
AcDbEntity
  8
VISIBLE
100
AcDbLine
 10
444.1449383793835
 20
393.3136525405709
 30
0.0
 11
306.8449383793835
 21
393.3136525405709
 31
0.0
  0
LINE
  5
1E2
330
1F
100
AcDbEntity
  8
VISIBLE
100
AcDbLine
 10
448.6449383793835
 20
397.3136525405709
 30
0.0
 11
448.6449383793835
 21
401.3136525405709
 31
0.0
  0
LINE
  5
1E3
330
1F
100
AcDbEntity
  8
VISIBLE
100
AcDbLine
 10
448.6449383793835
 20
397.3136525405709
 30
0.0
 11
444.1449383793835
 21
397.3136525405709
 31
0.0
  0
LINE
  5
1E4
330
1F
100
AcDbEntity
  8
VISIBLE
100
AcDbLine
 10
127.8449383793835
 20
727.3136525405708
 30
0.0
 11
127.8449383793836
 21
756.313652540571
 31
0.0
  0
LINE
  5
1E5
330
1F
100
AcDbEntity
  8
VISIBLE
100
AcDbLine
 10
127.8449383793835
 20
727.3136525405708
 30
0.0
 11
114.6946393055392
 21
727.3136525405708
 31
0.0
  0
LINE
  5
1E6
330
1F
100
AcDbEntity
  8
VISIBLE
100
AcDbLine
 10
114.6946393055392
 20
727.3136525405708
 30
0.0
 11
114.6946393055392
 21
756.313652540571
 31
0.0
  0
LINE
  5
1E7
330
1F
100
AcDbEntity
  8
VISIBLE
100
AcDbLine
 10
127.8449383793836
 20
756.313652540571
 30
0.0
 11
114.6946393055392
 21
756.313652540571
 31
0.0
  0
LINE
  5
1E8
330
1F
100
AcDbEntity
  8
VISIBLE
100
AcDbLine
 10
114.6946393055392
 20
727.3136525405708
 30
0.0
 11
107.8449383793835
 21
727.3136525405708
 31
0.0
  0
LINE
  5
1E9
330
1F
100
AcDbEntity
  8
VISIBLE
100
AcDbLine
 10
107.8449383793835
 20
727.3136525405708
 30
0.0
 11
107.8449383793835
 21
756.313652540571
 31
0.0
  0
LINE
  5
1EA
330
1F
100
AcDbEntity
  8
VISIBLE
100
AcDbLine
 10
114.6946393055392
 20
756.313652540571
 30
0.0
 11
107.8449383793835
 21
756.313652540571
 31
0.0
  0
LINE
  5
1EB
330
1F
100
AcDbEntity
  8
VISIBLE
100
AcDbLine
 10
106.8449383793835
 20
727.3136525405708
 30
0.0
 11
106.8449383793835
 21
756.3136525405707
 31
0.0
  0
LINE
  5
1EC
330
1F
100
AcDbEntity
  8
VISIBLE
100
AcDbLine
 10
106.8449383793835
 20
727.3136525405708
 30
0.0
 11
93.69463930553917
 21
727.3136525405708
 31
0.0
  0
LINE
  5
1ED
330
1F
100
AcDbEntity
  8
VISIBLE
100
AcDbLine
 10
93.69463930553917
 20
727.3136525405708
 30
0.0
 11
93.69463930553917
 21
756.3136525405707
 31
0.0
  0
LINE
  5
1EE
330
1F
100
AcDbEntity
  8
VISIBLE
100
AcDbLine
 10
106.8449383793835
 20
756.3136525405707
 30
0.0
 11
93.69463930553917
 21
756.3136525405707
 31
0.0
  0
LINE
  5
1EF
330
1F
100
AcDbEntity
  8
VISIBLE
100
AcDbLine
 10
86.84493837938349
 20
727.3136525405708
 30
0.0
 11
86.84493837938349
 21
756.3136525405707
 31
0.0
  0
LINE
  5
1F0
330
1F
100
AcDbEntity
  8
VISIBLE
100
AcDbLine
 10
93.69463930553917
 20
756.3136525405707
 30
0.0
 11
86.84493837938349
 21
756.3136525405707
 31
0.0
  0
LINE
  5
1F1
330
1F
100
AcDbEntity
  8
VISIBLE
100
AcDbLine
 10
93.69463930553917
 20
727.3136525405708
 30
0.0
 11
86.84493837938349
 21
727.3136525405708
 31
0.0
  0
LINE
  5
1F2
330
1F
100
AcDbEntity
  8
VISIBLE
100
AcDbLine
 10
197.8449383793839
 20
697.313652540571
 30
0.0
 11
197.8449383793839
 21
719.7136525405709
 31
0.0
  0
LINE
  5
1F3
330
1F
100
AcDbEntity
  8
VISIBLE
100
AcDbLine
 10
193.8449383793838
 20
697.313652540571
 30
0.0
 11
193.8449383793838
 21
719.7136525405709
 31
0.0
  0
LINE
  5
1F4
330
1F
100
AcDbEntity
  8
VISIBLE
100
AcDbLine
 10
193.8449383793838
 20
697.313652540571
 30
0.0
 11
197.8449383793839
 21
697.313652540571
 31
0.0
  0
LINE
  5
1F5
330
1F
100
AcDbEntity
  8
VISIBLE
100
AcDbLine
 10
193.8449383793838
 20
719.7136525405709
 30
0.0
 11
197.8449383793839
 21
719.7136525405709
 31
0.0
  0
LINE
  5
1F6
330
1F
100
AcDbEntity
  8
VISIBLE
100
AcDbLine
 10
434.7116050460502
 20
346.3136525405708
 30
0.0
 11
425.5782717127169
 21
346.3136525405708
 31
0.0
  0
LINE
  5
1F7
330
1F
100
AcDbEntity
  8
VISIBLE
100
AcDbLine
 10
425.5782717127169
 20
348.8136525405708
 30
0.0
 11
425.5782717127169
 21
346.3136525405708
 31
0.0
  0
LINE
  5
1F8
330
1F
100
AcDbEntity
  8
VISIBLE
100
AcDbLine
 10
416.4449383793836
 20
348.8136525405708
 30
0.0
 11
425.5782717127169
 21
348.8136525405708
 31
0.0
  0
LINE
  5
1F9
330
1F
100
AcDbEntity
  8
VISIBLE
100
AcDbLine
 10
416.4449383793836
 20
348.8136525405708
 30
0.0
 11
416.4449383793836
 21
346.3136525405708
 31
0.0
  0
LINE
  5
1FA
330
1F
100
AcDbEntity
  8
VISIBLE
100
AcDbLine
 10
407.3116050460503
 20
348.8136525405708
 30
0.0
 11
407.3116050460503
 21
346.3136525405708
 31
0.0
  0
LINE
  5
1FB
330
1F
100
AcDbEntity
  8
VISIBLE
100
AcDbLine
 10
398.1782717127169
 20
348.8136525405708
 30
0.0
 11
407.3116050460503
 21
348.8136525405708
 31
0.0
  0
LINE
  5
1FC
330
1F
100
AcDbEntity
  8
VISIBLE
100
AcDbLine
 10
389.0449383793836
 20
348.8136525405708
 30
0.0
 11
389.0449383793836
 21
346.3136525405708
 31
0.0
  0
LINE
  5
1FD
330
1F
100
AcDbEntity
  8
VISIBLE
100
AcDbLine
 10
379.9116050460502
 20
348.8136525405708
 30
0.0
 11
389.0449383793836
 21
348.8136525405708
 31
0.0
  0
LINE
  5
1FE
330
1F
100
AcDbEntity
  8
VISIBLE
100
AcDbLine
 10
379.9116050460502
 20
348.8136525405708
 30
0.0
 11
379.9116050460502
 21
346.3136525405708
 31
0.0
  0
LINE
  5
1FF
330
1F
100
AcDbEntity
  8
VISIBLE
100
AcDbLine
 10
379.9116050460502
 20
346.3136525405708
 30
0.0
 11
370.7782717127169
 21
346.3136525405708
 31
0.0
  0
LINE
  5
200
330
1F
100
AcDbEntity
  8
VISIBLE
100
AcDbLine
 10
370.7782717127169
 20
348.8136525405708
 30
0.0
 11
370.7782717127169
 21
346.3136525405708
 31
0.0
  0
LINE
  5
201
330
1F
100
AcDbEntity
  8
VISIBLE
100
AcDbLine
 10
361.6449383793836
 20
348.8136525405708
 30
0.0
 11
370.7782717127169
 21
348.8136525405708
 31
0.0
  0
LINE
  5
202
330
1F
100
AcDbEntity
  8
VISIBLE
100
AcDbLine
 10
361.6449383793836
 20
348.8136525405708
 30
0.0
 11
361.6449383793836
 21
346.3136525405708
 31
0.0
  0
LINE
  5
203
330
1F
100
AcDbEntity
  8
VISIBLE
100
AcDbLine
 10
343.3782717127169
 20
348.8136525405708
 30
0.0
 11
343.3782717127169
 21
346.3136525405708
 31
0.0
  0
LINE
  5
204
330
1F
100
AcDbEntity
  8
VISIBLE
100
AcDbLine
 10
343.3782717127169
 20
346.3136525405708
 30
0.0
 11
334.2449383793835
 21
346.3136525405708
 31
0.0
  0
LINE
  5
205
330
1F
100
AcDbEntity
  8
VISIBLE
100
AcDbLine
 10
334.2449383793835
 20
348.8136525405708
 30
0.0
 11
334.2449383793835
 21
346.3136525405708
 31
0.0
  0
LINE
  5
206
330
1F
100
AcDbEntity
  8
VISIBLE
100
AcDbLine
 10
325.1116050460502
 20
348.8136525405708
 30
0.0
 11
334.2449383793835
 21
348.8136525405708
 31
0.0
  0
LINE
  5
207
330
1F
100
AcDbEntity
  8
VISIBLE
100
AcDbLine
 10
325.1116050460502
 20
348.8136525405708
 30
0.0
 11
325.1116050460502
 21
346.3136525405708
 31
0.0
  0
LINE
  5
208
330
1F
100
AcDbEntity
  8
VISIBLE
100
AcDbLine
 10
315.9782717127168
 20
348.8136525405708
 30
0.0
 11
315.9782717127168
 21
346.3136525405708
 31
0.0
  0
LINE
  5
209
330
1F
100
AcDbEntity
  8
VISIBLE
100
AcDbLine
 10
311.3449383793835
 20
348.8136525405708
 30
0.0
 11
315.9782717127168
 21
348.8136525405708
 31
0.0
  0
LINE
  5
20A
330
1F
100
AcDbEntity
  8
VISIBLE
100
AcDbLine
 10
311.3449383793835
 20
353.3136525405708
 30
0.0
 11
311.3449383793835
 21
348.8136525405708
 31
0.0
  0
LINE
  5
20B
330
1F
100
AcDbEntity
  8
VISIBLE
100
AcDbLine
 10
306.8449383793835
 20
353.3136525405708
 30
0.0
 11
311.3449383793835
 21
353.3136525405708
 31
0.0
  0
LINE
  5
20C
330
1F
100
AcDbEntity
  8
VISIBLE
100
AcDbLine
 10
306.8449383793835
 20
357.8136525405708
 30
0.0
 11
306.8449383793835
 21
353.3136525405708
 31
0.0
  0
LINE
  5
20D
330
1F
100
AcDbEntity
  8
VISIBLE
100
AcDbLine
 10
306.8449383793835
 20
357.8136525405708
 30
0.0
 11
311.3449383793835
 21
357.8136525405708
 31
0.0
  0
LINE
  5
20E
330
1F
100
AcDbEntity
  8
VISIBLE
100
AcDbLine
 10
311.3449383793835
 20
362.3136525405708
 30
0.0
 11
311.3449383793835
 21
357.8136525405708
 31
0.0
  0
LINE
  5
20F
330
1F
100
AcDbEntity
  8
VISIBLE
100
AcDbLine
 10
439.3449383793836
 20
362.3136525405708
 30
0.0
 11
311.3449383793835
 21
362.3136525405708
 31
0.0
  0
LINE
  5
210
330
1F
100
AcDbEntity
  8
VISIBLE
100
AcDbLine
 10
439.3449383793836
 20
362.3136525405708
 30
0.0
 11
439.3449383793836
 21
357.8136525405708
 31
0.0
  0
LINE
  5
211
330
1F
100
AcDbEntity
  8
VISIBLE
100
AcDbLine
 10
439.3449383793836
 20
357.8136525405708
 30
0.0
 11
443.8449383793836
 21
357.8136525405708
 31
0.0
  0
LINE
  5
212
330
1F
100
AcDbEntity
  8
VISIBLE
100
AcDbLine
 10
443.8449383793836
 20
357.8136525405708
 30
0.0
 11
443.8449383793836
 21
353.3136525405708
 31
0.0
  0
LINE
  5
213
330
1F
100
AcDbEntity
  8
VISIBLE
100
AcDbLine
 10
439.3449383793836
 20
353.3136525405708
 30
0.0
 11
443.8449383793836
 21
353.3136525405708
 31
0.0
  0
LINE
  5
214
330
1F
100
AcDbEntity
  8
VISIBLE
100
AcDbLine
 10
439.3449383793836
 20
353.3136525405708
 30
0.0
 11
439.3449383793836
 21
348.8136525405708
 31
0.0
  0
LINE
  5
215
330
1F
100
AcDbEntity
  8
VISIBLE
100
AcDbLine
 10
434.7116050460502
 20
348.8136525405708
 30
0.0
 11
439.3449383793836
 21
348.8136525405708
 31
0.0
  0
LINE
  5
216
330
1F
100
AcDbEntity
  8
VISIBLE
100
AcDbLine
 10
434.7116050460502
 20
348.8136525405708
 30
0.0
 11
434.7116050460502
 21
346.3136525405708
 31
0.0
  0
LINE
  5
217
330
1F
100
AcDbEntity
  8
VISIBLE
100
AcDbLine
 10
416.4449383793836
 20
346.3136525405708
 30
0.0
 11
407.3116050460503
 21
346.3136525405708
 31
0.0
  0
LINE
  5
218
330
1F
100
AcDbEntity
  8
VISIBLE
100
AcDbLine
 10
398.1782717127169
 20
346.3136525405708
 30
0.0
 11
389.0449383793836
 21
346.3136525405708
 31
0.0
  0
LINE
  5
219
330
1F
100
AcDbEntity
  8
VISIBLE
100
AcDbLine
 10
325.1116050460502
 20
346.3136525405708
 30
0.0
 11
315.9782717127168
 21
346.3136525405708
 31
0.0
  0
LINE
  5
21A
330
1F
100
AcDbEntity
  8
VISIBLE
100
AcDbLine
 10
352.5116050460502
 20
348.8136525405708
 30
0.0
 11
352.5116050460502
 21
346.3136525405708
 31
0.0
  0
LINE
  5
21B
330
1F
100
AcDbEntity
  8
VISIBLE
100
AcDbLine
 10
343.3782717127169
 20
348.8136525405708
 30
0.0
 11
352.5116050460502
 21
348.8136525405708
 31
0.0
  0
LINE
  5
21C
330
1F
100
AcDbEntity
  8
VISIBLE
100
AcDbLine
 10
398.1782717127169
 20
348.8136525405708
 30
0.0
 11
398.1782717127169
 21
346.3136525405708
 31
0.0
  0
LINE
  5
21D
330
1F
100
AcDbEntity
  8
VISIBLE
100
AcDbLine
 10
361.6449383793836
 20
346.3136525405708
 30
0.0
 11
352.5116050460502
 21
346.3136525405708
 31
0.0
  0
LINE
  5
21E
330
1F
100
AcDbEntity
  8
VISIBLE
100
AcDbLine
 10
218.8449383793837
 20
727.313652540571
 30
0.0
 11
218.8449383793837
 21
749.7136525405709
 31
0.0
  0
LINE
  5
21F
330
1F
100
AcDbEntity
  8
VISIBLE
100
AcDbLine
 10
214.8449383793837
 20
727.313652540571
 30
0.0
 11
218.8449383793837
 21
727.313652540571
 31
0.0
  0
LINE
  5
220
330
1F
100
AcDbEntity
  8
VISIBLE
100
AcDbLine
 10
214.8449383793837
 20
727.313652540571
 30
0.0
 11
214.8449383793837
 21
749.7136525405709
 31
0.0
  0
LINE
  5
221
330
1F
100
AcDbEntity
  8
VISIBLE
100
AcDbLine
 10
214.8449383793837
 20
749.7136525405709
 30
0.0
 11
218.8449383793837
 21
749.7136525405709
 31
0.0
  0
LINE
  5
222
330
1F
100
AcDbEntity
  8
VISIBLE
100
AcDbLine
 10
196.6449383793836
 20
750.7136525405709
 30
0.0
 11
219.0449383793836
 21
750.7136525405709
 31
0.0
  0
LINE
  5
223
330
1F
100
AcDbEntity
  8
VISIBLE
100
AcDbLine
 10
196.6449383793836
 20
754.7136525405709
 30
0.0
 11
196.6449383793836
 21
750.7136525405709
 31
0.0
  0
LINE
  5
224
330
1F
100
AcDbEntity
  8
VISIBLE
100
AcDbLine
 10
196.6449383793836
 20
754.7136525405709
 30
0.0
 11
219.0449383793836
 21
754.7136525405709
 31
0.0
  0
LINE
  5
225
330
1F
100
AcDbEntity
  8
VISIBLE
100
AcDbLine
 10
219.0449383793836
 20
754.7136525405709
 30
0.0
 11
219.0449383793836
 21
750.7136525405709
 31
0.0
  0
LINE
  5
226
330
1F
100
AcDbEntity
  8
VISIBLE
100
AcDbLine
 10
222.8449383793839
 20
697.313652540571
 30
0.0
 11
222.8449383793839
 21
719.7136525405709
 31
0.0
  0
LINE
  5
227
330
1F
100
AcDbEntity
  8
VISIBLE
100
AcDbLine
 10
218.8449383793839
 20
697.313652540571
 30
0.0
 11
218.8449383793839
 21
719.7136525405709
 31
0.0
  0
LINE
  5
228
330
1F
100
AcDbEntity
  8
VISIBLE
100
AcDbLine
 10
218.8449383793839
 20
719.7136525405709
 30
0.0
 11
222.8449383793839
 21
719.7136525405709
 31
0.0
  0
LINE
  5
229
330
1F
100
AcDbEntity
  8
VISIBLE
100
AcDbLine
 10
218.8449383793839
 20
697.313652540571
 30
0.0
 11
222.8449383793839
 21
697.313652540571
 31
0.0
  0
LINE
  5
22A
330
1F
100
AcDbEntity
  8
VISIBLE
100
AcDbLine
 10
193.8449383793836
 20
727.313652540571
 30
0.0
 11
193.8449383793836
 21
749.7136525405709
 31
0.0
  0
LINE
  5
22B
330
1F
100
AcDbEntity
  8
VISIBLE
100
AcDbLine
 10
189.8449383793836
 20
727.313652540571
 30
0.0
 11
193.8449383793836
 21
727.313652540571
 31
0.0
  0
LINE
  5
22C
330
1F
100
AcDbEntity
  8
VISIBLE
100
AcDbLine
 10
189.8449383793836
 20
727.313652540571
 30
0.0
 11
189.8449383793836
 21
749.7136525405709
 31
0.0
  0
LINE
  5
22D
330
1F
100
AcDbEntity
  8
VISIBLE
100
AcDbLine
 10
189.8449383793836
 20
749.7136525405709
 30
0.0
 11
193.8449383793836
 21
749.7136525405709
 31
0.0
  0
LINE
  5
22E
330
1F
100
AcDbEntity
  8
VISIBLE
100
AcDbLine
 10
198.0449383793836
 20
724.7136525405709
 30
0.0
 11
198.0449383793836
 21
720.7136525405709
 31
0.0
  0
LINE
  5
22F
330
1F
100
AcDbEntity
  8
VISIBLE
100
AcDbLine
 10
175.6449383793836
 20
724.7136525405709
 30
0.0
 11
198.0449383793836
 21
724.7136525405709
 31
0.0
  0
LINE
  5
230
330
1F
100
AcDbEntity
  8
VISIBLE
100
AcDbLine
 10
175.6449383793836
 20
724.7136525405709
 30
0.0
 11
175.6449383793836
 21
720.7136525405709
 31
0.0
  0
LINE
  5
231
330
1F
100
AcDbEntity
  8
VISIBLE
100
AcDbLine
 10
175.6449383793836
 20
720.7136525405709
 30
0.0
 11
198.0449383793836
 21
720.7136525405709
 31
0.0
  0
LINE
  5
232
330
1F
100
AcDbEntity
  8
VISIBLE
100
AcDbLine
 10
223.8449383793837
 20
727.313652540571
 30
0.0
 11
223.8449383793837
 21
749.7136525405709
 31
0.0
  0
LINE
  5
233
330
1F
100
AcDbEntity
  8
VISIBLE
100
AcDbLine
 10
219.8449383793837
 20
727.313652540571
 30
0.0
 11
219.8449383793837
 21
749.7136525405709
 31
0.0
  0
LINE
  5
234
330
1F
100
AcDbEntity
  8
VISIBLE
100
AcDbLine
 10
219.8449383793837
 20
749.7136525405709
 30
0.0
 11
223.8449383793837
 21
749.7136525405709
 31
0.0
  0
LINE
  5
235
330
1F
100
AcDbEntity
  8
VISIBLE
100
AcDbLine
 10
219.8449383793837
 20
727.313652540571
 30
0.0
 11
223.8449383793837
 21
727.313652540571
 31
0.0
  0
LINE
  5
236
330
1F
100
AcDbEntity
  8
VISIBLE
100
AcDbLine
 10
577.2449383793836
 20
226.213652540571
 30
0.0
 11
577.2449383793836
 21
221.713652540571
 31
0.0
  0
LINE
  5
237
330
1F
100
AcDbEntity
  8
VISIBLE
100
AcDbLine
 10
581.7449383793836
 20
226.2136525405709
 30
0.0
 11
577.2449383793836
 21
226.213652540571
 31
0.0
  0
LINE
  5
238
330
1F
100
AcDbEntity
  8
VISIBLE
100
AcDbLine
 10
581.7449383793836
 20
221.713652540571
 30
0.0
 11
581.7449383793836
 21
226.2136525405709
 31
0.0
  0
ARC
  5
239
330
1F
100
AcDbEntity
  8
VISIBLE
100
AcDbCircle
 10
562.3449383793837
 20
221.7136525405709
 30
0.0
 40
19.39999999999998
100
AcDbArc
 50
269.9999999999993
 51
0.0
  0
LINE
  5
23A
330
1F
100
AcDbEntity
  8
VISIBLE
100
AcDbLine
 10
557.8449383793836
 20
202.313652540571
 30
0.0
 11
562.3449383793835
 21
202.313652540571
 31
0.0
  0
LINE
  5
23B
330
1F
100
AcDbEntity
  8
VISIBLE
100
AcDbLine
 10
557.8449383793836
 20
202.313652540571
 30
0.0
 11
557.8449383793836
 21
206.813652540571
 31
0.0
  0
ARC
  5
23C
330
1F
100
AcDbEntity
  8
VISIBLE
100
AcDbCircle
 10
562.3449383793836
 20
221.7136525405709
 30
0.0
 40
14.89999999999997
100
AcDbArc
 50
269.9999999999995
 51
0.0
  0
LINE
  5
23D
330
1F
100
AcDbEntity
  8
VISIBLE
100
AcDbLine
 10
557.8449383793836
 20
206.813652540571
 30
0.0
 11
562.3449383793835
 21
206.813652540571
 31
0.0
  0
LINE
  5
23E
330
1F
100
AcDbEntity
  8
VISIBLE
100
AcDbLine
 10
555.3449383793835
 20
268.813652540571
 30
0.0
 11
550.8449383793835
 21
268.813652540571
 31
0.0
  0
LINE
  5
23F
330
1F
100
AcDbEntity
  8
VISIBLE
100
AcDbLine
 10
555.3449383793835
 20
264.313652540571
 30
0.0
 11
555.3449383793835
 21
268.813652540571
 31
0.0
  0
ARC
  5
240
330
1F
100
AcDbEntity
  8
VISIBLE
100
AcDbCircle
 10
550.8449383793835
 20
288.313652540571
 30
0.0
 40
19.49999999999999
100
AcDbArc
 50
180.0
 51
270.0
  0
LINE
  5
241
330
1F
100
AcDbEntity
  8
VISIBLE
100
AcDbLine
 10
526.8449383793836
 20
292.813652540571
 30
0.0
 11
526.8449383793836
 21
288.313652540571
 31
0.0
  0
LINE
  5
242
330
1F
100
AcDbEntity
  8
VISIBLE
100
AcDbLine
 10
531.3449383793835
 20
292.813652540571
 30
0.0
 11
526.8449383793836
 21
292.813652540571
 31
0.0
  0
LINE
  5
243
330
1F
100
AcDbEntity
  8
VISIBLE
100
AcDbLine
 10
550.8449383793835
 20
264.313652540571
 30
0.0
 11
555.3449383793835
 21
264.313652540571
 31
0.0
  0
ARC
  5
244
330
1F
100
AcDbEntity
  8
VISIBLE
100
AcDbCircle
 10
550.8449383793835
 20
288.313652540571
 30
0.0
 40
23.99999999999999
100
AcDbArc
 50
180.0
 51
270.0
  0
LINE
  5
245
330
1F
100
AcDbEntity
  8
VISIBLE
100
AcDbLine
 10
531.3449383793835
 20
288.313652540571
 30
0.0
 11
531.3449383793835
 21
292.813652540571
 31
0.0
  0
LINE
  5
246
330
1F
100
AcDbEntity
  8
VISIBLE
100
AcDbLine
 10
526.8449383793836
 20
204.8136525405709
 30
0.0
 11
526.8449383793836
 21
202.3136525405709
 31
0.0
  0
ARC
  5
247
330
1F
100
AcDbEntity
  8
VISIBLE
100
AcDbCircle
 10
526.8449383793836
 20
232.3136525405709
 30
0.0
 40
27.50000000000002
100
AcDbArc
 50
270.0
 51
0.0
  0
ARC
  5
248
330
1F
100
AcDbEntity
  8
VISIBLE
100
AcDbCircle
 10
526.8449383793836
 20
232.3136525405709
 30
0.0
 40
30.0
100
AcDbArc
 50
270.0
 51
0.0
  0
LINE
  5
249
330
1F
100
AcDbEntity
  8
VISIBLE
100
AcDbLine
 10
554.3449383793835
 20
232.3136525405709
 30
0.0
 11
556.8449383793836
 21
232.3136525405709
 31
0.0
  0
LINE
  5
24A
330
1F
100
AcDbEntity
  8
VISIBLE
100
AcDbLine
 10
807.3782717127169
 20
461.3136525405708
 30
0.0
 11
807.3782717127169
 21
465.8136525405708
 31
0.0
  0
LINE
  5
24B
330
1F
100
AcDbEntity
  8
VISIBLE
100
AcDbLine
 10
746.8449383793836
 20
494.4469858739042
 30
0.0
 11
751.3449383793837
 21
494.4469858739042
 31
0.0
  0
LINE
  5
24C
330
1F
100
AcDbEntity
  8
VISIBLE
100
AcDbLine
 10
751.3449383793837
 20
494.4469858739042
 30
0.0
 11
751.3449383793837
 21
503.5803192072375
 31
0.0
  0
LINE
  5
24D
330
1F
100
AcDbEntity
  8
VISIBLE
100
AcDbLine
 10
746.8449383793836
 20
503.5803192072375
 30
0.0
 11
751.3449383793837
 21
503.5803192072375
 31
0.0
  0
LINE
  5
24E
330
1F
100
AcDbEntity
  8
VISIBLE
100
AcDbLine
 10
746.8449383793836
 20
512.7136525405708
 30
0.0
 11
751.3449383793837
 21
512.7136525405708
 31
0.0
  0
LINE
  5
24F
330
1F
100
AcDbEntity
  8
VISIBLE
100
AcDbLine
 10
746.8449383793836
 20
521.8469858739043
 30
0.0
 11
751.3449383793837
 21
521.8469858739043
 31
0.0
  0
LINE
  5
250
330
1F
100
AcDbEntity
  8
VISIBLE
100
AcDbLine
 10
751.3449383793837
 20
530.9803192072375
 30
0.0
 11
751.3449383793837
 21
540.1136525405709
 31
0.0
  0
LINE
  5
251
330
1F
100
AcDbEntity
  8
VISIBLE
100
AcDbLine
 10
746.8449383793836
 20
540.1136525405709
 30
0.0
 11
751.3449383793837
 21
540.1136525405709
 31
0.0
  0
LINE
  5
252
330
1F
100
AcDbEntity
  8
VISIBLE
100
AcDbLine
 10
746.8449383793836
 20
549.2469858739042
 30
0.0
 11
751.3449383793837
 21
549.2469858739042
 31
0.0
  0
LINE
  5
253
330
1F
100
AcDbEntity
  8
VISIBLE
100
AcDbLine
 10
751.3449383793837
 20
549.2469858739042
 30
0.0
 11
751.3449383793837
 21
558.3803192072376
 31
0.0
  0
LINE
  5
254
330
1F
100
AcDbEntity
  8
VISIBLE
100
AcDbLine
 10
751.3449383793837
 20
567.5136525405709
 30
0.0
 11
751.3449383793837
 21
576.6469858739042
 31
0.0
  0
LINE
  5
255
330
1F
100
AcDbEntity
  8
VISIBLE
100
AcDbLine
 10
746.8449383793836
 20
594.9136525405709
 30
0.0
 11
751.3449383793837
 21
594.9136525405709
 31
0.0
  0
LINE
  5
256
330
1F
100
AcDbEntity
  8
VISIBLE
100
AcDbLine
 10
751.3449383793837
 20
604.0469858739042
 30
0.0
 11
751.3449383793837
 21
613.1803192072375
 31
0.0
  0
LINE
  5
257
330
1F
100
AcDbEntity
  8
VISIBLE
100
AcDbLine
 10
746.8449383793836
 20
613.1803192072375
 30
0.0
 11
751.3449383793837
 21
613.1803192072375
 31
0.0
  0
LINE
  5
258
330
1F
100
AcDbEntity
  8
VISIBLE
100
AcDbLine
 10
931.8449383793836
 20
604.0469858739043
 30
0.0
 11
927.3449383793836
 21
604.0469858739043
 31
0.0
  0
LINE
  5
259
330
1F
100
AcDbEntity
  8
VISIBLE
100
AcDbLine
 10
931.8449383793836
 20
594.9136525405709
 30
0.0
 11
927.3449383793836
 21
594.9136525405709
 31
0.0
  0
LINE
  5
25A
330
1F
100
AcDbEntity
  8
VISIBLE
100
AcDbLine
 10
931.8449383793837
 20
576.6469858739042
 30
0.0
 11
927.3449383793836
 21
576.6469858739042
 31
0.0
  0
LINE
  5
25B
330
1F
100
AcDbEntity
  8
VISIBLE
100
AcDbLine
 10
927.3449383793836
 20
576.6469858739042
 30
0.0
 11
927.3449383793836
 21
567.5136525405709
 31
0.0
  0
LINE
  5
25C
330
1F
100
AcDbEntity
  8
VISIBLE
100
AcDbLine
 10
931.8449383793837
 20
567.5136525405709
 30
0.0
 11
927.3449383793836
 21
567.5136525405709
 31
0.0
  0
LINE
  5
25D
330
1F
100
AcDbEntity
  8
VISIBLE
100
AcDbLine
 10
931.8449383793837
 20
558.3803192072376
 30
0.0
 11
927.3449383793836
 21
558.3803192072376
 31
0.0
  0
LINE
  5
25E
330
1F
100
AcDbEntity
  8
VISIBLE
100
AcDbLine
 10
931.8449383793837
 20
540.1136525405709
 30
0.0
 11
927.3449383793836
 21
540.1136525405709
 31
0.0
  0
LINE
  5
25F
330
1F
100
AcDbEntity
  8
VISIBLE
100
AcDbLine
 10
927.3449383793836
 20
540.1136525405709
 30
0.0
 11
927.3449383793836
 21
530.9803192072376
 31
0.0
  0
LINE
  5
260
330
1F
100
AcDbEntity
  8
VISIBLE
100
AcDbLine
 10
931.8449383793837
 20
530.9803192072376
 30
0.0
 11
927.3449383793836
 21
530.9803192072376
 31
0.0
  0
LINE
  5
261
330
1F
100
AcDbEntity
  8
VISIBLE
100
AcDbLine
 10
931.8449383793837
 20
521.8469858739043
 30
0.0
 11
927.3449383793836
 21
521.8469858739043
 31
0.0
  0
LINE
  5
262
330
1F
100
AcDbEntity
  8
VISIBLE
100
AcDbLine
 10
931.8449383793837
 20
512.7136525405708
 30
0.0
 11
927.3449383793836
 21
512.7136525405708
 31
0.0
  0
LINE
  5
263
330
1F
100
AcDbEntity
  8
VISIBLE
100
AcDbLine
 10
927.3449383793836
 20
503.5803192072376
 30
0.0
 11
927.3449383793836
 21
494.4469858739042
 31
0.0
  0
LINE
  5
264
330
1F
100
AcDbEntity
  8
VISIBLE
100
AcDbLine
 10
746.8449383793836
 20
530.9803192072375
 30
0.0
 11
751.3449383793837
 21
530.9803192072375
 31
0.0
  0
LINE
  5
265
330
1F
100
AcDbEntity
  8
VISIBLE
100
AcDbLine
 10
751.3449383793837
 20
585.7803192072375
 30
0.0
 11
751.3449383793837
 21
594.9136525405709
 31
0.0
  0
LINE
  5
266
330
1F
100
AcDbEntity
  8
VISIBLE
100
AcDbLine
 10
746.8449383793836
 20
604.0469858739042
 30
0.0
 11
746.8449383793836
 21
594.9136525405709
 31
0.0
  0
LINE
  5
267
330
1F
100
AcDbEntity
  8
VISIBLE
100
AcDbLine
 10
862.178271712717
 20
461.3136525405708
 30
0.0
 11
862.178271712717
 21
465.8136525405708
 31
0.0
  0
LINE
  5
268
330
1F
100
AcDbEntity
  8
VISIBLE
100
AcDbLine
 10
843.9116050460503
 20
465.8136525405708
 30
0.0
 11
834.7782717127169
 21
465.8136525405708
 31
0.0
  0
LINE
  5
269
330
1F
100
AcDbEntity
  8
VISIBLE
100
AcDbLine
 10
807.3782717127169
 20
465.8136525405708
 30
0.0
 11
798.2449383793836
 21
465.8136525405708
 31
0.0
  0
LINE
  5
26A
330
1F
100
AcDbEntity
  8
VISIBLE
100
AcDbLine
 10
927.3449383793836
 20
521.8469858739043
 30
0.0
 11
927.3449383793836
 21
512.7136525405708
 31
0.0
  0
LINE
  5
26B
330
1F
100
AcDbEntity
  8
VISIBLE
100
AcDbLine
 10
889.578271712717
 20
461.3136525405708
 30
0.0
 11
889.578271712717
 21
465.8136525405708
 31
0.0
  0
LINE
  5
26C
330
1F
100
AcDbEntity
  8
VISIBLE
100
AcDbLine
 10
898.7116050460504
 20
461.3136525405708
 30
0.0
 11
898.7116050460504
 21
465.8136525405708
 31
0.0
  0
LINE
  5
26D
330
1F
100
AcDbEntity
  8
VISIBLE
100
AcDbLine
 10
751.3449383793837
 20
512.7136525405708
 30
0.0
 11
751.3449383793837
 21
521.8469858739043
 31
0.0
  0
LINE
  5
26E
330
1F
100
AcDbEntity
  8
VISIBLE
100
AcDbLine
 10
898.7116050460504
 20
465.8136525405708
 30
0.0
 11
889.578271712717
 21
465.8136525405708
 31
0.0
  0
ARC
  5
26F
330
1F
100
AcDbEntity
  8
VISIBLE
100
AcDbCircle
 10
907.8449383793837
 20
485.3136525405708
 30
0.0
 40
23.99999999999997
100
AcDbArc
 50
269.9999999999997
 51
0.0
  0
LINE
  5
270
330
1F
100
AcDbEntity
  8
VISIBLE
100
AcDbLine
 10
770.8449383793835
 20
461.3136525405708
 30
0.0
 11
779.978271712717
 21
461.3136525405708
 31
0.0
  0
LINE
  5
271
330
1F
100
AcDbEntity
  8
VISIBLE
100
AcDbLine
 10
746.8449383793836
 20
622.313652540571
 30
0.0
 11
746.8449383793836
 21
613.1803192072375
 31
0.0
  0
ARC
  5
272
330
1F
100
AcDbEntity
  8
VISIBLE
100
AcDbCircle
 10
770.8449383793835
 20
622.313652540571
 30
0.0
 40
23.99999999999993
100
AcDbArc
 50
90.0
 51
180.0
  0
LINE
  5
273
330
1F
100
AcDbEntity
  8
VISIBLE
100
AcDbLine
 10
770.8449383793835
 20
646.3136525405708
 30
0.0
 11
907.8449383793837
 21
646.3136525405708
 31
0.0
  0
LINE
  5
274
330
1F
100
AcDbEntity
  8
VISIBLE
100
AcDbLine
 10
746.8449383793836
 20
558.3803192072376
 30
0.0
 11
751.3449383793837
 21
558.3803192072376
 31
0.0
  0
LINE
  5
275
330
1F
100
AcDbEntity
  8
VISIBLE
100
AcDbLine
 10
931.8449383793836
 20
622.313652540571
 30
0.0
 11
931.8449383793836
 21
613.1803192072376
 31
0.0
  0
LINE
  5
276
330
1F
100
AcDbEntity
  8
VISIBLE
100
AcDbLine
 10
746.8449383793836
 20
567.5136525405709
 30
0.0
 11
751.3449383793837
 21
567.5136525405709
 31
0.0
  0
LINE
  5
277
330
1F
100
AcDbEntity
  8
VISIBLE
100
AcDbLine
 10
931.8449383793837
 20
494.4469858739042
 30
0.0
 11
931.8449383793836
 21
485.3136525405708
 31
0.0
  0
LINE
  5
278
330
1F
100
AcDbEntity
  8
VISIBLE
100
AcDbLine
 10
746.8449383793836
 20
585.7803192072375
 30
0.0
 11
751.3449383793837
 21
585.7803192072375
 31
0.0
  0
LINE
  5
279
330
1F
100
AcDbEntity
  8
VISIBLE
100
AcDbLine
 10
931.8449383793837
 20
567.5136525405709
 30
0.0
 11
931.8449383793837
 21
558.3803192072376
 31
0.0
  0
LINE
  5
27A
330
1F
100
AcDbEntity
  8
VISIBLE
100
AcDbLine
 10
931.8449383793836
 20
585.7803192072377
 30
0.0
 11
931.8449383793837
 21
576.6469858739042
 31
0.0
  0
LINE
  5
27B
330
1F
100
AcDbEntity
  8
VISIBLE
100
AcDbLine
 10
746.8449383793836
 20
604.0469858739042
 30
0.0
 11
751.3449383793837
 21
604.0469858739042
 31
0.0
  0
LINE
  5
27C
330
1F
100
AcDbEntity
  8
VISIBLE
100
AcDbLine
 10
927.3449383793836
 20
594.9136525405709
 30
0.0
 11
927.3449383793836
 21
585.7803192072377
 31
0.0
  0
LINE
  5
27D
330
1F
100
AcDbEntity
  8
VISIBLE
100
AcDbLine
 10
931.8449383793836
 20
585.7803192072377
 30
0.0
 11
927.3449383793836
 21
585.7803192072377
 31
0.0
  0
LINE
  5
27E
330
1F
100
AcDbEntity
  8
VISIBLE
100
AcDbLine
 10
898.7116050460504
 20
461.3136525405708
 30
0.0
 11
907.8449383793836
 21
461.3136525405708
 31
0.0
  0
LINE
  5
27F
330
1F
100
AcDbEntity
  8
VISIBLE
100
AcDbLine
 10
789.1116050460502
 20
461.3136525405708
 30
0.0
 11
798.2449383793836
 21
461.3136525405708
 31
0.0
  0
LINE
  5
280
330
1F
100
AcDbEntity
  8
VISIBLE
100
AcDbLine
 10
807.3782717127169
 20
461.3136525405708
 30
0.0
 11
816.5116050460502
 21
461.3136525405708
 31
0.0
  0
LINE
  5
281
330
1F
100
AcDbEntity
  8
VISIBLE
100
AcDbLine
 10
931.8449383793837
 20
549.2469858739042
 30
0.0
 11
927.3449383793836
 21
549.2469858739042
 31
0.0
  0
LINE
  5
282
330
1F
100
AcDbEntity
  8
VISIBLE
100
AcDbLine
 10
927.3449383793836
 20
558.3803192072376
 30
0.0
 11
927.3449383793836
 21
549.2469858739042
 31
0.0
  0
LINE
  5
283
330
1F
100
AcDbEntity
  8
VISIBLE
100
AcDbLine
 10
862.178271712717
 20
461.3136525405708
 30
0.0
 11
871.3116050460503
 21
461.3136525405708
 31
0.0
  0
LINE
  5
284
330
1F
100
AcDbEntity
  8
VISIBLE
100
AcDbLine
 10
880.4449383793836
 20
461.3136525405708
 30
0.0
 11
889.578271712717
 21
461.3136525405708
 31
0.0
  0
LINE
  5
285
330
1F
100
AcDbEntity
  8
VISIBLE
100
AcDbLine
 10
843.9116050460503
 20
461.3136525405708
 30
0.0
 11
843.9116050460503
 21
465.8136525405708
 31
0.0
  0
LINE
  5
286
330
1F
100
AcDbEntity
  8
VISIBLE
100
AcDbLine
 10
816.5116050460502
 20
461.3136525405708
 30
0.0
 11
816.5116050460502
 21
465.8136525405708
 31
0.0
  0
LINE
  5
287
330
1F
100
AcDbEntity
  8
VISIBLE
100
AcDbLine
 10
931.8449383793837
 20
494.4469858739042
 30
0.0
 11
927.3449383793836
 21
494.4469858739042
 31
0.0
  0
LINE
  5
288
330
1F
100
AcDbEntity
  8
VISIBLE
100
AcDbLine
 10
931.8449383793837
 20
503.5803192072376
 30
0.0
 11
927.3449383793836
 21
503.5803192072376
 31
0.0
  0
LINE
  5
289
330
1F
100
AcDbEntity
  8
VISIBLE
100
AcDbLine
 10
746.8449383793836
 20
494.4469858739042
 30
0.0
 11
746.8449383793836
 21
485.3136525405708
 31
0.0
  0
LINE
  5
28A
330
1F
100
AcDbEntity
  8
VISIBLE
100
AcDbLine
 10
927.3449383793836
 20
613.1803192072376
 30
0.0
 11
927.3449383793836
 21
604.0469858739043
 31
0.0
  0
ARC
  5
28B
330
1F
100
AcDbEntity
  8
VISIBLE
100
AcDbCircle
 10
907.8449383793837
 20
622.313652540571
 30
0.0
 40
23.99999999999995
100
AcDbArc
 50
0.0
 51
90.0
  0
LINE
  5
28C
330
1F
100
AcDbEntity
  8
VISIBLE
100
AcDbLine
 10
931.8449383793836
 20
604.0469858739043
 30
0.0
 11
931.8449383793836
 21
594.9136525405709
 31
0.0
  0
LINE
  5
28D
330
1F
100
AcDbEntity
  8
VISIBLE
100
AcDbLine
 10
746.8449383793836
 20
576.6469858739042
 30
0.0
 11
751.3449383793837
 21
576.6469858739042
 31
0.0
  0
LINE
  5
28E
330
1F
100
AcDbEntity
  8
VISIBLE
100
AcDbLine
 10
834.7782717127169
 20
461.3136525405708
 30
0.0
 11
834.7782717127169
 21
465.8136525405708
 31
0.0
  0
LINE
  5
28F
330
1F
100
AcDbEntity
  8
VISIBLE
100
AcDbLine
 10
931.8449383793837
 20
549.2469858739042
 30
0.0
 11
931.8449383793837
 21
540.1136525405709
 31
0.0
  0
LINE
  5
290
330
1F
100
AcDbEntity
  8
VISIBLE
100
AcDbLine
 10
789.1116050460502
 20
461.3136525405708
 30
0.0
 11
789.1116050460502
 21
465.8136525405708
 31
0.0
  0
LINE
  5
291
330
1F
100
AcDbEntity
  8
VISIBLE
100
AcDbLine
 10
779.978271712717
 20
461.3136525405708
 30
0.0
 11
779.978271712717
 21
465.8136525405708
 31
0.0
  0
LINE
  5
292
330
1F
100
AcDbEntity
  8
VISIBLE
100
AcDbLine
 10
746.8449383793836
 20
512.7136525405708
 30
0.0
 11
746.8449383793836
 21
503.5803192072375
 31
0.0
  0
LINE
  5
293
330
1F
100
AcDbEntity
  8
VISIBLE
100
AcDbLine
 10
880.4449383793836
 20
465.8136525405708
 30
0.0
 11
871.3116050460503
 21
465.8136525405708
 31
0.0
  0
LINE
  5
294
330
1F
100
AcDbEntity
  8
VISIBLE
100
AcDbLine
 10
880.4449383793836
 20
461.3136525405708
 30
0.0
 11
880.4449383793836
 21
465.8136525405708
 31
0.0
  0
LINE
  5
295
330
1F
100
AcDbEntity
  8
VISIBLE
100
AcDbLine
 10
825.6449383793836
 20
461.3136525405708
 30
0.0
 11
834.7782717127169
 21
461.3136525405708
 31
0.0
  0
LINE
  5
296
330
1F
100
AcDbEntity
  8
VISIBLE
100
AcDbLine
 10
825.6449383793836
 20
465.8136525405708
 30
0.0
 11
816.5116050460502
 21
465.8136525405708
 31
0.0
  0
LINE
  5
297
330
1F
100
AcDbEntity
  8
VISIBLE
100
AcDbLine
 10
843.9116050460503
 20
461.3136525405708
 30
0.0
 11
853.0449383793837
 21
461.3136525405708
 31
0.0
  0
LINE
  5
298
330
1F
100
AcDbEntity
  8
VISIBLE
100
AcDbLine
 10
746.8449383793836
 20
585.7803192072375
 30
0.0
 11
746.8449383793836
 21
576.6469858739042
 31
0.0
  0
LINE
  5
299
330
1F
100
AcDbEntity
  8
VISIBLE
100
AcDbLine
 10
931.8449383793836
 20
613.1803192072376
 30
0.0
 11
927.3449383793836
 21
613.1803192072376
 31
0.0
  0
LINE
  5
29A
330
1F
100
AcDbEntity
  8
VISIBLE
100
AcDbLine
 10
798.2449383793836
 20
461.3136525405708
 30
0.0
 11
798.2449383793836
 21
465.8136525405708
 31
0.0
  0
LINE
  5
29B
330
1F
100
AcDbEntity
  8
VISIBLE
100
AcDbLine
 10
746.8449383793836
 20
549.2469858739042
 30
0.0
 11
746.8449383793836
 21
540.1136525405709
 31
0.0
  0
ARC
  5
29C
330
1F
100
AcDbEntity
  8
VISIBLE
100
AcDbCircle
 10
770.8449383793835
 20
485.3136525405708
 30
0.0
 40
23.99999999999999
100
AcDbArc
 50
180.0
 51
270.0
  0
LINE
  5
29D
330
1F
100
AcDbEntity
  8
VISIBLE
100
AcDbLine
 10
746.8449383793836
 20
567.5136525405709
 30
0.0
 11
746.8449383793836
 21
558.3803192072376
 31
0.0
  0
LINE
  5
29E
330
1F
100
AcDbEntity
  8
VISIBLE
100
AcDbLine
 10
931.8449383793837
 20
512.7136525405708
 30
0.0
 11
931.8449383793837
 21
503.5803192072376
 31
0.0
  0
LINE
  5
29F
330
1F
100
AcDbEntity
  8
VISIBLE
100
AcDbLine
 10
789.1116050460502
 20
465.8136525405708
 30
0.0
 11
779.978271712717
 21
465.8136525405708
 31
0.0
  0
LINE
  5
2A0
330
1F
100
AcDbEntity
  8
VISIBLE
100
AcDbLine
 10
871.3116050460503
 20
461.3136525405708
 30
0.0
 11
871.3116050460503
 21
465.8136525405708
 31
0.0
  0
LINE
  5
2A1
330
1F
100
AcDbEntity
  8
VISIBLE
100
AcDbLine
 10
853.0449383793837
 20
461.3136525405708
 30
0.0
 11
853.0449383793837
 21
465.8136525405708
 31
0.0
  0
LINE
  5
2A2
330
1F
100
AcDbEntity
  8
VISIBLE
100
AcDbLine
 10
931.8449383793837
 20
530.9803192072376
 30
0.0
 11
931.8449383793837
 21
521.8469858739043
 31
0.0
  0
LINE
  5
2A3
330
1F
100
AcDbEntity
  8
VISIBLE
100
AcDbLine
 10
862.178271712717
 20
465.8136525405708
 30
0.0
 11
853.0449383793837
 21
465.8136525405708
 31
0.0
  0
LINE
  5
2A4
330
1F
100
AcDbEntity
  8
VISIBLE
100
AcDbLine
 10
746.8449383793836
 20
530.9803192072375
 30
0.0
 11
746.8449383793836
 21
521.8469858739043
 31
0.0
  0
LINE
  5
2A5
330
1F
100
AcDbEntity
  8
VISIBLE
100
AcDbLine
 10
825.6449383793836
 20
461.3136525405708
 30
0.0
 11
825.6449383793836
 21
465.8136525405708
 31
0.0
  0
LINE
  5
2A6
330
1F
100
AcDbEntity
  8
VISIBLE
100
AcDbLine
 10
163.8449383793838
 20
697.3136525405708
 30
0.0
 11
167.8449383793838
 21
697.3136525405708
 31
0.0
  0
LINE
  5
2A7
330
1F
100
AcDbEntity
  8
VISIBLE
100
AcDbLine
 10
167.8449383793838
 20
697.3136525405708
 30
0.0
 11
167.8449383793838
 21
719.7136525405709
 31
0.0
  0
LINE
  5
2A8
330
1F
100
AcDbEntity
  8
VISIBLE
100
AcDbLine
 10
163.8449383793838
 20
697.3136525405708
 30
0.0
 11
163.8449383793838
 21
719.7136525405709
 31
0.0
  0
LINE
  5
2A9
330
1F
100
AcDbEntity
  8
VISIBLE
100
AcDbLine
 10
163.8449383793838
 20
719.7136525405709
 30
0.0
 11
167.8449383793838
 21
719.7136525405709
 31
0.0
  0
LINE
  5
2AA
330
1F
100
AcDbEntity
  8
VISIBLE
100
AcDbLine
 10
439.3449383793836
 20
338.3136525405709
 30
0.0
 11
439.3449383793836
 21
342.8136525405708
 31
0.0
  0
LINE
  5
2AB
330
1F
100
AcDbEntity
  8
VISIBLE
100
AcDbLine
 10
439.3449383793836
 20
338.3136525405709
 30
0.0
 11
443.8449383793836
 21
338.3136525405709
 31
0.0
  0
LINE
  5
2AC
330
1F
100
AcDbEntity
  8
VISIBLE
100
AcDbLine
 10
443.8449383793836
 20
333.8136525405708
 30
0.0
 11
443.8449383793836
 21
338.3136525405709
 31
0.0
  0
LINE
  5
2AD
330
1F
100
AcDbEntity
  8
VISIBLE
100
AcDbLine
 10
439.3449383793836
 20
333.8136525405708
 30
0.0
 11
443.8449383793836
 21
333.8136525405708
 31
0.0
  0
LINE
  5
2AE
330
1F
100
AcDbEntity
  8
VISIBLE
100
AcDbLine
 10
439.3449383793836
 20
329.3136525405708
 30
0.0
 11
439.3449383793836
 21
333.8136525405708
 31
0.0
  0
LINE
  5
2AF
330
1F
100
AcDbEntity
  8
VISIBLE
100
AcDbLine
 10
439.3449383793836
 20
329.3136525405708
 30
0.0
 11
311.3449383793835
 21
329.3136525405708
 31
0.0
  0
LINE
  5
2B0
330
1F
100
AcDbEntity
  8
VISIBLE
100
AcDbLine
 10
311.3449383793835
 20
329.3136525405708
 30
0.0
 11
311.3449383793835
 21
333.8136525405708
 31
0.0
  0
LINE
  5
2B1
330
1F
100
AcDbEntity
  8
VISIBLE
100
AcDbLine
 10
311.3449383793835
 20
333.8136525405708
 30
0.0
 11
306.8449383793835
 21
333.8136525405708
 31
0.0
  0
LINE
  5
2B2
330
1F
100
AcDbEntity
  8
VISIBLE
100
AcDbLine
 10
306.8449383793835
 20
333.8136525405708
 30
0.0
 11
306.8449383793835
 21
338.3136525405709
 31
0.0
  0
LINE
  5
2B3
330
1F
100
AcDbEntity
  8
VISIBLE
100
AcDbLine
 10
311.3449383793835
 20
338.3136525405709
 30
0.0
 11
306.8449383793835
 21
338.3136525405709
 31
0.0
  0
LINE
  5
2B4
330
1F
100
AcDbEntity
  8
VISIBLE
100
AcDbLine
 10
311.3449383793835
 20
338.3136525405709
 30
0.0
 11
311.3449383793835
 21
342.8136525405708
 31
0.0
  0
LINE
  5
2B5
330
1F
100
AcDbEntity
  8
VISIBLE
100
AcDbLine
 10
311.3449383793835
 20
342.8136525405708
 30
0.0
 11
315.9782717127168
 21
342.8136525405708
 31
0.0
  0
LINE
  5
2B6
330
1F
100
AcDbEntity
  8
VISIBLE
100
AcDbLine
 10
315.9782717127168
 20
345.3136525405708
 30
0.0
 11
315.9782717127168
 21
342.8136525405708
 31
0.0
  0
LINE
  5
2B7
330
1F
100
AcDbEntity
  8
VISIBLE
100
AcDbLine
 10
325.1116050460502
 20
345.3136525405708
 30
0.0
 11
315.9782717127168
 21
345.3136525405708
 31
0.0
  0
LINE
  5
2B8
330
1F
100
AcDbEntity
  8
VISIBLE
100
AcDbLine
 10
325.1116050460502
 20
345.3136525405708
 30
0.0
 11
325.1116050460502
 21
342.8136525405708
 31
0.0
  0
LINE
  5
2B9
330
1F
100
AcDbEntity
  8
VISIBLE
100
AcDbLine
 10
325.1116050460502
 20
342.8136525405708
 30
0.0
 11
334.2449383793835
 21
342.8136525405708
 31
0.0
  0
LINE
  5
2BA
330
1F
100
AcDbEntity
  8
VISIBLE
100
AcDbLine
 10
334.2449383793835
 20
345.3136525405708
 30
0.0
 11
334.2449383793835
 21
342.8136525405708
 31
0.0
  0
LINE
  5
2BB
330
1F
100
AcDbEntity
  8
VISIBLE
100
AcDbLine
 10
343.3782717127169
 20
345.3136525405708
 30
0.0
 11
334.2449383793835
 21
345.3136525405708
 31
0.0
  0
LINE
  5
2BC
330
1F
100
AcDbEntity
  8
VISIBLE
100
AcDbLine
 10
343.3782717127169
 20
345.3136525405708
 30
0.0
 11
343.3782717127169
 21
342.8136525405708
 31
0.0
  0
LINE
  5
2BD
330
1F
100
AcDbEntity
  8
VISIBLE
100
AcDbLine
 10
343.3782717127169
 20
342.8136525405708
 30
0.0
 11
352.5116050460502
 21
342.8136525405708
 31
0.0
  0
LINE
  5
2BE
330
1F
100
AcDbEntity
  8
VISIBLE
100
AcDbLine
 10
352.5116050460502
 20
345.3136525405708
 30
0.0
 11
352.5116050460502
 21
342.8136525405708
 31
0.0
  0
LINE
  5
2BF
330
1F
100
AcDbEntity
  8
VISIBLE
100
AcDbLine
 10
361.6449383793836
 20
345.3136525405708
 30
0.0
 11
352.5116050460502
 21
345.3136525405708
 31
0.0
  0
LINE
  5
2C0
330
1F
100
AcDbEntity
  8
VISIBLE
100
AcDbLine
 10
361.6449383793836
 20
345.3136525405708
 30
0.0
 11
361.6449383793836
 21
342.8136525405708
 31
0.0
  0
LINE
  5
2C1
330
1F
100
AcDbEntity
  8
VISIBLE
100
AcDbLine
 10
361.6449383793836
 20
342.8136525405708
 30
0.0
 11
370.7782717127169
 21
342.8136525405708
 31
0.0
  0
LINE
  5
2C2
330
1F
100
AcDbEntity
  8
VISIBLE
100
AcDbLine
 10
370.7782717127169
 20
345.3136525405708
 30
0.0
 11
370.7782717127169
 21
342.8136525405708
 31
0.0
  0
LINE
  5
2C3
330
1F
100
AcDbEntity
  8
VISIBLE
100
AcDbLine
 10
379.9116050460503
 20
345.3136525405708
 30
0.0
 11
370.7782717127169
 21
345.3136525405708
 31
0.0
  0
LINE
  5
2C4
330
1F
100
AcDbEntity
  8
VISIBLE
100
AcDbLine
 10
379.9116050460503
 20
345.3136525405708
 30
0.0
 11
379.9116050460503
 21
342.8136525405708
 31
0.0
  0
LINE
  5
2C5
330
1F
100
AcDbEntity
  8
VISIBLE
100
AcDbLine
 10
379.9116050460503
 20
342.8136525405708
 30
0.0
 11
389.0449383793836
 21
342.8136525405708
 31
0.0
  0
LINE
  5
2C6
330
1F
100
AcDbEntity
  8
VISIBLE
100
AcDbLine
 10
389.0449383793836
 20
345.3136525405708
 30
0.0
 11
389.0449383793836
 21
342.8136525405708
 31
0.0
  0
LINE
  5
2C7
330
1F
100
AcDbEntity
  8
VISIBLE
100
AcDbLine
 10
398.1782717127169
 20
345.3136525405708
 30
0.0
 11
389.0449383793836
 21
345.3136525405708
 31
0.0
  0
LINE
  5
2C8
330
1F
100
AcDbEntity
  8
VISIBLE
100
AcDbLine
 10
398.1782717127169
 20
345.3136525405708
 30
0.0
 11
398.1782717127169
 21
342.8136525405708
 31
0.0
  0
LINE
  5
2C9
330
1F
100
AcDbEntity
  8
VISIBLE
100
AcDbLine
 10
398.1782717127169
 20
342.8136525405708
 30
0.0
 11
407.3116050460503
 21
342.8136525405708
 31
0.0
  0
LINE
  5
2CA
330
1F
100
AcDbEntity
  8
VISIBLE
100
AcDbLine
 10
407.3116050460503
 20
345.3136525405708
 30
0.0
 11
407.3116050460503
 21
342.8136525405708
 31
0.0
  0
LINE
  5
2CB
330
1F
100
AcDbEntity
  8
VISIBLE
100
AcDbLine
 10
416.4449383793836
 20
345.3136525405708
 30
0.0
 11
407.3116050460503
 21
345.3136525405708
 31
0.0
  0
LINE
  5
2CC
330
1F
100
AcDbEntity
  8
VISIBLE
100
AcDbLine
 10
416.4449383793836
 20
342.8136525405708
 30
0.0
 11
425.578271712717
 21
342.8136525405708
 31
0.0
  0
LINE
  5
2CD
330
1F
100
AcDbEntity
  8
VISIBLE
100
AcDbLine
 10
425.578271712717
 20
345.3136525405708
 30
0.0
 11
425.578271712717
 21
342.8136525405708
 31
0.0
  0
LINE
  5
2CE
330
1F
100
AcDbEntity
  8
VISIBLE
100
AcDbLine
 10
434.7116050460503
 20
345.3136525405708
 30
0.0
 11
425.578271712717
 21
345.3136525405708
 31
0.0
  0
LINE
  5
2CF
330
1F
100
AcDbEntity
  8
VISIBLE
100
AcDbLine
 10
434.7116050460503
 20
345.3136525405708
 30
0.0
 11
434.7116050460503
 21
342.8136525405708
 31
0.0
  0
LINE
  5
2D0
330
1F
100
AcDbEntity
  8
VISIBLE
100
AcDbLine
 10
434.7116050460503
 20
342.8136525405708
 30
0.0
 11
439.3449383793836
 21
342.8136525405708
 31
0.0
  0
LINE
  5
2D1
330
1F
100
AcDbEntity
  8
VISIBLE
100
AcDbLine
 10
416.4449383793836
 20
345.3136525405708
 30
0.0
 11
416.4449383793836
 21
342.8136525405708
 31
0.0
  0
LINE
  5
2D2
330
1F
100
AcDbEntity
  8
VISIBLE
100
AcDbLine
 10
204.8449383793836
 20
727.313652540571
 30
0.0
 11
204.8449383793836
 21
749.7136525405709
 31
0.0
  0
LINE
  5
2D3
330
1F
100
AcDbEntity
  8
VISIBLE
100
AcDbLine
 10
208.8449383793836
 20
727.313652540571
 30
0.0
 11
208.8449383793836
 21
749.7136525405709
 31
0.0
  0
LINE
  5
2D4
330
1F
100
AcDbEntity
  8
VISIBLE
100
AcDbLine
 10
204.8449383793836
 20
727.313652540571
 30
0.0
 11
208.8449383793836
 21
727.313652540571
 31
0.0
  0
LINE
  5
2D5
330
1F
100
AcDbEntity
  8
VISIBLE
100
AcDbLine
 10
204.8449383793836
 20
749.7136525405709
 30
0.0
 11
208.8449383793836
 21
749.7136525405709
 31
0.0
  0
ARC
  5
2D6
330
1F
100
AcDbEntity
  8
VISIBLE
100
AcDbCircle
 10
336.8449383793835
 20
628.313652540571
 30
0.0
 40
29.99999999999999
100
AcDbArc
 50
90.0
 51
180.0
  0
LINE
  5
2D7
330
1F
100
AcDbEntity
  8
VISIBLE
100
AcDbLine
 10
336.8449383793835
 20
658.3136525405708
 30
0.0
 11
473.8449383793835
 21
658.3136525405708
 31
0.0
  0
ARC
  5
2D8
330
1F
100
AcDbEntity
  8
VISIBLE
100
AcDbCircle
 10
473.8449383793835
 20
628.313652540571
 30
0.0
 40
29.99999999999999
100
AcDbArc
 50
359.9999999999998
 51
90.0
  0
ARC
  5
2D9
330
1F
100
AcDbEntity
  8
VISIBLE
100
AcDbCircle
 10
473.8449383793835
 20
491.3136525405708
 30
0.0
 40
30.0
100
AcDbArc
 50
270.0
 51
0.0
  0
LINE
  5
2DA
330
1F
100
AcDbEntity
  8
VISIBLE
100
AcDbLine
 10
336.8449383793835
 20
461.3136525405708
 30
0.0
 11
473.8449383793835
 21
461.3136525405708
 31
0.0
  0
ARC
  5
2DB
330
1F
100
AcDbEntity
  8
VISIBLE
100
AcDbCircle
 10
336.8449383793835
 20
491.3136525405708
 30
0.0
 40
29.99999999999998
100
AcDbArc
 50
180.0
 51
270.0
  0
LINE
  5
2DC
330
1F
100
AcDbEntity
  8
VISIBLE
100
AcDbLine
 10
309.3449383793835
 20
628.313652540571
 30
0.0
 11
309.3449383793835
 21
491.3136525405708
 31
0.0
  0
LINE
  5
2DD
330
1F
100
AcDbEntity
  8
VISIBLE
100
AcDbLine
 10
336.8449383793835
 20
463.8136525405708
 30
0.0
 11
473.8449383793835
 21
463.8136525405708
 31
0.0
  0
ARC
  5
2DE
330
1F
100
AcDbEntity
  8
VISIBLE
100
AcDbCircle
 10
473.8449383793835
 20
491.3136525405709
 30
0.0
 40
27.50000000000002
100
AcDbArc
 50
270.0
 51
0.0
  0
LINE
  5
2DF
330
1F
100
AcDbEntity
  8
VISIBLE
100
AcDbLine
 10
501.3449383793835
 20
628.3136525405708
 30
0.0
 11
501.3449383793836
 21
491.3136525405708
 31
0.0
  0
ARC
  5
2E0
330
1F
100
AcDbEntity
  8
VISIBLE
100
AcDbCircle
 10
473.8449383793835
 20
628.3136525405708
 30
0.0
 40
27.50000000000002
100
AcDbArc
 50
0.0
 51
90.0
  0
LINE
  5
2E1
330
1F
100
AcDbEntity
  8
VISIBLE
100
AcDbLine
 10
336.8449383793834
 20
655.813652540571
 30
0.0
 11
473.8449383793835
 21
655.813652540571
 31
0.0
  0
ARC
  5
2E2
330
1F
100
AcDbEntity
  8
VISIBLE
100
AcDbCircle
 10
336.8449383793835
 20
628.313652540571
 30
0.0
 40
27.5
100
AcDbArc
 50
90.00000000000011
 51
180.0
  0
ARC
  5
2E3
330
1F
100
AcDbEntity
  8
VISIBLE
100
AcDbCircle
 10
336.8449383793835
 20
491.3136525405708
 30
0.0
 40
27.5
100
AcDbArc
 50
180.0
 51
270.0
  0
LINE
  5
2E4
330
1F
100
AcDbEntity
  8
VISIBLE
100
AcDbLine
 10
503.8449383793836
 20
491.3136525405708
 30
0.0
 11
503.8449383793836
 21
628.3136525405708
 31
0.0
  0
LINE
  5
2E5
330
1F
100
AcDbEntity
  8
VISIBLE
100
AcDbLine
 10
306.8449383793835
 20
491.3136525405708
 30
0.0
 11
306.8449383793835
 21
628.313652540571
 31
0.0
  0
ARC
  5
2E6
330
1F
100
AcDbEntity
  8
VISIBLE
100
AcDbCircle
 10
526.8449383793836
 20
263.313652540571
 30
0.0
 40
30.0
100
AcDbArc
 50
270.0
 51
0.0
  0
LINE
  5
2E7
330
1F
100
AcDbEntity
  8
VISIBLE
100
AcDbLine
 10
526.8449383793836
 20
235.813652540571
 30
0.0
 11
526.8449383793836
 21
233.313652540571
 31
0.0
  0
ARC
  5
2E8
330
1F
100
AcDbEntity
  8
VISIBLE
100
AcDbCircle
 10
526.8449383793836
 20
263.313652540571
 30
0.0
 40
27.50000000000002
100
AcDbArc
 50
270.0
 51
0.0
  0
LINE
  5
2E9
330
1F
100
AcDbEntity
  8
VISIBLE
100
AcDbLine
 10
554.3449383793835
 20
263.313652540571
 30
0.0
 11
556.8449383793836
 21
263.313652540571
 31
0.0
  0
LINE
  5
2EA
330
1F
100
AcDbEntity
  8
VISIBLE
100
AcDbLine
 10
152.2449383793836
 20
720.7136525405709
 30
0.0
 11
174.6449383793836
 21
720.7136525405709
 31
0.0
  0
LINE
  5
2EB
330
1F
100
AcDbEntity
  8
VISIBLE
100
AcDbLine
 10
152.2449383793836
 20
724.7136525405709
 30
0.0
 11
152.2449383793836
 21
720.7136525405709
 31
0.0
  0
LINE
  5
2EC
330
1F
100
AcDbEntity
  8
VISIBLE
100
AcDbLine
 10
174.6449383793836
 20
724.7136525405709
 30
0.0
 11
174.6449383793836
 21
720.7136525405709
 31
0.0
  0
LINE
  5
2ED
330
1F
100
AcDbEntity
  8
VISIBLE
100
AcDbLine
 10
152.2449383793836
 20
724.7136525405709
 30
0.0
 11
174.6449383793836
 21
724.7136525405709
 31
0.0
  0
LINE
  5
2EE
330
1F
100
AcDbEntity
  8
VISIBLE
100
AcDbLine
 10
187.8449383793839
 20
697.313652540571
 30
0.0
 11
187.8449383793839
 21
719.7136525405709
 31
0.0
  0
LINE
  5
2EF
330
1F
100
AcDbEntity
  8
VISIBLE
100
AcDbLine
 10
183.8449383793839
 20
697.313652540571
 30
0.0
 11
183.8449383793839
 21
719.7136525405709
 31
0.0
  0
LINE
  5
2F0
330
1F
100
AcDbEntity
  8
VISIBLE
100
AcDbLine
 10
183.8449383793839
 20
719.7136525405709
 30
0.0
 11
187.8449383793839
 21
719.7136525405709
 31
0.0
  0
LINE
  5
2F1
330
1F
100
AcDbEntity
  8
VISIBLE
100
AcDbLine
 10
183.8449383793839
 20
697.313652540571
 30
0.0
 11
187.8449383793839
 21
697.313652540571
 31
0.0
  0
ARC
  5
2F2
330
1F
100
AcDbEntity
  8
VISIBLE
100
AcDbCircle
 10
556.8449383793836
 20
135.8136525405708
 30
0.0
 40
27.50000000000002
100
AcDbArc
 50
90.0
 51
180.0
  0
LINE
  5
2F3
330
1F
100
AcDbEntity
  8
VISIBLE
100
AcDbLine
 10
529.3449383793836
 20
135.8136525405708
 30
0.0
 11
529.3449383793836
 21
131.3136525405708
 31
0.0
  0
LINE
  5
2F4
330
1F
100
AcDbEntity
  8
VISIBLE
100
AcDbLine
 10
529.3449383793836
 20
131.3136525405708
 30
0.0
 11
526.8449383793836
 21
131.3136525405708
 31
0.0
  0
LINE
  5
2F5
330
1F
100
AcDbEntity
  8
VISIBLE
100
AcDbLine
 10
526.8449383793836
 20
131.3136525405708
 30
0.0
 11
526.8449383793836
 21
135.8136525405708
 31
0.0
  0
ARC
  5
2F6
330
1F
100
AcDbEntity
  8
VISIBLE
100
AcDbCircle
 10
556.8449383793836
 20
135.8136525405709
 30
0.0
 40
30.0
100
AcDbArc
 50
90.0
 51
180.0
  0
LINE
  5
2F7
330
1F
100
AcDbEntity
  8
VISIBLE
100
AcDbLine
 10
561.3449383793836
 20
165.8136525405708
 30
0.0
 11
556.8449383793836
 21
165.8136525405708
 31
0.0
  0
LINE
  5
2F8
330
1F
100
AcDbEntity
  8
VISIBLE
100
AcDbLine
 10
561.3449383793836
 20
163.3136525405709
 30
0.0
 11
561.3449383793836
 21
165.8136525405708
 31
0.0
  0
LINE
  5
2F9
330
1F
100
AcDbEntity
  8
VISIBLE
100
AcDbLine
 10
556.8449383793836
 20
163.3136525405709
 30
0.0
 11
561.3449383793836
 21
163.3136525405709
 31
0.0
  0
ARC
  5
2FA
330
1F
100
AcDbEntity
  8
VISIBLE
100
AcDbCircle
 10
224.8449383793836
 20
353.313652540571
 30
0.0
 40
14.89999999999997
100
AcDbArc
 50
0.0
 51
90.00000000000021
  0
LINE
  5
2FB
330
1F
100
AcDbEntity
  8
VISIBLE
100
AcDbLine
 10
239.7449383793836
 20
353.3136525405708
 30
0.0
 11
244.2449383793835
 21
353.3136525405708
 31
0.0
  0
ARC
  5
2FC
330
1F
100
AcDbEntity
  8
VISIBLE
100
AcDbCircle
 10
224.3510676719437
 20
352.8197818331311
 30
0.0
 40
19.90000000000003
100
AcDbArc
 50
1.42209109004439
 51
88.57790890995537
  0
LINE
  5
2FD
330
1F
100
AcDbEntity
  8
VISIBLE
100
AcDbLine
 10
224.8449383793836
 20
372.7136525405709
 30
0.0
 11
224.8449383793836
 21
368.2136525405709
 31
0.0
  0
LINE
  5
2FE
330
1F
100
AcDbEntity
  8
VISIBLE
100
AcDbLine
 10
557.8449383793836
 20
237.8136525405711
 30
0.0
 11
562.3449383793835
 21
237.813652540571
 31
0.0
  0
ARC
  5
2FF
330
1F
100
AcDbEntity
  8
VISIBLE
100
AcDbCircle
 10
562.3449383793836
 20
252.713652540571
 30
0.0
 40
14.89999999999997
100
AcDbArc
 50
269.9999999999995
 51
0.0
  0
LINE
  5
300
330
1F
100
AcDbEntity
  8
VISIBLE
100
AcDbLine
 10
577.2449383793836
 20
257.213652540571
 30
0.0
 11
577.2449383793836
 21
252.713652540571
 31
0.0
  0
LINE
  5
301
330
1F
100
AcDbEntity
  8
VISIBLE
100
AcDbLine
 10
581.7449383793836
 20
257.2136525405709
 30
0.0
 11
577.2449383793836
 21
257.213652540571
 31
0.0
  0
ARC
  5
302
330
1F
100
AcDbEntity
  8
VISIBLE
100
AcDbCircle
 10
562.3449383793837
 20
252.7136525405709
 30
0.0
 40
19.39999999999998
100
AcDbArc
 50
269.9999999999993
 51
0.0
  0
LINE
  5
303
330
1F
100
AcDbEntity
  8
VISIBLE
100
AcDbLine
 10
557.8449383793836
 20
233.313652540571
 30
0.0
 11
562.3449383793835
 21
233.313652540571
 31
0.0
  0
LINE
  5
304
330
1F
100
AcDbEntity
  8
VISIBLE
100
AcDbLine
 10
557.8449383793836
 20
233.313652540571
 30
0.0
 11
557.8449383793836
 21
237.8136525405711
 31
0.0
  0
LINE
  5
305
330
1F
100
AcDbEntity
  8
VISIBLE
100
AcDbLine
 10
581.7449383793836
 20
252.713652540571
 30
0.0
 11
581.7449383793836
 21
257.2136525405709
 31
0.0
  0
LINE
  5
306
330
1F
100
AcDbEntity
  8
VISIBLE
100
AcDbLine
 10
142.8449383793837
 20
697.313652540571
 30
0.0
 11
142.8449383793837
 21
719.7136525405709
 31
0.0
  0
LINE
  5
307
330
1F
100
AcDbEntity
  8
VISIBLE
100
AcDbLine
 10
138.8449383793837
 20
697.313652540571
 30
0.0
 11
142.8449383793837
 21
697.313652540571
 31
0.0
  0
LINE
  5
308
330
1F
100
AcDbEntity
  8
VISIBLE
100
AcDbLine
 10
138.8449383793837
 20
719.7136525405709
 30
0.0
 11
142.8449383793837
 21
719.7136525405709
 31
0.0
  0
LINE
  5
309
330
1F
100
AcDbEntity
  8
VISIBLE
100
AcDbLine
 10
138.8449383793837
 20
697.313652540571
 30
0.0
 11
138.8449383793837
 21
719.7136525405709
 31
0.0
  0
LINE
  5
30A
330
1F
100
AcDbEntity
  8
VISIBLE
100
AcDbLine
 10
135.6946393055392
 20
727.3136525405708
 30
0.0
 11
135.6946393055392
 21
756.3136525405708
 31
0.0
  0
LINE
  5
30B
330
1F
100
AcDbEntity
  8
VISIBLE
100
AcDbLine
 10
135.6946393055392
 20
727.3136525405708
 30
0.0
 11
128.8449383793835
 21
727.3136525405708
 31
0.0
  0
LINE
  5
30C
330
1F
100
AcDbEntity
  8
VISIBLE
100
AcDbLine
 10
128.8449383793835
 20
727.3136525405708
 30
0.0
 11
128.8449383793835
 21
756.3136525405708
 31
0.0
  0
LINE
  5
30D
330
1F
100
AcDbEntity
  8
VISIBLE
100
AcDbLine
 10
135.6946393055392
 20
756.3136525405708
 30
0.0
 11
128.8449383793835
 21
756.3136525405708
 31
0.0
  0
LINE
  5
30E
330
1F
100
AcDbEntity
  8
VISIBLE
100
AcDbLine
 10
148.8449383793836
 20
727.3136525405708
 30
0.0
 11
148.8449383793836
 21
756.3136525405708
 31
0.0
  0
LINE
  5
30F
330
1F
100
AcDbEntity
  8
VISIBLE
100
AcDbLine
 10
148.8449383793836
 20
727.3136525405708
 30
0.0
 11
135.6946393055392
 21
727.3136525405708
 31
0.0
  0
LINE
  5
310
330
1F
100
AcDbEntity
  8
VISIBLE
100
AcDbLine
 10
148.8449383793836
 20
756.3136525405708
 30
0.0
 11
135.6946393055392
 21
756.3136525405708
 31
0.0
  0
LINE
  5
311
330
1F
100
AcDbEntity
  8
VISIBLE
100
AcDbLine
 10
195.6449383793836
 20
754.7136525405709
 30
0.0
 11
195.6449383793836
 21
750.7136525405709
 31
0.0
  0
LINE
  5
312
330
1F
100
AcDbEntity
  8
VISIBLE
100
AcDbLine
 10
173.2449383793836
 20
754.7136525405709
 30
0.0
 11
195.6449383793836
 21
754.7136525405709
 31
0.0
  0
LINE
  5
313
330
1F
100
AcDbEntity
  8
VISIBLE
100
AcDbLine
 10
173.2449383793836
 20
754.7136525405709
 30
0.0
 11
173.2449383793836
 21
750.7136525405709
 31
0.0
  0
LINE
  5
314
330
1F
100
AcDbEntity
  8
VISIBLE
100
AcDbLine
 10
173.2449383793836
 20
750.7136525405709
 30
0.0
 11
195.6449383793836
 21
750.7136525405709
 31
0.0
  0
LINE
  5
315
330
1F
100
AcDbEntity
  8
VISIBLE
100
AcDbLine
 10
106.8449383793835
 20
697.3136525405708
 30
0.0
 11
106.8449383793835
 21
726.313652540571
 31
0.0
  0
LINE
  5
316
330
1F
100
AcDbEntity
  8
VISIBLE
100
AcDbLine
 10
93.69463930553916
 20
697.3136525405708
 30
0.0
 11
93.69463930553916
 21
726.313652540571
 31
0.0
  0
LINE
  5
317
330
1F
100
AcDbEntity
  8
VISIBLE
100
AcDbLine
 10
106.8449383793835
 20
697.3136525405708
 30
0.0
 11
93.69463930553916
 21
697.3136525405708
 31
0.0
  0
LINE
  5
318
330
1F
100
AcDbEntity
  8
VISIBLE
100
AcDbLine
 10
106.8449383793835
 20
726.313652540571
 30
0.0
 11
93.69463930553916
 21
726.313652540571
 31
0.0
  0
LINE
  5
319
330
1F
100
AcDbEntity
  8
VISIBLE
100
AcDbLine
 10
86.84493837938348
 20
697.3136525405708
 30
0.0
 11
86.84493837938348
 21
726.313652540571
 31
0.0
  0
LINE
  5
31A
330
1F
100
AcDbEntity
  8
VISIBLE
100
AcDbLine
 10
93.69463930553916
 20
697.3136525405708
 30
0.0
 11
86.84493837938348
 21
697.3136525405708
 31
0.0
  0
LINE
  5
31B
330
1F
100
AcDbEntity
  8
VISIBLE
100
AcDbLine
 10
93.69463930553916
 20
726.313652540571
 30
0.0
 11
86.84493837938348
 21
726.313652540571
 31
0.0
  0
LINE
  5
31C
330
1F
100
AcDbEntity
  8
VISIBLE
100
AcDbLine
 10
1095.844938379384
 20
465.813652540571
 30
0.0
 11
1086.71160504605
 21
465.813652540571
 31
0.0
  0
LINE
  5
31D
330
1F
100
AcDbEntity
  8
VISIBLE
100
AcDbLine
 10
1086.71160504605
 20
461.313652540571
 30
0.0
 11
1086.71160504605
 21
465.813652540571
 31
0.0
  0
LINE
  5
31E
330
1F
100
AcDbEntity
  8
VISIBLE
100
AcDbLine
 10
1077.578271712717
 20
461.313652540571
 30
0.0
 11
1086.71160504605
 21
461.313652540571
 31
0.0
  0
LINE
  5
31F
330
1F
100
AcDbEntity
  8
VISIBLE
100
AcDbLine
 10
1077.578271712717
 20
461.313652540571
 30
0.0
 11
1077.578271712717
 21
465.813652540571
 31
0.0
  0
LINE
  5
320
330
1F
100
AcDbEntity
  8
VISIBLE
100
AcDbLine
 10
1077.578271712717
 20
465.813652540571
 30
0.0
 11
1068.444938379384
 21
465.813652540571
 31
0.0
  0
LINE
  5
321
330
1F
100
AcDbEntity
  8
VISIBLE
100
AcDbLine
 10
1068.444938379384
 20
461.313652540571
 30
0.0
 11
1068.444938379384
 21
465.813652540571
 31
0.0
  0
LINE
  5
322
330
1F
100
AcDbEntity
  8
VISIBLE
100
AcDbLine
 10
1059.31160504605
 20
461.313652540571
 30
0.0
 11
1068.444938379384
 21
461.313652540571
 31
0.0
  0
LINE
  5
323
330
1F
100
AcDbEntity
  8
VISIBLE
100
AcDbLine
 10
1059.31160504605
 20
465.813652540571
 30
0.0
 11
1050.178271712717
 21
465.813652540571
 31
0.0
  0
LINE
  5
324
330
1F
100
AcDbEntity
  8
VISIBLE
100
AcDbLine
 10
1041.044938379383
 20
461.313652540571
 30
0.0
 11
1041.044938379383
 21
465.813652540571
 31
0.0
  0
LINE
  5
325
330
1F
100
AcDbEntity
  8
VISIBLE
100
AcDbLine
 10
1041.044938379383
 20
465.813652540571
 30
0.0
 11
1031.91160504605
 21
465.813652540571
 31
0.0
  0
LINE
  5
326
330
1F
100
AcDbEntity
  8
VISIBLE
100
AcDbLine
 10
1031.91160504605
 20
461.313652540571
 30
0.0
 11
1031.91160504605
 21
465.813652540571
 31
0.0
  0
LINE
  5
327
330
1F
100
AcDbEntity
  8
VISIBLE
100
AcDbLine
 10
1022.778271712717
 20
461.313652540571
 30
0.0
 11
1022.778271712717
 21
465.813652540571
 31
0.0
  0
LINE
  5
328
330
1F
100
AcDbEntity
  8
VISIBLE
100
AcDbLine
 10
1022.778271712717
 20
465.813652540571
 30
0.0
 11
1013.644938379384
 21
465.813652540571
 31
0.0
  0
LINE
  5
329
330
1F
100
AcDbEntity
  8
VISIBLE
100
AcDbLine
 10
1004.51160504605
 20
461.313652540571
 30
0.0
 11
1004.51160504605
 21
465.813652540571
 31
0.0
  0
LINE
  5
32A
330
1F
100
AcDbEntity
  8
VISIBLE
100
AcDbLine
 10
1004.51160504605
 20
465.813652540571
 30
0.0
 11
995.3782717127169
 21
465.813652540571
 31
0.0
  0
LINE
  5
32B
330
1F
100
AcDbEntity
  8
VISIBLE
100
AcDbLine
 10
995.3782717127169
 20
461.313652540571
 30
0.0
 11
995.3782717127169
 21
465.813652540571
 31
0.0
  0
ARC
  5
32C
330
1F
100
AcDbEntity
  8
VISIBLE
100
AcDbCircle
 10
986.2449383793836
 20
480.7136525405709
 30
0.0
 40
19.39999999999998
100
AcDbArc
 50
179.9999999999997
 51
270.0
  0
LINE
  5
32D
330
1F
100
AcDbEntity
  8
VISIBLE
100
AcDbLine
 10
966.8449383793837
 20
489.8469858739043
 30
0.0
 11
971.3449383793837
 21
489.8469858739043
 31
0.0
  0
LINE
  5
32E
330
1F
100
AcDbEntity
  8
VISIBLE
100
AcDbLine
 10
971.3449383793837
 20
489.8469858739043
 30
0.0
 11
971.3449383793837
 21
498.9803192072376
 31
0.0
  0
LINE
  5
32F
330
1F
100
AcDbEntity
  8
VISIBLE
100
AcDbLine
 10
966.8449383793837
 20
498.9803192072376
 30
0.0
 11
971.3449383793837
 21
498.9803192072376
 31
0.0
  0
LINE
  5
330
330
1F
100
AcDbEntity
  8
VISIBLE
100
AcDbLine
 10
966.8449383793837
 20
508.113652540571
 30
0.0
 11
966.8449383793837
 21
498.9803192072376
 31
0.0
  0
LINE
  5
331
330
1F
100
AcDbEntity
  8
VISIBLE
100
AcDbLine
 10
971.3449383793837
 20
508.113652540571
 30
0.0
 11
971.3449383793837
 21
517.2469858739044
 31
0.0
  0
LINE
  5
332
330
1F
100
AcDbEntity
  8
VISIBLE
100
AcDbLine
 10
966.8449383793837
 20
517.2469858739044
 30
0.0
 11
971.3449383793837
 21
517.2469858739044
 31
0.0
  0
LINE
  5
333
330
1F
100
AcDbEntity
  8
VISIBLE
100
AcDbLine
 10
966.8449383793837
 20
526.3803192072377
 30
0.0
 11
966.8449383793837
 21
517.2469858739044
 31
0.0
  0
LINE
  5
334
330
1F
100
AcDbEntity
  8
VISIBLE
100
AcDbLine
 10
966.8449383793837
 20
526.3803192072377
 30
0.0
 11
971.3449383793837
 21
526.3803192072377
 31
0.0
  0
LINE
  5
335
330
1F
100
AcDbEntity
  8
VISIBLE
100
AcDbLine
 10
971.3449383793837
 20
526.3803192072377
 30
0.0
 11
971.3449383793837
 21
535.513652540571
 31
0.0
  0
LINE
  5
336
330
1F
100
AcDbEntity
  8
VISIBLE
100
AcDbLine
 10
966.8449383793837
 20
535.513652540571
 30
0.0
 11
971.3449383793837
 21
535.513652540571
 31
0.0
  0
LINE
  5
337
330
1F
100
AcDbEntity
  8
VISIBLE
100
AcDbLine
 10
966.8449383793837
 20
544.6469858739044
 30
0.0
 11
966.8449383793837
 21
535.513652540571
 31
0.0
  0
LINE
  5
338
330
1F
100
AcDbEntity
  8
VISIBLE
100
AcDbLine
 10
966.8449383793837
 20
544.6469858739044
 30
0.0
 11
971.3449383793837
 21
544.6469858739044
 31
0.0
  0
LINE
  5
339
330
1F
100
AcDbEntity
  8
VISIBLE
100
AcDbLine
 10
971.3449383793837
 20
544.6469858739044
 30
0.0
 11
971.3449383793837
 21
553.7803192072377
 31
0.0
  0
LINE
  5
33A
330
1F
100
AcDbEntity
  8
VISIBLE
100
AcDbLine
 10
966.8449383793837
 20
553.7803192072377
 30
0.0
 11
971.3449383793837
 21
553.7803192072377
 31
0.0
  0
LINE
  5
33B
330
1F
100
AcDbEntity
  8
VISIBLE
100
AcDbLine
 10
966.8449383793837
 20
562.9136525405711
 30
0.0
 11
966.8449383793837
 21
553.7803192072377
 31
0.0
  0
LINE
  5
33C
330
1F
100
AcDbEntity
  8
VISIBLE
100
AcDbLine
 10
966.8449383793837
 20
562.9136525405711
 30
0.0
 11
971.3449383793837
 21
562.9136525405711
 31
0.0
  0
LINE
  5
33D
330
1F
100
AcDbEntity
  8
VISIBLE
100
AcDbLine
 10
971.3449383793837
 20
562.9136525405711
 30
0.0
 11
971.3449383793837
 21
572.0469858739043
 31
0.0
  0
LINE
  5
33E
330
1F
100
AcDbEntity
  8
VISIBLE
100
AcDbLine
 10
966.8449383793837
 20
572.0469858739043
 30
0.0
 11
971.3449383793837
 21
572.0469858739043
 31
0.0
  0
LINE
  5
33F
330
1F
100
AcDbEntity
  8
VISIBLE
100
AcDbLine
 10
966.8449383793837
 20
581.1803192072377
 30
0.0
 11
966.8449383793837
 21
572.0469858739043
 31
0.0
  0
LINE
  5
340
330
1F
100
AcDbEntity
  8
VISIBLE
100
AcDbLine
 10
966.8449383793837
 20
581.1803192072377
 30
0.0
 11
971.3449383793837
 21
581.1803192072377
 31
0.0
  0
LINE
  5
341
330
1F
100
AcDbEntity
  8
VISIBLE
100
AcDbLine
 10
966.8449383793837
 20
590.313652540571
 30
0.0
 11
971.3449383793837
 21
590.313652540571
 31
0.0
  0
LINE
  5
342
330
1F
100
AcDbEntity
  8
VISIBLE
100
AcDbLine
 10
966.8449383793837
 20
599.4469858739044
 30
0.0
 11
966.8449383793837
 21
590.313652540571
 31
0.0
  0
LINE
  5
343
330
1F
100
AcDbEntity
  8
VISIBLE
100
AcDbLine
 10
966.8449383793837
 20
599.4469858739044
 30
0.0
 11
971.3449383793837
 21
599.4469858739044
 31
0.0
  0
LINE
  5
344
330
1F
100
AcDbEntity
  8
VISIBLE
100
AcDbLine
 10
971.3449383793837
 20
599.4469858739044
 30
0.0
 11
971.3449383793837
 21
608.5803192072377
 31
0.0
  0
LINE
  5
345
330
1F
100
AcDbEntity
  8
VISIBLE
100
AcDbLine
 10
966.8449383793837
 20
608.5803192072377
 30
0.0
 11
971.3449383793837
 21
608.5803192072377
 31
0.0
  0
ARC
  5
346
330
1F
100
AcDbEntity
  8
VISIBLE
100
AcDbCircle
 10
986.2449383793836
 20
617.713652540571
 30
0.0
 40
19.39999999999996
100
AcDbArc
 50
90.0
 51
180.0
  0
LINE
  5
347
330
1F
100
AcDbEntity
  8
VISIBLE
100
AcDbLine
 10
986.2449383793836
 20
637.1136525405709
 30
0.0
 11
995.3782717127169
 21
637.1136525405711
 31
0.0
  0
LINE
  5
348
330
1F
100
AcDbEntity
  8
VISIBLE
100
AcDbLine
 10
995.3782717127169
 20
637.1136525405711
 30
0.0
 11
995.3782717127169
 21
632.613652540571
 31
0.0
  0
LINE
  5
349
330
1F
100
AcDbEntity
  8
VISIBLE
100
AcDbLine
 10
995.3782717127169
 20
632.613652540571
 30
0.0
 11
1004.51160504605
 21
632.613652540571
 31
0.0
  0
LINE
  5
34A
330
1F
100
AcDbEntity
  8
VISIBLE
100
AcDbLine
 10
1004.51160504605
 20
637.1136525405711
 30
0.0
 11
1004.51160504605
 21
632.613652540571
 31
0.0
  0
LINE
  5
34B
330
1F
100
AcDbEntity
  8
VISIBLE
100
AcDbLine
 10
1004.51160504605
 20
637.1136525405711
 30
0.0
 11
1013.644938379384
 21
637.1136525405711
 31
0.0
  0
LINE
  5
34C
330
1F
100
AcDbEntity
  8
VISIBLE
100
AcDbLine
 10
1013.644938379384
 20
637.1136525405711
 30
0.0
 11
1013.644938379384
 21
632.613652540571
 31
0.0
  0
LINE
  5
34D
330
1F
100
AcDbEntity
  8
VISIBLE
100
AcDbLine
 10
1013.644938379384
 20
632.613652540571
 30
0.0
 11
1022.778271712717
 21
632.613652540571
 31
0.0
  0
LINE
  5
34E
330
1F
100
AcDbEntity
  8
VISIBLE
100
AcDbLine
 10
1022.778271712717
 20
637.1136525405711
 30
0.0
 11
1022.778271712717
 21
632.613652540571
 31
0.0
  0
LINE
  5
34F
330
1F
100
AcDbEntity
  8
VISIBLE
100
AcDbLine
 10
1031.91160504605
 20
637.1136525405711
 30
0.0
 11
1031.91160504605
 21
632.613652540571
 31
0.0
  0
LINE
  5
350
330
1F
100
AcDbEntity
  8
VISIBLE
100
AcDbLine
 10
1031.91160504605
 20
632.613652540571
 30
0.0
 11
1041.044938379383
 21
632.613652540571
 31
0.0
  0
LINE
  5
351
330
1F
100
AcDbEntity
  8
VISIBLE
100
AcDbLine
 10
1041.044938379383
 20
637.1136525405711
 30
0.0
 11
1041.044938379383
 21
632.613652540571
 31
0.0
  0
LINE
  5
352
330
1F
100
AcDbEntity
  8
VISIBLE
100
AcDbLine
 10
1041.044938379383
 20
637.1136525405711
 30
0.0
 11
1050.178271712717
 21
637.1136525405711
 31
0.0
  0
LINE
  5
353
330
1F
100
AcDbEntity
  8
VISIBLE
100
AcDbLine
 10
1050.178271712717
 20
632.613652540571
 30
0.0
 11
1059.31160504605
 21
632.613652540571
 31
0.0
  0
LINE
  5
354
330
1F
100
AcDbEntity
  8
VISIBLE
100
AcDbLine
 10
1059.31160504605
 20
637.1136525405711
 30
0.0
 11
1059.31160504605
 21
632.613652540571
 31
0.0
  0
LINE
  5
355
330
1F
100
AcDbEntity
  8
VISIBLE
100
AcDbLine
 10
1059.31160504605
 20
637.1136525405711
 30
0.0
 11
1068.444938379384
 21
637.1136525405711
 31
0.0
  0
LINE
  5
356
330
1F
100
AcDbEntity
  8
VISIBLE
100
AcDbLine
 10
1068.444938379384
 20
637.1136525405711
 30
0.0
 11
1068.444938379384
 21
632.613652540571
 31
0.0
  0
LINE
  5
357
330
1F
100
AcDbEntity
  8
VISIBLE
100
AcDbLine
 10
1068.444938379384
 20
632.613652540571
 30
0.0
 11
1077.578271712717
 21
632.613652540571
 31
0.0
  0
LINE
  5
358
330
1F
100
AcDbEntity
  8
VISIBLE
100
AcDbLine
 10
1077.578271712717
 20
637.1136525405711
 30
0.0
 11
1077.578271712717
 21
632.613652540571
 31
0.0
  0
LINE
  5
359
330
1F
100
AcDbEntity
  8
VISIBLE
100
AcDbLine
 10
1077.578271712717
 20
637.1136525405711
 30
0.0
 11
1086.71160504605
 21
637.1136525405711
 31
0.0
  0
LINE
  5
35A
330
1F
100
AcDbEntity
  8
VISIBLE
100
AcDbLine
 10
1086.71160504605
 20
637.1136525405711
 30
0.0
 11
1086.71160504605
 21
632.613652540571
 31
0.0
  0
LINE
  5
35B
330
1F
100
AcDbEntity
  8
VISIBLE
100
AcDbLine
 10
1086.71160504605
 20
632.613652540571
 30
0.0
 11
1095.844938379384
 21
632.613652540571
 31
0.0
  0
LINE
  5
35C
330
1F
100
AcDbEntity
  8
VISIBLE
100
AcDbLine
 10
1095.844938379384
 20
637.1136525405711
 30
0.0
 11
1095.844938379384
 21
632.613652540571
 31
0.0
  0
LINE
  5
35D
330
1F
100
AcDbEntity
  8
VISIBLE
100
AcDbLine
 10
1104.978271712717
 20
637.1136525405711
 30
0.0
 11
1104.978271712717
 21
632.613652540571
 31
0.0
  0
LINE
  5
35E
330
1F
100
AcDbEntity
  8
VISIBLE
100
AcDbLine
 10
1104.978271712717
 20
632.613652540571
 30
0.0
 11
1114.11160504605
 21
632.613652540571
 31
0.0
  0
LINE
  5
35F
330
1F
100
AcDbEntity
  8
VISIBLE
100
AcDbLine
 10
1114.11160504605
 20
637.1136525405711
 30
0.0
 11
1114.11160504605
 21
632.613652540571
 31
0.0
  0
LINE
  5
360
330
1F
100
AcDbEntity
  8
VISIBLE
100
AcDbLine
 10
1114.11160504605
 20
637.1136525405711
 30
0.0
 11
1123.244938379384
 21
637.1136525405711
 31
0.0
  0
ARC
  5
361
330
1F
100
AcDbEntity
  8
VISIBLE
100
AcDbCircle
 10
1123.244938379384
 20
617.713652540571
 30
0.0
 40
19.4
100
AcDbArc
 50
0.0
 51
90.0
  0
LINE
  5
362
330
1F
100
AcDbEntity
  8
VISIBLE
100
AcDbLine
 10
1142.644938379384
 20
617.713652540571
 30
0.0
 11
1142.644938379384
 21
608.5803192072377
 31
0.0
  0
LINE
  5
363
330
1F
100
AcDbEntity
  8
VISIBLE
100
AcDbLine
 10
1142.644938379384
 20
608.5803192072377
 30
0.0
 11
1138.144938379383
 21
608.5803192072377
 31
0.0
  0
LINE
  5
364
330
1F
100
AcDbEntity
  8
VISIBLE
100
AcDbLine
 10
1138.144938379383
 20
608.5803192072377
 30
0.0
 11
1138.144938379383
 21
599.4469858739044
 31
0.0
  0
LINE
  5
365
330
1F
100
AcDbEntity
  8
VISIBLE
100
AcDbLine
 10
1142.644938379384
 20
599.4469858739044
 30
0.0
 11
1138.144938379383
 21
599.4469858739044
 31
0.0
  0
LINE
  5
366
330
1F
100
AcDbEntity
  8
VISIBLE
100
AcDbLine
 10
1138.144938379383
 20
590.313652540571
 30
0.0
 11
1138.144938379383
 21
581.1803192072377
 31
0.0
  0
LINE
  5
367
330
1F
100
AcDbEntity
  8
VISIBLE
100
AcDbLine
 10
1142.644938379384
 20
581.1803192072377
 30
0.0
 11
1138.144938379383
 21
581.1803192072377
 31
0.0
  0
LINE
  5
368
330
1F
100
AcDbEntity
  8
VISIBLE
100
AcDbLine
 10
1142.644938379384
 20
581.1803192072377
 30
0.0
 11
1142.644938379384
 21
572.0469858739043
 31
0.0
  0
LINE
  5
369
330
1F
100
AcDbEntity
  8
VISIBLE
100
AcDbLine
 10
1142.644938379384
 20
572.0469858739043
 30
0.0
 11
1138.144938379383
 21
572.0469858739043
 31
0.0
  0
LINE
  5
36A
330
1F
100
AcDbEntity
  8
VISIBLE
100
AcDbLine
 10
1138.144938379383
 20
572.0469858739043
 30
0.0
 11
1138.144938379383
 21
562.9136525405711
 31
0.0
  0
LINE
  5
36B
330
1F
100
AcDbEntity
  8
VISIBLE
100
AcDbLine
 10
1142.644938379384
 20
562.9136525405711
 30
0.0
 11
1142.644938379384
 21
553.7803192072377
 31
0.0
  0
LINE
  5
36C
330
1F
100
AcDbEntity
  8
VISIBLE
100
AcDbLine
 10
1142.644938379384
 20
553.7803192072377
 30
0.0
 11
1138.144938379384
 21
553.7803192072377
 31
0.0
  0
LINE
  5
36D
330
1F
100
AcDbEntity
  8
VISIBLE
100
AcDbLine
 10
1138.144938379384
 20
553.7803192072377
 30
0.0
 11
1138.144938379384
 21
544.6469858739043
 31
0.0
  0
LINE
  5
36E
330
1F
100
AcDbEntity
  8
VISIBLE
100
AcDbLine
 10
1142.644938379384
 20
544.6469858739043
 30
0.0
 11
1138.144938379384
 21
544.6469858739043
 31
0.0
  0
LINE
  5
36F
330
1F
100
AcDbEntity
  8
VISIBLE
100
AcDbLine
 10
1142.644938379384
 20
544.6469858739043
 30
0.0
 11
1142.644938379384
 21
535.513652540571
 31
0.0
  0
LINE
  5
370
330
1F
100
AcDbEntity
  8
VISIBLE
100
AcDbLine
 10
1142.644938379384
 20
535.513652540571
 30
0.0
 11
1138.144938379384
 21
535.513652540571
 31
0.0
  0
LINE
  5
371
330
1F
100
AcDbEntity
  8
VISIBLE
100
AcDbLine
 10
1142.644938379384
 20
526.3803192072376
 30
0.0
 11
1138.144938379384
 21
526.3803192072376
 31
0.0
  0
LINE
  5
372
330
1F
100
AcDbEntity
  8
VISIBLE
100
AcDbLine
 10
1142.644938379384
 20
526.3803192072376
 30
0.0
 11
1142.644938379384
 21
517.2469858739044
 31
0.0
  0
LINE
  5
373
330
1F
100
AcDbEntity
  8
VISIBLE
100
AcDbLine
 10
1142.644938379384
 20
517.2469858739044
 30
0.0
 11
1138.144938379384
 21
517.2469858739044
 31
0.0
  0
LINE
  5
374
330
1F
100
AcDbEntity
  8
VISIBLE
100
AcDbLine
 10
1142.644938379384
 20
508.113652540571
 30
0.0
 11
1138.144938379384
 21
508.113652540571
 31
0.0
  0
LINE
  5
375
330
1F
100
AcDbEntity
  8
VISIBLE
100
AcDbLine
 10
1142.644938379384
 20
508.113652540571
 30
0.0
 11
1142.644938379384
 21
498.9803192072376
 31
0.0
  0
LINE
  5
376
330
1F
100
AcDbEntity
  8
VISIBLE
100
AcDbLine
 10
1142.644938379384
 20
498.9803192072376
 30
0.0
 11
1138.144938379384
 21
498.9803192072376
 31
0.0
  0
LINE
  5
377
330
1F
100
AcDbEntity
  8
VISIBLE
100
AcDbLine
 10
1138.144938379384
 20
498.9803192072376
 30
0.0
 11
1138.144938379384
 21
489.8469858739043
 31
0.0
  0
LINE
  5
378
330
1F
100
AcDbEntity
  8
VISIBLE
100
AcDbLine
 10
1142.644938379384
 20
489.8469858739043
 30
0.0
 11
1138.144938379384
 21
489.8469858739043
 31
0.0
  0
LINE
  5
379
330
1F
100
AcDbEntity
  8
VISIBLE
100
AcDbLine
 10
1142.644938379384
 20
489.8469858739043
 30
0.0
 11
1142.644938379384
 21
480.713652540571
 31
0.0
  0
ARC
  5
37A
330
1F
100
AcDbEntity
  8
VISIBLE
100
AcDbCircle
 10
1123.244938379384
 20
480.7136525405711
 30
0.0
 40
19.40000000000006
100
AcDbArc
 50
270.0
 51
0.0
  0
LINE
  5
37B
330
1F
100
AcDbEntity
  8
VISIBLE
100
AcDbLine
 10
1114.11160504605
 20
461.313652540571
 30
0.0
 11
1123.244938379384
 21
461.3136525405711
 31
0.0
  0
LINE
  5
37C
330
1F
100
AcDbEntity
  8
VISIBLE
100
AcDbLine
 10
1114.11160504605
 20
461.313652540571
 30
0.0
 11
1114.11160504605
 21
465.813652540571
 31
0.0
  0
LINE
  5
37D
330
1F
100
AcDbEntity
  8
VISIBLE
100
AcDbLine
 10
1114.11160504605
 20
465.813652540571
 30
0.0
 11
1104.978271712717
 21
465.813652540571
 31
0.0
  0
LINE
  5
37E
330
1F
100
AcDbEntity
  8
VISIBLE
100
AcDbLine
 10
1095.844938379384
 20
461.313652540571
 30
0.0
 11
1104.978271712717
 21
461.313652540571
 31
0.0
  0
LINE
  5
37F
330
1F
100
AcDbEntity
  8
VISIBLE
100
AcDbLine
 10
1095.844938379384
 20
461.313652540571
 30
0.0
 11
1095.844938379384
 21
465.813652540571
 31
0.0
  0
LINE
  5
380
330
1F
100
AcDbEntity
  8
VISIBLE
100
AcDbLine
 10
1022.778271712717
 20
637.1136525405711
 30
0.0
 11
1031.91160504605
 21
637.1136525405711
 31
0.0
  0
LINE
  5
381
330
1F
100
AcDbEntity
  8
VISIBLE
100
AcDbLine
 10
986.2449383793836
 20
461.313652540571
 30
0.0
 11
995.3782717127169
 21
461.313652540571
 31
0.0
  0
LINE
  5
382
330
1F
100
AcDbEntity
  8
VISIBLE
100
AcDbLine
 10
1050.178271712717
 20
637.1136525405711
 30
0.0
 11
1050.178271712717
 21
632.613652540571
 31
0.0
  0
LINE
  5
383
330
1F
100
AcDbEntity
  8
VISIBLE
100
AcDbLine
 10
966.8449383793837
 20
489.8469858739043
 30
0.0
 11
966.8449383793837
 21
480.713652540571
 31
0.0
  0
LINE
  5
384
330
1F
100
AcDbEntity
  8
VISIBLE
100
AcDbLine
 10
1022.778271712717
 20
461.313652540571
 30
0.0
 11
1031.91160504605
 21
461.313652540571
 31
0.0
  0
LINE
  5
385
330
1F
100
AcDbEntity
  8
VISIBLE
100
AcDbLine
 10
1013.644938379384
 20
461.313652540571
 30
0.0
 11
1013.644938379384
 21
465.813652540571
 31
0.0
  0
LINE
  5
386
330
1F
100
AcDbEntity
  8
VISIBLE
100
AcDbLine
 10
1041.044938379383
 20
461.313652540571
 30
0.0
 11
1050.178271712717
 21
461.313652540571
 31
0.0
  0
LINE
  5
387
330
1F
100
AcDbEntity
  8
VISIBLE
100
AcDbLine
 10
1104.978271712717
 20
461.313652540571
 30
0.0
 11
1104.978271712717
 21
465.813652540571
 31
0.0
  0
LINE
  5
388
330
1F
100
AcDbEntity
  8
VISIBLE
100
AcDbLine
 10
1095.844938379384
 20
637.1136525405711
 30
0.0
 11
1104.978271712717
 21
637.1136525405711
 31
0.0
  0
LINE
  5
389
330
1F
100
AcDbEntity
  8
VISIBLE
100
AcDbLine
 10
1142.644938379384
 20
562.9136525405711
 30
0.0
 11
1138.144938379383
 21
562.9136525405711
 31
0.0
  0
LINE
  5
38A
330
1F
100
AcDbEntity
  8
VISIBLE
100
AcDbLine
 10
966.8449383793837
 20
508.113652540571
 30
0.0
 11
971.3449383793837
 21
508.113652540571
 31
0.0
  0
LINE
  5
38B
330
1F
100
AcDbEntity
  8
VISIBLE
100
AcDbLine
 10
1142.644938379384
 20
599.4469858739044
 30
0.0
 11
1142.644938379384
 21
590.313652540571
 31
0.0
  0
LINE
  5
38C
330
1F
100
AcDbEntity
  8
VISIBLE
100
AcDbLine
 10
1138.144938379384
 20
517.2469858739044
 30
0.0
 11
1138.144938379384
 21
508.113652540571
 31
0.0
  0
LINE
  5
38D
330
1F
100
AcDbEntity
  8
VISIBLE
100
AcDbLine
 10
1138.144938379384
 20
535.513652540571
 30
0.0
 11
1138.144938379384
 21
526.3803192072376
 31
0.0
  0
LINE
  5
38E
330
1F
100
AcDbEntity
  8
VISIBLE
100
AcDbLine
 10
971.3449383793837
 20
581.1803192072377
 30
0.0
 11
971.3449383793837
 21
590.313652540571
 31
0.0
  0
LINE
  5
38F
330
1F
100
AcDbEntity
  8
VISIBLE
100
AcDbLine
 10
1004.51160504605
 20
461.313652540571
 30
0.0
 11
1013.644938379384
 21
461.313652540571
 31
0.0
  0
LINE
  5
390
330
1F
100
AcDbEntity
  8
VISIBLE
100
AcDbLine
 10
1142.644938379384
 20
590.313652540571
 30
0.0
 11
1138.144938379383
 21
590.313652540571
 31
0.0
  0
LINE
  5
391
330
1F
100
AcDbEntity
  8
VISIBLE
100
AcDbLine
 10
1059.31160504605
 20
461.313652540571
 30
0.0
 11
1059.31160504605
 21
465.813652540571
 31
0.0
  0
LINE
  5
392
330
1F
100
AcDbEntity
  8
VISIBLE
100
AcDbLine
 10
966.8449383793837
 20
617.713652540571
 30
0.0
 11
966.8449383793837
 21
608.5803192072377
 31
0.0
  0
LINE
  5
393
330
1F
100
AcDbEntity
  8
VISIBLE
100
AcDbLine
 10
1050.178271712717
 20
461.313652540571
 30
0.0
 11
1050.178271712717
 21
465.813652540571
 31
0.0
  0
LINE
  5
394
330
1F
100
AcDbEntity
  8
VISIBLE
100
AcDbLine
 10
550.8449383793835
 20
323.313652540571
 30
0.0
 11
555.3449383793835
 21
323.313652540571
 31
0.0
  0
LINE
  5
395
330
1F
100
AcDbEntity
  8
VISIBLE
100
AcDbLine
 10
526.8449383793836
 20
347.3136525405709
 30
0.0
 11
526.8449383793836
 21
351.8136525405709
 31
0.0
  0
LINE
  5
396
330
1F
100
AcDbEntity
  8
VISIBLE
100
AcDbLine
 10
531.3449383793836
 20
351.8136525405709
 30
0.0
 11
531.3449383793836
 21
347.3136525405709
 31
0.0
  0
ARC
  5
397
330
1F
100
AcDbEntity
  8
VISIBLE
100
AcDbCircle
 10
550.8449383793835
 20
347.3136525405708
 30
0.0
 40
19.49999999999993
100
AcDbArc
 50
179.9999999999998
 51
270.0
  0
LINE
  5
398
330
1F
100
AcDbEntity
  8
VISIBLE
100
AcDbLine
 10
555.3449383793835
 20
327.8136525405709
 30
0.0
 11
550.8449383793835
 21
327.813652540571
 31
0.0
  0
LINE
  5
399
330
1F
100
AcDbEntity
  8
VISIBLE
100
AcDbLine
 10
555.3449383793835
 20
323.313652540571
 30
0.0
 11
555.3449383793835
 21
327.8136525405709
 31
0.0
  0
ARC
  5
39A
330
1F
100
AcDbEntity
  8
VISIBLE
100
AcDbCircle
 10
550.8449383793835
 20
347.313652540571
 30
0.0
 40
23.99999999999999
100
AcDbArc
 50
180.0
 51
270.0
  0
LINE
  5
39B
330
1F
100
AcDbEntity
  8
VISIBLE
100
AcDbLine
 10
526.8449383793836
 20
351.8136525405709
 30
0.0
 11
531.3449383793836
 21
351.8136525405709
 31
0.0
  0
LINE
  5
39C
330
1F
100
AcDbEntity
  8
VISIBLE
100
AcDbLine
 10
128.8449383793836
 20
720.7136525405709
 30
0.0
 11
151.2449383793835
 21
720.7136525405709
 31
0.0
  0
LINE
  5
39D
330
1F
100
AcDbEntity
  8
VISIBLE
100
AcDbLine
 10
128.8449383793836
 20
724.7136525405709
 30
0.0
 11
128.8449383793836
 21
720.7136525405709
 31
0.0
  0
LINE
  5
39E
330
1F
100
AcDbEntity
  8
VISIBLE
100
AcDbLine
 10
128.8449383793836
 20
724.7136525405709
 30
0.0
 11
151.2449383793835
 21
724.7136525405709
 31
0.0
  0
LINE
  5
39F
330
1F
100
AcDbEntity
  8
VISIBLE
100
AcDbLine
 10
151.2449383793835
 20
724.7136525405709
 30
0.0
 11
151.2449383793835
 21
720.7136525405709
 31
0.0
  0
LINE
  5
3A0
330
1F
100
AcDbEntity
  8
VISIBLE
100
AcDbLine
 10
526.8449383793836
 20
382.3136525405709
 30
0.0
 11
531.3449383793836
 21
382.3136525405709
 31
0.0
  0
LINE
  5
3A1
330
1F
100
AcDbEntity
  8
VISIBLE
100
AcDbLine
 10
550.8449383793835
 20
406.3136525405709
 30
0.0
 11
550.8449383793835
 21
401.8136525405709
 31
0.0
  0
ARC
  5
3A2
330
1F
100
AcDbEntity
  8
VISIBLE
100
AcDbCircle
 10
550.8449383793835
 20
382.3136525405709
 30
0.0
 40
19.5
100
AcDbArc
 50
90.0
 51
180.0
  0
ARC
  5
3A3
330
1F
100
AcDbEntity
  8
VISIBLE
100
AcDbCircle
 10
550.8449383793835
 20
382.313652540571
 30
0.0
 40
23.99999999999997
100
AcDbArc
 50
90.0
 51
180.0
  0
LINE
  5
3A4
330
1F
100
AcDbEntity
  8
VISIBLE
100
AcDbLine
 10
199.0449383793836
 20
724.7136525405709
 30
0.0
 11
221.4449383793836
 21
724.7136525405709
 31
0.0
  0
LINE
  5
3A5
330
1F
100
AcDbEntity
  8
VISIBLE
100
AcDbLine
 10
199.0449383793836
 20
724.7136525405709
 30
0.0
 11
199.0449383793836
 21
720.7136525405709
 31
0.0
  0
LINE
  5
3A6
330
1F
100
AcDbEntity
  8
VISIBLE
100
AcDbLine
 10
199.0449383793836
 20
720.7136525405709
 30
0.0
 11
221.4449383793836
 21
720.7136525405709
 31
0.0
  0
LINE
  5
3A7
330
1F
100
AcDbEntity
  8
VISIBLE
100
AcDbLine
 10
221.4449383793836
 20
724.7136525405709
 30
0.0
 11
221.4449383793836
 21
720.7136525405709
 31
0.0
  0
LINE
  5
3A8
330
1F
100
AcDbEntity
  8
VISIBLE
100
AcDbLine
 10
633.0449383793837
 20
461.3136525405708
 30
0.0
 11
633.0449383793837
 21
465.8136525405708
 31
0.0
  0
LINE
  5
3A9
330
1F
100
AcDbEntity
  8
VISIBLE
100
AcDbLine
 10
623.9116050460503
 20
461.3136525405708
 30
0.0
 11
633.0449383793837
 21
461.3136525405708
 31
0.0
  0
LINE
  5
3AA
330
1F
100
AcDbEntity
  8
VISIBLE
100
AcDbLine
 10
587.378271712717
 20
461.3136525405708
 30
0.0
 11
596.5116050460502
 21
461.3136525405708
 31
0.0
  0
LINE
  5
3AB
330
1F
100
AcDbEntity
  8
VISIBLE
100
AcDbLine
 10
569.1116050460503
 20
461.3136525405708
 30
0.0
 11
578.2449383793836
 21
461.3136525405708
 31
0.0
  0
ARC
  5
3AC
330
1F
100
AcDbEntity
  8
VISIBLE
100
AcDbCircle
 10
550.8449383793836
 20
485.3136525405708
 30
0.0
 40
23.99999999999999
100
AcDbArc
 50
180.0
 51
269.9999999999997
  0
LINE
  5
3AD
330
1F
100
AcDbEntity
  8
VISIBLE
100
AcDbLine
 10
526.8449383793836
 20
494.4469858739042
 30
0.0
 11
526.8449383793836
 21
485.3136525405708
 31
0.0
  0
LINE
  5
3AE
330
1F
100
AcDbEntity
  8
VISIBLE
100
AcDbLine
 10
526.8449383793836
 20
512.7136525405708
 30
0.0
 11
531.3449383793836
 21
512.7136525405708
 31
0.0
  0
LINE
  5
3AF
330
1F
100
AcDbEntity
  8
VISIBLE
100
AcDbLine
 10
531.3449383793836
 20
512.7136525405708
 30
0.0
 11
531.3449383793836
 21
521.8469858739041
 31
0.0
  0
LINE
  5
3B0
330
1F
100
AcDbEntity
  8
VISIBLE
100
AcDbLine
 10
526.8449383793836
 20
567.5136525405709
 30
0.0
 11
531.3449383793836
 21
567.5136525405709
 31
0.0
  0
LINE
  5
3B1
330
1F
100
AcDbEntity
  8
VISIBLE
100
AcDbLine
 10
526.8449383793836
 20
622.313652540571
 30
0.0
 11
526.8449383793836
 21
613.1803192072375
 31
0.0
  0
ARC
  5
3B2
330
1F
100
AcDbEntity
  8
VISIBLE
100
AcDbCircle
 10
550.8449383793835
 20
622.313652540571
 30
0.0
 40
23.99999999999993
100
AcDbArc
 50
90.0
 51
180.0
  0
LINE
  5
3B3
330
1F
100
AcDbEntity
  8
VISIBLE
100
AcDbLine
 10
711.8449383793836
 20
613.1803192072375
 30
0.0
 11
707.3449383793836
 21
613.1803192072375
 31
0.0
  0
LINE
  5
3B4
330
1F
100
AcDbEntity
  8
VISIBLE
100
AcDbLine
 10
711.8449383793836
 20
604.0469858739043
 30
0.0
 11
707.3449383793836
 21
604.0469858739043
 31
0.0
  0
LINE
  5
3B5
330
1F
100
AcDbEntity
  8
VISIBLE
100
AcDbLine
 10
711.8449383793836
 20
540.1136525405709
 30
0.0
 11
707.3449383793836
 21
540.1136525405709
 31
0.0
  0
LINE
  5
3B6
330
1F
100
AcDbEntity
  8
VISIBLE
100
AcDbLine
 10
711.8449383793836
 20
530.9803192072376
 30
0.0
 11
711.8449383793836
 21
521.8469858739043
 31
0.0
  0
LINE
  5
3B7
330
1F
100
AcDbEntity
  8
VISIBLE
100
AcDbLine
 10
711.8449383793836
 20
512.7136525405708
 30
0.0
 11
711.8449383793837
 21
503.5803192072376
 31
0.0
  0
LINE
  5
3B8
330
1F
100
AcDbEntity
  8
VISIBLE
100
AcDbLine
 10
707.3449383793836
 20
503.5803192072376
 30
0.0
 11
707.3449383793836
 21
494.4469858739042
 31
0.0
  0
LINE
  5
3B9
330
1F
100
AcDbEntity
  8
VISIBLE
100
AcDbLine
 10
711.8449383793837
 20
494.4469858739042
 30
0.0
 11
707.3449383793836
 21
494.4469858739042
 31
0.0
  0
LINE
  5
3BA
330
1F
100
AcDbEntity
  8
VISIBLE
100
AcDbLine
 10
711.8449383793837
 20
494.4469858739042
 30
0.0
 11
711.8449383793836
 21
485.3136525405708
 31
0.0
  0
LINE
  5
3BB
330
1F
100
AcDbEntity
  8
VISIBLE
100
AcDbLine
 10
678.7116050460504
 20
461.3136525405708
 30
0.0
 11
687.8449383793836
 21
461.3136525405708
 31
0.0
  0
LINE
  5
3BC
330
1F
100
AcDbEntity
  8
VISIBLE
100
AcDbLine
 10
678.7116050460504
 20
461.3136525405708
 30
0.0
 11
678.7116050460504
 21
465.8136525405708
 31
0.0
  0
LINE
  5
3BD
330
1F
100
AcDbEntity
  8
VISIBLE
100
AcDbLine
 10
526.8449383793836
 20
576.6469858739042
 30
0.0
 11
531.3449383793836
 21
576.6469858739042
 31
0.0
  0
LINE
  5
3BE
330
1F
100
AcDbEntity
  8
VISIBLE
100
AcDbLine
 10
596.5116050460502
 20
461.3136525405708
 30
0.0
 11
596.5116050460502
 21
465.8136525405708
 31
0.0
  0
LINE
  5
3BF
330
1F
100
AcDbEntity
  8
VISIBLE
100
AcDbLine
 10
587.378271712717
 20
465.8136525405708
 30
0.0
 11
578.2449383793836
 21
465.8136525405708
 31
0.0
  0
LINE
  5
3C0
330
1F
100
AcDbEntity
  8
VISIBLE
100
AcDbLine
 10
569.1116050460503
 20
465.8136525405708
 30
0.0
 11
559.978271712717
 21
465.8136525405708
 31
0.0
  0
LINE
  5
3C1
330
1F
100
AcDbEntity
  8
VISIBLE
100
AcDbLine
 10
711.8449383793837
 20
503.5803192072376
 30
0.0
 11
707.3449383793836
 21
503.5803192072376
 31
0.0
  0
LINE
  5
3C2
330
1F
100
AcDbEntity
  8
VISIBLE
100
AcDbLine
 10
707.3449383793836
 20
613.1803192072375
 30
0.0
 11
707.3449383793836
 21
604.0469858739043
 31
0.0
  0
LINE
  5
3C3
330
1F
100
AcDbEntity
  8
VISIBLE
100
AcDbLine
 10
669.578271712717
 20
461.3136525405708
 30
0.0
 11
669.578271712717
 21
465.8136525405708
 31
0.0
  0
LINE
  5
3C4
330
1F
100
AcDbEntity
  8
VISIBLE
100
AcDbLine
 10
660.4449383793836
 20
465.8136525405708
 30
0.0
 11
651.3116050460503
 21
465.8136525405708
 31
0.0
  0
LINE
  5
3C5
330
1F
100
AcDbEntity
  8
VISIBLE
100
AcDbLine
 10
569.1116050460503
 20
461.3136525405708
 30
0.0
 11
569.1116050460503
 21
465.8136525405708
 31
0.0
  0
LINE
  5
3C6
330
1F
100
AcDbEntity
  8
VISIBLE
100
AcDbLine
 10
526.8449383793836
 20
512.7136525405708
 30
0.0
 11
526.8449383793836
 21
503.5803192072375
 31
0.0
  0
LINE
  5
3C7
330
1F
100
AcDbEntity
  8
VISIBLE
100
AcDbLine
 10
526.8449383793836
 20
521.8469858739041
 30
0.0
 11
531.3449383793836
 21
521.8469858739041
 31
0.0
  0
LINE
  5
3C8
330
1F
100
AcDbEntity
  8
VISIBLE
100
AcDbLine
 10
550.8449383793835
 20
461.3136525405708
 30
0.0
 11
559.978271712717
 21
461.3136525405708
 31
0.0
  0
ARC
  5
3C9
330
1F
100
AcDbEntity
  8
VISIBLE
100
AcDbCircle
 10
687.8449383793837
 20
485.3136525405708
 30
0.0
 40
23.99999999999997
100
AcDbArc
 50
269.9999999999997
 51
0.0
  0
LINE
  5
3CA
330
1F
100
AcDbEntity
  8
VISIBLE
100
AcDbLine
 10
623.9116050460503
 20
465.8136525405708
 30
0.0
 11
614.778271712717
 21
465.8136525405708
 31
0.0
  0
LINE
  5
3CB
330
1F
100
AcDbEntity
  8
VISIBLE
100
AcDbLine
 10
711.8449383793836
 20
622.313652540571
 30
0.0
 11
711.8449383793836
 21
613.1803192072375
 31
0.0
  0
LINE
  5
3CC
330
1F
100
AcDbEntity
  8
VISIBLE
100
AcDbLine
 10
550.8449383793835
 20
646.3136525405708
 30
0.0
 11
687.8449383793837
 21
646.3136525405708
 31
0.0
  0
LINE
  5
3CD
330
1F
100
AcDbEntity
  8
VISIBLE
100
AcDbLine
 10
711.8449383793836
 20
604.0469858739043
 30
0.0
 11
711.8449383793836
 21
594.9136525405709
 31
0.0
  0
LINE
  5
3CE
330
1F
100
AcDbEntity
  8
VISIBLE
100
AcDbLine
 10
660.4449383793836
 20
461.3136525405708
 30
0.0
 11
669.578271712717
 21
461.3136525405708
 31
0.0
  0
LINE
  5
3CF
330
1F
100
AcDbEntity
  8
VISIBLE
100
AcDbLine
 10
531.3449383793836
 20
549.2469858739041
 30
0.0
 11
531.3449383793836
 21
558.3803192072376
 31
0.0
  0
LINE
  5
3D0
330
1F
100
AcDbEntity
  8
VISIBLE
100
AcDbLine
 10
711.8449383793836
 20
530.9803192072376
 30
0.0
 11
707.3449383793836
 21
530.9803192072376
 31
0.0
  0
LINE
  5
3D1
330
1F
100
AcDbEntity
  8
VISIBLE
100
AcDbLine
 10
531.3449383793836
 20
567.5136525405709
 30
0.0
 11
531.3449383793836
 21
576.6469858739042
 31
0.0
  0
LINE
  5
3D2
330
1F
100
AcDbEntity
  8
VISIBLE
100
AcDbLine
 10
711.8449383793836
 20
512.7136525405708
 30
0.0
 11
707.3449383793836
 21
512.7136525405708
 31
0.0
  0
LINE
  5
3D3
330
1F
100
AcDbEntity
  8
VISIBLE
100
AcDbLine
 10
711.8449383793836
 20
567.5136525405709
 30
0.0
 11
711.8449383793836
 21
558.3803192072376
 31
0.0
  0
LINE
  5
3D4
330
1F
100
AcDbEntity
  8
VISIBLE
100
AcDbLine
 10
711.8449383793836
 20
549.2469858739042
 30
0.0
 11
711.8449383793836
 21
540.1136525405709
 31
0.0
  0
LINE
  5
3D5
330
1F
100
AcDbEntity
  8
VISIBLE
100
AcDbLine
 10
526.8449383793836
 20
604.0469858739042
 30
0.0
 11
526.8449383793836
 21
594.9136525405709
 31
0.0
  0
LINE
  5
3D6
330
1F
100
AcDbEntity
  8
VISIBLE
100
AcDbLine
 10
526.8449383793836
 20
585.7803192072375
 30
0.0
 11
526.8449383793836
 21
576.6469858739042
 31
0.0
  0
LINE
  5
3D7
330
1F
100
AcDbEntity
  8
VISIBLE
100
AcDbLine
 10
559.978271712717
 20
461.3136525405708
 30
0.0
 11
559.978271712717
 21
465.8136525405708
 31
0.0
  0
LINE
  5
3D8
330
1F
100
AcDbEntity
  8
VISIBLE
100
AcDbLine
 10
678.7116050460504
 20
465.8136525405708
 30
0.0
 11
669.578271712717
 21
465.8136525405708
 31
0.0
  0
LINE
  5
3D9
330
1F
100
AcDbEntity
  8
VISIBLE
100
AcDbLine
 10
526.8449383793836
 20
549.2469858739041
 30
0.0
 11
526.8449383793836
 21
540.1136525405709
 31
0.0
  0
LINE
  5
3DA
330
1F
100
AcDbEntity
  8
VISIBLE
100
AcDbLine
 10
531.3449383793836
 20
494.4469858739042
 30
0.0
 11
531.3449383793836
 21
503.5803192072375
 31
0.0
  0
LINE
  5
3DB
330
1F
100
AcDbEntity
  8
VISIBLE
100
AcDbLine
 10
660.4449383793836
 20
461.3136525405708
 30
0.0
 11
660.4449383793836
 21
465.8136525405708
 31
0.0
  0
LINE
  5
3DC
330
1F
100
AcDbEntity
  8
VISIBLE
100
AcDbLine
 10
707.3449383793836
 20
576.6469858739042
 30
0.0
 11
707.3449383793836
 21
567.5136525405709
 31
0.0
  0
LINE
  5
3DD
330
1F
100
AcDbEntity
  8
VISIBLE
100
AcDbLine
 10
711.8449383793836
 20
567.5136525405709
 30
0.0
 11
707.3449383793836
 21
567.5136525405709
 31
0.0
  0
LINE
  5
3DE
330
1F
100
AcDbEntity
  8
VISIBLE
100
AcDbLine
 10
605.6449383793837
 20
461.3136525405708
 30
0.0
 11
614.778271712717
 21
461.3136525405708
 31
0.0
  0
LINE
  5
3DF
330
1F
100
AcDbEntity
  8
VISIBLE
100
AcDbLine
 10
642.178271712717
 20
461.3136525405708
 30
0.0
 11
642.178271712717
 21
465.8136525405708
 31
0.0
  0
LINE
  5
3E0
330
1F
100
AcDbEntity
  8
VISIBLE
100
AcDbLine
 10
526.8449383793836
 20
549.2469858739041
 30
0.0
 11
531.3449383793836
 21
549.2469858739041
 31
0.0
  0
LINE
  5
3E1
330
1F
100
AcDbEntity
  8
VISIBLE
100
AcDbLine
 10
526.8449383793836
 20
558.3803192072376
 30
0.0
 11
531.3449383793836
 21
558.3803192072376
 31
0.0
  0
LINE
  5
3E2
330
1F
100
AcDbEntity
  8
VISIBLE
100
AcDbLine
 10
707.3449383793836
 20
540.1136525405709
 30
0.0
 11
707.3449383793836
 21
530.9803192072376
 31
0.0
  0
LINE
  5
3E3
330
1F
100
AcDbEntity
  8
VISIBLE
100
AcDbLine
 10
623.9116050460503
 20
461.3136525405708
 30
0.0
 11
623.9116050460503
 21
465.8136525405708
 31
0.0
  0
LINE
  5
3E4
330
1F
100
AcDbEntity
  8
VISIBLE
100
AcDbLine
 10
711.8449383793836
 20
549.2469858739042
 30
0.0
 11
707.3449383793836
 21
549.2469858739042
 31
0.0
  0
LINE
  5
3E5
330
1F
100
AcDbEntity
  8
VISIBLE
100
AcDbLine
 10
711.8449383793836
 20
521.8469858739043
 30
0.0
 11
707.3449383793836
 21
521.8469858739043
 31
0.0
  0
LINE
  5
3E6
330
1F
100
AcDbEntity
  8
VISIBLE
100
AcDbLine
 10
707.3449383793836
 20
521.8469858739043
 30
0.0
 11
707.3449383793836
 21
512.7136525405708
 31
0.0
  0
LINE
  5
3E7
330
1F
100
AcDbEntity
  8
VISIBLE
100
AcDbLine
 10
587.378271712717
 20
461.3136525405708
 30
0.0
 11
587.378271712717
 21
465.8136525405708
 31
0.0
  0
LINE
  5
3E8
330
1F
100
AcDbEntity
  8
VISIBLE
100
AcDbLine
 10
711.8449383793836
 20
585.7803192072375
 30
0.0
 11
711.8449383793836
 21
576.6469858739042
 31
0.0
  0
LINE
  5
3E9
330
1F
100
AcDbEntity
  8
VISIBLE
100
AcDbLine
 10
526.8449383793836
 20
613.1803192072375
 30
0.0
 11
531.3449383793836
 21
613.1803192072375
 31
0.0
  0
LINE
  5
3EA
330
1F
100
AcDbEntity
  8
VISIBLE
100
AcDbLine
 10
526.8449383793836
 20
604.0469858739042
 30
0.0
 11
531.3449383793836
 21
604.0469858739042
 31
0.0
  0
LINE
  5
3EB
330
1F
100
AcDbEntity
  8
VISIBLE
100
AcDbLine
 10
526.8449383793836
 20
585.7803192072375
 30
0.0
 11
531.3449383793836
 21
585.7803192072375
 31
0.0
  0
LINE
  5
3EC
330
1F
100
AcDbEntity
  8
VISIBLE
100
AcDbLine
 10
526.8449383793836
 20
567.5136525405709
 30
0.0
 11
526.8449383793836
 21
558.3803192072376
 31
0.0
  0
LINE
  5
3ED
330
1F
100
AcDbEntity
  8
VISIBLE
100
AcDbLine
 10
651.3116050460503
 20
461.3136525405708
 30
0.0
 11
651.3116050460503
 21
465.8136525405708
 31
0.0
  0
LINE
  5
3EE
330
1F
100
AcDbEntity
  8
VISIBLE
100
AcDbLine
 10
526.8449383793836
 20
530.9803192072375
 30
0.0
 11
526.8449383793836
 21
521.8469858739041
 31
0.0
  0
LINE
  5
3EF
330
1F
100
AcDbEntity
  8
VISIBLE
100
AcDbLine
 10
642.178271712717
 20
465.8136525405708
 30
0.0
 11
633.0449383793837
 21
465.8136525405708
 31
0.0
  0
ARC
  5
3F0
330
1F
100
AcDbEntity
  8
VISIBLE
100
AcDbCircle
 10
687.8449383793837
 20
622.313652540571
 30
0.0
 40
23.99999999999995
100
AcDbArc
 50
0.0
 51
90.0
  0
LINE
  5
3F1
330
1F
100
AcDbEntity
  8
VISIBLE
100
AcDbLine
 10
526.8449383793836
 20
530.9803192072375
 30
0.0
 11
531.3449383793836
 21
530.9803192072375
 31
0.0
  0
LINE
  5
3F2
330
1F
100
AcDbEntity
  8
VISIBLE
100
AcDbLine
 10
642.178271712717
 20
461.3136525405708
 30
0.0
 11
651.3116050460503
 21
461.3136525405708
 31
0.0
  0
LINE
  5
3F3
330
1F
100
AcDbEntity
  8
VISIBLE
100
AcDbLine
 10
526.8449383793836
 20
540.1136525405709
 30
0.0
 11
531.3449383793836
 21
540.1136525405709
 31
0.0
  0
LINE
  5
3F4
330
1F
100
AcDbEntity
  8
VISIBLE
100
AcDbLine
 10
605.6449383793837
 20
465.8136525405708
 30
0.0
 11
596.5116050460502
 21
465.8136525405708
 31
0.0
  0
LINE
  5
3F5
330
1F
100
AcDbEntity
  8
VISIBLE
100
AcDbLine
 10
711.8449383793836
 20
576.6469858739042
 30
0.0
 11
707.3449383793836
 21
576.6469858739042
 31
0.0
  0
LINE
  5
3F6
330
1F
100
AcDbEntity
  8
VISIBLE
100
AcDbLine
 10
605.6449383793837
 20
461.3136525405708
 30
0.0
 11
605.6449383793837
 21
465.8136525405708
 31
0.0
  0
LINE
  5
3F7
330
1F
100
AcDbEntity
  8
VISIBLE
100
AcDbLine
 10
531.3449383793836
 20
585.7803192072375
 30
0.0
 11
531.3449383793836
 21
594.9136525405709
 31
0.0
  0
LINE
  5
3F8
330
1F
100
AcDbEntity
  8
VISIBLE
100
AcDbLine
 10
578.2449383793836
 20
461.3136525405708
 30
0.0
 11
578.2449383793836
 21
465.8136525405708
 31
0.0
  0
LINE
  5
3F9
330
1F
100
AcDbEntity
  8
VISIBLE
100
AcDbLine
 10
614.778271712717
 20
461.3136525405708
 30
0.0
 11
614.778271712717
 21
465.8136525405708
 31
0.0
  0
LINE
  5
3FA
330
1F
100
AcDbEntity
  8
VISIBLE
100
AcDbLine
 10
531.3449383793836
 20
604.0469858739042
 30
0.0
 11
531.3449383793836
 21
613.1803192072375
 31
0.0
  0
LINE
  5
3FB
330
1F
100
AcDbEntity
  8
VISIBLE
100
AcDbLine
 10
707.3449383793836
 20
558.3803192072376
 30
0.0
 11
707.3449383793836
 21
549.2469858739042
 31
0.0
  0
LINE
  5
3FC
330
1F
100
AcDbEntity
  8
VISIBLE
100
AcDbLine
 10
526.8449383793836
 20
503.5803192072375
 30
0.0
 11
531.3449383793836
 21
503.5803192072375
 31
0.0
  0
LINE
  5
3FD
330
1F
100
AcDbEntity
  8
VISIBLE
100
AcDbLine
 10
711.8449383793836
 20
594.9136525405709
 30
0.0
 11
707.3449383793836
 21
594.9136525405709
 31
0.0
  0
LINE
  5
3FE
330
1F
100
AcDbEntity
  8
VISIBLE
100
AcDbLine
 10
531.3449383793836
 20
530.9803192072375
 30
0.0
 11
531.3449383793836
 21
540.1136525405709
 31
0.0
  0
LINE
  5
3FF
330
1F
100
AcDbEntity
  8
VISIBLE
100
AcDbLine
 10
707.3449383793836
 20
594.9136525405709
 30
0.0
 11
707.3449383793836
 21
585.7803192072375
 31
0.0
  0
LINE
  5
400
330
1F
100
AcDbEntity
  8
VISIBLE
100
AcDbLine
 10
526.8449383793836
 20
494.4469858739042
 30
0.0
 11
531.3449383793836
 21
494.4469858739042
 31
0.0
  0
LINE
  5
401
330
1F
100
AcDbEntity
  8
VISIBLE
100
AcDbLine
 10
711.8449383793836
 20
558.3803192072376
 30
0.0
 11
707.3449383793836
 21
558.3803192072376
 31
0.0
  0
LINE
  5
402
330
1F
100
AcDbEntity
  8
VISIBLE
100
AcDbLine
 10
526.8449383793836
 20
594.9136525405709
 30
0.0
 11
531.3449383793836
 21
594.9136525405709
 31
0.0
  0
LINE
  5
403
330
1F
100
AcDbEntity
  8
VISIBLE
100
AcDbLine
 10
711.8449383793836
 20
585.7803192072375
 30
0.0
 11
707.3449383793836
 21
585.7803192072375
 31
0.0
  0
LINE
  5
404
330
1F
100
AcDbEntity
  8
VISIBLE
100
AcDbLine
 10
184.8449383793836
 20
727.313652540571
 30
0.0
 11
188.8449383793836
 21
727.313652540571
 31
0.0
  0
LINE
  5
405
330
1F
100
AcDbEntity
  8
VISIBLE
100
AcDbLine
 10
184.8449383793836
 20
727.313652540571
 30
0.0
 11
184.8449383793836
 21
749.7136525405709
 31
0.0
  0
LINE
  5
406
330
1F
100
AcDbEntity
  8
VISIBLE
100
AcDbLine
 10
184.8449383793836
 20
749.7136525405709
 30
0.0
 11
188.8449383793836
 21
749.7136525405709
 31
0.0
  0
LINE
  5
407
330
1F
100
AcDbEntity
  8
VISIBLE
100
AcDbLine
 10
188.8449383793836
 20
727.313652540571
 30
0.0
 11
188.8449383793836
 21
749.7136525405709
 31
0.0
  0
LINE
  5
408
330
1F
100
AcDbEntity
  8
VISIBLE
100
AcDbLine
 10
86.8449383793835
 20
336.3136525405709
 30
0.0
 11
91.3449383793835
 21
336.3136525405709
 31
0.0
  0
LINE
  5
409
330
1F
100
AcDbEntity
  8
VISIBLE
100
AcDbLine
 10
86.8449383793835
 20
336.3136525405709
 30
0.0
 11
86.8449383793835
 21
340.8136525405709
 31
0.0
  0
LINE
  5
40A
330
1F
100
AcDbEntity
  8
VISIBLE
100
AcDbLine
 10
91.3449383793835
 20
340.8136525405709
 30
0.0
 11
86.8449383793835
 21
340.8136525405709
 31
0.0
  0
LINE
  5
40B
330
1F
100
AcDbEntity
  8
VISIBLE
100
AcDbLine
 10
91.3449383793835
 20
340.8136525405709
 30
0.0
 11
91.3449383793835
 21
345.3136525405708
 31
0.0
  0
LINE
  5
40C
330
1F
100
AcDbEntity
  8
VISIBLE
100
AcDbLine
 10
91.3449383793835
 20
345.3136525405708
 30
0.0
 11
86.8449383793835
 21
345.3136525405708
 31
0.0
  0
LINE
  5
40D
330
1F
100
AcDbEntity
  8
VISIBLE
100
AcDbLine
 10
86.8449383793835
 20
345.3136525405708
 30
0.0
 11
86.8449383793835
 21
349.8136525405708
 31
0.0
  0
LINE
  5
40E
330
1F
100
AcDbEntity
  8
VISIBLE
100
AcDbLine
 10
132.5116050460502
 20
352.3136525405708
 30
0.0
 11
141.6449383793835
 21
352.3136525405708
 31
0.0
  0
LINE
  5
40F
330
1F
100
AcDbEntity
  8
VISIBLE
100
AcDbLine
 10
150.7782717127169
 20
352.3136525405708
 30
0.0
 11
159.9116050460502
 21
352.3136525405708
 31
0.0
  0
LINE
  5
410
330
1F
100
AcDbEntity
  8
VISIBLE
100
AcDbLine
 10
169.0449383793836
 20
352.3136525405708
 30
0.0
 11
178.1782717127169
 21
352.3136525405708
 31
0.0
  0
LINE
  5
411
330
1F
100
AcDbEntity
  8
VISIBLE
100
AcDbLine
 10
187.3116050460502
 20
352.3136525405708
 30
0.0
 11
196.4449383793836
 21
352.3136525405708
 31
0.0
  0
LINE
  5
412
330
1F
100
AcDbEntity
  8
VISIBLE
100
AcDbLine
 10
196.4449383793836
 20
352.3136525405708
 30
0.0
 11
196.4449383793836
 21
349.8136525405708
 31
0.0
  0
LINE
  5
413
330
1F
100
AcDbEntity
  8
VISIBLE
100
AcDbLine
 10
205.5782717127169
 20
352.3136525405708
 30
0.0
 11
205.5782717127169
 21
349.8136525405708
 31
0.0
  0
LINE
  5
414
330
1F
100
AcDbEntity
  8
VISIBLE
100
AcDbLine
 10
205.5782717127169
 20
352.3136525405708
 30
0.0
 11
214.7116050460502
 21
352.3136525405708
 31
0.0
  0
LINE
  5
415
330
1F
100
AcDbEntity
  8
VISIBLE
100
AcDbLine
 10
223.8449383793836
 20
331.8136525405708
 30
0.0
 11
223.8449383793836
 21
349.8136525405708
 31
0.0
  0
LINE
  5
416
330
1F
100
AcDbEntity
  8
VISIBLE
100
AcDbLine
 10
205.5782717127169
 20
329.3136525405708
 30
0.0
 11
214.7116050460502
 21
329.3136525405708
 31
0.0
  0
LINE
  5
417
330
1F
100
AcDbEntity
  8
VISIBLE
100
AcDbLine
 10
169.0449383793835
 20
329.3136525405708
 30
0.0
 11
178.1782717127169
 21
329.3136525405708
 31
0.0
  0
LINE
  5
418
330
1F
100
AcDbEntity
  8
VISIBLE
100
AcDbLine
 10
150.7782717127168
 20
329.3136525405708
 30
0.0
 11
159.9116050460502
 21
329.3136525405708
 31
0.0
  0
LINE
  5
419
330
1F
100
AcDbEntity
  8
VISIBLE
100
AcDbLine
 10
132.5116050460502
 20
329.3136525405708
 30
0.0
 11
141.6449383793835
 21
329.3136525405708
 31
0.0
  0
LINE
  5
41A
330
1F
100
AcDbEntity
  8
VISIBLE
100
AcDbLine
 10
114.2449383793835
 20
329.3136525405708
 30
0.0
 11
123.3782717127169
 21
329.3136525405708
 31
0.0
  0
LINE
  5
41B
330
1F
100
AcDbEntity
  8
VISIBLE
100
AcDbLine
 10
95.97827171271683
 20
329.3136525405708
 30
0.0
 11
105.1116050460502
 21
329.3136525405708
 31
0.0
  0
LINE
  5
41C
330
1F
100
AcDbEntity
  8
VISIBLE
100
AcDbLine
 10
91.3449383793835
 20
336.3136525405709
 30
0.0
 11
91.3449383793835
 21
331.8136525405708
 31
0.0
  0
LINE
  5
41D
330
1F
100
AcDbEntity
  8
VISIBLE
100
AcDbLine
 10
178.1782717127169
 20
349.8136525405708
 30
0.0
 11
187.3116050460502
 21
349.8136525405708
 31
0.0
  0
LINE
  5
41E
330
1F
100
AcDbEntity
  8
VISIBLE
100
AcDbLine
 10
187.3116050460502
 20
352.3136525405708
 30
0.0
 11
187.3116050460502
 21
349.8136525405708
 31
0.0
  0
LINE
  5
41F
330
1F
100
AcDbEntity
  8
VISIBLE
100
AcDbLine
 10
178.1782717127169
 20
352.3136525405708
 30
0.0
 11
178.1782717127169
 21
349.8136525405708
 31
0.0
  0
LINE
  5
420
330
1F
100
AcDbEntity
  8
VISIBLE
100
AcDbLine
 10
196.4449383793836
 20
349.8136525405708
 30
0.0
 11
205.5782717127169
 21
349.8136525405708
 31
0.0
  0
LINE
  5
421
330
1F
100
AcDbEntity
  8
VISIBLE
100
AcDbLine
 10
205.5782717127169
 20
331.8136525405708
 30
0.0
 11
205.5782717127169
 21
329.3136525405708
 31
0.0
  0
LINE
  5
422
330
1F
100
AcDbEntity
  8
VISIBLE
100
AcDbLine
 10
196.4449383793836
 20
331.8136525405708
 30
0.0
 11
205.5782717127169
 21
331.8136525405708
 31
0.0
  0
LINE
  5
423
330
1F
100
AcDbEntity
  8
VISIBLE
100
AcDbLine
 10
196.4449383793836
 20
331.8136525405708
 30
0.0
 11
196.4449383793836
 21
329.3136525405708
 31
0.0
  0
LINE
  5
424
330
1F
100
AcDbEntity
  8
VISIBLE
100
AcDbLine
 10
187.3116050460502
 20
331.8136525405708
 30
0.0
 11
187.3116050460502
 21
329.3136525405708
 31
0.0
  0
LINE
  5
425
330
1F
100
AcDbEntity
  8
VISIBLE
100
AcDbLine
 10
178.1782717127169
 20
331.8136525405708
 30
0.0
 11
187.3116050460502
 21
331.8136525405708
 31
0.0
  0
LINE
  5
426
330
1F
100
AcDbEntity
  8
VISIBLE
100
AcDbLine
 10
178.1782717127169
 20
331.8136525405708
 30
0.0
 11
178.1782717127169
 21
329.3136525405708
 31
0.0
  0
LINE
  5
427
330
1F
100
AcDbEntity
  8
VISIBLE
100
AcDbLine
 10
169.0449383793835
 20
331.8136525405708
 30
0.0
 11
169.0449383793835
 21
329.3136525405708
 31
0.0
  0
LINE
  5
428
330
1F
100
AcDbEntity
  8
VISIBLE
100
AcDbLine
 10
159.9116050460502
 20
331.8136525405708
 30
0.0
 11
169.0449383793835
 21
331.8136525405708
 31
0.0
  0
LINE
  5
429
330
1F
100
AcDbEntity
  8
VISIBLE
100
AcDbLine
 10
159.9116050460502
 20
331.8136525405708
 30
0.0
 11
159.9116050460502
 21
329.3136525405708
 31
0.0
  0
LINE
  5
42A
330
1F
100
AcDbEntity
  8
VISIBLE
100
AcDbLine
 10
214.7116050460502
 20
331.8136525405708
 30
0.0
 11
223.8449383793836
 21
331.8136525405708
 31
0.0
  0
LINE
  5
42B
330
1F
100
AcDbEntity
  8
VISIBLE
100
AcDbLine
 10
214.7116050460502
 20
331.8136525405708
 30
0.0
 11
214.7116050460502
 21
329.3136525405708
 31
0.0
  0
LINE
  5
42C
330
1F
100
AcDbEntity
  8
VISIBLE
100
AcDbLine
 10
114.2449383793835
 20
331.8136525405708
 30
0.0
 11
114.2449383793835
 21
329.3136525405708
 31
0.0
  0
LINE
  5
42D
330
1F
100
AcDbEntity
  8
VISIBLE
100
AcDbLine
 10
114.2449383793835
 20
352.3136525405708
 30
0.0
 11
123.3782717127169
 21
352.3136525405708
 31
0.0
  0
LINE
  5
42E
330
1F
100
AcDbEntity
  8
VISIBLE
100
AcDbLine
 10
95.97827171271685
 20
352.3136525405708
 30
0.0
 11
105.1116050460502
 21
352.3136525405708
 31
0.0
  0
LINE
  5
42F
330
1F
100
AcDbEntity
  8
VISIBLE
100
AcDbLine
 10
132.5116050460502
 20
331.8136525405708
 30
0.0
 11
132.5116050460502
 21
329.3136525405708
 31
0.0
  0
LINE
  5
430
330
1F
100
AcDbEntity
  8
VISIBLE
100
AcDbLine
 10
123.3782717127169
 20
331.8136525405708
 30
0.0
 11
132.5116050460502
 21
331.8136525405708
 31
0.0
  0
LINE
  5
431
330
1F
100
AcDbEntity
  8
VISIBLE
100
AcDbLine
 10
123.3782717127169
 20
331.8136525405708
 30
0.0
 11
123.3782717127169
 21
329.3136525405708
 31
0.0
  0
LINE
  5
432
330
1F
100
AcDbEntity
  8
VISIBLE
100
AcDbLine
 10
150.7782717127168
 20
331.8136525405708
 30
0.0
 11
150.7782717127168
 21
329.3136525405708
 31
0.0
  0
LINE
  5
433
330
1F
100
AcDbEntity
  8
VISIBLE
100
AcDbLine
 10
141.6449383793835
 20
331.8136525405708
 30
0.0
 11
150.7782717127168
 21
331.8136525405708
 31
0.0
  0
LINE
  5
434
330
1F
100
AcDbEntity
  8
VISIBLE
100
AcDbLine
 10
141.6449383793835
 20
331.8136525405708
 30
0.0
 11
141.6449383793835
 21
329.3136525405708
 31
0.0
  0
LINE
  5
435
330
1F
100
AcDbEntity
  8
VISIBLE
100
AcDbLine
 10
95.97827171271683
 20
331.8136525405708
 30
0.0
 11
95.97827171271683
 21
329.3136525405708
 31
0.0
  0
LINE
  5
436
330
1F
100
AcDbEntity
  8
VISIBLE
100
AcDbLine
 10
91.3449383793835
 20
331.8136525405708
 30
0.0
 11
95.97827171271683
 21
331.8136525405708
 31
0.0
  0
LINE
  5
437
330
1F
100
AcDbEntity
  8
VISIBLE
100
AcDbLine
 10
214.7116050460502
 20
349.8136525405708
 30
0.0
 11
223.8449383793836
 21
349.8136525405708
 31
0.0
  0
LINE
  5
438
330
1F
100
AcDbEntity
  8
VISIBLE
100
AcDbLine
 10
214.7116050460502
 20
352.3136525405708
 30
0.0
 11
214.7116050460502
 21
349.8136525405708
 31
0.0
  0
LINE
  5
439
330
1F
100
AcDbEntity
  8
VISIBLE
100
AcDbLine
 10
86.8449383793835
 20
349.8136525405708
 30
0.0
 11
95.97827171271685
 21
349.8136525405708
 31
0.0
  0
LINE
  5
43A
330
1F
100
AcDbEntity
  8
VISIBLE
100
AcDbLine
 10
95.97827171271685
 20
352.3136525405708
 30
0.0
 11
95.97827171271685
 21
349.8136525405708
 31
0.0
  0
LINE
  5
43B
330
1F
100
AcDbEntity
  8
VISIBLE
100
AcDbLine
 10
105.1116050460502
 20
349.8136525405708
 30
0.0
 11
114.2449383793835
 21
349.8136525405708
 31
0.0
  0
LINE
  5
43C
330
1F
100
AcDbEntity
  8
VISIBLE
100
AcDbLine
 10
114.2449383793835
 20
352.3136525405708
 30
0.0
 11
114.2449383793835
 21
349.8136525405708
 31
0.0
  0
LINE
  5
43D
330
1F
100
AcDbEntity
  8
VISIBLE
100
AcDbLine
 10
105.1116050460502
 20
352.3136525405708
 30
0.0
 11
105.1116050460502
 21
349.8136525405708
 31
0.0
  0
LINE
  5
43E
330
1F
100
AcDbEntity
  8
VISIBLE
100
AcDbLine
 10
105.1116050460502
 20
331.8136525405708
 30
0.0
 11
114.2449383793835
 21
331.8136525405708
 31
0.0
  0
LINE
  5
43F
330
1F
100
AcDbEntity
  8
VISIBLE
100
AcDbLine
 10
105.1116050460502
 20
331.8136525405708
 30
0.0
 11
105.1116050460502
 21
329.3136525405708
 31
0.0
  0
LINE
  5
440
330
1F
100
AcDbEntity
  8
VISIBLE
100
AcDbLine
 10
141.6449383793835
 20
352.3136525405708
 30
0.0
 11
141.6449383793835
 21
349.8136525405708
 31
0.0
  0
LINE
  5
441
330
1F
100
AcDbEntity
  8
VISIBLE
100
AcDbLine
 10
159.9116050460502
 20
349.8136525405708
 30
0.0
 11
169.0449383793836
 21
349.8136525405708
 31
0.0
  0
LINE
  5
442
330
1F
100
AcDbEntity
  8
VISIBLE
100
AcDbLine
 10
169.0449383793836
 20
352.3136525405708
 30
0.0
 11
169.0449383793836
 21
349.8136525405708
 31
0.0
  0
LINE
  5
443
330
1F
100
AcDbEntity
  8
VISIBLE
100
AcDbLine
 10
159.9116050460502
 20
352.3136525405708
 30
0.0
 11
159.9116050460502
 21
349.8136525405708
 31
0.0
  0
LINE
  5
444
330
1F
100
AcDbEntity
  8
VISIBLE
100
AcDbLine
 10
187.3116050460502
 20
329.3136525405708
 30
0.0
 11
196.4449383793836
 21
329.3136525405708
 31
0.0
  0
LINE
  5
445
330
1F
100
AcDbEntity
  8
VISIBLE
100
AcDbLine
 10
123.3782717127169
 20
349.8136525405708
 30
0.0
 11
132.5116050460502
 21
349.8136525405708
 31
0.0
  0
LINE
  5
446
330
1F
100
AcDbEntity
  8
VISIBLE
100
AcDbLine
 10
132.5116050460502
 20
352.3136525405708
 30
0.0
 11
132.5116050460502
 21
349.8136525405708
 31
0.0
  0
LINE
  5
447
330
1F
100
AcDbEntity
  8
VISIBLE
100
AcDbLine
 10
123.3782717127169
 20
352.3136525405708
 30
0.0
 11
123.3782717127169
 21
349.8136525405708
 31
0.0
  0
LINE
  5
448
330
1F
100
AcDbEntity
  8
VISIBLE
100
AcDbLine
 10
150.7782717127169
 20
352.3136525405708
 30
0.0
 11
150.7782717127169
 21
349.8136525405708
 31
0.0
  0
LINE
  5
449
330
1F
100
AcDbEntity
  8
VISIBLE
100
AcDbLine
 10
141.6449383793835
 20
349.8136525405708
 30
0.0
 11
150.7782717127169
 21
349.8136525405708
 31
0.0
  0
LINE
  5
44A
330
1F
100
AcDbEntity
  8
VISIBLE
100
AcDbLine
 10
196.4449383793835
 20
377.3136525405708
 30
0.0
 11
187.3116050460502
 21
377.3136525405708
 31
0.0
  0
LINE
  5
44B
330
1F
100
AcDbEntity
  8
VISIBLE
100
AcDbLine
 10
91.3449383793835
 20
384.3136525405708
 30
0.0
 11
91.3449383793835
 21
379.8136525405708
 31
0.0
  0
LINE
  5
44C
330
1F
100
AcDbEntity
  8
VISIBLE
100
AcDbLine
 10
86.8449383793835
 20
384.3136525405708
 30
0.0
 11
91.3449383793835
 21
384.3136525405708
 31
0.0
  0
LINE
  5
44D
330
1F
100
AcDbEntity
  8
VISIBLE
100
AcDbLine
 10
86.8449383793835
 20
384.3136525405708
 30
0.0
 11
86.8449383793835
 21
388.8136525405708
 31
0.0
  0
LINE
  5
44E
330
1F
100
AcDbEntity
  8
VISIBLE
100
AcDbLine
 10
86.8449383793835
 20
388.8136525405708
 30
0.0
 11
91.3449383793835
 21
388.8136525405708
 31
0.0
  0
LINE
  5
44F
330
1F
100
AcDbEntity
  8
VISIBLE
100
AcDbLine
 10
91.3449383793835
 20
388.8136525405708
 30
0.0
 11
91.3449383793835
 21
393.3136525405708
 31
0.0
  0
LINE
  5
450
330
1F
100
AcDbEntity
  8
VISIBLE
100
AcDbLine
 10
86.8449383793835
 20
393.3136525405708
 30
0.0
 11
91.3449383793835
 21
393.3136525405708
 31
0.0
  0
LINE
  5
451
330
1F
100
AcDbEntity
  8
VISIBLE
100
AcDbLine
 10
86.8449383793835
 20
393.3136525405708
 30
0.0
 11
86.8449383793835
 21
397.8136525405708
 31
0.0
  0
LINE
  5
452
330
1F
100
AcDbEntity
  8
VISIBLE
100
AcDbLine
 10
178.1782717127169
 20
400.3136525405708
 30
0.0
 11
169.0449383793835
 21
400.3136525405708
 31
0.0
  0
LINE
  5
453
330
1F
100
AcDbEntity
  8
VISIBLE
100
AcDbLine
 10
214.7116050460502
 20
400.3136525405708
 30
0.0
 11
205.5782717127169
 21
400.3136525405708
 31
0.0
  0
LINE
  5
454
330
1F
100
AcDbEntity
  8
VISIBLE
100
AcDbLine
 10
219.3449383793835
 20
393.3136525405708
 30
0.0
 11
223.8449383793835
 21
393.3136525405708
 31
0.0
  0
LINE
  5
455
330
1F
100
AcDbEntity
  8
VISIBLE
100
AcDbLine
 10
219.3449383793835
 20
388.8136525405708
 30
0.0
 11
219.3449383793835
 21
393.3136525405708
 31
0.0
  0
LINE
  5
456
330
1F
100
AcDbEntity
  8
VISIBLE
100
AcDbLine
 10
219.3449383793835
 20
388.8136525405708
 30
0.0
 11
223.8449383793835
 21
388.8136525405708
 31
0.0
  0
LINE
  5
457
330
1F
100
AcDbEntity
  8
VISIBLE
100
AcDbLine
 10
223.8449383793835
 20
384.3136525405708
 30
0.0
 11
223.8449383793835
 21
388.8136525405708
 31
0.0
  0
LINE
  5
458
330
1F
100
AcDbEntity
  8
VISIBLE
100
AcDbLine
 10
219.3449383793835
 20
384.3136525405708
 30
0.0
 11
223.8449383793835
 21
384.3136525405708
 31
0.0
  0
LINE
  5
459
330
1F
100
AcDbEntity
  8
VISIBLE
100
AcDbLine
 10
219.3449383793835
 20
379.8136525405708
 30
0.0
 11
219.3449383793835
 21
384.3136525405708
 31
0.0
  0
LINE
  5
45A
330
1F
100
AcDbEntity
  8
VISIBLE
100
AcDbLine
 10
196.4449383793835
 20
400.3136525405708
 30
0.0
 11
187.3116050460502
 21
400.3136525405708
 31
0.0
  0
LINE
  5
45B
330
1F
100
AcDbEntity
  8
VISIBLE
100
AcDbLine
 10
159.9116050460502
 20
377.3136525405708
 30
0.0
 11
150.7782717127168
 21
377.3136525405708
 31
0.0
  0
LINE
  5
45C
330
1F
100
AcDbEntity
  8
VISIBLE
100
AcDbLine
 10
141.6449383793835
 20
377.3136525405708
 30
0.0
 11
132.5116050460502
 21
377.3136525405708
 31
0.0
  0
LINE
  5
45D
330
1F
100
AcDbEntity
  8
VISIBLE
100
AcDbLine
 10
123.3782717127168
 20
377.3136525405708
 30
0.0
 11
114.2449383793835
 21
377.3136525405708
 31
0.0
  0
LINE
  5
45E
330
1F
100
AcDbEntity
  8
VISIBLE
100
AcDbLine
 10
159.9116050460502
 20
400.3136525405708
 30
0.0
 11
150.7782717127168
 21
400.3136525405708
 31
0.0
  0
LINE
  5
45F
330
1F
100
AcDbEntity
  8
VISIBLE
100
AcDbLine
 10
178.1782717127169
 20
377.3136525405708
 30
0.0
 11
169.0449383793835
 21
377.3136525405708
 31
0.0
  0
LINE
  5
460
330
1F
100
AcDbEntity
  8
VISIBLE
100
AcDbLine
 10
123.3782717127168
 20
400.3136525405708
 30
0.0
 11
114.2449383793835
 21
400.3136525405708
 31
0.0
  0
LINE
  5
461
330
1F
100
AcDbEntity
  8
VISIBLE
100
AcDbLine
 10
105.1116050460502
 20
400.3136525405708
 30
0.0
 11
95.97827171271685
 21
400.3136525405708
 31
0.0
  0
LINE
  5
462
330
1F
100
AcDbEntity
  8
VISIBLE
100
AcDbLine
 10
223.8449383793835
 20
393.3136525405708
 30
0.0
 11
223.8449383793835
 21
397.8136525405708
 31
0.0
  0
LINE
  5
463
330
1F
100
AcDbEntity
  8
VISIBLE
100
AcDbLine
 10
141.6449383793835
 20
400.3136525405708
 30
0.0
 11
132.5116050460502
 21
400.3136525405708
 31
0.0
  0
LINE
  5
464
330
1F
100
AcDbEntity
  8
VISIBLE
100
AcDbLine
 10
114.2449383793835
 20
377.3136525405708
 30
0.0
 11
114.2449383793835
 21
379.8136525405708
 31
0.0
  0
LINE
  5
465
330
1F
100
AcDbEntity
  8
VISIBLE
100
AcDbLine
 10
114.2449383793835
 20
379.8136525405708
 30
0.0
 11
105.1116050460502
 21
379.8136525405708
 31
0.0
  0
LINE
  5
466
330
1F
100
AcDbEntity
  8
VISIBLE
100
AcDbLine
 10
105.1116050460502
 20
377.3136525405708
 30
0.0
 11
105.1116050460502
 21
379.8136525405708
 31
0.0
  0
LINE
  5
467
330
1F
100
AcDbEntity
  8
VISIBLE
100
AcDbLine
 10
105.1116050460502
 20
377.3136525405708
 30
0.0
 11
95.97827171271685
 21
377.3136525405708
 31
0.0
  0
LINE
  5
468
330
1F
100
AcDbEntity
  8
VISIBLE
100
AcDbLine
 10
214.7116050460502
 20
377.3136525405708
 30
0.0
 11
205.5782717127169
 21
377.3136525405708
 31
0.0
  0
LINE
  5
469
330
1F
100
AcDbEntity
  8
VISIBLE
100
AcDbLine
 10
132.5116050460502
 20
377.3136525405708
 30
0.0
 11
132.5116050460502
 21
379.8136525405708
 31
0.0
  0
LINE
  5
46A
330
1F
100
AcDbEntity
  8
VISIBLE
100
AcDbLine
 10
132.5116050460502
 20
379.8136525405708
 30
0.0
 11
123.3782717127168
 21
379.8136525405708
 31
0.0
  0
LINE
  5
46B
330
1F
100
AcDbEntity
  8
VISIBLE
100
AcDbLine
 10
123.3782717127168
 20
377.3136525405708
 30
0.0
 11
123.3782717127168
 21
379.8136525405708
 31
0.0
  0
LINE
  5
46C
330
1F
100
AcDbEntity
  8
VISIBLE
100
AcDbLine
 10
159.9116050460502
 20
377.3136525405708
 30
0.0
 11
159.9116050460502
 21
379.8136525405708
 31
0.0
  0
LINE
  5
46D
330
1F
100
AcDbEntity
  8
VISIBLE
100
AcDbLine
 10
187.3116050460502
 20
377.3136525405708
 30
0.0
 11
187.3116050460502
 21
379.8136525405708
 31
0.0
  0
LINE
  5
46E
330
1F
100
AcDbEntity
  8
VISIBLE
100
AcDbLine
 10
187.3116050460502
 20
379.8136525405708
 30
0.0
 11
178.1782717127169
 21
379.8136525405708
 31
0.0
  0
LINE
  5
46F
330
1F
100
AcDbEntity
  8
VISIBLE
100
AcDbLine
 10
178.1782717127169
 20
377.3136525405708
 30
0.0
 11
178.1782717127169
 21
379.8136525405708
 31
0.0
  0
LINE
  5
470
330
1F
100
AcDbEntity
  8
VISIBLE
100
AcDbLine
 10
205.5782717127169
 20
377.3136525405708
 30
0.0
 11
205.5782717127169
 21
379.8136525405708
 31
0.0
  0
LINE
  5
471
330
1F
100
AcDbEntity
  8
VISIBLE
100
AcDbLine
 10
205.5782717127169
 20
379.8136525405708
 30
0.0
 11
196.4449383793835
 21
379.8136525405708
 31
0.0
  0
LINE
  5
472
330
1F
100
AcDbEntity
  8
VISIBLE
100
AcDbLine
 10
196.4449383793835
 20
377.3136525405708
 30
0.0
 11
196.4449383793835
 21
379.8136525405708
 31
0.0
  0
LINE
  5
473
330
1F
100
AcDbEntity
  8
VISIBLE
100
AcDbLine
 10
95.97827171271685
 20
379.8136525405708
 30
0.0
 11
91.3449383793835
 21
379.8136525405708
 31
0.0
  0
LINE
  5
474
330
1F
100
AcDbEntity
  8
VISIBLE
100
AcDbLine
 10
95.97827171271685
 20
377.3136525405708
 30
0.0
 11
95.97827171271685
 21
379.8136525405708
 31
0.0
  0
LINE
  5
475
330
1F
100
AcDbEntity
  8
VISIBLE
100
AcDbLine
 10
219.3449383793835
 20
379.8136525405708
 30
0.0
 11
214.7116050460502
 21
379.8136525405708
 31
0.0
  0
LINE
  5
476
330
1F
100
AcDbEntity
  8
VISIBLE
100
AcDbLine
 10
214.7116050460502
 20
377.3136525405708
 30
0.0
 11
214.7116050460502
 21
379.8136525405708
 31
0.0
  0
LINE
  5
477
330
1F
100
AcDbEntity
  8
VISIBLE
100
AcDbLine
 10
223.8449383793835
 20
397.8136525405708
 30
0.0
 11
214.7116050460502
 21
397.8136525405708
 31
0.0
  0
LINE
  5
478
330
1F
100
AcDbEntity
  8
VISIBLE
100
AcDbLine
 10
214.7116050460502
 20
397.8136525405708
 30
0.0
 11
214.7116050460502
 21
400.3136525405708
 31
0.0
  0
LINE
  5
479
330
1F
100
AcDbEntity
  8
VISIBLE
100
AcDbLine
 10
95.97827171271685
 20
397.8136525405708
 30
0.0
 11
86.8449383793835
 21
397.8136525405708
 31
0.0
  0
LINE
  5
47A
330
1F
100
AcDbEntity
  8
VISIBLE
100
AcDbLine
 10
95.97827171271685
 20
397.8136525405708
 30
0.0
 11
95.97827171271685
 21
400.3136525405708
 31
0.0
  0
LINE
  5
47B
330
1F
100
AcDbEntity
  8
VISIBLE
100
AcDbLine
 10
114.2449383793835
 20
397.8136525405708
 30
0.0
 11
105.1116050460502
 21
397.8136525405708
 31
0.0
  0
LINE
  5
47C
330
1F
100
AcDbEntity
  8
VISIBLE
100
AcDbLine
 10
114.2449383793835
 20
397.8136525405708
 30
0.0
 11
114.2449383793835
 21
400.3136525405708
 31
0.0
  0
LINE
  5
47D
330
1F
100
AcDbEntity
  8
VISIBLE
100
AcDbLine
 10
105.1116050460502
 20
397.8136525405708
 30
0.0
 11
105.1116050460502
 21
400.3136525405708
 31
0.0
  0
LINE
  5
47E
330
1F
100
AcDbEntity
  8
VISIBLE
100
AcDbLine
 10
132.5116050460502
 20
397.8136525405708
 30
0.0
 11
123.3782717127168
 21
397.8136525405708
 31
0.0
  0
LINE
  5
47F
330
1F
100
AcDbEntity
  8
VISIBLE
100
AcDbLine
 10
132.5116050460502
 20
397.8136525405708
 30
0.0
 11
132.5116050460502
 21
400.3136525405708
 31
0.0
  0
LINE
  5
480
330
1F
100
AcDbEntity
  8
VISIBLE
100
AcDbLine
 10
123.3782717127168
 20
397.8136525405708
 30
0.0
 11
123.3782717127168
 21
400.3136525405708
 31
0.0
  0
LINE
  5
481
330
1F
100
AcDbEntity
  8
VISIBLE
100
AcDbLine
 10
150.7782717127168
 20
397.8136525405708
 30
0.0
 11
141.6449383793835
 21
397.8136525405708
 31
0.0
  0
LINE
  5
482
330
1F
100
AcDbEntity
  8
VISIBLE
100
AcDbLine
 10
150.7782717127168
 20
397.8136525405708
 30
0.0
 11
150.7782717127168
 21
400.3136525405708
 31
0.0
  0
LINE
  5
483
330
1F
100
AcDbEntity
  8
VISIBLE
100
AcDbLine
 10
141.6449383793835
 20
397.8136525405708
 30
0.0
 11
141.6449383793835
 21
400.3136525405708
 31
0.0
  0
LINE
  5
484
330
1F
100
AcDbEntity
  8
VISIBLE
100
AcDbLine
 10
169.0449383793835
 20
397.8136525405708
 30
0.0
 11
159.9116050460502
 21
397.8136525405708
 31
0.0
  0
LINE
  5
485
330
1F
100
AcDbEntity
  8
VISIBLE
100
AcDbLine
 10
169.0449383793835
 20
397.8136525405708
 30
0.0
 11
169.0449383793835
 21
400.3136525405708
 31
0.0
  0
LINE
  5
486
330
1F
100
AcDbEntity
  8
VISIBLE
100
AcDbLine
 10
159.9116050460502
 20
397.8136525405708
 30
0.0
 11
159.9116050460502
 21
400.3136525405708
 31
0.0
  0
LINE
  5
487
330
1F
100
AcDbEntity
  8
VISIBLE
100
AcDbLine
 10
187.3116050460502
 20
397.8136525405708
 30
0.0
 11
178.1782717127169
 21
397.8136525405708
 31
0.0
  0
LINE
  5
488
330
1F
100
AcDbEntity
  8
VISIBLE
100
AcDbLine
 10
178.1782717127169
 20
397.8136525405708
 30
0.0
 11
178.1782717127169
 21
400.3136525405708
 31
0.0
  0
LINE
  5
489
330
1F
100
AcDbEntity
  8
VISIBLE
100
AcDbLine
 10
205.5782717127169
 20
397.8136525405708
 30
0.0
 11
196.4449383793835
 21
397.8136525405708
 31
0.0
  0
LINE
  5
48A
330
1F
100
AcDbEntity
  8
VISIBLE
100
AcDbLine
 10
205.5782717127169
 20
397.8136525405708
 30
0.0
 11
205.5782717127169
 21
400.3136525405708
 31
0.0
  0
LINE
  5
48B
330
1F
100
AcDbEntity
  8
VISIBLE
100
AcDbLine
 10
196.4449383793835
 20
397.8136525405708
 30
0.0
 11
196.4449383793835
 21
400.3136525405708
 31
0.0
  0
LINE
  5
48C
330
1F
100
AcDbEntity
  8
VISIBLE
100
AcDbLine
 10
150.7782717127168
 20
377.3136525405708
 30
0.0
 11
150.7782717127168
 21
379.8136525405708
 31
0.0
  0
LINE
  5
48D
330
1F
100
AcDbEntity
  8
VISIBLE
100
AcDbLine
 10
150.7782717127168
 20
379.8136525405708
 30
0.0
 11
141.6449383793835
 21
379.8136525405708
 31
0.0
  0
LINE
  5
48E
330
1F
100
AcDbEntity
  8
VISIBLE
100
AcDbLine
 10
141.6449383793835
 20
377.3136525405708
 30
0.0
 11
141.6449383793835
 21
379.8136525405708
 31
0.0
  0
LINE
  5
48F
330
1F
100
AcDbEntity
  8
VISIBLE
100
AcDbLine
 10
169.0449383793835
 20
377.3136525405708
 30
0.0
 11
169.0449383793835
 21
379.8136525405708
 31
0.0
  0
LINE
  5
490
330
1F
100
AcDbEntity
  8
VISIBLE
100
AcDbLine
 10
169.0449383793835
 20
379.8136525405708
 30
0.0
 11
159.9116050460502
 21
379.8136525405708
 31
0.0
  0
LINE
  5
491
330
1F
100
AcDbEntity
  8
VISIBLE
100
AcDbLine
 10
187.3116050460502
 20
397.8136525405708
 30
0.0
 11
187.3116050460502
 21
400.3136525405708
 31
0.0
  0
LINE
  5
492
330
1F
100
AcDbEntity
  8
VISIBLE
100
AcDbLine
 10
238.8449383793839
 20
697.313652540571
 30
0.0
 11
242.8449383793839
 21
697.313652540571
 31
0.0
  0
LINE
  5
493
330
1F
100
AcDbEntity
  8
VISIBLE
100
AcDbLine
 10
238.8449383793839
 20
697.313652540571
 30
0.0
 11
238.8449383793839
 21
719.7136525405709
 31
0.0
  0
LINE
  5
494
330
1F
100
AcDbEntity
  8
VISIBLE
100
AcDbLine
 10
242.8449383793839
 20
697.313652540571
 30
0.0
 11
242.8449383793839
 21
719.7136525405709
 31
0.0
  0
LINE
  5
495
330
1F
100
AcDbEntity
  8
VISIBLE
100
AcDbLine
 10
238.8449383793839
 20
719.7136525405709
 30
0.0
 11
242.8449383793839
 21
719.7136525405709
 31
0.0
  0
ARC
  5
496
330
1F
100
AcDbEntity
  8
VISIBLE
100
AcDbCircle
 10
550.8449383793835
 20
376.8136525405709
 30
0.0
 40
23.99999999999999
100
AcDbArc
 50
180.0
 51
270.0
  0
LINE
  5
497
330
1F
100
AcDbEntity
  8
VISIBLE
100
AcDbLine
 10
526.8449383793836
 20
376.8136525405708
 30
0.0
 11
526.8449383793836
 21
381.3136525405708
 31
0.0
  0
LINE
  5
498
330
1F
100
AcDbEntity
  8
VISIBLE
100
AcDbLine
 10
526.8449383793836
 20
381.3136525405708
 30
0.0
 11
531.3449383793836
 21
381.3136525405708
 31
0.0
  0
LINE
  5
499
330
1F
100
AcDbEntity
  8
VISIBLE
100
AcDbLine
 10
531.3449383793836
 20
381.3136525405708
 30
0.0
 11
531.3449383793836
 21
376.8136525405708
 31
0.0
  0
LINE
  5
49A
330
1F
100
AcDbEntity
  8
VISIBLE
100
AcDbLine
 10
550.8449383793835
 20
352.8136525405709
 30
0.0
 11
555.3449383793835
 21
352.8136525405709
 31
0.0
  0
ARC
  5
49B
330
1F
100
AcDbEntity
  8
VISIBLE
100
AcDbCircle
 10
550.8449383793835
 20
376.8136525405708
 30
0.0
 40
19.49999999999993
100
AcDbArc
 50
180.0
 51
270.0
  0
LINE
  5
49C
330
1F
100
AcDbEntity
  8
VISIBLE
100
AcDbLine
 10
555.3449383793835
 20
357.3136525405708
 30
0.0
 11
550.8449383793835
 21
357.3136525405709
 31
0.0
  0
LINE
  5
49D
330
1F
100
AcDbEntity
  8
VISIBLE
100
AcDbLine
 10
555.3449383793835
 20
352.8136525405709
 30
0.0
 11
555.3449383793835
 21
357.3136525405708
 31
0.0
  0
LINE
  5
49E
330
1F
100
AcDbEntity
  8
VISIBLE
100
AcDbLine
 10
233.8449383793837
 20
727.313652540571
 30
0.0
 11
233.8449383793837
 21
749.7136525405709
 31
0.0
  0
LINE
  5
49F
330
1F
100
AcDbEntity
  8
VISIBLE
100
AcDbLine
 10
229.8449383793837
 20
727.313652540571
 30
0.0
 11
233.8449383793837
 21
727.313652540571
 31
0.0
  0
LINE
  5
4A0
330
1F
100
AcDbEntity
  8
VISIBLE
100
AcDbLine
 10
229.8449383793837
 20
727.313652540571
 30
0.0
 11
229.8449383793837
 21
749.7136525405709
 31
0.0
  0
LINE
  5
4A1
330
1F
100
AcDbEntity
  8
VISIBLE
100
AcDbLine
 10
229.8449383793837
 20
749.7136525405709
 30
0.0
 11
233.8449383793837
 21
749.7136525405709
 31
0.0
  0
LINE
  5
4A2
330
1F
100
AcDbEntity
  8
VISIBLE
100
AcDbLine
 10
580.3449383793835
 20
376.8136525405709
 30
0.0
 11
580.3449383793835
 21
372.3136525405709
 31
0.0
  0
ARC
  5
4A3
330
1F
100
AcDbEntity
  8
VISIBLE
100
AcDbCircle
 10
580.3449383793835
 20
352.813652540571
 30
0.0
 40
19.49999999999993
100
AcDbArc
 50
90.0
 51
180.0
  0
LINE
  5
4A4
330
1F
100
AcDbEntity
  8
VISIBLE
100
AcDbLine
 10
556.3449383793835
 20
352.813652540571
 30
0.0
 11
560.8449383793836
 21
352.813652540571
 31
0.0
  0
ARC
  5
4A5
330
1F
100
AcDbEntity
  8
VISIBLE
100
AcDbCircle
 10
580.3449383793835
 20
352.8136525405709
 30
0.0
 40
23.99999999999999
100
AcDbArc
 50
90.0
 51
180.0
  0
LINE
  5
4A6
330
1F
100
AcDbEntity
  8
VISIBLE
100
AcDbLine
 10
213.8449383793839
 20
697.313652540571
 30
0.0
 11
217.8449383793839
 21
697.313652540571
 31
0.0
  0
LINE
  5
4A7
330
1F
100
AcDbEntity
  8
VISIBLE
100
AcDbLine
 10
213.8449383793839
 20
719.7136525405709
 30
0.0
 11
217.8449383793839
 21
719.7136525405709
 31
0.0
  0
LINE
  5
4A8
330
1F
100
AcDbEntity
  8
VISIBLE
100
AcDbLine
 10
217.8449383793839
 20
697.313652540571
 30
0.0
 11
217.8449383793839
 21
719.7136525405709
 31
0.0
  0
LINE
  5
4A9
330
1F
100
AcDbEntity
  8
VISIBLE
100
AcDbLine
 10
213.8449383793839
 20
697.313652540571
 30
0.0
 11
213.8449383793839
 21
719.7136525405709
 31
0.0
  0
ARC
  5
4AA
330
1F
100
AcDbEntity
  8
VISIBLE
100
AcDbCircle
 10
575.8449383793836
 20
382.313652540571
 30
0.0
 40
23.99999999999997
100
AcDbArc
 50
90.0
 51
180.0
  0
LINE
  5
4AB
330
1F
100
AcDbEntity
  8
VISIBLE
100
AcDbLine
 10
575.8449383793836
 20
406.3136525405709
 30
0.0
 11
575.8449383793836
 21
401.8136525405709
 31
0.0
  0
ARC
  5
4AC
330
1F
100
AcDbEntity
  8
VISIBLE
100
AcDbCircle
 10
575.8449383793836
 20
382.3136525405709
 30
0.0
 40
19.5
100
AcDbArc
 50
90.0
 51
180.0
  0
LINE
  5
4AD
330
1F
100
AcDbEntity
  8
VISIBLE
100
AcDbLine
 10
551.8449383793835
 20
382.3136525405709
 30
0.0
 11
556.3449383793836
 21
382.3136525405709
 31
0.0
  0
LINE
  5
4AE
330
1F
100
AcDbEntity
  8
VISIBLE
100
AcDbLine
 10
86.8449383793835
 20
678.313652540571
 30
0.0
 11
86.8449383793835
 21
696.313652540571
 31
0.0
  0
LINE
  5
4AF
330
1F
100
AcDbEntity
  8
VISIBLE
100
AcDbLine
 10
86.8449383793835
 20
696.313652540571
 30
0.0
 11
88.8449383793835
 21
696.313652540571
 31
0.0
  0
LINE
  5
4B0
330
1F
100
AcDbEntity
  8
TANGENT_LINES
100
AcDbLine
 10
88.8449383793835
 20
696.313652540571
 30
0.0
 11
88.8449383793835
 21
678.313652540571
 31
0.0
  0
LINE
  5
4B1
330
1F
100
AcDbEntity
  8
VISIBLE
100
AcDbLine
 10
88.8449383793835
 20
678.313652540571
 30
0.0
 11
86.8449383793835
 21
678.313652540571
 31
0.0
  0
LINE
  5
4B2
330
1F
100
AcDbEntity
  8
VISIBLE
100
AcDbLine
 10
223.8449383793835
 20
691.813652540571
 30
0.0
 11
223.8449383793835
 21
696.313652540571
 31
0.0
  0
LINE
  5
4B3
330
1F
100
AcDbEntity
  8
VISIBLE
100
AcDbLine
 10
223.8449383793835
 20
691.813652540571
 30
0.0
 11
219.3449383793835
 21
691.813652540571
 31
0.0
  0
LINE
  5
4B4
330
1F
100
AcDbEntity
  8
VISIBLE
100
AcDbLine
 10
219.3449383793835
 20
691.813652540571
 30
0.0
 11
219.3449383793835
 21
687.3136525405708
 31
0.0
  0
LINE
  5
4B5
330
1F
100
AcDbEntity
  8
VISIBLE
100
AcDbLine
 10
223.8449383793835
 20
687.3136525405708
 30
0.0
 11
219.3449383793835
 21
687.3136525405708
 31
0.0
  0
LINE
  5
4B6
330
1F
100
AcDbEntity
  8
VISIBLE
100
AcDbLine
 10
223.8449383793835
 20
682.813652540571
 30
0.0
 11
223.8449383793835
 21
687.3136525405708
 31
0.0
  0
LINE
  5
4B7
330
1F
100
AcDbEntity
  8
VISIBLE
100
AcDbLine
 10
223.8449383793835
 20
682.813652540571
 30
0.0
 11
219.3449383793835
 21
682.813652540571
 31
0.0
  0
LINE
  5
4B8
330
1F
100
AcDbEntity
  8
VISIBLE
100
AcDbLine
 10
219.3449383793835
 20
682.813652540571
 30
0.0
 11
219.3449383793835
 21
678.3136525405708
 31
0.0
  0
LINE
  5
4B9
330
1F
100
AcDbEntity
  8
VISIBLE
100
AcDbLine
 10
88.8449383793835
 20
678.313652540571
 30
0.0
 11
219.3449383793835
 21
678.3136525405708
 31
0.0
  0
LINE
  5
4BA
330
1F
100
AcDbEntity
  8
VISIBLE
100
AcDbLine
 10
88.8449383793835
 20
696.313652540571
 30
0.0
 11
223.8449383793835
 21
696.313652540571
 31
0.0
  0
LINE
  5
4BB
330
1F
100
AcDbEntity
  8
VISIBLE
100
AcDbLine
 10
172.8449383793838
 20
697.313652540571
 30
0.0
 11
172.8449383793838
 21
719.7136525405709
 31
0.0
  0
LINE
  5
4BC
330
1F
100
AcDbEntity
  8
VISIBLE
100
AcDbLine
 10
168.8449383793838
 20
697.313652540571
 30
0.0
 11
172.8449383793838
 21
697.313652540571
 31
0.0
  0
LINE
  5
4BD
330
1F
100
AcDbEntity
  8
VISIBLE
100
AcDbLine
 10
168.8449383793838
 20
697.313652540571
 30
0.0
 11
168.8449383793838
 21
719.7136525405709
 31
0.0
  0
LINE
  5
4BE
330
1F
100
AcDbEntity
  8
VISIBLE
100
AcDbLine
 10
168.8449383793838
 20
719.7136525405709
 30
0.0
 11
172.8449383793838
 21
719.7136525405709
 31
0.0
  0
ARC
  5
4BF
330
1F
100
AcDbEntity
  8
VISIBLE
100
AcDbCircle
 10
600.6449383793839
 20
268.813652540571
 30
0.0
 40
19.39999999999996
100
AcDbArc
 50
90.0
 51
180.0
  0
LINE
  5
4C0
330
1F
100
AcDbEntity
  8
VISIBLE
100
AcDbLine
 10
600.6449383793839
 20
288.2136525405709
 30
0.0
 11
605.1449383793838
 21
288.2136525405709
 31
0.0
  0
LINE
  5
4C1
330
1F
100
AcDbEntity
  8
VISIBLE
100
AcDbLine
 10
605.1449383793838
 20
288.2136525405709
 30
0.0
 11
605.1449383793838
 21
283.7136525405709
 31
0.0
  0
LINE
  5
4C2
330
1F
100
AcDbEntity
  8
VISIBLE
100
AcDbLine
 10
585.7449383793838
 20
264.313652540571
 30
0.0
 11
585.7449383793838
 21
268.813652540571
 31
0.0
  0
LINE
  5
4C3
330
1F
100
AcDbEntity
  8
VISIBLE
100
AcDbLine
 10
605.1449383793838
 20
283.7136525405709
 30
0.0
 11
600.6449383793839
 21
283.7136525405709
 31
0.0
  0
LINE
  5
4C4
330
1F
100
AcDbEntity
  8
VISIBLE
100
AcDbLine
 10
581.2449383793838
 20
264.313652540571
 30
0.0
 11
585.7449383793838
 21
264.313652540571
 31
0.0
  0
LINE
  5
4C5
330
1F
100
AcDbEntity
  8
VISIBLE
100
AcDbLine
 10
581.2449383793838
 20
268.813652540571
 30
0.0
 11
581.2449383793838
 21
264.313652540571
 31
0.0
  0
ARC
  5
4C6
330
1F
100
AcDbEntity
  8
VISIBLE
100
AcDbCircle
 10
600.6449383793838
 20
268.813652540571
 30
0.0
 40
14.89999999999995
100
AcDbArc
 50
89.99999999999957
 51
180.0000000000002
  0
ARC
  5
4C7
330
1F
100
AcDbEntity
  8
VISIBLE
100
AcDbCircle
 10
581.7449383793835
 20
186.2136525405709
 30
0.0
 40
14.89999999999996
100
AcDbArc
 50
179.9999999999998
 51
270.0000000000004
  0
LINE
  5
4C8
330
1F
100
AcDbEntity
  8
VISIBLE
100
AcDbLine
 10
586.2449383793836
 20
171.313652540571
 30
0.0
 11
581.7449383793836
 21
171.3136525405709
 31
0.0
  0
LINE
  5
4C9
330
1F
100
AcDbEntity
  8
VISIBLE
100
AcDbLine
 10
586.2449383793835
 20
166.813652540571
 30
0.0
 11
586.2449383793836
 21
171.313652540571
 31
0.0
  0
LINE
  5
4CA
330
1F
100
AcDbEntity
  8
VISIBLE
100
AcDbLine
 10
586.2449383793835
 20
166.813652540571
 30
0.0
 11
581.7449383793836
 21
166.813652540571
 31
0.0
  0
ARC
  5
4CB
330
1F
100
AcDbEntity
  8
VISIBLE
100
AcDbCircle
 10
581.7449383793836
 20
186.213652540571
 30
0.0
 40
19.40000000000006
100
AcDbArc
 50
180.0000000000002
 51
270.0
  0
LINE
  5
4CC
330
1F
100
AcDbEntity
  8
VISIBLE
100
AcDbLine
 10
562.3449383793835
 20
190.7136525405709
 30
0.0
 11
562.3449383793835
 21
186.2136525405709
 31
0.0
  0
LINE
  5
4CD
330
1F
100
AcDbEntity
  8
VISIBLE
100
AcDbLine
 10
562.3449383793835
 20
190.7136525405709
 30
0.0
 11
566.8449383793835
 21
190.7136525405709
 31
0.0
  0
LINE
  5
4CE
330
1F
100
AcDbEntity
  8
VISIBLE
100
AcDbLine
 10
566.8449383793835
 20
190.7136525405709
 30
0.0
 11
566.8449383793835
 21
186.2136525405709
 31
0.0
  0
LINE
  5
4CF
330
1F
100
AcDbEntity
  8
VISIBLE
100
AcDbLine
 10
143.8449383793837
 20
697.313652540571
 30
0.0
 11
147.8449383793838
 21
697.313652540571
 31
0.0
  0
LINE
  5
4D0
330
1F
100
AcDbEntity
  8
VISIBLE
100
AcDbLine
 10
143.8449383793837
 20
697.313652540571
 30
0.0
 11
143.8449383793837
 21
719.7136525405709
 31
0.0
  0
LINE
  5
4D1
330
1F
100
AcDbEntity
  8
VISIBLE
100
AcDbLine
 10
143.8449383793837
 20
719.7136525405709
 30
0.0
 11
147.8449383793838
 21
719.7136525405709
 31
0.0
  0
LINE
  5
4D2
330
1F
100
AcDbEntity
  8
VISIBLE
100
AcDbLine
 10
147.8449383793838
 20
697.313652540571
 30
0.0
 11
147.8449383793838
 21
719.7136525405709
 31
0.0
  0
LINE
  5
4D3
330
1F
100
AcDbEntity
  8
VISIBLE
100
AcDbLine
 10
149.8449383793836
 20
750.7136525405709
 30
0.0
 11
172.2449383793836
 21
750.7136525405709
 31
0.0
  0
LINE
  5
4D4
330
1F
100
AcDbEntity
  8
VISIBLE
100
AcDbLine
 10
149.8449383793836
 20
754.7136525405709
 30
0.0
 11
149.8449383793836
 21
750.7136525405709
 31
0.0
  0
LINE
  5
4D5
330
1F
100
AcDbEntity
  8
VISIBLE
100
AcDbLine
 10
149.8449383793836
 20
754.7136525405709
 30
0.0
 11
172.2449383793836
 21
754.7136525405709
 31
0.0
  0
LINE
  5
4D6
330
1F
100
AcDbEntity
  8
VISIBLE
100
AcDbLine
 10
172.2449383793836
 20
754.7136525405709
 30
0.0
 11
172.2449383793836
 21
750.7136525405709
 31
0.0
  0
LINE
  5
4D7
330
1F
100
AcDbEntity
  8
VISIBLE
100
AcDbLine
 10
238.8449383793837
 20
727.313652540571
 30
0.0
 11
238.8449383793837
 21
749.7136525405709
 31
0.0
  0
LINE
  5
4D8
330
1F
100
AcDbEntity
  8
VISIBLE
100
AcDbLine
 10
234.8449383793837
 20
727.313652540571
 30
0.0
 11
238.8449383793837
 21
727.313652540571
 31
0.0
  0
LINE
  5
4D9
330
1F
100
AcDbEntity
  8
VISIBLE
100
AcDbLine
 10
234.8449383793837
 20
727.313652540571
 30
0.0
 11
234.8449383793837
 21
749.7136525405709
 31
0.0
  0
LINE
  5
4DA
330
1F
100
AcDbEntity
  8
VISIBLE
100
AcDbLine
 10
234.8449383793837
 20
749.7136525405709
 30
0.0
 11
238.8449383793837
 21
749.7136525405709
 31
0.0
  0
LINE
  5
4DB
330
1F
100
AcDbEntity
  8
VISIBLE
100
AcDbLine
 10
203.8449383793836
 20
727.313652540571
 30
0.0
 11
203.8449383793836
 21
749.7136525405709
 31
0.0
  0
LINE
  5
4DC
330
1F
100
AcDbEntity
  8
VISIBLE
100
AcDbLine
 10
199.8449383793836
 20
727.313652540571
 30
0.0
 11
203.8449383793836
 21
727.313652540571
 31
0.0
  0
LINE
  5
4DD
330
1F
100
AcDbEntity
  8
VISIBLE
100
AcDbLine
 10
199.8449383793836
 20
727.313652540571
 30
0.0
 11
199.8449383793836
 21
749.7136525405709
 31
0.0
  0
LINE
  5
4DE
330
1F
100
AcDbEntity
  8
VISIBLE
100
AcDbLine
 10
199.8449383793836
 20
749.7136525405709
 30
0.0
 11
203.8449383793836
 21
749.7136525405709
 31
0.0
  0
ARC
  5
4DF
330
1F
100
AcDbEntity
  8
VISIBLE
100
AcDbCircle
 10
116.8449383793835
 20
298.3136525405708
 30
0.0
 40
30.0
100
AcDbArc
 50
90.0
 51
180.0
  0
ARC
  5
4E0
330
1F
100
AcDbEntity
  8
VISIBLE
100
AcDbCircle
 10
253.8449383793835
 20
298.3136525405708
 30
0.0
 40
29.99999999999999
100
AcDbArc
 50
0.0
 51
90.00000000000006
  0
LINE
  5
4E1
330
1F
100
AcDbEntity
  8
VISIBLE
100
AcDbLine
 10
116.8449383793835
 20
328.3136525405708
 30
0.0
 11
253.8449383793835
 21
328.3136525405708
 31
0.0
  0
ARC
  5
4E2
330
1F
100
AcDbEntity
  8
VISIBLE
100
AcDbCircle
 10
253.8449383793835
 20
161.3136525405708
 30
0.0
 40
29.99999999999999
100
AcDbArc
 50
270.0
 51
0.0
  0
LINE
  5
4E3
330
1F
100
AcDbEntity
  8
VISIBLE
100
AcDbLine
 10
116.8449383793835
 20
131.3136525405708
 30
0.0
 11
253.8449383793835
 21
131.3136525405708
 31
0.0
  0
ARC
  5
4E4
330
1F
100
AcDbEntity
  8
VISIBLE
100
AcDbCircle
 10
116.8449383793835
 20
161.3136525405708
 30
0.0
 40
29.99999999999998
100
AcDbArc
 50
180.0
 51
270.0
  0
LINE
  5
4E5
330
1F
100
AcDbEntity
  8
VISIBLE
100
AcDbLine
 10
86.8449383793835
 20
161.3136525405708
 30
0.0
 11
86.8449383793835
 21
298.3136525405708
 31
0.0
  0
LINE
  5
4E6
330
1F
100
AcDbEntity
  8
VISIBLE
100
AcDbLine
 10
283.8449383793835
 20
161.3136525405708
 30
0.0
 11
283.8449383793835
 21
298.3136525405708
 31
0.0
  0
LINE
  5
4E7
330
1F
100
AcDbEntity
  8
VISIBLE
100
AcDbLine
 10
157.8449383793838
 20
697.313652540571
 30
0.0
 11
157.8449383793838
 21
719.7136525405709
 31
0.0
  0
LINE
  5
4E8
330
1F
100
AcDbEntity
  8
VISIBLE
100
AcDbLine
 10
153.8449383793838
 20
697.313652540571
 30
0.0
 11
153.8449383793838
 21
719.7136525405709
 31
0.0
  0
LINE
  5
4E9
330
1F
100
AcDbEntity
  8
VISIBLE
100
AcDbLine
 10
153.8449383793838
 20
719.7136525405709
 30
0.0
 11
157.8449383793838
 21
719.7136525405709
 31
0.0
  0
LINE
  5
4EA
330
1F
100
AcDbEntity
  8
VISIBLE
100
AcDbLine
 10
153.8449383793838
 20
697.313652540571
 30
0.0
 11
157.8449383793838
 21
697.313652540571
 31
0.0
  0
LINE
  5
4EB
330
1F
100
AcDbEntity
  8
VISIBLE
100
AcDbLine
 10
148.8449383793838
 20
697.313652540571
 30
0.0
 11
152.8449383793838
 21
697.313652540571
 31
0.0
  0
LINE
  5
4EC
330
1F
100
AcDbEntity
  8
VISIBLE
100
AcDbLine
 10
148.8449383793838
 20
697.313652540571
 30
0.0
 11
148.8449383793838
 21
719.7136525405709
 31
0.0
  0
LINE
  5
4ED
330
1F
100
AcDbEntity
  8
VISIBLE
100
AcDbLine
 10
148.8449383793838
 20
719.7136525405709
 30
0.0
 11
152.8449383793838
 21
719.7136525405709
 31
0.0
  0
LINE
  5
4EE
330
1F
100
AcDbEntity
  8
VISIBLE
100
AcDbLine
 10
152.8449383793838
 20
697.313652540571
 30
0.0
 11
152.8449383793838
 21
719.7136525405709
 31
0.0
  0
ARC
  5
4EF
330
1F
100
AcDbEntity
  8
VISIBLE
100
AcDbCircle
 10
560.8449383793828
 20
268.8136525405721
 30
0.0
 40
19.4
100
AcDbArc
 50
0.0
 51
90.0
  0
LINE
  5
4F0
330
1F
100
AcDbEntity
  8
VISIBLE
100
AcDbLine
 10
580.2449383793829
 20
268.8136525405721
 30
0.0
 11
580.2449383793828
 21
264.3136525405721
 31
0.0
  0
LINE
  5
4F1
330
1F
100
AcDbEntity
  8
VISIBLE
100
AcDbLine
 10
580.2449383793828
 20
264.3136525405721
 30
0.0
 11
575.7449383793829
 21
264.3136525405721
 31
0.0
  0
LINE
  5
4F2
330
1F
100
AcDbEntity
  8
VISIBLE
100
AcDbLine
 10
556.3449383793828
 20
283.7136525405721
 30
0.0
 11
560.8449383793828
 21
283.713652540572
 31
0.0
  0
LINE
  5
4F3
330
1F
100
AcDbEntity
  8
VISIBLE
100
AcDbLine
 10
556.3449383793828
 20
288.2136525405721
 30
0.0
 11
556.3449383793828
 21
283.7136525405721
 31
0.0
  0
LINE
  5
4F4
330
1F
100
AcDbEntity
  8
VISIBLE
100
AcDbLine
 10
556.3449383793828
 20
288.2136525405721
 30
0.0
 11
560.8449383793828
 21
288.2136525405721
 31
0.0
  0
ARC
  5
4F5
330
1F
100
AcDbEntity
  8
VISIBLE
100
AcDbCircle
 10
560.8449383793828
 20
268.813652540572
 30
0.0
 40
14.89999999999995
100
AcDbArc
 50
0.0
 51
90.0
  0
LINE
  5
4F6
330
1F
100
AcDbEntity
  8
VISIBLE
100
AcDbLine
 10
575.7449383793829
 20
264.3136525405721
 30
0.0
 11
575.7449383793827
 21
268.8136525405721
 31
0.0
  0
ARC
  5
4F7
330
1F
100
AcDbEntity
  8
VISIBLE
100
AcDbCircle
 10
264.6449383793835
 20
353.313652540571
 30
0.0
 40
14.89999999999995
100
AcDbArc
 50
89.99999999999979
 51
180.0000000000004
  0
LINE
  5
4F8
330
1F
100
AcDbEntity
  8
VISIBLE
100
AcDbLine
 10
245.2449383793835
 20
353.3136525405708
 30
0.0
 11
249.7449383793835
 21
353.3136525405708
 31
0.0
  0
ARC
  5
4F9
330
1F
100
AcDbEntity
  8
VISIBLE
100
AcDbCircle
 10
264.6449383793835
 20
353.3136525405708
 30
0.0
 40
19.39999999999996
100
AcDbArc
 50
90.00000000000016
 51
180.0
  0
LINE
  5
4FA
330
1F
100
AcDbEntity
  8
VISIBLE
100
AcDbLine
 10
264.6449383793835
 20
372.7136525405708
 30
0.0
 11
264.6449383793835
 21
368.2136525405709
 31
0.0
  0
LINE
  5
4FB
330
1F
100
AcDbEntity
  8
VISIBLE
100
AcDbLine
 10
198.8449383793838
 20
697.313652540571
 30
0.0
 11
198.8449383793838
 21
719.7136525405709
 31
0.0
  0
LINE
  5
4FC
330
1F
100
AcDbEntity
  8
VISIBLE
100
AcDbLine
 10
198.8449383793838
 20
697.313652540571
 30
0.0
 11
202.8449383793838
 21
697.313652540571
 31
0.0
  0
LINE
  5
4FD
330
1F
100
AcDbEntity
  8
VISIBLE
100
AcDbLine
 10
202.8449383793838
 20
697.313652540571
 30
0.0
 11
202.8449383793838
 21
719.7136525405709
 31
0.0
  0
LINE
  5
4FE
330
1F
100
AcDbEntity
  8
VISIBLE
100
AcDbLine
 10
198.8449383793838
 20
719.7136525405709
 30
0.0
 11
202.8449383793838
 21
719.7136525405709
 31
0.0
  0
MTEXT
  5
4FF
102
{ACAD_XDICTIONARY
360
500
102
}
330
1F
100
AcDbEntity
  8
ANNOTATION_TEXT
 62
     7
 60
     1
100
AcDbMText
 10
614.7449383793837
 20
76.77365254057082
 30
0.0
 40
3.5
 41
0.0
 71
     2
 72
     1
  1

  7
ONSHAPE-STANDARD-VIEW-LABE
1001
ACAD
1000
ACAD_MTEXT_DEFINED_HEIGHT_BEGIN
1070
    46
1040
3.5
1000
ACAD_MTEXT_DEFINED_HEIGHT_END
  0
MTEXT
  5
506
102
{ACAD_XDICTIONARY
360
589
102
}
330
1F
100
AcDbEntity
  8
ANNOTATION_TEXT
100
AcDbMText
 10
160.4285553890306
 20
243.7387566206583
 30
0.0
 40
3.5
 41
14.36955040871935
 71
     1
 72
     5
  1
cherry
  7
ONSHAPE-STANDARD-NOTESTYLE
1001
ACAD
1000
ACAD_MTEXT_DEFINED_HEIGHT_BEGIN
1070
    46
1040
4.673024523160763
1000
ACAD_MTEXT_DEFINED_HEIGHT_END
  0
MTEXT
  5
509
102
{ACAD_XDICTIONARY
360
58B
102
}
330
1F
100
AcDbEntity
  8
ANNOTATION_TEXT
100
AcDbMText
 10
367.8709381573416
 20
227.1116954064042
 30
0.0
 40
3.5
 41
14.36955040871936
 71
     1
 72
     5
  1
cherry
  7
ONSHAPE-STANDARD-NOTESTYLE
1001
ACAD
1000
ACAD_MTEXT_DEFINED_HEIGHT_BEGIN
1070
    46
1040
4.673024523160763
1000
ACAD_MTEXT_DEFINED_HEIGHT_END
  0
MTEXT
  5
50A
102
{ACAD_XDICTIONARY
360
58D
102
}
330
1F
100
AcDbEntity
  8
ANNOTATION_TEXT
100
AcDbMText
 10
149.1216779324427
 20
585.6140157159425
 30
0.0
 40
3.5
 41
14.36955040871936
 71
     1
 72
     5
  1
cherry
  7
ONSHAPE-STANDARD-NOTESTYLE
1001
ACAD
1000
ACAD_MTEXT_DEFINED_HEIGHT_BEGIN
1070
    46
1040
4.673024523160763
1000
ACAD_MTEXT_DEFINED_HEIGHT_END
  0
MTEXT
  5
50B
102
{ACAD_XDICTIONARY
360
58F
102
}
330
1F
100
AcDbEntity
  8
ANNOTATION_TEXT
100
AcDbMText
 10
362.8981792585647
 20
573.7375434200468
 30
0.0
 40
3.5
 41
14.36955040871936
 71
     1
 72
     5
  1
cherry
  7
ONSHAPE-STANDARD-NOTESTYLE
1001
ACAD
1000
ACAD_MTEXT_DEFINED_HEIGHT_BEGIN
1070
    46
1040
4.673024523160763
1000
ACAD_MTEXT_DEFINED_HEIGHT_END
  0
ENDSEC
  0
SECTION
  2
OBJECTS
  0
DICTIONARY
  5
C
330
0
100
AcDbDictionary
  3
ACAD_GROUP
350
D
  3
ACAD_LAYOUT
350
1A
  3
ACAD_MATERIAL
350
43
  3
ACAD_MLEADERSTYLE
350
6B
  3
ACAD_MLINESTYLE
350
17
  3
ACAD_PLOTSETTINGS
350
19
  3
ACAD_SCALELIST
350
47
  3
ACAD_VISUALSTYLE
350
2A
  3
ACDB_RECOMPOSE_DATA
350
59C
  3
ACDBHEADERROUNDTRIPXREC
350
55E
  3
ACDBVARIABLEDICTIONARY
350
6E
  3
ONSHAPE_DATA
350
50C
  0
DICTIONARY
  5
591
330
8
100
AcDbDictionary
280
     1
  3
ACAD_XREC_ROUNDTRIP
360
592
  0
DICTIONARY
  5
500
330
4FF
100
AcDbDictionary
280
     1
  3
ONSHAPE_VIEW_ID
360
501
  0
DICTIONARY
  5
589
330
506
100
AcDbDictionary
280
     1
  3
ACAD_MTEXT_RT
360
58A
  0
DICTIONARY
  5
58B
330
509
100
AcDbDictionary
280
     1
  3
ACAD_MTEXT_RT
360
58C
  0
DICTIONARY
  5
58D
330
50A
100
AcDbDictionary
280
     1
  3
ACAD_MTEXT_RT
360
58E
  0
DICTIONARY
  5
58F
330
50B
100
AcDbDictionary
280
     1
  3
ACAD_MTEXT_RT
360
590
  0
DICTIONARY
  5
D
102
{ACAD_REACTORS
330
C
102
}
330
C
100
AcDbDictionary
  0
DICTIONARY
  5
1A
102
{ACAD_REACTORS
330
C
102
}
330
C
100
AcDbDictionary
  0
DICTIONARY
  5
43
102
{ACAD_REACTORS
330
C
102
}
330
C
100
AcDbDictionary
  3
BYBLOCK
350
45
  3
BYLAYER
350
44
  3
GLOBAL
350
46
  0
DICTIONARY
  5
6B
102
{ACAD_REACTORS
330
C
102
}
330
C
100
AcDbDictionary
  3
STANDARD
350
6C
  0
DICTIONARY
  5
17
102
{ACAD_REACTORS
330
C
102
}
330
C
100
AcDbDictionary
  3
STANDARD
350
18
  0
DICTIONARY
  5
19
102
{ACAD_REACTORS
330
C
102
}
330
C
100
AcDbDictionary
  0
DICTIONARY
  5
47
102
{ACAD_REACTORS
330
C
102
}
330
C
100
AcDbDictionary
  3
A0
350
48
  3
A1
350
49
  3
A2
350
4A
  3
A3
350
4B
  3
A4
350
4C
  3
A5
350
4D
  3
A6
350
4E
  3
A7
350
4F
  3
A8
350
50
  3
A9
350
51
  3
B0
350
52
  3
B1
350
53
  3
B2
350
54
  3
B3
350
55
  3
B4
350
56
  3
B5
350
57
  3
B6
350
58
  3
B7
350
59
  3
B8
350
5A
  3
B9
350
5B
  3
C0
350
5C
  3
C1
350
5D
  3
C2
350
5E
  3
C3
350
5F
  3
C4
350
60
  3
C5
350
61
  3
C6
350
62
  3
C7
350
63
  3
C8
350
64
  3
C9
350
65
  3
D0
350
66
  3
D1
350
67
  3
D2
350
68
  0
DICTIONARY
  5
2A
102
{ACAD_REACTORS
330
C
102
}
330
C
100
AcDbDictionary
  3
2DWIREFRAME
350
2F
  3
BASIC
350
32
  3
BRIGHTEN
350
36
  3
COLORCHANGE
350
3A
  3
CONCEPTUAL
350
34
  3
DIM
350
35
  3
EDGECOLOROFF
350
3D
  3
FACEPATTERN
350
39
  3
FLAT
350
2B
  3
FLATWITHEDGES
350
2C
  3
GOURAUD
350
2D
  3
GOURAUDWITHEDGES
350
2E
  3
HIDDEN
350
31
  3
JITTEROFF
350
3B
  3
LINEPATTERN
350
38
  3
OVERHANGOFF
350
3C
  3
REALISTIC
350
33
  3
SHADED
350
42
  3
SHADED_WITH_EDGES
350
41
  3
SHADES_OF_GRAY
350
3E
  3
SKETCHY
350
3F
  3
THICKEN
350
37
  3
WIREFRAME
350
30
  3
X-RAY
350
40
  0
XRECORD
  5
59C
102
{ACAD_REACTORS
330
C
102
}
330
C
100
AcDbXrecord
 90
        1
330
509
330
50A
330
50B
330
506
  0
DICTIONARY
  5
55E
102
{ACAD_REACTORS
330
C
102
}
330
C
100
AcDbDictionary
  3
CEPSNID
350
568
  3
CEPSNTYPE
350
567
  3
DIMSTYLEDATA
350
57E
  3
FINGERPRINTGUID
350
569
  3
HYPERLINKBASE
350
561
  3
INSUNITS
350
566
  3
LAYOUTDICT
350
563
  3
LWETCUNION
350
565
  3
PLOTSETDICT
350
564
  3
PSVPSCALE
350
56B
  3
PUCSBASE
350
56E
  3
PUCSORGBACK
350
574
  3
PUCSORGBOTTOM
350
570
  3
PUCSORGFRONT
350
573
  3
PUCSORGLEFT
350
571
  3
PUCSORGRIGHT
350
572
  3
PUCSORGTOP
350
56F
  3
PUCSORTHOREF
350
56C
  3
PUCSORTHOVIEW
350
56D
  3
STYLESHEET
350
562
  3
TSTACKALIGN
350
55F
  3
TSTACKSIZE
350
560
  3
UCSBASE
350
577
  3
UCSORGBACK
350
57D
  3
UCSORGBOTTOM
350
579
  3
UCSORGFRONT
350
57C
  3
UCSORGLEFT
350
57A
  3
UCSORGRIGHT
350
57B
  3
UCSORGTOP
350
578
  3
UCSORTHOREF
350
575
  3
UCSORTHOVIEW
350
576
  3
VERSIONGUID
350
56A
  0
DICTIONARY
  5
6E
102
{ACAD_REACTORS
330
C
102
}
330
C
100
AcDbDictionary
  3
CANNOSCALE
350
593
  3
CENTEREXE
350
585
  3
CENTERLTYPEFILE
350
586
  3
CMLEADERSTYLE
350
580
  3
CTABLESTYLE
350
57F
  3
DIMASSOC
350
587
  3
HIDETEXT
350
588
  3
MSLTSCALE
350
594
  3
OLEFRAME
350
6F
  3
PSOLHEIGHT
350
582
  3
PSOLWIDTH
350
581
  0
DICTIONARY
  5
50C
102
{ACAD_REACTORS
330
C
102
}
330
C
100
AcDbDictionary
280
     1
  3
DIM_UNITS
360
50D
  3
ONSHAPE_ANG_TOL_PRECISION
360
510
  3
ONSHAPE_JOGDIMENSION_LOCK_
360
512
  3
ONSHAPE_SHOWDIMENSIONSLINE
360
513
  3
ONSHAPE_UNDERLINEOVERRIDEN
360
511
  3
ONSHAPE_VSHARP_EXTENSION
360
50F
  3
ONSHAPE_WELD_STANDARD
360
50E
  0
XRECORD
  5
592
102
{ACAD_REACTORS
330
591
102
}
330
591
100
AcDbXrecord
102
VTR_0.000_0.000_1.000_1.000_VISUALSTYLE
340
2F
102
VTR_0.000_0.000_1.000_1.000_GRIDDISPLAY
 70
     3
102
VTR_0.000_0.000_1.000_1.000_GRIDMAJOR
 70
     5
102
VTR_0.000_0.000_1.000_1.000_DEFAULTLIGHTING
280
     1
102
VTR_0.000_0.000_1.000_1.000_DEFAULTLIGHTINGTYPE
 70
     1
102
VTR_0.000_0.000_1.000_1.000_BRIGHTNESS
141
0.0
102
VTR_0.000_0.000_1.000_1.000_CONTRAST
142
0.0
  0
XRECORD
  5
501
102
{ACAD_REACTORS
330
500
102
}
330
500
100
AcDbXrecord
330
0
  0
XRECORD
  5
58A
102
{ACAD_REACTORS
330
589
102
}
330
589
100
AcDbXrecord
 40
2362.0
  1
{\pxql;cherry}
  0
XRECORD
  5
58C
102
{ACAD_REACTORS
330
58B
102
}
330
58B
100
AcDbXrecord
 40
2362.0
  1
{\pxql;cherry}
  0
XRECORD
  5
58E
102
{ACAD_REACTORS
330
58D
102
}
330
58D
100
AcDbXrecord
 40
2362.0
  1
{\pxql;cherry}
  0
XRECORD
  5
590
102
{ACAD_REACTORS
330
58F
102
}
330
58F
100
AcDbXrecord
 40
2362.0
  1
{\pxql;cherry}
  0
MATERIAL
  5
45
102
{ACAD_REACTORS
330
43
102
}
102
{ACAD_XDICTIONARY
360
597
102
}
330
43
100
AcDbMaterial
  1
BYBLOCK
  0
MATERIAL
  5
44
102
{ACAD_REACTORS
330
43
102
}
102
{ACAD_XDICTIONARY
360
595
102
}
330
43
100
AcDbMaterial
  1
BYLAYER
  0
MATERIAL
  5
46
102
{ACAD_REACTORS
330
43
102
}
102
{ACAD_XDICTIONARY
360
599
102
}
330
43
100
AcDbMaterial
  1
GLOBAL
  0
ACAD_PROXY_OBJECT
  5
6C
102
{ACAD_REACTORS
330
6B
102
}
330
6B
100
AcDbProxyObject
 90
      499
 91
      505
 93
      610
310
40901902A4063FBFFFFFE0000000000000020400000000000020404214DD185B99185C990000000000000104090140501A00000000000004100000000000000041025764000000000000039000
340
14
340
0
340
11
340
0
 94
        0
1001
ACAD_MLEADERVER
1070
     2
  0
MLINESTYLE
  5
18
102
{ACAD_REACTORS
330
17
102
}
330
17
100
AcDbMlineStyle
  2
Standard
 70
     0
  3

 62
   256
 51
90.0
 52
90.0
 71
     2
 49
0.5
 62
   256
  6
BYLAYER
 49
-0.5
 62
   256
  6
BYLAYER
  0
ACAD_PROXY_OBJECT
  5
48
102
{ACAD_REACTORS
330
47
102
}
330
47
100
AcDbProxyObject
 90
      499
 91
      503
 93
       41
310
903313A31580
  0
ACAD_PROXY_OBJECT
  5
49
102
{ACAD_REACTORS
330
47
102
}
330
47
100
AcDbProxyObject
 90
      499
 91
      503
 93
      105
310
903313A324000000000000004000
  0
ACAD_PROXY_OBJECT
  5
4A
102
{ACAD_REACTORS
330
47
102
}
330
47
100
AcDbProxyObject
 90
      499
 91
      503
 93
      105
310
903313A344000000000000104000
  0
ACAD_PROXY_OBJECT
  5
4B
102
{ACAD_REACTORS
330
47
102
}
330
47
100
AcDbProxyObject
 90
      499
 91
      503
 93
      105
310
903313A354000000000000144000
  0
ACAD_PROXY_OBJECT
  5
4C
102
{ACAD_REACTORS
330
47
102
}
330
47
100
AcDbProxyObject
 90
      499
 91
      503
 93
      105
310
903313A384000000000000204000
  0
ACAD_PROXY_OBJECT
  5
4D
102
{ACAD_REACTORS
330
47
102
}
330
47
100
AcDbProxyObject
 90
      499
 91
      503
 93
      113
310
904313A31304000000000000244000
  0
ACAD_PROXY_OBJECT
  5
4E
102
{ACAD_REACTORS
330
47
102
}
330
47
100
AcDbProxyObject
 90
      499
 91
      503
 93
      113
310
904313A31364000000000000304000
  0
ACAD_PROXY_OBJECT
  5
4F
102
{ACAD_REACTORS
330
47
102
}
330
47
100
AcDbProxyObject
 90
      499
 91
      503
 93
      113
310
904313A32304000000000000344000
  0
ACAD_PROXY_OBJECT
  5
50
102
{ACAD_REACTORS
330
47
102
}
330
47
100
AcDbProxyObject
 90
      499
 91
      503
 93
      113
310
904313A333040000000000003E4000
  0
ACAD_PROXY_OBJECT
  5
51
102
{ACAD_REACTORS
330
47
102
}
330
47
100
AcDbProxyObject
 90
      499
 91
      503
 93
      113
310
904313A34304000000000000444000
  0
ACAD_PROXY_OBJECT
  5
52
102
{ACAD_REACTORS
330
47
102
}
330
47
100
AcDbProxyObject
 90
      499
 91
      503
 93
      113
310
904313A35304000000000000494000
  0
ACAD_PROXY_OBJECT
  5
53
102
{ACAD_REACTORS
330
47
102
}
330
47
100
AcDbProxyObject
 90
      499
 91
      503
 93
      121
310
905313A3130304000000000000594000
  0
ACAD_PROXY_OBJECT
  5
54
102
{ACAD_REACTORS
330
47
102
}
330
47
100
AcDbProxyObject
 90
      499
 91
      503
 93
      105
310
903323A310000000000000010100
  0
ACAD_PROXY_OBJECT
  5
55
102
{ACAD_REACTORS
330
47
102
}
330
47
100
AcDbProxyObject
 90
      499
 91
      503
 93
      105
310
903343A310000000000000410100
  0
ACAD_PROXY_OBJECT
  5
56
102
{ACAD_REACTORS
330
47
102
}
330
47
100
AcDbProxyObject
 90
      499
 91
      503
 93
      105
310
903383A310000000000000810100
  0
ACAD_PROXY_OBJECT
  5
57
102
{ACAD_REACTORS
330
47
102
}
330
47
100
AcDbProxyObject
 90
      499
 91
      503
 93
      113
310
90431303A310000000000000910100
  0
ACAD_PROXY_OBJECT
  5
58
102
{ACAD_REACTORS
330
47
102
}
330
47
100
AcDbProxyObject
 90
      499
 91
      503
 93
      121
310
9053130303A310000000000001650100
  0
ACAD_PROXY_OBJECT
  5
59
102
{ACAD_REACTORS
330
47
102
}
330
47
100
AcDbProxyObject
 90
      499
 91
      503
 93
      257
310
90E312F31323822203D2031272D3022000000000000200FC000000000000284000
  0
ACAD_PROXY_OBJECT
  5
5A
102
{ACAD_REACTORS
330
47
102
}
330
47
100
AcDbProxyObject
 90
      499
 91
      503
 93
      249
310
90D312F363422203D2031272D3022000000000000240FC000000000000284000
  0
ACAD_PROXY_OBJECT
  5
5B
102
{ACAD_REACTORS
330
47
102
}
330
47
100
AcDbProxyObject
 90
      499
 91
      503
 93
      249
310
90D312F333222203D2031272D3022000000000000280FC000000000000284000
  0
ACAD_PROXY_OBJECT
  5
5C
102
{ACAD_REACTORS
330
47
102
}
330
47
100
AcDbProxyObject
 90
      499
 91
      503
 93
      249
310
90D312F313622203D2031272D30220000000000002C0FC000000000000284000
  0
ACAD_PROXY_OBJECT
  5
5D
102
{ACAD_REACTORS
330
47
102
}
330
47
100
AcDbProxyObject
 90
      499
 91
      503
 93
      249
310
90D332F333222203D2031272D30220000000000002E0FC000000000000284000
  0
ACAD_PROXY_OBJECT
  5
5E
102
{ACAD_REACTORS
330
47
102
}
330
47
100
AcDbProxyObject
 90
      499
 91
      503
 93
      241
310
90C312F3822203D2031272D3022000000000000300FC000000000000284000
  0
ACAD_PROXY_OBJECT
  5
5F
102
{ACAD_REACTORS
330
47
102
}
330
47
100
AcDbProxyObject
 90
      499
 91
      503
 93
      249
310
90D332F313622203D2031272D3022000000000000320FC000000000000284000
  0
ACAD_PROXY_OBJECT
  5
60
102
{ACAD_REACTORS
330
47
102
}
330
47
100
AcDbProxyObject
 90
      499
 91
      503
 93
      241
310
90C312F3422203D2031272D3022000000000000340FC000000000000284000
  0
ACAD_PROXY_OBJECT
  5
61
102
{ACAD_REACTORS
330
47
102
}
330
47
100
AcDbProxyObject
 90
      499
 91
      503
 93
      241
310
90C332F3822203D2031272D3022000000000000360FC000000000000284000
  0
ACAD_PROXY_OBJECT
  5
62
102
{ACAD_REACTORS
330
47
102
}
330
47
100
AcDbProxyObject
 90
      499
 91
      503
 93
      241
310
90C312F3222203D2031272D3022000000000000380FC000000000000284000
  0
ACAD_PROXY_OBJECT
  5
63
102
{ACAD_REACTORS
330
47
102
}
330
47
100
AcDbProxyObject
 90
      499
 91
      503
 93
      241
310
90C332F3422203D2031272D30220000000000003A0FC000000000000284000
  0
ACAD_PROXY_OBJECT
  5
64
102
{ACAD_REACTORS
330
47
102
}
330
47
100
AcDbProxyObject
 90
      499
 91
      503
 93
      161
310
90A3122203D2031272D30224000000000000284000
  0
ACAD_PROXY_OBJECT
  5
65
102
{ACAD_REACTORS
330
47
102
}
330
47
100
AcDbProxyObject
 90
      499
 91
      503
 93
      257
310
90E312D312F3222203D2031272D30220000000000003E0FC000000000000284000
  0
ACAD_PROXY_OBJECT
  5
66
102
{ACAD_REACTORS
330
47
102
}
330
47
100
AcDbProxyObject
 90
      499
 91
      503
 93
      225
310
90A3322203D2031272D302200000000000002100000000000000284000
  0
ACAD_PROXY_OBJECT
  5
67
102
{ACAD_REACTORS
330
47
102
}
330
47
100
AcDbProxyObject
 90
      499
 91
      503
 93
      225
310
90A3622203D2031272D302200000000000006100000000000000284000
  0
ACAD_PROXY_OBJECT
  5
68
102
{ACAD_REACTORS
330
47
102
}
330
47
100
AcDbProxyObject
 90
      499
 91
      503
 93
      249
310
90D31272D3022203D2031272D30220000000000000A100000000000000284000
  0
ACAD_PROXY_OBJECT
  5
2F
102
{ACAD_REACTORS
330
2A
102
}
330
2A
100
AcDbProxyObject
 90
      499
 91
      501
 93
      436
310
42CC9915DA5C99599C985B595049028333333333333E33F0000000000000F90107901411070040501600405405064090741402480A0340
1001
ACAD
1000
AcDbSavedByObjectVersion
1070
     0
  0
ACAD_PROXY_OBJECT
  5
32
102
{ACAD_REACTORS
330
2A
102
}
330
2A
100
AcDbProxyObject
 90
      499
 91
      501
 93
      388
310
4150985CDA58D07406404333333333333E33F0000000000000F90107A41107004050150841D405064090741402480A0350
1001
ACAD
1000
AcDbSavedByObjectVersion
1070
     0
  0
ACAD_PROXY_OBJECT
  5
36
102
{ACAD_REACTORS
330
2A
102
}
330
2A
100
AcDbProxyObject
 90
      499
 91
      501
 93
      428
310
42109C9A59DA1D195B90C409028333333333333E33F0000000000000F9010790141107004050150841D405064090741402480A029950
1001
ACAD
1000
AcDbSavedByObjectVersion
1070
     0
  0
ACAD_PROXY_OBJECT
  5
3A
102
{ACAD_REACTORS
330
2A
102
}
330
2A
100
AcDbProxyObject
 90
      499
 91
      501
 93
      452
310
42D0DBDB1BDC90DA185B99D95104090240C333333333333E33F0000000000000F90108901411070040501508421405064090741402480A0350
1001
ACAD
1000
AcDbSavedByObjectVersion
1070
     0
  0
ACAD_PROXY_OBJECT
  5
34
102
{ACAD_REACTORS
330
2A
102
}
330
2A
100
AcDbProxyObject
 90
      499
 91
      501
 93
      500
310
4290DBDB98D95C1D1D585B10940D028333333333333E33F0000000000000F90107902409070040501000000000018199010841D405064090740C02480A0340
1001
ACAD
1000
AcDbSavedByObjectVersion
1070
     0
  0
ACAD_PROXY_OBJECT
  5
35
102
{ACAD_REACTORS
330
2A
102
}
330
2A
100
AcDbProxyObject
 90
      499
 91
      501
 93
      412
310
40D11A5B50B409028333333333333E33F0000000000000F9010790141107004050150841D405064090741402480A02677FFFFFD0
1001
ACAD
1000
AcDbSavedByObjectVersion
1070
     0
  0
ACAD_PROXY_OBJECT
  5
3D
102
{ACAD_REACTORS
330
2A
102
}
330
2A
100
AcDbProxyObject
 90
      499
 91
      501
 93
      452
310
43115919D950DBDB1BDC93D999916409028333333333333E33F0000000000000F9010790141107004050150841D405064090741402480A0350
1001
ACAD
1000
AcDbSavedByObjectVersion
1070
     0
  0
ACAD_PROXY_OBJECT
  5
39
102
{ACAD_REACTORS
330
2A
102
}
330
2A
100
AcDbProxyObject
 90
      499
 91
      501
 93
      444
310
42D19858D95C185D1D195C9B90F409028333333333333E33F0000000000000F9010790141107004050150841D405064090741402480A0350
1001
ACAD
1000
AcDbSavedByObjectVersion
1070
     0
  0
ACAD_PROXY_OBJECT
  5
2B
102
{ACAD_REACTORS
330
2A
102
}
330
2A
100
AcDbProxyObject
 90
      499
 91
      501
 93
      380
310
41119B185D240901404333333333333E33F0000000000000F9010740A907004050150841D405064090741402480A1B50
1001
ACAD
1000
AcDbSavedByObjectVersion
1070
     0
  0
ACAD_PROXY_OBJECT
  5
2C
102
{ACAD_REACTORS
330
2A
102
}
330
2A
100
AcDbProxyObject
 90
      499
 91
      501
 93
      468
310
43519B185D15DA5D1A115919D95CD0140901404333333333333E33F0000000000000F90107409019070040501600405405064090741402480A1B50
1001
ACAD
1000
AcDbSavedByObjectVersion
1070
     0
  0
ACAD_PROXY_OBJECT
  5
2D
102
{ACAD_REACTORS
330
2A
102
}
330
2A
100
AcDbProxyObject
 90
      499
 91
      501
 93
      404
310
41D1DBDD5C985D5910240902404333333333333E33F0000000000000F9010740A9070040501641D405064090741402480A1B50
1001
ACAD
1000
AcDbSavedByObjectVersion
1070
     0
  0
ACAD_PROXY_OBJECT
  5
2E
102
{ACAD_REACTORS
330
2A
102
}
330
2A
100
AcDbProxyObject
 90
      499
 91
      501
 93
      492
310
4411DBDD5C985D5915DA5D1A115919D95CD0340902404333333333333E33F0000000000000F90107409019070040501600405405064090741402480A1B50
1001
ACAD
1000
AcDbSavedByObjectVersion
1070
     0
  0
ACAD_PROXY_OBJECT
  5
31
102
{ACAD_REACTORS
330
2A
102
}
330
2A
100
AcDbProxyObject
 90
      499
 91
      501
 93
      476
310
41921A5919195B90640502408333333333333E33F0000000000000F901079024090700405020000000000001110200405405064090740C02480A0340
1001
ACAD
1000
AcDbSavedByObjectVersion
1070
     0
  0
ACAD_PROXY_OBJECT
  5
3B
102
{ACAD_REACTORS
330
2A
102
}
330
2A
100
AcDbProxyObject
 90
      499
 91
      501
 93
      428
310
42529A5D1D195C93D999914409028333333333333E33F0000000000000F9010790141107004050150A41D405064090741402480A0350
1001
ACAD
1000
AcDbSavedByObjectVersion
1070
     0
  0
ACAD_PROXY_OBJECT
  5
38
102
{ACAD_REACTORS
330
2A
102
}
330
2A
100
AcDbProxyObject
 90
      499
 91
      501
 93
      444
310
42D31A5B995C185D1D195C9B90E409028333333333333E33F0000000000000F9010790141107004050750841D405064090741402483A0350
1001
ACAD
1000
AcDbSavedByObjectVersion
1070
     0
  0
ACAD_PROXY_OBJECT
  5
3C
102
{ACAD_REACTORS
330
2A
102
}
330
2A
100
AcDbProxyObject
 90
      499
 91
      501
 93
      444
310
42D3DD995C9A185B99D3D999915409028333333333333E33F0000000000000F9010790141107004050150941D405064090741402480A0350
1001
ACAD
1000
AcDbSavedByObjectVersion
1070
     0
  0
ACAD_PROXY_OBJECT
  5
33
102
{ACAD_REACTORS
330
2A
102
}
330
2A
100
AcDbProxyObject
 90
      499
 91
      501
 93
      428
310
425499585B1A5CDD1A58D08409038333333333333E33F0000000000000F9010740A907004050150800405405064090740C02480A1B40
1001
ACAD
1000
AcDbSavedByObjectVersion
1070
     0
  0
ACAD_PROXY_OBJECT
  5
42
102
{ACAD_REACTORS
330
2A
102
}
330
2A
100
AcDbProxyObject
 90
      499
 91
      501
 93
      420
310
4194DA1859195911B40902404333333333333E33F0000000000000F9010740A41107004050150800405405064090840C02480A0B40
1001
ACAD
1000
AcDbSavedByObjectVersion
1070
     0
  0
ACAD_PROXY_OBJECT
  5
41
102
{ACAD_REACTORS
330
2A
102
}
330
2A
100
AcDbProxyObject
 90
      499
 91
      501
 93
      516
310
4454DA18591959081DDA5D1A08195919D95CD1A40902404333333333333E33F0000000000000F901074090142907004050250800405405064090740C02480A0B40
1001
ACAD
1000
AcDbSavedByObjectVersion
1070
     0
  0
ACAD_PROXY_OBJECT
  5
3E
102
{ACAD_REACTORS
330
2A
102
}
330
2A
100
AcDbProxyObject
 90
      499
 91
      501
 93
      532
310
4394DA1859195CC81BD98811DC985E5174090240C333333333333E33F0000000000000F901079024090741D01000000000000111010841D405064090740C02480A0340
1001
ACAD
1000
AcDbSavedByObjectVersion
1070
     0
  0
ACAD_PROXY_OBJECT
  5
3F
102
{ACAD_REACTORS
330
2A
102
}
330
2A
100
AcDbProxyObject
 90
      499
 91
      501
 93
      476
310
41D4DAD95D18DA1E51840502408333333333333E33F0000000000000F901079024090741D01000000000000111010B41D405064090741802480A0340
1001
ACAD
1000
AcDbSavedByObjectVersion
1070
     0
  0
ACAD_PROXY_OBJECT
  5
37
102
{ACAD_REACTORS
330
2A
102
}
330
2A
100
AcDbProxyObject
 90
      499
 91
      501
 93
      412
310
41D51A1A58DAD95B90D409028333333333333E33F0000000000000F9010790141107004050150C41D405064090741402480A0350
1001
ACAD
1000
AcDbSavedByObjectVersion
1070
     0
  0
ACAD_PROXY_OBJECT
  5
30
102
{ACAD_REACTORS
330
2A
102
}
330
2A
100
AcDbProxyObject
 90
      499
 91
      501
 93
      420
310
4255DA5C99599C985B595059028333333333333E33F0000000000000F90107901411070040501600405405064090740C02480A0340
1001
ACAD
1000
AcDbSavedByObjectVersion
1070
     0
  0
ACAD_PROXY_OBJECT
  5
40
102
{ACAD_REACTORS
330
2A
102
}
330
2A
100
AcDbProxyObject
 90
      499
 91
      501
 93
      404
310
41560B54985E51940902404000000000000E03F0000000000000F9010740501907004050150841D405064090740C02480A1B40
1001
ACAD
1000
AcDbSavedByObjectVersion
1070
     0
  0
XRECORD
  5
568
102
{ACAD_REACTORS
330
55E
102
}
330
55E
100
AcDbXrecord
340
0
  0
XRECORD
  5
567
102
{ACAD_REACTORS
330
55E
102
}
330
55E
100
AcDbXrecord
 90
        0
  0
XRECORD
  5
57E
102
{ACAD_REACTORS
330
55E
102
}
330
55E
100
AcDbXrecord
1000
DSTYLE
1002
{
1070
   179
 70
     1
1070
   143
 40
0.03937
1070
   285
 70
     8
1070
   176
 70
     7
1070
   177
 70
     7
1070
   178
 70
     7
1070
   371
 70
    13
1070
   372
 70
    13
1070
   340
340
72
1070
   140
 40
3.5
1070
   288
 70
     1
1002
}
  0
XRECORD
  5
569
102
{ACAD_REACTORS
330
55E
102
}
330
55E
100
AcDbXrecord
  1
{76737870-b5b2-6561-b371-75f235723366}
  0
XRECORD
  5
561
102
{ACAD_REACTORS
330
55E
102
}
330
55E
100
AcDbXrecord
  1

  0
XRECORD
  5
566
102
{ACAD_REACTORS
330
55E
102
}
330
55E
100
AcDbXrecord
 90
        4
  0
XRECORD
  5
563
102
{ACAD_REACTORS
330
55E
102
}
330
55E
100
AcDbXrecord
340
1A
  0
XRECORD
  5
565
102
{ACAD_REACTORS
330
55E
102
}
330
55E
100
AcDbXrecord
 90
    10269
  0
XRECORD
  5
564
102
{ACAD_REACTORS
330
55E
102
}
330
55E
100
AcDbXrecord
340
19
  0
XRECORD
  5
56B
102
{ACAD_REACTORS
330
55E
102
}
330
55E
100
AcDbXrecord
 40
0.0
  0
XRECORD
  5
56E
102
{ACAD_REACTORS
330
55E
102
}
330
55E
100
AcDbXrecord
340
0
  0
XRECORD
  5
574
102
{ACAD_REACTORS
330
55E
102
}
330
55E
100
AcDbXrecord
 10
0.0
 20
0.0
 30
0.0
  0
XRECORD
  5
570
102
{ACAD_REACTORS
330
55E
102
}
330
55E
100
AcDbXrecord
 10
0.0
 20
0.0
 30
0.0
  0
XRECORD
  5
573
102
{ACAD_REACTORS
330
55E
102
}
330
55E
100
AcDbXrecord
 10
0.0
 20
0.0
 30
0.0
  0
XRECORD
  5
571
102
{ACAD_REACTORS
330
55E
102
}
330
55E
100
AcDbXrecord
 10
0.0
 20
0.0
 30
0.0
  0
XRECORD
  5
572
102
{ACAD_REACTORS
330
55E
102
}
330
55E
100
AcDbXrecord
 10
0.0
 20
0.0
 30
0.0
  0
XRECORD
  5
56F
102
{ACAD_REACTORS
330
55E
102
}
330
55E
100
AcDbXrecord
 10
0.0
 20
0.0
 30
0.0
  0
XRECORD
  5
56C
102
{ACAD_REACTORS
330
55E
102
}
330
55E
100
AcDbXrecord
340
0
  0
XRECORD
  5
56D
102
{ACAD_REACTORS
330
55E
102
}
330
55E
100
AcDbXrecord
 70
     0
  0
XRECORD
  5
562
102
{ACAD_REACTORS
330
55E
102
}
330
55E
100
AcDbXrecord
  1

  0
XRECORD
  5
55F
102
{ACAD_REACTORS
330
55E
102
}
330
55E
100
AcDbXrecord
 90
        1
  0
XRECORD
  5
560
102
{ACAD_REACTORS
330
55E
102
}
330
55E
100
AcDbXrecord
 90
       70
  0
XRECORD
  5
577
102
{ACAD_REACTORS
330
55E
102
}
330
55E
100
AcDbXrecord
340
0
  0
XRECORD
  5
57D
102
{ACAD_REACTORS
330
55E
102
}
330
55E
100
AcDbXrecord
 10
0.0
 20
0.0
 30
0.0
  0
XRECORD
  5
579
102
{ACAD_REACTORS
330
55E
102
}
330
55E
100
AcDbXrecord
 10
0.0
 20
0.0
 30
0.0
  0
XRECORD
  5
57C
102
{ACAD_REACTORS
330
55E
102
}
330
55E
100
AcDbXrecord
 10
0.0
 20
0.0
 30
0.0
  0
XRECORD
  5
57A
102
{ACAD_REACTORS
330
55E
102
}
330
55E
100
AcDbXrecord
 10
0.0
 20
0.0
 30
0.0
  0
XRECORD
  5
57B
102
{ACAD_REACTORS
330
55E
102
}
330
55E
100
AcDbXrecord
 10
0.0
 20
0.0
 30
0.0
  0
XRECORD
  5
578
102
{ACAD_REACTORS
330
55E
102
}
330
55E
100
AcDbXrecord
 10
0.0
 20
0.0
 30
0.0
  0
XRECORD
  5
575
102
{ACAD_REACTORS
330
55E
102
}
330
55E
100
AcDbXrecord
340
0
  0
XRECORD
  5
576
102
{ACAD_REACTORS
330
55E
102
}
330
55E
100
AcDbXrecord
 70
     0
  0
XRECORD
  5
56A
102
{ACAD_REACTORS
330
55E
102
}
330
55E
100
AcDbXrecord
  1
{FAEB1C32-E019-11D5-929B-00C0DF256EC4}
  0
DICTIONARYVAR
  5
593
102
{ACAD_REACTORS
330
6E
102
}
330
6E
100
DictionaryVariables
280
     0
  1
1:1
  0
DICTIONARYVAR
  5
585
102
{ACAD_REACTORS
330
6E
102
}
330
6E
100
DictionaryVariables
280
     0
  1
3.500000
  0
DICTIONARYVAR
  5
586
102
{ACAD_REACTORS
330
6E
102
}
330
6E
100
DictionaryVariables
280
     0
  1
MM.LIN
  0
DICTIONARYVAR
  5
580
102
{ACAD_REACTORS
330
6E
102
}
330
6E
100
DictionaryVariables
280
     0
  1
Standard
  0
DICTIONARYVAR
  5
57F
102
{ACAD_REACTORS
330
6E
102
}
330
6E
100
DictionaryVariables
280
     0
  1
Onshape-Standard
  0
DICTIONARYVAR
  5
587
102
{ACAD_REACTORS
330
6E
102
}
330
6E
100
DictionaryVariables
280
     0
  1
2
  0
DICTIONARYVAR
  5
588
102
{ACAD_REACTORS
330
6E
102
}
330
6E
100
DictionaryVariables
280
     0
  1
1
  0
DICTIONARYVAR
  5
594
102
{ACAD_REACTORS
330
6E
102
}
330
6E
100
DictionaryVariables
280
     0
  1
1
  0
DICTIONARYVAR
  5
6F
102
{ACAD_REACTORS
330
6E
102
}
330
6E
100
DictionaryVariables
280
     0
  1
0
  0
DICTIONARYVAR
  5
582
102
{ACAD_REACTORS
330
6E
102
}
330
6E
100
DictionaryVariables
280
     0
  1
80.000000
  0
DICTIONARYVAR
  5
581
102
{ACAD_REACTORS
330
6E
102
}
330
6E
100
DictionaryVariables
280
     0
  1
5.000000
  0
XRECORD
  5
50D
102
{ACAD_REACTORS
330
50C
102
}
330
50C
100
AcDbXrecord
 70
     4
  0
XRECORD
  5
510
102
{ACAD_REACTORS
330
50C
102
}
330
50C
100
AcDbXrecord
 90
        0
  0
XRECORD
  5
512
102
{ACAD_REACTORS
330
50C
102
}
330
50C
100
AcDbXrecord
 90
        0
  0
ACAD_PROXY_OBJECT
  5
513
102
{ACAD_REACTORS
330
50C
102
}
330
50C
100
AcDbProxyObject
 90
      499
 91
      508
 93
       34
310
40C8804040
  0
ACAD_PROXY_OBJECT
  5
511
102
{ACAD_REACTORS
330
50C
102
}
330
50C
100
AcDbProxyObject
 90
      499
 91
      508
 93
       34
310
40C8804040
  0
XRECORD
  5
50F
102
{ACAD_REACTORS
330
50C
102
}
330
50C
100
AcDbXrecord
 90
        0
  0
XRECORD
  5
50E
102
{ACAD_REACTORS
330
50C
102
}
330
50C
100
AcDbXrecord
 90
        1
  0
DICTIONARY
  5
597
330
45
100
AcDbDictionary
280
     1
  3
ACAD_XREC_ROUNDTRIP
360
598
  0
DICTIONARY
  5
595
330
44
100
AcDbDictionary
280
     1
  3
ACAD_XREC_ROUNDTRIP
360
596
  0
DICTIONARY
  5
599
330
46
100
AcDbDictionary
280
     1
  3
ACAD_XREC_ROUNDTRIP
360
59A
  0
XRECORD
  5
598
102
{ACAD_REACTORS
330
597
102
}
330
597
100
AcDbXrecord
102
MATERIAL
148
0.0
149
0.0
149
0.0
 93
        0
 94
      127
282
     0
 72
     1
 77
     1
171
     1
175
     1
179
     1
273
     0
  0
XRECORD
  5
596
102
{ACAD_REACTORS
330
595
102
}
330
595
100
AcDbXrecord
102
MATERIAL
148
0.0
149
0.0
149
0.0
 93
        0
 94
      127
282
     0
 72
     1
 77
     1
171
     1
175
     1
179
     1
273
     0
  0
XRECORD
  5
59A
102
{ACAD_REACTORS
330
599
102
}
330
599
100
AcDbXrecord
102
MATERIAL
148
0.0
149
0.0
149
0.0
 93
        0
 94
      127
282
     0
 72
     1
 77
     1
171
     1
175
     1
179
     1
273
     0
  0
ENDSEC
  0
EOF
