999
"DXF R12 Output" (www.mydxf.blogspot.com)
 0 
SECTION
 2 
HEADER
 9 
$ACADVER
 1 
AC1009
 9 
$EXTMIN
 10 
 0 
 20 
 0 
 9 
$EXTMAX
 10 
 8.5 
 20 
 11 
 0 
ENDSEC
 0 
SECTION
 2 
ENTITIES
0
LINE
8
Layer 1
10
55.823000
20
685.000000
11
55.823000
21
689.000000
0
LINE
8
Layer 1
10
55.823000
20
689.000000
11
69.528800
21
689.000000
0
LINE
8
Layer 1
10
69.528800
20
689.000000
11
69.528800
21
685.000000
0
LINE
8
Layer 1
10
69.528800
20
685.000000
11
83.234600
21
685.000000
0
LINE
8
Layer 1
10
83.234600
20
685.000000
11
83.234600
21
689.000000
0
LINE
8
Layer 1
10
83.234600
20
689.000000
11
96.940400
21
689.000000
0
LINE
8
Layer 1
10
96.940400
20
689.000000
11
96.940400
21
685.000000
0
LINE
8
Layer 1
10
96.940400
20
685.000000
11
110.646000
21
685.000000
0
LINE
8
Layer 1
10
110.646000
20
685.000000
11
110.646000
21
689.000000
0
LINE
8
Layer 1
10
110.646000
20
689.000000
11
124.352000
21
689.000000
0
LINE
8
Layer 1
10
124.352000
20
689.000000
11
124.352000
21
685.000000
0
LINE
8
Layer 1
10
124.352000
20
685.000000
11
138.058000
21
685.000000
0
LINE
8
Layer 1
10
138.058000
20
685.000000
11
138.058000
21
689.000000
0
LINE
8
Layer 1
10
138.058000
20
689.000000
11
151.764000
21
689.000000
0
LINE
8
Layer 1
10
151.764000
20
689.000000
11
151.764000
21
685.000000
0
LINE
8
Layer 1
10
151.764000
20
685.000000
11
165.469000
21
685.000000
0
LINE
8
Layer 1
10
165.469000
20
685.000000
11
165.469000
21
689.000000
0
LINE
8
Layer 1
10
165.469000
20
689.000000
11
179.175000
21
689.000000
0
LINE
8
Layer 1
10
179.175000
20
689.000000
11
179.175000
21
685.000000
0
LINE
8
Layer 1
10
179.175000
20
685.000000
11
192.881000
21
685.000000
0
LINE
8
Layer 1
10
192.881000
20
685.000000
11
192.881000
21
689.000000
0
LINE
8
Layer 1
10
192.881000
20
689.000000
11
206.587000
21
689.000000
0
LINE
8
Layer 1
10
206.587000
20
689.000000
11
206.587000
21
685.000000
0
LINE
8
Layer 1
10
206.587000
20
685.000000
11
220.293000
21
685.000000
0
LINE
8
Layer 1
10
220.293000
20
685.000000
11
220.293000
21
689.000000
0
LINE
8
Layer 1
10
220.293000
20
689.000000
11
233.998000
21
689.000000
0
LINE
8
Layer 1
10
233.998000
20
689.000000
11
233.998000
21
685.000000
0
LINE
8
Layer 1
10
233.998000
20
685.000000
11
247.704000
21
685.000000
0
LINE
8
Layer 1
10
247.704000
20
685.000000
11
247.704000
21
689.000000
0
LINE
8
Layer 1
10
247.704000
20
689.000000
11
261.410000
21
689.000000
0
LINE
8
Layer 1
10
261.410000
20
689.000000
11
261.410000
21
357.000000
0
LINE
8
Layer 1
10
261.410000
20
357.000000
11
247.704000
21
357.000000
0
LINE
8
Layer 1
10
247.704000
20
357.000000
11
247.704000
21
361.000000
0
LINE
8
Layer 1
10
247.704000
20
361.000000
11
233.998000
21
361.000000
0
LINE
8
Layer 1
10
233.998000
20
361.000000
11
233.998000
21
357.000000
0
LINE
8
Layer 1
10
233.998000
20
357.000000
11
220.293000
21
357.000000
0
LINE
8
Layer 1
10
220.293000
20
357.000000
11
220.293000
21
361.000000
0
LINE
8
Layer 1
10
220.293000
20
361.000000
11
206.587000
21
361.000000
0
LINE
8
Layer 1
10
206.587000
20
361.000000
11
206.587000
21
357.000000
0
LINE
8
Layer 1
10
206.587000
20
357.000000
11
192.881000
21
357.000000
0
LINE
8
Layer 1
10
192.881000
20
357.000000
11
192.881000
21
361.000000
0
LINE
8
Layer 1
10
192.881000
20
361.000000
11
179.175000
21
361.000000
0
LINE
8
Layer 1
10
179.175000
20
361.000000
11
179.175000
21
357.000000
0
LINE
8
Layer 1
10
179.175000
20
357.000000
11
165.469000
21
357.000000
0
LINE
8
Layer 1
10
165.469000
20
357.000000
11
165.469000
21
361.000000
0
LINE
8
Layer 1
10
165.469000
20
361.000000
11
151.764000
21
361.000000
0
LINE
8
Layer 1
10
151.764000
20
361.000000
11
151.764000
21
357.000000
0
LINE
8
Layer 1
10
151.764000
20
357.000000
11
138.058000
21
357.000000
0
LINE
8
Layer 1
10
138.058000
20
357.000000
11
138.058000
21
361.000000
0
LINE
8
Layer 1
10
138.058000
20
361.000000
11
124.352000
21
361.000000
0
LINE
8
Layer 1
10
124.352000
20
361.000000
11
124.352000
21
357.000000
0
LINE
8
Layer 1
10
124.352000
20
357.000000
11
110.646000
21
357.000000
0
LINE
8
Layer 1
10
110.646000
20
357.000000
11
110.646000
21
361.000000
0
LINE
8
Layer 1
10
110.646000
20
361.000000
11
96.940400
21
361.000000
0
LINE
8
Layer 1
10
96.940400
20
361.000000
11
96.940400
21
357.000000
0
LINE
8
Layer 1
10
96.940400
20
357.000000
11
83.234600
21
357.000000
0
LINE
8
Layer 1
10
83.234600
20
357.000000
11
83.234600
21
361.000000
0
LINE
8
Layer 1
10
83.234600
20
361.000000
11
69.528800
21
361.000000
0
LINE
8
Layer 1
10
69.528800
20
361.000000
11
69.528800
21
357.000000
0
LINE
8
Layer 1
10
69.528800
20
357.000000
11
55.823000
21
357.000000
0
LINE
8
Layer 1
10
55.823000
20
357.000000
11
55.823000
21
361.000000
0
LINE
8
Layer 1
10
55.823000
20
361.000000
11
42.117200
21
361.000000
0
LINE
8
Layer 1
10
42.117200
20
361.000000
11
42.117200
21
357.000000
0
LINE
8
Layer 1
10
42.117200
20
357.000000
11
28.411400
21
357.000000
0
LINE
8
Layer 1
10
28.411400
20
357.000000
11
28.411400
21
361.000000
0
LINE
8
Layer 1
10
28.411400
20
361.000000
11
14.705600
21
361.000000
0
LINE
8
Layer 1
10
14.705600
20
361.000000
11
14.705600
21
357.000000
0
LINE
8
Layer 1
10
14.705600
20
357.000000
11
0.999777
21
357.000000
0
LINE
8
Layer 1
10
0.999777
20
357.000000
11
0.999777
21
689.000000
0
LINE
8
Layer 1
10
0.999777
20
689.000000
11
14.705600
21
689.000000
0
LINE
8
Layer 1
10
14.705600
20
689.000000
11
14.705600
21
685.000000
0
LINE
8
Layer 1
10
14.705600
20
685.000000
11
28.411400
21
685.000000
0
LINE
8
Layer 1
10
28.411400
20
685.000000
11
28.411400
21
689.000000
0
LINE
8
Layer 1
10
28.411400
20
689.000000
11
42.117200
21
689.000000
0
LINE
8
Layer 1
10
42.117200
20
689.000000
11
42.117200
21
685.000000
0
LINE
8
Layer 1
10
42.117200
20
685.000000
11
55.823000
21
685.000000
0
LINE
8
Layer 1
10
55.823000
20
685.000000
11
55.823000
21
685.000000
0
LINE
8
Layer 1
10
286.748000
20
669.009000
11
278.415000
21
669.009000
0
LINE
8
Layer 1
10
278.415000
20
669.009000
11
278.415000
21
678.009000
0
LINE
8
Layer 1
10
278.415000
20
678.009000
11
278.618165
21
680.024346
0
LINE
8
Layer 1
10
278.618165
20
680.024346
11
279.200851
21
681.901447
0
LINE
8
Layer 1
10
279.200851
20
681.901447
11
280.122845
21
683.600089
0
LINE
8
Layer 1
10
280.122845
20
683.600089
11
281.343935
21
685.080060
0
LINE
8
Layer 1
10
281.343935
20
685.080060
11
282.823908
21
686.301148
0
LINE
8
Layer 1
10
282.823908
20
686.301148
11
284.522552
21
687.223141
0
LINE
8
Layer 1
10
284.522552
20
687.223141
11
286.399653
21
687.805826
0
LINE
8
Layer 1
10
286.399653
20
687.805826
11
288.415000
21
688.008990
0
LINE
8
Layer 1
10
288.415000
20
688.008990
11
293.415000
21
688.009000
0
LINE
8
Layer 1
10
293.415000
20
688.009000
11
295.430347
21
687.805839
0
LINE
8
Layer 1
10
295.430347
20
687.805839
11
297.307448
21
687.223157
0
LINE
8
Layer 1
10
297.307448
20
687.223157
11
299.006092
21
686.301165
0
LINE
8
Layer 1
10
299.006092
20
686.301165
11
300.486065
21
685.080078
0
LINE
8
Layer 1
10
300.486065
20
685.080078
11
301.707155
21
683.600106
0
LINE
8
Layer 1
10
301.707155
20
683.600106
11
302.629149
21
681.901462
0
LINE
8
Layer 1
10
302.629149
20
681.901462
11
303.211835
21
680.024359
0
LINE
8
Layer 1
10
303.211835
20
680.024359
11
303.415000
21
678.009010
0
LINE
8
Layer 1
10
303.415000
20
678.009010
11
303.415000
21
669.009000
0
LINE
8
Layer 1
10
303.415000
20
669.009000
11
295.081000
21
669.009000
0
LINE
8
Layer 1
10
295.081000
20
669.009000
11
295.081000
21
663.009000
0
LINE
8
Layer 1
10
295.081000
20
663.009000
11
286.748000
21
663.009000
0
LINE
8
Layer 1
10
286.748000
20
663.009000
11
286.748000
21
669.009000
0
LINE
8
Layer 1
10
294.369000
20
635.239000
11
294.369000
21
641.239000
0
LINE
8
Layer 1
10
294.369000
20
641.239000
11
286.036000
21
641.239000
0
LINE
8
Layer 1
10
286.036000
20
641.239000
11
286.036000
21
635.239000
0
LINE
8
Layer 1
10
286.036000
20
635.239000
11
277.703000
21
635.239000
0
LINE
8
Layer 1
10
277.703000
20
635.239000
11
277.703000
21
650.239000
0
LINE
8
Layer 1
10
277.703000
20
650.239000
11
277.906164
21
652.254350
0
LINE
8
Layer 1
10
277.906164
20
652.254350
11
278.488849
21
654.131452
0
LINE
8
Layer 1
10
278.488849
20
654.131452
11
279.410842
21
655.830096
0
LINE
8
Layer 1
10
279.410842
20
655.830096
11
280.631931
21
657.310069
0
LINE
8
Layer 1
10
280.631931
20
657.310069
11
282.111904
21
658.531158
0
LINE
8
Layer 1
10
282.111904
20
658.531158
11
283.810548
21
659.453151
0
LINE
8
Layer 1
10
283.810548
20
659.453151
11
285.687650
21
660.035836
0
LINE
8
Layer 1
10
285.687650
20
660.035836
11
287.703000
21
660.239000
0
LINE
8
Layer 1
10
287.703000
20
660.239000
11
292.703000
21
660.239000
0
LINE
8
Layer 1
10
292.703000
20
660.239000
11
294.718350
21
660.035836
0
LINE
8
Layer 1
10
294.718350
20
660.035836
11
296.595452
21
659.453151
0
LINE
8
Layer 1
10
296.595452
20
659.453151
11
298.294096
21
658.531158
0
LINE
8
Layer 1
10
298.294096
20
658.531158
11
299.774069
21
657.310069
0
LINE
8
Layer 1
10
299.774069
20
657.310069
11
300.995158
21
655.830096
0
LINE
8
Layer 1
10
300.995158
20
655.830096
11
301.917151
21
654.131452
0
LINE
8
Layer 1
10
301.917151
20
654.131452
11
302.499836
21
652.254350
0
LINE
8
Layer 1
10
302.499836
20
652.254350
11
302.703000
21
650.239000
0
LINE
8
Layer 1
10
302.703000
20
650.239000
11
302.703000
21
635.239000
0
LINE
8
Layer 1
10
302.703000
20
635.239000
11
294.369000
21
635.239000
0
LINE
8
Layer 1
10
303.971000
20
613.095000
11
303.971000
21
621.428000
0
LINE
8
Layer 1
10
303.971000
20
621.428000
11
312.971000
21
621.428000
0
LINE
8
Layer 1
10
312.971000
20
621.428000
11
314.986342
21
621.224836
0
LINE
8
Layer 1
10
314.986342
20
621.224836
11
316.863439
21
620.642153
0
LINE
8
Layer 1
10
316.863439
20
620.642153
11
318.562078
21
619.720162
0
LINE
8
Layer 1
10
318.562078
20
619.720162
11
320.042046
21
618.499076
0
LINE
8
Layer 1
10
320.042046
20
618.499076
11
321.263132
21
617.019108
0
LINE
8
Layer 1
10
321.263132
20
617.019108
11
322.185123
21
615.320469
0
LINE
8
Layer 1
10
322.185123
20
615.320469
11
322.767806
21
613.443372
0
LINE
8
Layer 1
10
322.767806
20
613.443372
11
322.970970
21
611.428030
0
LINE
8
Layer 1
10
322.970970
20
611.428030
11
322.971000
21
606.428000
0
LINE
8
Layer 1
10
322.971000
20
606.428000
11
322.767836
21
604.412660
0
LINE
8
Layer 1
10
322.767836
20
604.412660
11
322.185153
21
602.535565
0
LINE
8
Layer 1
10
322.185153
20
602.535565
11
321.263162
21
600.836926
0
LINE
8
Layer 1
10
321.263162
20
600.836926
11
320.042076
21
599.356958
0
LINE
8
Layer 1
10
320.042076
20
599.356958
11
318.562108
21
598.135871
0
LINE
8
Layer 1
10
318.562108
20
598.135871
11
316.863469
21
597.213879
0
LINE
8
Layer 1
10
316.863469
20
597.213879
11
314.986372
21
596.631194
0
LINE
8
Layer 1
10
314.986372
20
596.631194
11
312.971030
21
596.428030
0
LINE
8
Layer 1
10
312.971030
20
596.428030
11
303.971000
21
596.428000
0
LINE
8
Layer 1
10
303.971000
20
596.428000
11
303.971000
21
604.761000
0
LINE
8
Layer 1
10
303.971000
20
604.761000
11
297.971000
21
604.761000
0
LINE
8
Layer 1
10
297.971000
20
604.761000
11
297.971000
21
613.095000
0
LINE
8
Layer 1
10
297.971000
20
613.095000
11
303.971000
21
613.095000
0
LINE
8
Layer 1
10
270.201000
20
605.473000
11
276.201000
21
605.473000
0
LINE
8
Layer 1
10
276.201000
20
605.473000
11
276.201000
21
613.807000
0
LINE
8
Layer 1
10
276.201000
20
613.807000
11
270.201000
21
613.807000
0
LINE
8
Layer 1
10
270.201000
20
613.807000
11
270.201000
21
622.140000
0
LINE
8
Layer 1
10
270.201000
20
622.140000
11
285.201000
21
622.140000
0
LINE
8
Layer 1
10
285.201000
20
622.140000
11
287.216342
21
621.936836
0
LINE
8
Layer 1
10
287.216342
20
621.936836
11
289.093439
21
621.354153
0
LINE
8
Layer 1
10
289.093439
20
621.354153
11
290.792078
21
620.432162
0
LINE
8
Layer 1
10
290.792078
20
620.432162
11
292.272046
21
619.211076
0
LINE
8
Layer 1
10
292.272046
20
619.211076
11
293.493132
21
617.731108
0
LINE
8
Layer 1
10
293.493132
20
617.731108
11
294.415123
21
616.032469
0
LINE
8
Layer 1
10
294.415123
20
616.032469
11
294.997806
21
614.155372
0
LINE
8
Layer 1
10
294.997806
20
614.155372
11
295.200970
21
612.140030
0
LINE
8
Layer 1
10
295.200970
20
612.140030
11
295.201000
21
607.140000
0
LINE
8
Layer 1
10
295.201000
20
607.140000
11
294.997836
21
605.124658
0
LINE
8
Layer 1
10
294.997836
20
605.124658
11
294.415153
21
603.247562
0
LINE
8
Layer 1
10
294.415153
20
603.247562
11
293.493162
21
601.548925
0
LINE
8
Layer 1
10
293.493162
20
601.548925
11
292.272076
21
600.068959
0
LINE
8
Layer 1
10
292.272076
20
600.068959
11
290.792108
21
598.847875
0
LINE
8
Layer 1
10
290.792108
20
598.847875
11
289.093469
21
597.925886
0
LINE
8
Layer 1
10
289.093469
20
597.925886
11
287.216372
21
597.343203
0
LINE
8
Layer 1
10
287.216372
20
597.343203
11
285.201030
21
597.140040
0
LINE
8
Layer 1
10
285.201030
20
597.140040
11
270.201000
21
597.140000
0
LINE
8
Layer 1
10
270.201000
20
597.140000
11
270.201000
21
605.473000
 0 
ENDSEC
 0 
EOF