999
"DXF R12 Output" (www.mydxf.blogspot.com)
 0 
SECTION
 2 
HEADER
 9 
$ACADVER
 1 
AC1009
 9 
$EXTMIN
 10 
 0 
 20 
 0 
 9 
$EXTMAX
 10 
 8.5 
 20 
 11 
 0 
ENDSEC
 0 
SECTION
 2 
ENTITIES
0
LINE
8
Layer 1
10
-539.527000
20
848.958000
11
-551.128000
21
848.958000
0
LINE
8
Layer 1
10
-551.128000
20
844.458000
11
-551.128000
21
848.958000
0
LINE
8
Layer 1
10
-551.128000
20
844.458000
11
-562.728000
21
844.458000
0
LINE
8
Layer 1
10
-562.728000
20
932.958000
11
-562.728000
21
844.458000
0
LINE
8
Layer 1
10
-504.728000
20
932.958000
11
-562.728000
21
932.958000
0
LINE
8
Layer 1
10
-504.728000
20
932.958000
11
-504.728000
21
844.458000
0
LINE
8
Layer 1
10
-516.327000
20
844.458000
11
-516.327000
21
848.958000
0
LINE
8
Layer 1
10
-516.327000
20
848.958000
11
-527.928000
21
848.958000
0
LINE
8
Layer 1
10
-527.928000
20
844.458000
11
-527.928000
21
848.958000
0
LINE
8
Layer 1
10
-527.928000
20
844.458000
11
-539.527000
21
844.458000
0
LINE
8
Layer 1
10
-539.527000
20
844.458000
11
-539.527000
21
848.958000
0
LINE
8
Layer 1
10
-504.728000
20
844.458000
11
-516.327000
21
844.458000
0
LINE
8
Layer 1
10
-563.271000
20
839.500000
11
-563.271000
21
751.000000
0
LINE
8
Layer 1
10
-505.271000
20
839.500000
11
-505.271000
21
751.000000
0
LINE
8
Layer 1
10
-516.871000
20
751.000000
11
-505.271000
21
751.000000
0
LINE
8
Layer 1
10
-516.871000
20
755.500000
11
-528.472000
21
755.500000
0
LINE
8
Layer 1
10
-528.472000
20
751.000000
11
-528.472000
21
755.500000
0
LINE
8
Layer 1
10
-540.071000
20
751.000000
11
-528.472000
21
751.000000
0
LINE
8
Layer 1
10
-540.071000
20
751.000000
11
-540.071000
21
755.500000
0
LINE
8
Layer 1
10
-516.871000
20
751.000000
11
-516.871000
21
755.500000
0
LINE
8
Layer 1
10
-563.271000
20
751.000000
11
-551.672000
21
751.000000
0
LINE
8
Layer 1
10
-540.071000
20
755.500000
11
-551.672000
21
755.500000
0
LINE
8
Layer 1
10
-563.271000
20
839.500000
11
-505.271000
21
839.500000
0
LINE
8
Layer 1
10
-551.672000
20
751.000000
11
-551.672000
21
755.500000
0
LINE
8
Layer 1
10
-459.700000
20
844.229000
11
-459.700000
21
848.729000
0
LINE
8
Layer 1
10
-459.700000
20
844.229000
11
-474.000000
21
844.229000
0
LINE
8
Layer 1
10
-474.000000
20
932.729000
11
-474.000000
21
844.229000
0
LINE
8
Layer 1
10
-415.999000
20
932.729000
11
-474.000000
21
932.729000
0
LINE
8
Layer 1
10
-415.999000
20
932.729000
11
-415.999000
21
844.229000
0
LINE
8
Layer 1
10
-415.999000
20
844.229000
11
-430.300000
21
844.229000
0
LINE
8
Layer 1
10
-430.300000
20
844.229000
11
-430.300000
21
848.729000
0
LINE
8
Layer 1
10
-430.300000
20
848.729000
11
-440.100000
21
848.729000
0
LINE
8
Layer 1
10
-440.100000
20
844.229000
11
-440.100000
21
848.729000
0
LINE
8
Layer 1
10
-449.899000
20
844.229000
11
-449.899000
21
848.729000
0
LINE
8
Layer 1
10
-449.899000
20
848.729000
11
-459.700000
21
848.729000
0
LINE
8
Layer 1
10
-440.100000
20
844.229000
11
-449.899000
21
844.229000
0
LINE
8
Layer 1
10
-449.899000
20
755.729000
11
-459.700000
21
755.729000
0
LINE
8
Layer 1
10
-459.700000
20
751.229000
11
-459.700000
21
755.729000
0
LINE
8
Layer 1
10
-474.000000
20
839.729000
11
-474.000000
21
751.229000
0
LINE
8
Layer 1
10
-474.000000
20
839.729000
11
-415.999000
21
839.729000
0
LINE
8
Layer 1
10
-415.999000
20
839.729000
11
-415.999000
21
751.229000
0
LINE
8
Layer 1
10
-430.300000
20
751.229000
11
-415.999000
21
751.229000
0
LINE
8
Layer 1
10
-430.300000
20
751.229000
11
-430.300000
21
755.729000
0
LINE
8
Layer 1
10
-430.300000
20
755.729000
11
-440.100000
21
755.729000
0
LINE
8
Layer 1
10
-440.100000
20
751.229000
11
-440.100000
21
755.729000
0
LINE
8
Layer 1
10
-449.899000
20
751.229000
11
-449.899000
21
755.729000
0
LINE
8
Layer 1
10
-449.899000
20
751.229000
11
-440.100000
21
751.229000
0
LINE
8
Layer 1
10
-474.000000
20
751.229000
11
-459.700000
21
751.229000
0
LINE
8
Layer 1
10
70.000000
20
923.979000
11
70.000000
21
698.979000
0
LINE
8
Layer 1
10
140.000000
20
923.979000
11
140.000000
21
698.979000
0
LINE
8
Layer 1
10
-340.000000
20
813.979000
11
-340.000000
21
755.980000
0
LINE
8
Layer 1
10
-340.000000
20
813.979000
11
-282.000000
21
813.979000
0
LINE
8
Layer 1
10
-282.000000
20
813.979000
11
-282.000000
21
755.980000
0
LINE
8
Layer 1
10
-340.000000
20
755.980000
11
-282.000000
21
755.980000
0
LINE
8
Layer 1
10
-604.916000
20
878.783000
11
-604.916000
21
936.782000
0
LINE
8
Layer 1
10
-604.916000
20
878.783000
11
-662.916000
21
878.783000
0
LINE
8
Layer 1
10
-662.916000
20
878.783000
11
-662.916000
21
936.782000
0
LINE
8
Layer 1
10
-604.916000
20
936.782000
11
-662.916000
21
936.782000
0
LINE
8
Layer 1
10
385.958000
20
981.282000
11
381.458000
21
981.282000
0
LINE
8
Layer 1
10
381.458000
20
992.882000
11
381.458000
21
981.282000
0
LINE
8
Layer 1
10
385.958000
20
992.882000
11
381.458000
21
992.882000
0
LINE
8
Layer 1
10
385.958000
20
999.982000
11
385.958000
21
992.882000
0
LINE
8
Layer 1
10
395.758000
20
999.982000
11
385.958000
21
999.982000
0
LINE
8
Layer 1
10
395.758000
20
999.982000
11
395.758000
21
1004.480000
0
LINE
8
Layer 1
10
405.557000
20
999.982000
11
405.557000
21
1004.480000
0
LINE
8
Layer 1
10
415.357000
20
999.982000
11
405.557000
21
999.982000
0
LINE
8
Layer 1
10
415.357000
20
999.982000
11
415.357000
21
1004.480000
0
LINE
8
Layer 1
10
425.157000
20
999.982000
11
425.157000
21
1004.480000
0
LINE
8
Layer 1
10
434.957000
20
999.982000
11
425.157000
21
999.982000
0
LINE
8
Layer 1
10
434.957000
20
992.882000
11
439.457000
21
992.882000
0
LINE
8
Layer 1
10
439.457000
20
992.882000
11
439.457000
21
981.282000
0
LINE
8
Layer 1
10
434.957000
20
981.282000
11
439.457000
21
981.282000
0
LINE
8
Layer 1
10
434.957000
20
969.682000
11
434.957000
21
981.282000
0
LINE
8
Layer 1
10
434.957000
20
969.682000
11
439.457000
21
969.682000
0
LINE
8
Layer 1
10
434.957000
20
958.082000
11
439.457000
21
958.082000
0
LINE
8
Layer 1
10
434.957000
20
950.982000
11
434.957000
21
958.082000
0
LINE
8
Layer 1
10
425.157000
20
950.982000
11
434.957000
21
950.982000
0
LINE
8
Layer 1
10
425.157000
20
950.982000
11
425.157000
21
946.482000
0
LINE
8
Layer 1
10
425.157000
20
946.482000
11
415.357000
21
946.482000
0
LINE
8
Layer 1
10
415.357000
20
950.982000
11
415.357000
21
946.482000
0
LINE
8
Layer 1
10
405.557000
20
950.982000
11
415.357000
21
950.982000
0
LINE
8
Layer 1
10
405.557000
20
950.982000
11
405.557000
21
946.482000
0
LINE
8
Layer 1
10
395.758000
20
950.982000
11
395.758000
21
946.482000
0
LINE
8
Layer 1
10
385.958000
20
950.982000
11
395.758000
21
950.982000
0
LINE
8
Layer 1
10
400.007000
20
966.482000
11
400.122047
21
965.918828
0
LINE
8
Layer 1
10
400.122047
20
965.918828
11
400.433125
21
965.458875
0
LINE
8
Layer 1
10
400.433125
20
965.458875
11
400.893641
21
965.148734
0
LINE
8
Layer 1
10
400.893641
20
965.148734
11
401.457000
21
965.035000
0
LINE
8
Layer 1
10
401.457000
20
965.035000
11
402.020922
21
965.148734
0
LINE
8
Layer 1
10
402.020922
20
965.148734
11
402.481625
21
965.458875
0
LINE
8
Layer 1
10
402.481625
20
965.458875
11
402.792516
21
965.918828
0
LINE
8
Layer 1
10
402.792516
20
965.918828
11
402.907000
21
966.482000
0
LINE
8
Layer 1
10
402.907000
20
966.482000
11
402.792516
21
967.045594
0
LINE
8
Layer 1
10
402.792516
20
967.045594
11
402.481625
21
967.505500
0
LINE
8
Layer 1
10
402.481625
20
967.505500
11
402.020922
21
967.815406
0
LINE
8
Layer 1
10
402.020922
20
967.815406
11
401.457000
21
967.929000
0
LINE
8
Layer 1
10
401.457000
20
967.929000
11
400.893641
21
967.815406
0
LINE
8
Layer 1
10
400.893641
20
967.815406
11
400.433125
21
967.505500
0
LINE
8
Layer 1
10
400.433125
20
967.505500
11
400.122047
21
967.045594
0
LINE
8
Layer 1
10
400.122047
20
967.045594
11
400.007000
21
966.482000
0
LINE
8
Layer 1
10
400.007000
20
966.482000
11
400.007000
21
966.482000
0
LINE
8
Layer 1
10
400.007000
20
984.482000
11
400.122047
21
983.918828
0
LINE
8
Layer 1
10
400.122047
20
983.918828
11
400.433125
21
983.458875
0
LINE
8
Layer 1
10
400.433125
20
983.458875
11
400.893641
21
983.148734
0
LINE
8
Layer 1
10
400.893641
20
983.148734
11
401.457000
21
983.035000
0
LINE
8
Layer 1
10
401.457000
20
983.035000
11
402.020922
21
983.148734
0
LINE
8
Layer 1
10
402.020922
20
983.148734
11
402.481625
21
983.458875
0
LINE
8
Layer 1
10
402.481625
20
983.458875
11
402.792516
21
983.918828
0
LINE
8
Layer 1
10
402.792516
20
983.918828
11
402.907000
21
984.482000
0
LINE
8
Layer 1
10
402.907000
20
984.482000
11
402.792516
21
985.045594
0
LINE
8
Layer 1
10
402.792516
20
985.045594
11
402.481625
21
985.505500
0
LINE
8
Layer 1
10
402.481625
20
985.505500
11
402.020922
21
985.815406
0
LINE
8
Layer 1
10
402.020922
20
985.815406
11
401.457000
21
985.929000
0
LINE
8
Layer 1
10
401.457000
20
985.929000
11
400.893641
21
985.815406
0
LINE
8
Layer 1
10
400.893641
20
985.815406
11
400.433125
21
985.505500
0
LINE
8
Layer 1
10
400.433125
20
985.505500
11
400.122047
21
985.045594
0
LINE
8
Layer 1
10
400.122047
20
985.045594
11
400.007000
21
984.482000
0
LINE
8
Layer 1
10
400.007000
20
984.482000
11
400.007000
21
984.482000
0
LINE
8
Layer 1
10
418.007000
20
984.482000
11
418.122047
21
983.918828
0
LINE
8
Layer 1
10
418.122047
20
983.918828
11
418.433125
21
983.458875
0
LINE
8
Layer 1
10
418.433125
20
983.458875
11
418.893641
21
983.148734
0
LINE
8
Layer 1
10
418.893641
20
983.148734
11
419.457000
21
983.035000
0
LINE
8
Layer 1
10
419.457000
20
983.035000
11
420.020922
21
983.148734
0
LINE
8
Layer 1
10
420.020922
20
983.148734
11
420.481625
21
983.458875
0
LINE
8
Layer 1
10
420.481625
20
983.458875
11
420.792516
21
983.918828
0
LINE
8
Layer 1
10
420.792516
20
983.918828
11
420.907000
21
984.482000
0
LINE
8
Layer 1
10
420.907000
20
984.482000
11
420.792516
21
985.045594
0
LINE
8
Layer 1
10
420.792516
20
985.045594
11
420.481625
21
985.505500
0
LINE
8
Layer 1
10
420.481625
20
985.505500
11
420.020922
21
985.815406
0
LINE
8
Layer 1
10
420.020922
20
985.815406
11
419.457000
21
985.929000
0
LINE
8
Layer 1
10
419.457000
20
985.929000
11
418.893641
21
985.815406
0
LINE
8
Layer 1
10
418.893641
20
985.815406
11
418.433125
21
985.505500
0
LINE
8
Layer 1
10
418.433125
20
985.505500
11
418.122047
21
985.045594
0
LINE
8
Layer 1
10
418.122047
20
985.045594
11
418.007000
21
984.482000
0
LINE
8
Layer 1
10
418.007000
20
984.482000
11
418.007000
21
984.482000
0
LINE
8
Layer 1
10
418.007000
20
966.482000
11
418.122047
21
965.918828
0
LINE
8
Layer 1
10
418.122047
20
965.918828
11
418.433125
21
965.458875
0
LINE
8
Layer 1
10
418.433125
20
965.458875
11
418.893641
21
965.148734
0
LINE
8
Layer 1
10
418.893641
20
965.148734
11
419.457000
21
965.035000
0
LINE
8
Layer 1
10
419.457000
20
965.035000
11
420.020922
21
965.148734
0
LINE
8
Layer 1
10
420.020922
20
965.148734
11
420.481625
21
965.458875
0
LINE
8
Layer 1
10
420.481625
20
965.458875
11
420.792516
21
965.918828
0
LINE
8
Layer 1
10
420.792516
20
965.918828
11
420.907000
21
966.482000
0
LINE
8
Layer 1
10
420.907000
20
966.482000
11
420.792516
21
967.045594
0
LINE
8
Layer 1
10
420.792516
20
967.045594
11
420.481625
21
967.505500
0
LINE
8
Layer 1
10
420.481625
20
967.505500
11
420.020922
21
967.815406
0
LINE
8
Layer 1
10
420.020922
20
967.815406
11
419.457000
21
967.929000
0
LINE
8
Layer 1
10
419.457000
20
967.929000
11
418.893641
21
967.815406
0
LINE
8
Layer 1
10
418.893641
20
967.815406
11
418.433125
21
967.505500
0
LINE
8
Layer 1
10
418.433125
20
967.505500
11
418.122047
21
967.045594
0
LINE
8
Layer 1
10
418.122047
20
967.045594
11
418.007000
21
966.482000
0
LINE
8
Layer 1
10
418.007000
20
966.482000
11
418.007000
21
966.482000
0
LINE
8
Layer 1
10
385.958000
20
958.082000
11
381.458000
21
958.082000
0
LINE
8
Layer 1
10
385.958000
20
969.682000
11
381.458000
21
969.682000
0
LINE
8
Layer 1
10
385.958000
20
981.282000
11
385.958000
21
969.682000
0
LINE
8
Layer 1
10
425.157000
20
1004.480000
11
415.357000
21
1004.480000
0
LINE
8
Layer 1
10
434.957000
20
992.882000
11
434.957000
21
999.982000
0
LINE
8
Layer 1
10
381.458000
20
969.682000
11
381.458000
21
958.082000
0
LINE
8
Layer 1
10
405.557000
20
1004.480000
11
395.758000
21
1004.480000
0
LINE
8
Layer 1
10
385.958000
20
958.082000
11
385.958000
21
950.982000
0
LINE
8
Layer 1
10
439.457000
20
969.682000
11
439.457000
21
958.082000
0
LINE
8
Layer 1
10
405.557000
20
946.482000
11
395.758000
21
946.482000
0
LINE
8
Layer 1
10
385.958000
20
981.282000
11
381.458000
21
981.282000
0
LINE
8
Layer 1
10
381.458000
20
992.882000
11
381.458000
21
981.282000
0
LINE
8
Layer 1
10
385.958000
20
992.882000
11
381.458000
21
992.882000
0
LINE
8
Layer 1
10
385.958000
20
999.982000
11
385.958000
21
992.882000
0
LINE
8
Layer 1
10
395.758000
20
999.982000
11
385.958000
21
999.982000
0
LINE
8
Layer 1
10
395.758000
20
999.982000
11
395.758000
21
1004.480000
0
LINE
8
Layer 1
10
405.557000
20
999.982000
11
405.557000
21
1004.480000
0
LINE
8
Layer 1
10
415.357000
20
999.982000
11
405.557000
21
999.982000
0
LINE
8
Layer 1
10
415.357000
20
999.982000
11
415.357000
21
1004.480000
0
LINE
8
Layer 1
10
425.157000
20
999.982000
11
425.157000
21
1004.480000
0
LINE
8
Layer 1
10
434.957000
20
999.982000
11
425.157000
21
999.982000
0
LINE
8
Layer 1
10
434.957000
20
992.882000
11
439.457000
21
992.882000
0
LINE
8
Layer 1
10
439.457000
20
992.882000
11
439.457000
21
981.282000
0
LINE
8
Layer 1
10
434.957000
20
981.282000
11
439.457000
21
981.282000
0
LINE
8
Layer 1
10
434.957000
20
969.682000
11
434.957000
21
981.282000
0
LINE
8
Layer 1
10
434.957000
20
969.682000
11
439.457000
21
969.682000
0
LINE
8
Layer 1
10
434.957000
20
958.082000
11
439.457000
21
958.082000
0
LINE
8
Layer 1
10
434.957000
20
950.982000
11
434.957000
21
958.082000
0
LINE
8
Layer 1
10
425.157000
20
950.982000
11
434.957000
21
950.982000
0
LINE
8
Layer 1
10
425.157000
20
950.982000
11
425.157000
21
946.482000
0
LINE
8
Layer 1
10
425.157000
20
946.482000
11
415.357000
21
946.482000
0
LINE
8
Layer 1
10
415.357000
20
950.982000
11
415.357000
21
946.482000
0
LINE
8
Layer 1
10
405.557000
20
950.982000
11
415.357000
21
950.982000
0
LINE
8
Layer 1
10
405.557000
20
950.982000
11
405.557000
21
946.482000
0
LINE
8
Layer 1
10
395.758000
20
950.982000
11
395.758000
21
946.482000
0
LINE
8
Layer 1
10
385.958000
20
950.982000
11
395.758000
21
950.982000
0
LINE
8
Layer 1
10
400.007000
20
966.482000
11
400.122047
21
965.918828
0
LINE
8
Layer 1
10
400.122047
20
965.918828
11
400.433125
21
965.458875
0
LINE
8
Layer 1
10
400.433125
20
965.458875
11
400.893641
21
965.148734
0
LINE
8
Layer 1
10
400.893641
20
965.148734
11
401.457000
21
965.035000
0
LINE
8
Layer 1
10
401.457000
20
965.035000
11
402.020922
21
965.148734
0
LINE
8
Layer 1
10
402.020922
20
965.148734
11
402.481625
21
965.458875
0
LINE
8
Layer 1
10
402.481625
20
965.458875
11
402.792516
21
965.918828
0
LINE
8
Layer 1
10
402.792516
20
965.918828
11
402.907000
21
966.482000
0
LINE
8
Layer 1
10
402.907000
20
966.482000
11
402.792516
21
967.045594
0
LINE
8
Layer 1
10
402.792516
20
967.045594
11
402.481625
21
967.505500
0
LINE
8
Layer 1
10
402.481625
20
967.505500
11
402.020922
21
967.815406
0
LINE
8
Layer 1
10
402.020922
20
967.815406
11
401.457000
21
967.929000
0
LINE
8
Layer 1
10
401.457000
20
967.929000
11
400.893641
21
967.815406
0
LINE
8
Layer 1
10
400.893641
20
967.815406
11
400.433125
21
967.505500
0
LINE
8
Layer 1
10
400.433125
20
967.505500
11
400.122047
21
967.045594
0
LINE
8
Layer 1
10
400.122047
20
967.045594
11
400.007000
21
966.482000
0
LINE
8
Layer 1
10
400.007000
20
966.482000
11
400.007000
21
966.482000
0
LINE
8
Layer 1
10
400.007000
20
984.482000
11
400.122047
21
983.918828
0
LINE
8
Layer 1
10
400.122047
20
983.918828
11
400.433125
21
983.458875
0
LINE
8
Layer 1
10
400.433125
20
983.458875
11
400.893641
21
983.148734
0
LINE
8
Layer 1
10
400.893641
20
983.148734
11
401.457000
21
983.035000
0
LINE
8
Layer 1
10
401.457000
20
983.035000
11
402.020922
21
983.148734
0
LINE
8
Layer 1
10
402.020922
20
983.148734
11
402.481625
21
983.458875
0
LINE
8
Layer 1
10
402.481625
20
983.458875
11
402.792516
21
983.918828
0
LINE
8
Layer 1
10
402.792516
20
983.918828
11
402.907000
21
984.482000
0
LINE
8
Layer 1
10
402.907000
20
984.482000
11
402.792516
21
985.045594
0
LINE
8
Layer 1
10
402.792516
20
985.045594
11
402.481625
21
985.505500
0
LINE
8
Layer 1
10
402.481625
20
985.505500
11
402.020922
21
985.815406
0
LINE
8
Layer 1
10
402.020922
20
985.815406
11
401.457000
21
985.929000
0
LINE
8
Layer 1
10
401.457000
20
985.929000
11
400.893641
21
985.815406
0
LINE
8
Layer 1
10
400.893641
20
985.815406
11
400.433125
21
985.505500
0
LINE
8
Layer 1
10
400.433125
20
985.505500
11
400.122047
21
985.045594
0
LINE
8
Layer 1
10
400.122047
20
985.045594
11
400.007000
21
984.482000
0
LINE
8
Layer 1
10
400.007000
20
984.482000
11
400.007000
21
984.482000
0
LINE
8
Layer 1
10
418.007000
20
984.482000
11
418.122047
21
983.918828
0
LINE
8
Layer 1
10
418.122047
20
983.918828
11
418.433125
21
983.458875
0
LINE
8
Layer 1
10
418.433125
20
983.458875
11
418.893641
21
983.148734
0
LINE
8
Layer 1
10
418.893641
20
983.148734
11
419.457000
21
983.035000
0
LINE
8
Layer 1
10
419.457000
20
983.035000
11
420.020922
21
983.148734
0
LINE
8
Layer 1
10
420.020922
20
983.148734
11
420.481625
21
983.458875
0
LINE
8
Layer 1
10
420.481625
20
983.458875
11
420.792516
21
983.918828
0
LINE
8
Layer 1
10
420.792516
20
983.918828
11
420.907000
21
984.482000
0
LINE
8
Layer 1
10
420.907000
20
984.482000
11
420.792516
21
985.045594
0
LINE
8
Layer 1
10
420.792516
20
985.045594
11
420.481625
21
985.505500
0
LINE
8
Layer 1
10
420.481625
20
985.505500
11
420.020922
21
985.815406
0
LINE
8
Layer 1
10
420.020922
20
985.815406
11
419.457000
21
985.929000
0
LINE
8
Layer 1
10
419.457000
20
985.929000
11
418.893641
21
985.815406
0
LINE
8
Layer 1
10
418.893641
20
985.815406
11
418.433125
21
985.505500
0
LINE
8
Layer 1
10
418.433125
20
985.505500
11
418.122047
21
985.045594
0
LINE
8
Layer 1
10
418.122047
20
985.045594
11
418.007000
21
984.482000
0
LINE
8
Layer 1
10
418.007000
20
984.482000
11
418.007000
21
984.482000
0
LINE
8
Layer 1
10
418.007000
20
966.482000
11
418.122047
21
965.918828
0
LINE
8
Layer 1
10
418.122047
20
965.918828
11
418.433125
21
965.458875
0
LINE
8
Layer 1
10
418.433125
20
965.458875
11
418.893641
21
965.148734
0
LINE
8
Layer 1
10
418.893641
20
965.148734
11
419.457000
21
965.035000
0
LINE
8
Layer 1
10
419.457000
20
965.035000
11
420.020922
21
965.148734
0
LINE
8
Layer 1
10
420.020922
20
965.148734
11
420.481625
21
965.458875
0
LINE
8
Layer 1
10
420.481625
20
965.458875
11
420.792516
21
965.918828
0
LINE
8
Layer 1
10
420.792516
20
965.918828
11
420.907000
21
966.482000
0
LINE
8
Layer 1
10
420.907000
20
966.482000
11
420.792516
21
967.045594
0
LINE
8
Layer 1
10
420.792516
20
967.045594
11
420.481625
21
967.505500
0
LINE
8
Layer 1
10
420.481625
20
967.505500
11
420.020922
21
967.815406
0
LINE
8
Layer 1
10
420.020922
20
967.815406
11
419.457000
21
967.929000
0
LINE
8
Layer 1
10
419.457000
20
967.929000
11
418.893641
21
967.815406
0
LINE
8
Layer 1
10
418.893641
20
967.815406
11
418.433125
21
967.505500
0
LINE
8
Layer 1
10
418.433125
20
967.505500
11
418.122047
21
967.045594
0
LINE
8
Layer 1
10
418.122047
20
967.045594
11
418.007000
21
966.482000
0
LINE
8
Layer 1
10
418.007000
20
966.482000
11
418.007000
21
966.482000
0
LINE
8
Layer 1
10
385.958000
20
958.082000
11
381.458000
21
958.082000
0
LINE
8
Layer 1
10
385.958000
20
969.682000
11
381.458000
21
969.682000
0
LINE
8
Layer 1
10
385.958000
20
981.282000
11
385.958000
21
969.682000
0
LINE
8
Layer 1
10
425.157000
20
1004.480000
11
415.357000
21
1004.480000
0
LINE
8
Layer 1
10
434.957000
20
992.882000
11
434.957000
21
999.982000
0
LINE
8
Layer 1
10
381.458000
20
969.682000
11
381.458000
21
958.082000
0
LINE
8
Layer 1
10
405.557000
20
1004.480000
11
395.758000
21
1004.480000
0
LINE
8
Layer 1
10
385.958000
20
958.082000
11
385.958000
21
950.982000
0
LINE
8
Layer 1
10
439.457000
20
969.682000
11
439.457000
21
958.082000
0
LINE
8
Layer 1
10
405.557000
20
946.482000
11
395.758000
21
946.482000
0
LINE
8
Layer 1
10
194.069000
20
766.124000
11
194.069000
21
760.424000
0
LINE
8
Layer 1
10
223.469000
20
813.724000
11
213.669000
21
813.724000
0
LINE
8
Layer 1
10
184.270000
20
813.724000
11
174.470000
21
813.724000
0
LINE
8
Layer 1
10
222.831000
20
795.724000
11
228.631000
21
795.724000
0
LINE
8
Layer 1
10
175.169000
20
784.124000
11
169.369000
21
784.124000
0
LINE
8
Layer 1
10
228.631000
20
784.124000
11
228.631000
21
772.524000
0
LINE
8
Layer 1
10
203.869000
20
766.124000
11
203.869000
21
760.424000
0
LINE
8
Layer 1
10
203.869000
20
813.734000
11
203.869000
21
819.533000
0
LINE
8
Layer 1
10
222.831000
20
784.124000
11
228.631000
21
784.124000
0
LINE
8
Layer 1
10
175.169000
20
772.524000
11
175.169000
21
765.424000
0
LINE
8
Layer 1
10
169.369000
20
807.324000
11
169.369000
21
795.724000
0
LINE
8
Layer 1
10
184.270000
20
766.124000
11
184.270000
21
760.424000
0
LINE
8
Layer 1
10
213.669000
20
766.124000
11
223.469000
21
766.124000
0
LINE
8
Layer 1
10
188.519000
20
798.924000
11
188.633484
21
798.360828
0
LINE
8
Layer 1
10
188.633484
20
798.360828
11
188.944375
21
797.900875
0
LINE
8
Layer 1
10
188.944375
20
797.900875
11
189.405078
21
797.590734
0
LINE
8
Layer 1
10
189.405078
20
797.590734
11
189.969000
21
797.477000
0
LINE
8
Layer 1
10
189.969000
20
797.477000
11
190.532359
21
797.590734
0
LINE
8
Layer 1
10
190.532359
20
797.590734
11
190.992875
21
797.900875
0
LINE
8
Layer 1
10
190.992875
20
797.900875
11
191.303953
21
798.360828
0
LINE
8
Layer 1
10
191.303953
20
798.360828
11
191.419000
21
798.924000
0
LINE
8
Layer 1
10
191.419000
20
798.924000
11
191.303953
21
799.487594
0
LINE
8
Layer 1
10
191.303953
20
799.487594
11
190.992875
21
799.947500
0
LINE
8
Layer 1
10
190.992875
20
799.947500
11
190.532359
21
800.257406
0
LINE
8
Layer 1
10
190.532359
20
800.257406
11
189.969000
21
800.371000
0
LINE
8
Layer 1
10
189.969000
20
800.371000
11
189.405078
21
800.257406
0
LINE
8
Layer 1
10
189.405078
20
800.257406
11
188.944375
21
799.947500
0
LINE
8
Layer 1
10
188.944375
20
799.947500
11
188.633484
21
799.487594
0
LINE
8
Layer 1
10
188.633484
20
799.487594
11
188.519000
21
798.924000
0
LINE
8
Layer 1
10
188.519000
20
798.924000
11
188.519000
21
798.924000
0
LINE
8
Layer 1
10
169.369000
20
784.124000
11
169.369000
21
772.524000
0
LINE
8
Layer 1
10
175.169000
20
795.724000
11
175.169000
21
784.124000
0
LINE
8
Layer 1
10
174.470000
20
766.124000
11
184.270000
21
766.124000
0
LINE
8
Layer 1
10
222.769000
20
784.124000
11
222.769000
21
795.724000
0
LINE
8
Layer 1
10
222.769000
20
807.324000
11
222.769000
21
814.424000
0
LINE
8
Layer 1
10
213.669000
20
760.425000
11
203.869000
21
760.425000
0
LINE
8
Layer 1
10
203.869000
20
813.724000
11
194.069000
21
813.724000
0
LINE
8
Layer 1
10
222.831000
20
772.524000
11
228.631000
21
772.524000
0
LINE
8
Layer 1
10
194.069000
20
813.733000
11
194.069000
21
819.532000
0
LINE
8
Layer 1
10
175.169000
20
795.724000
11
169.369000
21
795.724000
0
LINE
8
Layer 1
10
228.631000
20
807.324000
11
228.631000
21
795.724000
0
LINE
8
Layer 1
10
222.769000
20
765.424000
11
222.769000
21
772.524000
0
LINE
8
Layer 1
10
188.519000
20
780.924000
11
188.633484
21
780.360828
0
LINE
8
Layer 1
10
188.633484
20
780.360828
11
188.944375
21
779.900875
0
LINE
8
Layer 1
10
188.944375
20
779.900875
11
189.405078
21
779.590734
0
LINE
8
Layer 1
10
189.405078
20
779.590734
11
189.969000
21
779.477000
0
LINE
8
Layer 1
10
189.969000
20
779.477000
11
190.532359
21
779.590734
0
LINE
8
Layer 1
10
190.532359
20
779.590734
11
190.992875
21
779.900875
0
LINE
8
Layer 1
10
190.992875
20
779.900875
11
191.303953
21
780.360828
0
LINE
8
Layer 1
10
191.303953
20
780.360828
11
191.419000
21
780.924000
0
LINE
8
Layer 1
10
191.419000
20
780.924000
11
191.303953
21
781.487594
0
LINE
8
Layer 1
10
191.303953
20
781.487594
11
190.992875
21
781.947500
0
LINE
8
Layer 1
10
190.992875
20
781.947500
11
190.532359
21
782.257406
0
LINE
8
Layer 1
10
190.532359
20
782.257406
11
189.969000
21
782.371000
0
LINE
8
Layer 1
10
189.969000
20
782.371000
11
189.405078
21
782.257406
0
LINE
8
Layer 1
10
189.405078
20
782.257406
11
188.944375
21
781.947500
0
LINE
8
Layer 1
10
188.944375
20
781.947500
11
188.633484
21
781.487594
0
LINE
8
Layer 1
10
188.633484
20
781.487594
11
188.519000
21
780.924000
0
LINE
8
Layer 1
10
188.519000
20
780.924000
11
188.519000
21
780.924000
0
LINE
8
Layer 1
10
213.669000
20
819.533000
11
203.869000
21
819.533000
0
LINE
8
Layer 1
10
175.169000
20
814.424000
11
175.169000
21
807.324000
0
LINE
8
Layer 1
10
206.519000
20
798.924000
11
206.633484
21
798.360828
0
LINE
8
Layer 1
10
206.633484
20
798.360828
11
206.944375
21
797.900875
0
LINE
8
Layer 1
10
206.944375
20
797.900875
11
207.405078
21
797.590734
0
LINE
8
Layer 1
10
207.405078
20
797.590734
11
207.969000
21
797.477000
0
LINE
8
Layer 1
10
207.969000
20
797.477000
11
208.532359
21
797.590734
0
LINE
8
Layer 1
10
208.532359
20
797.590734
11
208.992875
21
797.900875
0
LINE
8
Layer 1
10
208.992875
20
797.900875
11
209.303953
21
798.360828
0
LINE
8
Layer 1
10
209.303953
20
798.360828
11
209.419000
21
798.924000
0
LINE
8
Layer 1
10
209.419000
20
798.924000
11
209.303953
21
799.487594
0
LINE
8
Layer 1
10
209.303953
20
799.487594
11
208.992875
21
799.947500
0
LINE
8
Layer 1
10
208.992875
20
799.947500
11
208.532359
21
800.257406
0
LINE
8
Layer 1
10
208.532359
20
800.257406
11
207.969000
21
800.371000
0
LINE
8
Layer 1
10
207.969000
20
800.371000
11
207.405078
21
800.257406
0
LINE
8
Layer 1
10
207.405078
20
800.257406
11
206.944375
21
799.947500
0
LINE
8
Layer 1
10
206.944375
20
799.947500
11
206.633484
21
799.487594
0
LINE
8
Layer 1
10
206.633484
20
799.487594
11
206.519000
21
798.924000
0
LINE
8
Layer 1
10
206.519000
20
798.924000
11
206.519000
21
798.924000
0
LINE
8
Layer 1
10
222.831000
20
807.324000
11
228.631000
21
807.324000
0
LINE
8
Layer 1
10
194.069000
20
819.532000
11
184.270000
21
819.532000
0
LINE
8
Layer 1
10
184.270000
20
813.733000
11
184.270000
21
819.532000
0
LINE
8
Layer 1
10
213.669000
20
813.734000
11
213.669000
21
819.533000
0
LINE
8
Layer 1
10
213.669000
20
766.124000
11
213.669000
21
760.424000
0
LINE
8
Layer 1
10
194.069000
20
766.124000
11
203.869000
21
766.124000
0
LINE
8
Layer 1
10
175.169000
20
772.524000
11
169.369000
21
772.524000
0
LINE
8
Layer 1
10
206.519000
20
780.924000
11
206.633484
21
780.360828
0
LINE
8
Layer 1
10
206.633484
20
780.360828
11
206.944375
21
779.900875
0
LINE
8
Layer 1
10
206.944375
20
779.900875
11
207.405078
21
779.590734
0
LINE
8
Layer 1
10
207.405078
20
779.590734
11
207.969000
21
779.477000
0
LINE
8
Layer 1
10
207.969000
20
779.477000
11
208.532359
21
779.590734
0
LINE
8
Layer 1
10
208.532359
20
779.590734
11
208.992875
21
779.900875
0
LINE
8
Layer 1
10
208.992875
20
779.900875
11
209.303953
21
780.360828
0
LINE
8
Layer 1
10
209.303953
20
780.360828
11
209.419000
21
780.924000
0
LINE
8
Layer 1
10
209.419000
20
780.924000
11
209.303953
21
781.487594
0
LINE
8
Layer 1
10
209.303953
20
781.487594
11
208.992875
21
781.947500
0
LINE
8
Layer 1
10
208.992875
20
781.947500
11
208.532359
21
782.257406
0
LINE
8
Layer 1
10
208.532359
20
782.257406
11
207.969000
21
782.371000
0
LINE
8
Layer 1
10
207.969000
20
782.371000
11
207.405078
21
782.257406
0
LINE
8
Layer 1
10
207.405078
20
782.257406
11
206.944375
21
781.947500
0
LINE
8
Layer 1
10
206.944375
20
781.947500
11
206.633484
21
781.487594
0
LINE
8
Layer 1
10
206.633484
20
781.487594
11
206.519000
21
780.924000
0
LINE
8
Layer 1
10
206.519000
20
780.924000
11
206.519000
21
780.924000
0
LINE
8
Layer 1
10
194.069000
20
760.425000
11
184.270000
21
760.425000
0
LINE
8
Layer 1
10
175.169000
20
807.324000
11
169.369000
21
807.324000
0
LINE
8
Layer 1
10
632.542000
20
943.263000
11
632.542000
21
1001.260000
0
LINE
8
Layer 1
10
632.542000
20
943.263000
11
574.542000
21
943.263000
0
LINE
8
Layer 1
10
574.542000
20
943.263000
11
574.542000
21
1001.260000
0
LINE
8
Layer 1
10
632.542000
20
1001.260000
11
574.542000
21
1001.260000
0
LINE
8
Layer 1
10
-603.000000
20
755.643000
11
-603.000000
21
813.642000
0
LINE
8
Layer 1
10
-603.000000
20
755.643000
11
-661.000000
21
755.643000
0
LINE
8
Layer 1
10
-661.000000
20
755.643000
11
-661.000000
21
813.642000
0
LINE
8
Layer 1
10
-603.000000
20
813.642000
11
-661.000000
21
813.642000
0
LINE
8
Layer 1
10
-603.000000
20
815.643000
11
-603.000000
21
873.642000
0
LINE
8
Layer 1
10
-603.000000
20
815.643000
11
-661.000000
21
815.643000
0
LINE
8
Layer 1
10
-661.000000
20
815.643000
11
-661.000000
21
873.642000
0
LINE
8
Layer 1
10
-603.000000
20
873.642000
11
-661.000000
21
873.642000
0
LINE
8
Layer 1
10
0.100000
20
699.079000
11
210.100000
21
699.079000
0
LINE
8
Layer 1
10
194.069000
20
826.124000
11
194.069000
21
820.424000
0
LINE
8
Layer 1
10
223.469000
20
873.724000
11
213.669000
21
873.724000
0
LINE
8
Layer 1
10
184.270000
20
873.724000
11
174.470000
21
873.724000
0
LINE
8
Layer 1
10
222.831000
20
855.724000
11
228.631000
21
855.724000
0
LINE
8
Layer 1
10
175.169000
20
844.124000
11
169.369000
21
844.124000
0
LINE
8
Layer 1
10
228.631000
20
844.124000
11
228.631000
21
832.524000
0
LINE
8
Layer 1
10
203.869000
20
826.124000
11
203.869000
21
820.424000
0
LINE
8
Layer 1
10
203.869000
20
873.734000
11
203.869000
21
879.533000
0
LINE
8
Layer 1
10
222.831000
20
844.124000
11
228.631000
21
844.124000
0
LINE
8
Layer 1
10
175.169000
20
832.524000
11
175.169000
21
825.424000
0
LINE
8
Layer 1
10
169.369000
20
867.324000
11
169.369000
21
855.724000
0
LINE
8
Layer 1
10
184.270000
20
826.124000
11
184.270000
21
820.424000
0
LINE
8
Layer 1
10
213.669000
20
826.124000
11
223.469000
21
826.124000
0
LINE
8
Layer 1
10
188.519000
20
858.924000
11
188.633484
21
858.360828
0
LINE
8
Layer 1
10
188.633484
20
858.360828
11
188.944375
21
857.900875
0
LINE
8
Layer 1
10
188.944375
20
857.900875
11
189.405078
21
857.590734
0
LINE
8
Layer 1
10
189.405078
20
857.590734
11
189.969000
21
857.477000
0
LINE
8
Layer 1
10
189.969000
20
857.477000
11
190.532359
21
857.590734
0
LINE
8
Layer 1
10
190.532359
20
857.590734
11
190.992875
21
857.900875
0
LINE
8
Layer 1
10
190.992875
20
857.900875
11
191.303953
21
858.360828
0
LINE
8
Layer 1
10
191.303953
20
858.360828
11
191.419000
21
858.924000
0
LINE
8
Layer 1
10
191.419000
20
858.924000
11
191.303953
21
859.487594
0
LINE
8
Layer 1
10
191.303953
20
859.487594
11
190.992875
21
859.947500
0
LINE
8
Layer 1
10
190.992875
20
859.947500
11
190.532359
21
860.257406
0
LINE
8
Layer 1
10
190.532359
20
860.257406
11
189.969000
21
860.371000
0
LINE
8
Layer 1
10
189.969000
20
860.371000
11
189.405078
21
860.257406
0
LINE
8
Layer 1
10
189.405078
20
860.257406
11
188.944375
21
859.947500
0
LINE
8
Layer 1
10
188.944375
20
859.947500
11
188.633484
21
859.487594
0
LINE
8
Layer 1
10
188.633484
20
859.487594
11
188.519000
21
858.924000
0
LINE
8
Layer 1
10
188.519000
20
858.924000
11
188.519000
21
858.924000
0
LINE
8
Layer 1
10
169.369000
20
844.124000
11
169.369000
21
832.524000
0
LINE
8
Layer 1
10
175.169000
20
855.724000
11
175.169000
21
844.124000
0
LINE
8
Layer 1
10
174.470000
20
826.124000
11
184.270000
21
826.124000
0
LINE
8
Layer 1
10
222.769000
20
844.124000
11
222.769000
21
855.724000
0
LINE
8
Layer 1
10
222.769000
20
867.324000
11
222.769000
21
874.424000
0
LINE
8
Layer 1
10
213.669000
20
820.425000
11
203.869000
21
820.425000
0
LINE
8
Layer 1
10
203.869000
20
873.724000
11
194.069000
21
873.724000
0
LINE
8
Layer 1
10
222.831000
20
832.524000
11
228.631000
21
832.524000
0
LINE
8
Layer 1
10
194.069000
20
873.733000
11
194.069000
21
879.532000
0
LINE
8
Layer 1
10
175.169000
20
855.724000
11
169.369000
21
855.724000
0
LINE
8
Layer 1
10
228.631000
20
867.324000
11
228.631000
21
855.724000
0
LINE
8
Layer 1
10
222.769000
20
825.424000
11
222.769000
21
832.524000
0
LINE
8
Layer 1
10
188.519000
20
840.924000
11
188.633484
21
840.360828
0
LINE
8
Layer 1
10
188.633484
20
840.360828
11
188.944375
21
839.900875
0
LINE
8
Layer 1
10
188.944375
20
839.900875
11
189.405078
21
839.590734
0
LINE
8
Layer 1
10
189.405078
20
839.590734
11
189.969000
21
839.477000
0
LINE
8
Layer 1
10
189.969000
20
839.477000
11
190.532359
21
839.590734
0
LINE
8
Layer 1
10
190.532359
20
839.590734
11
190.992875
21
839.900875
0
LINE
8
Layer 1
10
190.992875
20
839.900875
11
191.303953
21
840.360828
0
LINE
8
Layer 1
10
191.303953
20
840.360828
11
191.419000
21
840.924000
0
LINE
8
Layer 1
10
191.419000
20
840.924000
11
191.303953
21
841.487594
0
LINE
8
Layer 1
10
191.303953
20
841.487594
11
190.992875
21
841.947500
0
LINE
8
Layer 1
10
190.992875
20
841.947500
11
190.532359
21
842.257406
0
LINE
8
Layer 1
10
190.532359
20
842.257406
11
189.969000
21
842.371000
0
LINE
8
Layer 1
10
189.969000
20
842.371000
11
189.405078
21
842.257406
0
LINE
8
Layer 1
10
189.405078
20
842.257406
11
188.944375
21
841.947500
0
LINE
8
Layer 1
10
188.944375
20
841.947500
11
188.633484
21
841.487594
0
LINE
8
Layer 1
10
188.633484
20
841.487594
11
188.519000
21
840.924000
0
LINE
8
Layer 1
10
188.519000
20
840.924000
11
188.519000
21
840.924000
0
LINE
8
Layer 1
10
213.669000
20
879.533000
11
203.869000
21
879.533000
0
LINE
8
Layer 1
10
175.169000
20
874.424000
11
175.169000
21
867.324000
0
LINE
8
Layer 1
10
206.519000
20
858.924000
11
206.633484
21
858.360828
0
LINE
8
Layer 1
10
206.633484
20
858.360828
11
206.944375
21
857.900875
0
LINE
8
Layer 1
10
206.944375
20
857.900875
11
207.405078
21
857.590734
0
LINE
8
Layer 1
10
207.405078
20
857.590734
11
207.969000
21
857.477000
0
LINE
8
Layer 1
10
207.969000
20
857.477000
11
208.532359
21
857.590734
0
LINE
8
Layer 1
10
208.532359
20
857.590734
11
208.992875
21
857.900875
0
LINE
8
Layer 1
10
208.992875
20
857.900875
11
209.303953
21
858.360828
0
LINE
8
Layer 1
10
209.303953
20
858.360828
11
209.419000
21
858.924000
0
LINE
8
Layer 1
10
209.419000
20
858.924000
11
209.303953
21
859.487594
0
LINE
8
Layer 1
10
209.303953
20
859.487594
11
208.992875
21
859.947500
0
LINE
8
Layer 1
10
208.992875
20
859.947500
11
208.532359
21
860.257406
0
LINE
8
Layer 1
10
208.532359
20
860.257406
11
207.969000
21
860.371000
0
LINE
8
Layer 1
10
207.969000
20
860.371000
11
207.405078
21
860.257406
0
LINE
8
Layer 1
10
207.405078
20
860.257406
11
206.944375
21
859.947500
0
LINE
8
Layer 1
10
206.944375
20
859.947500
11
206.633484
21
859.487594
0
LINE
8
Layer 1
10
206.633484
20
859.487594
11
206.519000
21
858.924000
0
LINE
8
Layer 1
10
206.519000
20
858.924000
11
206.519000
21
858.924000
0
LINE
8
Layer 1
10
222.831000
20
867.324000
11
228.631000
21
867.324000
0
LINE
8
Layer 1
10
194.069000
20
879.532000
11
184.270000
21
879.532000
0
LINE
8
Layer 1
10
184.270000
20
873.733000
11
184.270000
21
879.532000
0
LINE
8
Layer 1
10
213.669000
20
873.734000
11
213.669000
21
879.533000
0
LINE
8
Layer 1
10
213.669000
20
826.124000
11
213.669000
21
820.424000
0
LINE
8
Layer 1
10
194.069000
20
826.124000
11
203.869000
21
826.124000
0
LINE
8
Layer 1
10
175.169000
20
832.524000
11
169.369000
21
832.524000
0
LINE
8
Layer 1
10
206.519000
20
840.924000
11
206.633484
21
840.360828
0
LINE
8
Layer 1
10
206.633484
20
840.360828
11
206.944375
21
839.900875
0
LINE
8
Layer 1
10
206.944375
20
839.900875
11
207.405078
21
839.590734
0
LINE
8
Layer 1
10
207.405078
20
839.590734
11
207.969000
21
839.477000
0
LINE
8
Layer 1
10
207.969000
20
839.477000
11
208.532359
21
839.590734
0
LINE
8
Layer 1
10
208.532359
20
839.590734
11
208.992875
21
839.900875
0
LINE
8
Layer 1
10
208.992875
20
839.900875
11
209.303953
21
840.360828
0
LINE
8
Layer 1
10
209.303953
20
840.360828
11
209.419000
21
840.924000
0
LINE
8
Layer 1
10
209.419000
20
840.924000
11
209.303953
21
841.487594
0
LINE
8
Layer 1
10
209.303953
20
841.487594
11
208.992875
21
841.947500
0
LINE
8
Layer 1
10
208.992875
20
841.947500
11
208.532359
21
842.257406
0
LINE
8
Layer 1
10
208.532359
20
842.257406
11
207.969000
21
842.371000
0
LINE
8
Layer 1
10
207.969000
20
842.371000
11
207.405078
21
842.257406
0
LINE
8
Layer 1
10
207.405078
20
842.257406
11
206.944375
21
841.947500
0
LINE
8
Layer 1
10
206.944375
20
841.947500
11
206.633484
21
841.487594
0
LINE
8
Layer 1
10
206.633484
20
841.487594
11
206.519000
21
840.924000
0
LINE
8
Layer 1
10
206.519000
20
840.924000
11
206.519000
21
840.924000
0
LINE
8
Layer 1
10
194.069000
20
820.425000
11
184.270000
21
820.425000
0
LINE
8
Layer 1
10
175.169000
20
867.324000
11
169.369000
21
867.324000
0
LINE
8
Layer 1
10
127.069000
20
828.124000
11
127.069000
21
822.424000
0
LINE
8
Layer 1
10
156.469000
20
875.724000
11
146.669000
21
875.724000
0
LINE
8
Layer 1
10
117.270000
20
875.724000
11
107.470000
21
875.724000
0
LINE
8
Layer 1
10
155.831000
20
857.724000
11
161.631000
21
857.724000
0
LINE
8
Layer 1
10
108.169000
20
846.124000
11
102.369000
21
846.124000
0
LINE
8
Layer 1
10
161.631000
20
846.124000
11
161.631000
21
834.524000
0
LINE
8
Layer 1
10
136.869000
20
828.124000
11
136.869000
21
822.424000
0
LINE
8
Layer 1
10
136.869000
20
875.734000
11
136.869000
21
881.533000
0
LINE
8
Layer 1
10
155.831000
20
846.124000
11
161.631000
21
846.124000
0
LINE
8
Layer 1
10
108.169000
20
834.524000
11
108.169000
21
827.424000
0
LINE
8
Layer 1
10
102.369000
20
869.324000
11
102.369000
21
857.724000
0
LINE
8
Layer 1
10
117.270000
20
828.124000
11
117.270000
21
822.424000
0
LINE
8
Layer 1
10
146.669000
20
828.124000
11
156.469000
21
828.124000
0
LINE
8
Layer 1
10
121.519000
20
860.924000
11
121.633484
21
860.360828
0
LINE
8
Layer 1
10
121.633484
20
860.360828
11
121.944375
21
859.900875
0
LINE
8
Layer 1
10
121.944375
20
859.900875
11
122.405078
21
859.590734
0
LINE
8
Layer 1
10
122.405078
20
859.590734
11
122.969000
21
859.477000
0
LINE
8
Layer 1
10
122.969000
20
859.477000
11
123.532359
21
859.590734
0
LINE
8
Layer 1
10
123.532359
20
859.590734
11
123.992875
21
859.900875
0
LINE
8
Layer 1
10
123.992875
20
859.900875
11
124.303953
21
860.360828
0
LINE
8
Layer 1
10
124.303953
20
860.360828
11
124.419000
21
860.924000
0
LINE
8
Layer 1
10
124.419000
20
860.924000
11
124.303953
21
861.487594
0
LINE
8
Layer 1
10
124.303953
20
861.487594
11
123.992875
21
861.947500
0
LINE
8
Layer 1
10
123.992875
20
861.947500
11
123.532359
21
862.257406
0
LINE
8
Layer 1
10
123.532359
20
862.257406
11
122.969000
21
862.371000
0
LINE
8
Layer 1
10
122.969000
20
862.371000
11
122.405078
21
862.257406
0
LINE
8
Layer 1
10
122.405078
20
862.257406
11
121.944375
21
861.947500
0
LINE
8
Layer 1
10
121.944375
20
861.947500
11
121.633484
21
861.487594
0
LINE
8
Layer 1
10
121.633484
20
861.487594
11
121.519000
21
860.924000
0
LINE
8
Layer 1
10
121.519000
20
860.924000
11
121.519000
21
860.924000
0
LINE
8
Layer 1
10
102.369000
20
846.124000
11
102.369000
21
834.524000
0
LINE
8
Layer 1
10
108.169000
20
857.724000
11
108.169000
21
846.124000
0
LINE
8
Layer 1
10
107.470000
20
828.124000
11
117.270000
21
828.124000
0
LINE
8
Layer 1
10
155.769000
20
846.124000
11
155.769000
21
857.724000
0
LINE
8
Layer 1
10
155.769000
20
869.324000
11
155.769000
21
876.424000
0
LINE
8
Layer 1
10
146.669000
20
822.425000
11
136.869000
21
822.425000
0
LINE
8
Layer 1
10
136.869000
20
875.724000
11
127.069000
21
875.724000
0
LINE
8
Layer 1
10
155.831000
20
834.524000
11
161.631000
21
834.524000
0
LINE
8
Layer 1
10
127.069000
20
875.733000
11
127.069000
21
881.532000
0
LINE
8
Layer 1
10
108.169000
20
857.724000
11
102.369000
21
857.724000
0
LINE
8
Layer 1
10
161.631000
20
869.324000
11
161.631000
21
857.724000
0
LINE
8
Layer 1
10
155.769000
20
827.424000
11
155.769000
21
834.524000
0
LINE
8
Layer 1
10
121.519000
20
842.924000
11
121.633484
21
842.360828
0
LINE
8
Layer 1
10
121.633484
20
842.360828
11
121.944375
21
841.900875
0
LINE
8
Layer 1
10
121.944375
20
841.900875
11
122.405078
21
841.590734
0
LINE
8
Layer 1
10
122.405078
20
841.590734
11
122.969000
21
841.477000
0
LINE
8
Layer 1
10
122.969000
20
841.477000
11
123.532359
21
841.590734
0
LINE
8
Layer 1
10
123.532359
20
841.590734
11
123.992875
21
841.900875
0
LINE
8
Layer 1
10
123.992875
20
841.900875
11
124.303953
21
842.360828
0
LINE
8
Layer 1
10
124.303953
20
842.360828
11
124.419000
21
842.924000
0
LINE
8
Layer 1
10
124.419000
20
842.924000
11
124.303953
21
843.487594
0
LINE
8
Layer 1
10
124.303953
20
843.487594
11
123.992875
21
843.947500
0
LINE
8
Layer 1
10
123.992875
20
843.947500
11
123.532359
21
844.257406
0
LINE
8
Layer 1
10
123.532359
20
844.257406
11
122.969000
21
844.371000
0
LINE
8
Layer 1
10
122.969000
20
844.371000
11
122.405078
21
844.257406
0
LINE
8
Layer 1
10
122.405078
20
844.257406
11
121.944375
21
843.947500
0
LINE
8
Layer 1
10
121.944375
20
843.947500
11
121.633484
21
843.487594
0
LINE
8
Layer 1
10
121.633484
20
843.487594
11
121.519000
21
842.924000
0
LINE
8
Layer 1
10
121.519000
20
842.924000
11
121.519000
21
842.924000
0
LINE
8
Layer 1
10
146.669000
20
881.533000
11
136.869000
21
881.533000
0
LINE
8
Layer 1
10
108.169000
20
876.424000
11
108.169000
21
869.324000
0
LINE
8
Layer 1
10
139.519000
20
860.924000
11
139.633906
21
860.360828
0
LINE
8
Layer 1
10
139.633906
20
860.360828
11
139.944750
21
859.900875
0
LINE
8
Layer 1
10
139.944750
20
859.900875
11
140.405219
21
859.590734
0
LINE
8
Layer 1
10
140.405219
20
859.590734
11
140.969000
21
859.477000
0
LINE
8
Layer 1
10
140.969000
20
859.477000
11
141.532781
21
859.590734
0
LINE
8
Layer 1
10
141.532781
20
859.590734
11
141.993250
21
859.900875
0
LINE
8
Layer 1
10
141.993250
20
859.900875
11
142.304094
21
860.360828
0
LINE
8
Layer 1
10
142.304094
20
860.360828
11
142.419000
21
860.924000
0
LINE
8
Layer 1
10
142.419000
20
860.924000
11
142.304094
21
861.487594
0
LINE
8
Layer 1
10
142.304094
20
861.487594
11
141.993250
21
861.947500
0
LINE
8
Layer 1
10
141.993250
20
861.947500
11
141.532781
21
862.257406
0
LINE
8
Layer 1
10
141.532781
20
862.257406
11
140.969000
21
862.371000
0
LINE
8
Layer 1
10
140.969000
20
862.371000
11
140.405219
21
862.257406
0
LINE
8
Layer 1
10
140.405219
20
862.257406
11
139.944750
21
861.947500
0
LINE
8
Layer 1
10
139.944750
20
861.947500
11
139.633906
21
861.487594
0
LINE
8
Layer 1
10
139.633906
20
861.487594
11
139.519000
21
860.924000
0
LINE
8
Layer 1
10
139.519000
20
860.924000
11
139.519000
21
860.924000
0
LINE
8
Layer 1
10
155.831000
20
869.324000
11
161.631000
21
869.324000
0
LINE
8
Layer 1
10
127.069000
20
881.532000
11
117.270000
21
881.532000
0
LINE
8
Layer 1
10
117.270000
20
875.733000
11
117.270000
21
881.532000
0
LINE
8
Layer 1
10
146.669000
20
875.734000
11
146.669000
21
881.533000
0
LINE
8
Layer 1
10
146.669000
20
828.124000
11
146.669000
21
822.424000
0
LINE
8
Layer 1
10
127.069000
20
828.124000
11
136.869000
21
828.124000
0
LINE
8
Layer 1
10
108.169000
20
834.524000
11
102.369000
21
834.524000
0
LINE
8
Layer 1
10
139.519000
20
842.924000
11
139.633906
21
842.360828
0
LINE
8
Layer 1
10
139.633906
20
842.360828
11
139.944750
21
841.900875
0
LINE
8
Layer 1
10
139.944750
20
841.900875
11
140.405219
21
841.590734
0
LINE
8
Layer 1
10
140.405219
20
841.590734
11
140.969000
21
841.477000
0
LINE
8
Layer 1
10
140.969000
20
841.477000
11
141.532781
21
841.590734
0
LINE
8
Layer 1
10
141.532781
20
841.590734
11
141.993250
21
841.900875
0
LINE
8
Layer 1
10
141.993250
20
841.900875
11
142.304094
21
842.360828
0
LINE
8
Layer 1
10
142.304094
20
842.360828
11
142.419000
21
842.924000
0
LINE
8
Layer 1
10
142.419000
20
842.924000
11
142.304094
21
843.487594
0
LINE
8
Layer 1
10
142.304094
20
843.487594
11
141.993250
21
843.947500
0
LINE
8
Layer 1
10
141.993250
20
843.947500
11
141.532781
21
844.257406
0
LINE
8
Layer 1
10
141.532781
20
844.257406
11
140.969000
21
844.371000
0
LINE
8
Layer 1
10
140.969000
20
844.371000
11
140.405219
21
844.257406
0
LINE
8
Layer 1
10
140.405219
20
844.257406
11
139.944750
21
843.947500
0
LINE
8
Layer 1
10
139.944750
20
843.947500
11
139.633906
21
843.487594
0
LINE
8
Layer 1
10
139.633906
20
843.487594
11
139.519000
21
842.924000
0
LINE
8
Layer 1
10
139.519000
20
842.924000
11
139.519000
21
842.924000
0
LINE
8
Layer 1
10
127.069000
20
822.425000
11
117.270000
21
822.425000
0
LINE
8
Layer 1
10
108.169000
20
869.324000
11
102.369000
21
869.324000
0
LINE
8
Layer 1
10
-452.528000
20
1095.960000
11
-464.129000
21
1095.960000
0
LINE
8
Layer 1
10
-464.129000
20
1091.460000
11
-464.129000
21
1095.960000
0
LINE
8
Layer 1
10
-464.129000
20
1091.460000
11
-475.729000
21
1091.460000
0
LINE
8
Layer 1
10
-475.729000
20
1179.960000
11
-475.729000
21
1091.460000
0
LINE
8
Layer 1
10
-417.729000
20
1179.960000
11
-475.729000
21
1179.960000
0
LINE
8
Layer 1
10
-417.729000
20
1179.960000
11
-417.729000
21
1091.460000
0
LINE
8
Layer 1
10
-429.328000
20
1091.460000
11
-429.328000
21
1095.960000
0
LINE
8
Layer 1
10
-429.328000
20
1095.960000
11
-440.929000
21
1095.960000
0
LINE
8
Layer 1
10
-440.929000
20
1091.460000
11
-440.929000
21
1095.960000
0
LINE
8
Layer 1
10
-440.929000
20
1091.460000
11
-452.528000
21
1091.460000
0
LINE
8
Layer 1
10
-452.528000
20
1091.460000
11
-452.528000
21
1095.960000
0
LINE
8
Layer 1
10
-417.729000
20
1091.460000
11
-429.328000
21
1091.460000
0
LINE
8
Layer 1
10
-476.272000
20
1086.500000
11
-476.272000
21
997.999000
0
LINE
8
Layer 1
10
-418.272000
20
1086.500000
11
-418.272000
21
997.999000
0
LINE
8
Layer 1
10
-429.872000
20
997.999000
11
-418.272000
21
997.999000
0
LINE
8
Layer 1
10
-429.872000
20
1002.500000
11
-441.473000
21
1002.500000
0
LINE
8
Layer 1
10
-441.473000
20
997.999000
11
-441.473000
21
1002.500000
0
LINE
8
Layer 1
10
-453.072000
20
997.999000
11
-441.473000
21
997.999000
0
LINE
8
Layer 1
10
-453.072000
20
997.999000
11
-453.072000
21
1002.500000
0
LINE
8
Layer 1
10
-429.872000
20
997.999000
11
-429.872000
21
1002.500000
0
LINE
8
Layer 1
10
-476.272000
20
997.999000
11
-464.673000
21
997.999000
0
LINE
8
Layer 1
10
-453.072000
20
1002.500000
11
-464.673000
21
1002.500000
0
LINE
8
Layer 1
10
-476.272000
20
1086.500000
11
-418.272000
21
1086.500000
0
LINE
8
Layer 1
10
-464.673000
20
997.999000
11
-464.673000
21
1002.500000
0
LINE
8
Layer 1
10
-561.972000
20
1091.000000
11
-561.972000
21
1095.500000
0
LINE
8
Layer 1
10
-561.972000
20
1091.000000
11
-576.272000
21
1091.000000
0
LINE
8
Layer 1
10
-576.272000
20
1179.500000
11
-576.272000
21
1091.000000
0
LINE
8
Layer 1
10
-518.271000
20
1179.500000
11
-576.272000
21
1179.500000
0
LINE
8
Layer 1
10
-518.271000
20
1179.500000
11
-518.271000
21
1091.000000
0
LINE
8
Layer 1
10
-518.271000
20
1091.000000
11
-532.572000
21
1091.000000
0
LINE
8
Layer 1
10
-532.572000
20
1091.000000
11
-532.572000
21
1095.500000
0
LINE
8
Layer 1
10
-532.572000
20
1095.500000
11
-542.372000
21
1095.500000
0
LINE
8
Layer 1
10
-542.372000
20
1091.000000
11
-542.372000
21
1095.500000
0
LINE
8
Layer 1
10
-552.171000
20
1091.000000
11
-552.171000
21
1095.500000
0
LINE
8
Layer 1
10
-552.171000
20
1095.500000
11
-561.972000
21
1095.500000
0
LINE
8
Layer 1
10
-542.372000
20
1091.000000
11
-552.171000
21
1091.000000
0
LINE
8
Layer 1
10
-552.171000
20
1002.500000
11
-561.972000
21
1002.500000
0
LINE
8
Layer 1
10
-561.972000
20
997.997000
11
-561.972000
21
1002.500000
0
LINE
8
Layer 1
10
-576.272000
20
1086.500000
11
-576.272000
21
997.997000
0
LINE
8
Layer 1
10
-576.272000
20
1086.500000
11
-518.271000
21
1086.500000
0
LINE
8
Layer 1
10
-518.271000
20
1086.500000
11
-518.271000
21
997.997000
0
LINE
8
Layer 1
10
-532.572000
20
997.997000
11
-518.271000
21
997.997000
0
LINE
8
Layer 1
10
-532.572000
20
997.997000
11
-532.572000
21
1002.500000
0
LINE
8
Layer 1
10
-532.572000
20
1002.500000
11
-542.372000
21
1002.500000
0
LINE
8
Layer 1
10
-542.372000
20
997.997000
11
-542.372000
21
1002.500000
0
LINE
8
Layer 1
10
-552.171000
20
997.997000
11
-552.171000
21
1002.500000
0
LINE
8
Layer 1
10
-552.171000
20
997.997000
11
-542.372000
21
997.997000
0
LINE
8
Layer 1
10
-576.272000
20
997.997000
11
-561.972000
21
997.997000
0
LINE
8
Layer 1
10
-169.256000
20
858.937000
11
-180.857000
21
858.937000
0
LINE
8
Layer 1
10
-180.857000
20
854.437000
11
-180.857000
21
858.937000
0
LINE
8
Layer 1
10
-180.857000
20
854.437000
11
-192.457000
21
854.437000
0
LINE
8
Layer 1
10
-192.457000
20
942.937000
11
-192.457000
21
854.437000
0
LINE
8
Layer 1
10
-134.457000
20
942.937000
11
-192.457000
21
942.937000
0
LINE
8
Layer 1
10
-134.457000
20
942.937000
11
-134.457000
21
854.437000
0
LINE
8
Layer 1
10
-146.056000
20
854.437000
11
-146.056000
21
858.937000
0
LINE
8
Layer 1
10
-146.056000
20
858.937000
11
-157.657000
21
858.937000
0
LINE
8
Layer 1
10
-157.657000
20
854.437000
11
-157.657000
21
858.937000
0
LINE
8
Layer 1
10
-157.657000
20
854.437000
11
-169.256000
21
854.437000
0
LINE
8
Layer 1
10
-169.256000
20
854.437000
11
-169.256000
21
858.937000
0
LINE
8
Layer 1
10
-134.457000
20
854.437000
11
-146.056000
21
854.437000
0
LINE
8
Layer 1
10
-258.000000
20
849.479000
11
-258.000000
21
760.979000
0
LINE
8
Layer 1
10
-200.000000
20
849.479000
11
-200.000000
21
760.979000
0
LINE
8
Layer 1
10
-211.600000
20
760.979000
11
-200.000000
21
760.979000
0
LINE
8
Layer 1
10
-211.600000
20
765.479000
11
-223.201000
21
765.479000
0
LINE
8
Layer 1
10
-223.201000
20
760.979000
11
-223.201000
21
765.479000
0
LINE
8
Layer 1
10
-234.800000
20
760.979000
11
-223.201000
21
760.979000
0
LINE
8
Layer 1
10
-234.800000
20
760.979000
11
-234.800000
21
765.479000
0
LINE
8
Layer 1
10
-211.600000
20
760.979000
11
-211.600000
21
765.479000
0
LINE
8
Layer 1
10
-258.000000
20
760.979000
11
-246.401000
21
760.979000
0
LINE
8
Layer 1
10
-234.800000
20
765.479000
11
-246.401000
21
765.479000
0
LINE
8
Layer 1
10
-258.000000
20
849.479000
11
-200.000000
21
849.479000
0
LINE
8
Layer 1
10
-246.401000
20
760.979000
11
-246.401000
21
765.479000
0
LINE
8
Layer 1
10
-243.700000
20
853.979000
11
-243.700000
21
858.479000
0
LINE
8
Layer 1
10
-243.700000
20
853.979000
11
-258.000000
21
853.979000
0
LINE
8
Layer 1
10
-258.000000
20
942.479000
11
-258.000000
21
853.979000
0
LINE
8
Layer 1
10
-199.999000
20
942.479000
11
-258.000000
21
942.479000
0
LINE
8
Layer 1
10
-199.999000
20
942.479000
11
-199.999000
21
853.979000
0
LINE
8
Layer 1
10
-199.999000
20
853.979000
11
-214.300000
21
853.979000
0
LINE
8
Layer 1
10
-214.300000
20
853.979000
11
-214.300000
21
858.479000
0
LINE
8
Layer 1
10
-214.300000
20
858.479000
11
-224.100000
21
858.479000
0
LINE
8
Layer 1
10
-224.100000
20
853.979000
11
-224.100000
21
858.479000
0
LINE
8
Layer 1
10
-233.899000
20
853.979000
11
-233.899000
21
858.479000
0
LINE
8
Layer 1
10
-233.899000
20
858.479000
11
-243.700000
21
858.479000
0
LINE
8
Layer 1
10
-224.100000
20
853.979000
11
-233.899000
21
853.979000
0
LINE
8
Layer 1
10
-168.899000
20
765.479000
11
-178.700000
21
765.479000
0
LINE
8
Layer 1
10
-178.700000
20
760.979000
11
-178.700000
21
765.479000
0
LINE
8
Layer 1
10
-193.000000
20
849.479000
11
-193.000000
21
760.979000
0
LINE
8
Layer 1
10
-193.000000
20
849.479000
11
-134.999000
21
849.479000
0
LINE
8
Layer 1
10
-134.999000
20
849.479000
11
-134.999000
21
760.979000
0
LINE
8
Layer 1
10
-149.300000
20
760.979000
11
-134.999000
21
760.979000
0
LINE
8
Layer 1
10
-149.300000
20
760.979000
11
-149.300000
21
765.479000
0
LINE
8
Layer 1
10
-149.300000
20
765.479000
11
-159.100000
21
765.479000
0
LINE
8
Layer 1
10
-159.100000
20
760.979000
11
-159.100000
21
765.479000
0
LINE
8
Layer 1
10
-168.899000
20
760.979000
11
-168.899000
21
765.479000
0
LINE
8
Layer 1
10
-168.899000
20
760.979000
11
-159.100000
21
760.979000
0
LINE
8
Layer 1
10
-193.000000
20
760.979000
11
-178.700000
21
760.979000
0
LINE
8
Layer 1
10
-340.000000
20
873.979000
11
-340.000000
21
815.980000
0
LINE
8
Layer 1
10
-340.000000
20
873.979000
11
-282.000000
21
873.979000
0
LINE
8
Layer 1
10
-282.000000
20
873.979000
11
-282.000000
21
815.980000
0
LINE
8
Layer 1
10
-340.000000
20
815.980000
11
-282.000000
21
815.980000
0
LINE
8
Layer 1
10
-340.000000
20
933.978000
11
-340.000000
21
875.979000
0
LINE
8
Layer 1
10
-340.000000
20
933.978000
11
-282.000000
21
933.978000
0
LINE
8
Layer 1
10
-282.000000
20
933.978000
11
-282.000000
21
875.979000
0
LINE
8
Layer 1
10
-340.000000
20
875.979000
11
-282.000000
21
875.979000
0
LINE
8
Layer 1
10
-608.272000
20
1120.000000
11
-608.272000
21
1178.000000
0
LINE
8
Layer 1
10
-608.272000
20
1120.000000
11
-666.272000
21
1120.000000
0
LINE
8
Layer 1
10
-666.272000
20
1120.000000
11
-666.272000
21
1178.000000
0
LINE
8
Layer 1
10
-608.272000
20
1178.000000
11
-666.272000
21
1178.000000
0
LINE
8
Layer 1
10
-608.272000
20
1060.000000
11
-608.272000
21
1118.000000
0
LINE
8
Layer 1
10
-608.272000
20
1060.000000
11
-666.272000
21
1060.000000
0
LINE
8
Layer 1
10
-666.272000
20
1060.000000
11
-666.272000
21
1118.000000
0
LINE
8
Layer 1
10
-608.272000
20
1118.000000
11
-666.272000
21
1118.000000
0
LINE
8
Layer 1
10
-608.272000
20
1000.000000
11
-608.272000
21
1058.000000
0
LINE
8
Layer 1
10
-608.272000
20
1000.000000
11
-666.272000
21
1000.000000
0
LINE
8
Layer 1
10
-666.272000
20
1000.000000
11
-666.272000
21
1058.000000
0
LINE
8
Layer 1
10
-608.272000
20
1058.000000
11
-666.272000
21
1058.000000
0
LINE
8
Layer 1
10
-339.000000
20
1047.980000
11
-339.000000
21
989.980000
0
LINE
8
Layer 1
10
-339.000000
20
1047.980000
11
-281.000000
21
1047.980000
0
LINE
8
Layer 1
10
-281.000000
20
1047.980000
11
-281.000000
21
989.980000
0
LINE
8
Layer 1
10
-339.000000
20
989.980000
11
-281.000000
21
989.980000
0
LINE
8
Layer 1
10
-339.000000
20
1107.980000
11
-339.000000
21
1049.980000
0
LINE
8
Layer 1
10
-339.000000
20
1107.980000
11
-281.000000
21
1107.980000
0
LINE
8
Layer 1
10
-281.000000
20
1107.980000
11
-281.000000
21
1049.980000
0
LINE
8
Layer 1
10
-339.000000
20
1049.980000
11
-281.000000
21
1049.980000
0
LINE
8
Layer 1
10
-339.000000
20
1167.980000
11
-339.000000
21
1109.980000
0
LINE
8
Layer 1
10
-339.000000
20
1167.980000
11
-281.000000
21
1167.980000
0
LINE
8
Layer 1
10
-281.000000
20
1167.980000
11
-281.000000
21
1109.980000
0
LINE
8
Layer 1
10
-339.000000
20
1109.980000
11
-281.000000
21
1109.980000
0
LINE
8
Layer 1
10
-11.831800
20
1078.400000
11
-23.431900
21
1078.400000
0
LINE
8
Layer 1
10
-23.431900
20
1073.900000
11
-23.431900
21
1078.400000
0
LINE
8
Layer 1
10
-23.431900
20
1073.900000
11
-35.032000
21
1073.900000
0
LINE
8
Layer 1
10
-35.032000
20
1162.390000
11
-35.032007
21
1073.890600
0
LINE
8
Layer 1
10
22.968100
20
1162.390000
11
-35.032000
21
1162.390010
0
LINE
8
Layer 1
10
22.968100
20
1162.390000
11
22.968100
21
1073.900000
0
LINE
8
Layer 1
10
11.368200
20
1073.900000
11
11.368200
21
1078.400000
0
LINE
8
Layer 1
10
11.368200
20
1078.400000
11
-0.231904
21
1078.400000
0
LINE
8
Layer 1
10
-0.231904
20
1073.900000
11
-0.231904
21
1078.400000
0
LINE
8
Layer 1
10
-0.231904
20
1073.900000
11
-11.831800
21
1073.900000
0
LINE
8
Layer 1
10
-11.831800
20
1073.900000
11
-11.831800
21
1078.400000
0
LINE
8
Layer 1
10
22.968100
20
1073.900000
11
11.368200
21
1073.900000
0
LINE
8
Layer 1
10
-35.575700
20
1068.940000
11
-35.575708
21
980.440000
0
LINE
8
Layer 1
10
22.424400
20
1068.940000
11
22.424400
21
980.437000
0
LINE
8
Layer 1
10
10.824300
20
980.437000
11
22.424400
21
980.437000
0
LINE
8
Layer 1
10
10.824300
20
984.937000
11
-0.775850
21
984.937000
0
LINE
8
Layer 1
10
-0.775850
20
980.437000
11
-0.775850
21
984.937000
0
LINE
8
Layer 1
10
-12.375700
20
980.437000
11
-0.775850
21
980.437000
0
LINE
8
Layer 1
10
-12.375700
20
980.437000
11
-12.375700
21
984.937000
0
LINE
8
Layer 1
10
10.824300
20
980.437000
11
10.824300
21
984.937000
0
LINE
8
Layer 1
10
-35.575700
20
980.437000
11
-23.975800
21
980.437000
0
LINE
8
Layer 1
10
-12.375700
20
984.937000
11
-23.975800
21
984.937000
0
LINE
8
Layer 1
10
-35.575700
20
1068.940000
11
22.424400
21
1068.939990
0
LINE
8
Layer 1
10
-23.975800
20
980.437000
11
-23.975800
21
984.937000
0
LINE
8
Layer 1
10
56.300300
20
1073.980000
11
56.300300
21
1078.480000
0
LINE
8
Layer 1
10
56.300300
20
1073.980000
11
42.000300
21
1073.980000
0
LINE
8
Layer 1
10
42.000300
20
1162.480000
11
42.000300
21
1073.980000
0
LINE
8
Layer 1
10
100.000000
20
1162.480000
11
42.000300
21
1162.480000
0
LINE
8
Layer 1
10
100.000000
20
1162.480000
11
100.000000
21
1073.980000
0
LINE
8
Layer 1
10
100.000000
20
1073.980000
11
85.700200
21
1073.980000
0
LINE
8
Layer 1
10
85.700200
20
1073.980000
11
85.700200
21
1078.480000
0
LINE
8
Layer 1
10
85.700200
20
1078.480000
11
75.900300
21
1078.480000
0
LINE
8
Layer 1
10
75.900300
20
1073.980000
11
75.900300
21
1078.480000
0
LINE
8
Layer 1
10
66.100400
20
1073.980000
11
66.100400
21
1078.480000
0
LINE
8
Layer 1
10
66.100400
20
1078.480000
11
56.300300
21
1078.480000
0
LINE
8
Layer 1
10
75.900300
20
1073.980000
11
66.100400
21
1073.980000
0
LINE
8
Layer 1
10
66.100400
20
985.477000
11
56.300300
21
985.477000
0
LINE
8
Layer 1
10
56.300300
20
980.977000
11
56.300300
21
985.477000
0
LINE
8
Layer 1
10
42.000300
20
1069.480000
11
42.000300
21
980.977000
0
LINE
8
Layer 1
10
42.000300
20
1069.480000
11
100.000000
21
1069.480000
0
LINE
8
Layer 1
10
100.000000
20
1069.480000
11
100.000000
21
980.977000
0
LINE
8
Layer 1
10
85.700200
20
980.977000
11
100.000000
21
980.977000
0
LINE
8
Layer 1
10
85.700200
20
980.977000
11
85.700200
21
985.477000
0
LINE
8
Layer 1
10
85.700200
20
985.477000
11
75.900300
21
985.477000
0
LINE
8
Layer 1
10
75.900300
20
980.977000
11
75.900300
21
985.477000
0
LINE
8
Layer 1
10
66.100400
20
980.977000
11
66.100400
21
985.477000
0
LINE
8
Layer 1
10
66.100400
20
980.977000
11
75.900300
21
980.977000
0
LINE
8
Layer 1
10
42.000300
20
980.977000
11
56.300300
21
980.977000
0
LINE
8
Layer 1
10
100.000000
20
818.978000
11
100.000000
21
760.979000
0
LINE
8
Layer 1
10
100.000000
20
818.978000
11
42.000000
21
818.978000
0
LINE
8
Layer 1
10
42.000000
20
818.978000
11
42.000000
21
760.979000
0
LINE
8
Layer 1
10
100.000000
20
760.979000
11
42.000000
21
760.979000
0
LINE
8
Layer 1
10
100.000000
20
878.979000
11
100.000000
21
820.980000
0
LINE
8
Layer 1
10
100.000000
20
878.979000
11
42.000000
21
878.979000
0
LINE
8
Layer 1
10
42.000000
20
878.979000
11
42.000000
21
820.980000
0
LINE
8
Layer 1
10
100.000000
20
820.980000
11
42.000000
21
820.980000
0
LINE
8
Layer 1
10
161.000000
20
818.979000
11
161.000000
21
760.980000
0
LINE
8
Layer 1
10
161.000000
20
818.979000
11
103.000000
21
818.979000
0
LINE
8
Layer 1
10
103.000000
20
818.979000
11
103.000000
21
760.980000
0
LINE
8
Layer 1
10
161.000000
20
760.980000
11
103.000000
21
760.980000
0
LINE
8
Layer 1
10
448.000000
20
811.978000
11
448.000000
21
753.979000
0
LINE
8
Layer 1
10
448.000000
20
811.978000
11
390.000000
21
811.978000
0
LINE
8
Layer 1
10
390.000000
20
811.978000
11
390.000000
21
753.979000
0
LINE
8
Layer 1
10
448.000000
20
753.979000
11
390.000000
21
753.979000
0
LINE
8
Layer 1
10
448.000000
20
871.979000
11
448.000000
21
813.980000
0
LINE
8
Layer 1
10
448.000000
20
871.979000
11
390.000000
21
871.979000
0
LINE
8
Layer 1
10
390.000000
20
871.979000
11
390.000000
21
813.980000
0
LINE
8
Layer 1
10
448.000000
20
813.980000
11
390.000000
21
813.980000
0
LINE
8
Layer 1
10
448.000000
20
931.979000
11
448.000000
21
873.980000
0
LINE
8
Layer 1
10
448.000000
20
931.979000
11
390.000000
21
931.979000
0
LINE
8
Layer 1
10
390.000000
20
931.979000
11
390.000000
21
873.980000
0
LINE
8
Layer 1
10
448.000000
20
873.980000
11
390.000000
21
873.980000
0
LINE
8
Layer 1
10
508.000000
20
811.978000
11
508.000000
21
753.979000
0
LINE
8
Layer 1
10
508.000000
20
811.978000
11
450.000000
21
811.978000
0
LINE
8
Layer 1
10
450.000000
20
811.978000
11
450.000000
21
753.979000
0
LINE
8
Layer 1
10
508.000000
20
753.979000
11
450.000000
21
753.979000
0
LINE
8
Layer 1
10
508.000000
20
871.979000
11
508.000000
21
813.980000
0
LINE
8
Layer 1
10
508.000000
20
871.979000
11
450.000000
21
871.979000
0
LINE
8
Layer 1
10
450.000000
20
871.979000
11
450.000000
21
813.980000
0
LINE
8
Layer 1
10
508.000000
20
813.980000
11
450.000000
21
813.980000
0
LINE
8
Layer 1
10
508.000000
20
931.979000
11
508.000000
21
873.980000
0
LINE
8
Layer 1
10
508.000000
20
931.979000
11
450.000000
21
931.979000
0
LINE
8
Layer 1
10
450.000000
20
931.979000
11
450.000000
21
873.980000
0
LINE
8
Layer 1
10
508.000000
20
873.980000
11
450.000000
21
873.980000
 0 
ENDSEC
 0 
EOF