999
"DXF R12 Output" (www.mydxf.blogspot.com)
 0 
SECTION
 2 
HEADER
 9 
$ACADVER
 1 
AC1009
 9 
$EXTMIN
 10 
 0 
 20 
 0 
 9 
$EXTMAX
 10 
 8.5 
 20 
 11 
 0 
ENDSEC
 0 
SECTION
 2 
ENTITIES
0
LINE
8
Layer 1
10
109.256000
20
124.931000
11
109.398450
21
123.531301
0
LINE
8
Layer 1
10
109.398450
20
123.531301
11
109.804203
21
122.227757
0
LINE
8
Layer 1
10
109.804203
20
122.227757
11
110.445365
21
121.048253
0
LINE
8
Layer 1
10
110.445365
20
121.048253
11
111.294043
21
120.020674
0
LINE
8
Layer 1
10
111.294043
20
120.020674
11
112.322340
21
119.172905
0
LINE
8
Layer 1
10
112.322340
20
119.172905
11
113.502363
21
118.532831
0
LINE
8
Layer 1
10
113.502363
20
118.532831
11
114.806218
21
118.128338
0
LINE
8
Layer 1
10
114.806218
20
118.128338
11
116.206010
21
117.987310
0
LINE
8
Layer 1
10
116.206010
20
117.987310
11
117.605825
21
118.128338
0
LINE
8
Layer 1
10
117.605825
20
118.128338
11
118.909731
21
118.532831
0
LINE
8
Layer 1
10
118.909731
20
118.532831
11
120.089815
21
119.172905
0
LINE
8
Layer 1
10
120.089815
20
119.172905
11
121.118165
21
120.020674
0
LINE
8
Layer 1
10
121.118165
20
120.020674
11
121.966870
21
121.048253
0
LINE
8
Layer 1
10
121.966870
20
121.048253
11
122.608017
21
122.227757
0
LINE
8
Layer 1
10
122.608017
20
122.227757
11
123.013694
21
123.531301
0
LINE
8
Layer 1
10
123.013694
20
123.531301
11
123.155990
21
124.931000
0
LINE
8
Layer 1
10
123.155990
20
124.931000
11
123.013829
21
126.330700
0
LINE
8
Layer 1
10
123.013829
20
126.330700
11
122.608215
21
127.634246
0
LINE
8
Layer 1
10
122.608215
20
127.634246
11
121.967076
21
128.813753
0
LINE
8
Layer 1
10
121.967076
20
128.813753
11
121.118341
21
129.841336
0
LINE
8
Layer 1
10
121.118341
20
129.841336
11
120.089939
21
130.689109
0
LINE
8
Layer 1
10
120.089939
20
130.689109
11
118.909797
21
131.329186
0
LINE
8
Layer 1
10
118.909797
20
131.329186
11
117.605845
21
131.733681
0
LINE
8
Layer 1
10
117.605845
20
131.733681
11
116.206010
21
131.874710
0
LINE
8
Layer 1
10
116.206010
20
131.874710
11
114.806199
21
131.733681
0
LINE
8
Layer 1
10
114.806199
20
131.733681
11
113.502298
21
131.329186
0
LINE
8
Layer 1
10
113.502298
20
131.329186
11
112.322219
21
130.689109
0
LINE
8
Layer 1
10
112.322219
20
130.689109
11
111.293870
21
129.841336
0
LINE
8
Layer 1
10
111.293870
20
129.841336
11
110.445163
21
128.813753
0
LINE
8
Layer 1
10
110.445163
20
128.813753
11
109.804009
21
127.634246
0
LINE
8
Layer 1
10
109.804009
20
127.634246
11
109.398318
21
126.330700
0
LINE
8
Layer 1
10
109.398318
20
126.330700
11
109.256000
21
124.931000
0
LINE
8
Layer 1
10
109.256000
20
124.931000
11
109.256000
21
124.931000
0
LINE
8
Layer 1
10
9.856360
20
124.931000
11
9.997560
21
123.530332
0
LINE
8
Layer 1
10
9.997560
20
123.530332
11
10.402527
21
122.225744
0
LINE
8
Layer 1
10
10.402527
20
122.225744
11
11.043314
21
121.045185
0
LINE
8
Layer 1
10
11.043314
20
121.045185
11
11.891973
21
120.016602
0
LINE
8
Layer 1
10
11.891973
20
120.016602
11
12.920555
21
119.167944
0
LINE
8
Layer 1
10
12.920555
20
119.167944
11
14.101114
21
118.527157
0
LINE
8
Layer 1
10
14.101114
20
118.527157
11
15.405702
21
118.122190
0
LINE
8
Layer 1
10
15.405702
20
118.122190
11
16.806370
21
117.980990
0
LINE
8
Layer 1
10
16.806370
20
117.980990
11
18.207038
21
118.122190
0
LINE
8
Layer 1
10
18.207038
20
118.122190
11
19.511626
21
118.527157
0
LINE
8
Layer 1
10
19.511626
20
118.527157
11
20.692185
21
119.167944
0
LINE
8
Layer 1
10
20.692185
20
119.167944
11
21.720768
21
120.016602
0
LINE
8
Layer 1
10
21.720768
20
120.016602
11
22.569426
21
121.045185
0
LINE
8
Layer 1
10
22.569426
20
121.045185
11
23.210213
21
122.225744
0
LINE
8
Layer 1
10
23.210213
20
122.225744
11
23.615180
21
123.530332
0
LINE
8
Layer 1
10
23.615180
20
123.530332
11
23.756380
21
124.931000
0
LINE
8
Layer 1
10
23.756380
20
124.931000
11
23.615180
21
126.331673
0
LINE
8
Layer 1
10
23.615180
20
126.331673
11
23.210213
21
127.636263
0
LINE
8
Layer 1
10
23.210213
20
127.636263
11
22.569426
21
128.816820
0
LINE
8
Layer 1
10
22.569426
20
128.816820
11
21.720768
21
129.845400
0
LINE
8
Layer 1
10
21.720768
20
129.845400
11
20.692185
21
130.694055
0
LINE
8
Layer 1
10
20.692185
20
130.694055
11
19.511626
21
131.334837
0
LINE
8
Layer 1
10
19.511626
20
131.334837
11
18.207038
21
131.739802
0
LINE
8
Layer 1
10
18.207038
20
131.739802
11
16.806370
21
131.881000
0
LINE
8
Layer 1
10
16.806370
20
131.881000
11
15.405702
21
131.739802
0
LINE
8
Layer 1
10
15.405702
20
131.739802
11
14.101114
21
131.334837
0
LINE
8
Layer 1
10
14.101114
20
131.334837
11
12.920555
21
130.694055
0
LINE
8
Layer 1
10
12.920555
20
130.694055
11
11.891973
21
129.845400
0
LINE
8
Layer 1
10
11.891973
20
129.845400
11
11.043314
21
128.816820
0
LINE
8
Layer 1
10
11.043314
20
128.816820
11
10.402527
21
127.636263
0
LINE
8
Layer 1
10
10.402527
20
127.636263
11
9.997560
21
126.331673
0
LINE
8
Layer 1
10
9.997560
20
126.331673
11
9.856360
21
124.931000
0
LINE
8
Layer 1
10
9.856360
20
124.931000
11
9.856360
21
124.931000
0
LINE
8
Layer 1
10
65.756300
20
146.931000
11
65.976042
21
146.400885
0
LINE
8
Layer 1
10
65.976042
20
146.400885
11
66.506240
21
146.181300
0
LINE
8
Layer 1
10
66.506240
20
146.181300
11
67.036497
21
146.400840
0
LINE
8
Layer 1
10
67.036497
20
146.400840
11
67.256300
21
146.931000
0
LINE
8
Layer 1
10
67.256300
20
146.931000
11
67.036561
21
147.461106
0
LINE
8
Layer 1
10
67.036561
20
147.461106
11
66.506360
21
147.680690
0
LINE
8
Layer 1
10
66.506360
20
147.680690
11
65.976102
21
147.461151
0
LINE
8
Layer 1
10
65.976102
20
147.461151
11
65.756300
21
146.931000
0
LINE
8
Layer 1
10
65.756300
20
146.931000
11
65.756300
21
146.931000
0
LINE
8
Layer 1
10
62.506300
20
102.931000
11
62.587565
21
102.124860
0
LINE
8
Layer 1
10
62.587565
20
102.124860
11
62.820635
21
101.374019
0
LINE
8
Layer 1
10
62.820635
20
101.374019
11
63.677861
21
100.102572
0
LINE
8
Layer 1
10
63.677861
20
100.102572
11
64.949306
21
99.245340
0
LINE
8
Layer 1
10
64.949306
20
99.245340
11
65.700152
21
99.012266
0
LINE
8
Layer 1
10
65.700152
20
99.012266
11
66.506300
21
98.931000
0
LINE
8
Layer 1
10
66.506300
20
98.931000
11
67.312448
21
99.012266
0
LINE
8
Layer 1
10
67.312448
20
99.012266
11
68.063294
21
99.245340
0
LINE
8
Layer 1
10
68.063294
20
99.245340
11
69.334739
21
100.102572
0
LINE
8
Layer 1
10
69.334739
20
100.102572
11
70.191965
21
101.374019
0
LINE
8
Layer 1
10
70.191965
20
101.374019
11
70.425035
21
102.124860
0
LINE
8
Layer 1
10
70.425035
20
102.124860
11
70.506300
21
102.931000
0
LINE
8
Layer 1
10
70.506300
20
102.931000
11
70.425035
21
103.737140
0
LINE
8
Layer 1
10
70.425035
20
103.737140
11
70.191965
21
104.487981
0
LINE
8
Layer 1
10
70.191965
20
104.487981
11
69.334739
21
105.759428
0
LINE
8
Layer 1
10
69.334739
20
105.759428
11
68.063294
21
106.616660
0
LINE
8
Layer 1
10
68.063294
20
106.616660
11
67.312448
21
106.849734
0
LINE
8
Layer 1
10
67.312448
20
106.849734
11
66.506300
21
106.931000
0
LINE
8
Layer 1
10
66.506300
20
106.931000
11
65.700152
21
106.849734
0
LINE
8
Layer 1
10
65.700152
20
106.849734
11
64.949306
21
106.616660
0
LINE
8
Layer 1
10
64.949306
20
106.616660
11
63.677861
21
105.759428
0
LINE
8
Layer 1
10
63.677861
20
105.759428
11
62.820635
21
104.487981
0
LINE
8
Layer 1
10
62.820635
20
104.487981
11
62.587565
21
103.737140
0
LINE
8
Layer 1
10
62.587565
20
103.737140
11
62.506300
21
102.931000
0
LINE
8
Layer 1
10
62.506300
20
102.931000
11
62.506300
21
102.931000
0
LINE
8
Layer 1
10
118.547000
20
115.420000
11
118.767117
21
114.890516
0
LINE
8
Layer 1
10
118.767117
20
114.890516
11
119.297000
21
114.671300
0
LINE
8
Layer 1
10
119.297000
20
114.671300
11
119.826864
21
114.890509
0
LINE
8
Layer 1
10
119.826864
20
114.890509
11
120.047000
21
115.420000
0
LINE
8
Layer 1
10
120.047000
20
115.420000
11
119.826886
21
115.949493
0
LINE
8
Layer 1
10
119.826886
20
115.949493
11
119.297000
21
116.168710
0
LINE
8
Layer 1
10
119.297000
20
116.168710
11
118.767144
21
115.949496
0
LINE
8
Layer 1
10
118.767144
20
115.949496
11
118.547000
21
115.420000
0
LINE
8
Layer 1
10
118.547000
20
115.420000
11
118.547000
21
115.420000
0
LINE
8
Layer 1
10
24.146500
20
130.809000
11
24.366636
21
130.279526
0
LINE
8
Layer 1
10
24.366636
20
130.279526
11
24.896500
21
130.060320
0
LINE
8
Layer 1
10
24.896500
20
130.060320
11
25.426364
21
130.279526
0
LINE
8
Layer 1
10
25.426364
20
130.279526
11
25.646500
21
130.809000
0
LINE
8
Layer 1
10
25.646500
20
130.809000
11
25.426364
21
131.338482
0
LINE
8
Layer 1
10
25.426364
20
131.338482
11
24.896500
21
131.557690
0
LINE
8
Layer 1
10
24.896500
20
131.557690
11
24.366636
21
131.338482
0
LINE
8
Layer 1
10
24.366636
20
131.338482
11
24.146500
21
130.809000
0
LINE
8
Layer 1
10
24.146500
20
130.809000
11
24.146500
21
130.809000
0
LINE
8
Layer 1
10
12.966200
20
134.441000
11
13.186336
21
133.911518
0
LINE
8
Layer 1
10
13.186336
20
133.911518
11
13.716200
21
133.692310
0
LINE
8
Layer 1
10
13.716200
20
133.692310
11
14.246064
21
133.911518
0
LINE
8
Layer 1
10
14.246064
20
133.911518
11
14.466200
21
134.441000
0
LINE
8
Layer 1
10
14.466200
20
134.441000
11
14.246064
21
134.970474
0
LINE
8
Layer 1
10
14.246064
20
134.970474
11
13.716200
21
135.189680
0
LINE
8
Layer 1
10
13.716200
20
135.189680
11
13.186336
21
134.970474
0
LINE
8
Layer 1
10
13.186336
20
134.970474
11
12.966200
21
134.441000
0
LINE
8
Layer 1
10
12.966200
20
134.441000
11
12.966200
21
134.441000
0
LINE
8
Layer 1
10
6.056370
20
124.931000
11
6.276506
21
124.401516
0
LINE
8
Layer 1
10
6.276506
20
124.401516
11
6.806370
21
124.182300
0
LINE
8
Layer 1
10
6.806370
20
124.182300
11
7.336234
21
124.401509
0
LINE
8
Layer 1
10
7.336234
20
124.401509
11
7.556370
21
124.931000
0
LINE
8
Layer 1
10
7.556370
20
124.931000
11
7.336234
21
125.460487
0
LINE
8
Layer 1
10
7.336234
20
125.460487
11
6.806370
21
125.679700
0
LINE
8
Layer 1
10
6.806370
20
125.679700
11
6.276506
21
125.460491
0
LINE
8
Layer 1
10
6.276506
20
125.460491
11
6.056370
21
124.931000
0
LINE
8
Layer 1
10
6.056370
20
124.931000
11
6.056370
21
124.931000
0
LINE
8
Layer 1
10
12.966200
20
115.420000
11
13.186336
21
114.890516
0
LINE
8
Layer 1
10
13.186336
20
114.890516
11
13.716200
21
114.671300
0
LINE
8
Layer 1
10
13.716200
20
114.671300
11
14.246064
21
114.890509
0
LINE
8
Layer 1
10
14.246064
20
114.890509
11
14.466200
21
115.420000
0
LINE
8
Layer 1
10
14.466200
20
115.420000
11
14.246064
21
115.949493
0
LINE
8
Layer 1
10
14.246064
20
115.949493
11
13.716200
21
116.168710
0
LINE
8
Layer 1
10
13.716200
20
116.168710
11
13.186336
21
115.949496
0
LINE
8
Layer 1
10
13.186336
20
115.949496
11
12.966200
21
115.420000
0
LINE
8
Layer 1
10
12.966200
20
115.420000
11
12.966200
21
115.420000
0
LINE
8
Layer 1
10
24.146500
20
119.053000
11
24.366636
21
118.523512
0
LINE
8
Layer 1
10
24.366636
20
118.523512
11
24.896500
21
118.304300
0
LINE
8
Layer 1
10
24.896500
20
118.304300
11
25.426364
21
118.523509
0
LINE
8
Layer 1
10
25.426364
20
118.523509
11
25.646500
21
119.053000
0
LINE
8
Layer 1
10
25.646500
20
119.053000
11
25.426364
21
119.582484
0
LINE
8
Layer 1
10
25.426364
20
119.582484
11
24.896500
21
119.801700
0
LINE
8
Layer 1
10
24.896500
20
119.801700
11
24.366636
21
119.582491
0
LINE
8
Layer 1
10
24.366636
20
119.582491
11
24.146500
21
119.053000
0
LINE
8
Layer 1
10
24.146500
20
119.053000
11
24.146500
21
119.053000
0
LINE
8
Layer 1
10
125.456000
20
124.931000
11
125.675761
21
124.400890
0
LINE
8
Layer 1
10
125.675761
20
124.400890
11
126.205970
21
124.181310
0
LINE
8
Layer 1
10
126.205970
20
124.181310
11
126.736214
21
124.400856
0
LINE
8
Layer 1
10
126.736214
20
124.400856
11
126.956010
21
124.931000
0
LINE
8
Layer 1
10
126.956010
20
124.931000
11
126.736255
21
125.461111
0
LINE
8
Layer 1
10
126.736255
20
125.461111
11
126.206030
21
125.680700
0
LINE
8
Layer 1
10
126.206030
20
125.680700
11
125.675803
21
125.461145
0
LINE
8
Layer 1
10
125.675803
20
125.461145
11
125.456000
21
124.931000
0
LINE
8
Layer 1
10
125.456000
20
124.931000
11
125.456000
21
124.931000
0
LINE
8
Layer 1
10
118.547000
20
134.441000
11
118.767117
21
133.911518
0
LINE
8
Layer 1
10
118.767117
20
133.911518
11
119.297000
21
133.692310
0
LINE
8
Layer 1
10
119.297000
20
133.692310
11
119.826864
21
133.911518
0
LINE
8
Layer 1
10
119.826864
20
133.911518
11
120.047000
21
134.441000
0
LINE
8
Layer 1
10
120.047000
20
134.441000
11
119.826886
21
134.970474
0
LINE
8
Layer 1
10
119.826886
20
134.970474
11
119.297000
21
135.189680
0
LINE
8
Layer 1
10
119.297000
20
135.189680
11
118.767144
21
134.970474
0
LINE
8
Layer 1
10
118.767144
20
134.970474
11
118.547000
21
134.441000
0
LINE
8
Layer 1
10
118.547000
20
134.441000
11
118.547000
21
134.441000
0
LINE
8
Layer 1
10
107.366000
20
130.809000
11
107.585746
21
130.278894
0
LINE
8
Layer 1
10
107.585746
20
130.278894
11
108.115940
21
130.059310
0
LINE
8
Layer 1
10
108.115940
20
130.059310
11
108.646201
21
130.278849
0
LINE
8
Layer 1
10
108.646201
20
130.278849
11
108.866000
21
130.809000
0
LINE
8
Layer 1
10
108.866000
20
130.809000
11
108.646261
21
131.339115
0
LINE
8
Layer 1
10
108.646261
20
131.339115
11
108.116060
21
131.558700
0
LINE
8
Layer 1
10
108.116060
20
131.558700
11
107.585806
21
131.339160
0
LINE
8
Layer 1
10
107.585806
20
131.339160
11
107.366000
21
130.809000
0
LINE
8
Layer 1
10
107.366000
20
130.809000
11
107.366000
21
130.809000
0
LINE
8
Layer 1
10
107.366000
20
119.053000
11
107.585746
21
118.522889
0
LINE
8
Layer 1
10
107.585746
20
118.522889
11
108.115940
21
118.303300
0
LINE
8
Layer 1
10
108.115940
20
118.303300
11
108.646201
21
118.522855
0
LINE
8
Layer 1
10
108.646201
20
118.522855
11
108.866000
21
119.053000
0
LINE
8
Layer 1
10
108.866000
20
119.053000
11
108.646261
21
119.583110
0
LINE
8
Layer 1
10
108.646261
20
119.583110
11
108.116060
21
119.802690
0
LINE
8
Layer 1
10
108.116060
20
119.802690
11
107.585806
21
119.583144
0
LINE
8
Layer 1
10
107.585806
20
119.583144
11
107.366000
21
119.053000
0
LINE
8
Layer 1
10
107.366000
20
119.053000
11
107.366000
21
119.053000
0
LINE
8
Layer 1
10
65.756300
20
139.931000
11
65.976042
21
139.400885
0
LINE
8
Layer 1
10
65.976042
20
139.400885
11
66.506240
21
139.181300
0
LINE
8
Layer 1
10
66.506240
20
139.181300
11
67.036497
21
139.400840
0
LINE
8
Layer 1
10
67.036497
20
139.400840
11
67.256300
21
139.931000
0
LINE
8
Layer 1
10
67.256300
20
139.931000
11
67.036561
21
140.461106
0
LINE
8
Layer 1
10
67.036561
20
140.461106
11
66.506360
21
140.680690
0
LINE
8
Layer 1
10
66.506360
20
140.680690
11
65.976102
21
140.461151
0
LINE
8
Layer 1
10
65.976102
20
140.461151
11
65.756300
21
139.931000
0
LINE
8
Layer 1
10
65.756300
20
139.931000
11
65.756300
21
139.931000
0
LINE
8
Layer 1
10
61.054100
20
109.403000
11
61.273843
21
108.872889
0
LINE
8
Layer 1
10
61.273843
20
108.872889
11
61.804040
21
108.653300
0
LINE
8
Layer 1
10
61.804040
20
108.653300
11
62.334297
21
108.872855
0
LINE
8
Layer 1
10
62.334297
20
108.872855
11
62.554100
21
109.403000
0
LINE
8
Layer 1
10
62.554100
20
109.403000
11
62.334357
21
109.933110
0
LINE
8
Layer 1
10
62.334357
20
109.933110
11
61.804160
21
110.152690
0
LINE
8
Layer 1
10
61.804160
20
110.152690
11
61.273903
21
109.933144
0
LINE
8
Layer 1
10
61.273903
20
109.933144
11
61.054100
21
109.403000
0
LINE
8
Layer 1
10
61.054100
20
109.403000
11
61.054100
21
109.403000
0
LINE
8
Layer 1
10
70.458600
20
109.403000
11
70.678342
21
108.872889
0
LINE
8
Layer 1
10
70.678342
20
108.872889
11
71.208540
21
108.653300
0
LINE
8
Layer 1
10
71.208540
20
108.653300
11
71.738798
21
108.872855
0
LINE
8
Layer 1
10
71.738798
20
108.872855
11
71.958600
21
109.403000
0
LINE
8
Layer 1
10
71.958600
20
109.403000
11
71.738861
21
109.933110
0
LINE
8
Layer 1
10
71.738861
20
109.933110
11
71.208660
21
110.152690
0
LINE
8
Layer 1
10
71.208660
20
110.152690
11
70.678406
21
109.933144
0
LINE
8
Layer 1
10
70.678406
20
109.933144
11
70.458600
21
109.403000
0
LINE
8
Layer 1
10
70.458600
20
109.403000
11
70.458600
21
109.403000
0
LINE
8
Layer 1
10
73.364800
20
100.459000
11
73.584542
21
99.928898
0
LINE
8
Layer 1
10
73.584542
20
99.928898
11
74.114740
21
99.709310
0
LINE
8
Layer 1
10
74.114740
20
99.709310
11
74.644998
21
99.928860
0
LINE
8
Layer 1
10
74.644998
20
99.928860
11
74.864800
21
100.459000
0
LINE
8
Layer 1
10
74.864800
20
100.459000
11
74.645058
21
100.989111
0
LINE
8
Layer 1
10
74.645058
20
100.989111
11
74.114860
21
101.208700
0
LINE
8
Layer 1
10
74.114860
20
101.208700
11
73.584603
21
100.989145
0
LINE
8
Layer 1
10
73.584603
20
100.989145
11
73.364800
21
100.459000
0
LINE
8
Layer 1
10
73.364800
20
100.459000
11
73.364800
21
100.459000
0
LINE
8
Layer 1
10
58.147900
20
100.459000
11
58.367643
21
99.928898
0
LINE
8
Layer 1
10
58.367643
20
99.928898
11
58.897840
21
99.709310
0
LINE
8
Layer 1
10
58.897840
20
99.709310
11
59.428097
21
99.928860
0
LINE
8
Layer 1
10
59.428097
20
99.928860
11
59.647900
21
100.459000
0
LINE
8
Layer 1
10
59.647900
20
100.459000
11
59.428157
21
100.989111
0
LINE
8
Layer 1
10
59.428157
20
100.989111
11
58.897960
21
101.208700
0
LINE
8
Layer 1
10
58.897960
20
101.208700
11
58.367706
21
100.989145
0
LINE
8
Layer 1
10
58.367706
20
100.989145
11
58.147900
21
100.459000
0
LINE
8
Layer 1
10
58.147900
20
100.459000
11
58.147900
21
100.459000
0
LINE
8
Layer 1
10
65.756300
20
94.930800
11
65.976042
21
94.400690
0
LINE
8
Layer 1
10
65.976042
20
94.400690
11
66.506240
21
94.181110
0
LINE
8
Layer 1
10
66.506240
20
94.181110
11
67.036497
21
94.400656
0
LINE
8
Layer 1
10
67.036497
20
94.400656
11
67.256300
21
94.930800
0
LINE
8
Layer 1
10
67.256300
20
94.930800
11
67.036561
21
95.460911
0
LINE
8
Layer 1
10
67.036561
20
95.460911
11
66.506360
21
95.680500
0
LINE
8
Layer 1
10
66.506360
20
95.680500
11
65.976102
21
95.460945
0
LINE
8
Layer 1
10
65.976102
20
95.460945
11
65.756300
21
94.930800
0
LINE
8
Layer 1
10
65.756300
20
94.930800
11
65.756300
21
94.930800
0
LINE
8
Layer 1
10
59.098900
20
144.768000
11
59.318643
21
144.237894
0
LINE
8
Layer 1
10
59.318643
20
144.237894
11
59.848840
21
144.018310
0
LINE
8
Layer 1
10
59.848840
20
144.018310
11
60.379098
21
144.237849
0
LINE
8
Layer 1
10
60.379098
20
144.237849
11
60.598900
21
144.768000
0
LINE
8
Layer 1
10
60.598900
20
144.768000
11
60.379161
21
145.298107
0
LINE
8
Layer 1
10
60.379161
20
145.298107
11
59.848960
21
145.517700
0
LINE
8
Layer 1
10
59.848960
20
145.517700
11
59.318703
21
145.298156
0
LINE
8
Layer 1
10
59.318703
20
145.298156
11
59.098900
21
144.768000
0
LINE
8
Layer 1
10
59.098900
20
144.768000
11
59.098900
21
144.768000
0
LINE
8
Layer 1
10
61.641800
20
152.594000
11
61.861543
21
152.063894
0
LINE
8
Layer 1
10
61.861543
20
152.063894
11
62.391740
21
151.844310
0
LINE
8
Layer 1
10
62.391740
20
151.844310
11
62.921998
21
152.063849
0
LINE
8
Layer 1
10
62.921998
20
152.063849
11
63.141800
21
152.594000
0
LINE
8
Layer 1
10
63.141800
20
152.594000
11
62.922057
21
153.124115
0
LINE
8
Layer 1
10
62.922057
20
153.124115
11
62.391860
21
153.343700
0
LINE
8
Layer 1
10
62.391860
20
153.343700
11
61.861603
21
153.124160
0
LINE
8
Layer 1
10
61.861603
20
153.124160
11
61.641800
21
152.594000
0
LINE
8
Layer 1
10
61.641800
20
152.594000
11
61.641800
21
152.594000
0
LINE
8
Layer 1
10
69.870800
20
152.594000
11
70.091622
21
152.065448
0
LINE
8
Layer 1
10
70.091622
20
152.065448
11
70.620800
21
151.846750
0
LINE
8
Layer 1
10
70.620800
20
151.846750
11
71.150161
21
152.065448
0
LINE
8
Layer 1
10
71.150161
20
152.065448
11
71.370800
21
152.594000
0
LINE
8
Layer 1
10
71.370800
20
152.594000
11
71.149981
21
153.122561
0
LINE
8
Layer 1
10
71.149981
20
153.122561
11
70.620800
21
153.341260
0
LINE
8
Layer 1
10
70.620800
20
153.341260
11
70.091446
21
153.122561
0
LINE
8
Layer 1
10
70.091446
20
153.122561
11
69.870800
21
152.594000
0
LINE
8
Layer 1
10
69.870800
20
152.594000
11
69.870800
21
152.594000
0
LINE
8
Layer 1
10
72.413700
20
144.768000
11
72.633443
21
144.237894
0
LINE
8
Layer 1
10
72.633443
20
144.237894
11
73.163640
21
144.018310
0
LINE
8
Layer 1
10
73.163640
20
144.018310
11
73.693898
21
144.237849
0
LINE
8
Layer 1
10
73.693898
20
144.237849
11
73.913700
21
144.768000
0
LINE
8
Layer 1
10
73.913700
20
144.768000
11
73.693958
21
145.298107
0
LINE
8
Layer 1
10
73.693958
20
145.298107
11
73.163760
21
145.517700
0
LINE
8
Layer 1
10
73.163760
20
145.517700
11
72.633503
21
145.298156
0
LINE
8
Layer 1
10
72.633503
20
145.298156
11
72.413700
21
144.768000
0
LINE
8
Layer 1
10
72.413700
20
144.768000
11
72.413700
21
144.768000
0
LINE
8
Layer 1
10
4.006320
20
124.931000
11
4.087645
21
123.181363
0
LINE
8
Layer 1
10
4.087645
20
123.181363
11
4.329000
21
121.454694
0
LINE
8
Layer 1
10
4.329000
20
121.454694
11
4.726460
21
119.753131
0
LINE
8
Layer 1
10
4.726460
20
119.753131
11
5.276098
21
118.078809
0
LINE
8
Layer 1
10
5.276098
20
118.078809
11
6.816196
21
114.820433
0
LINE
8
Layer 1
10
6.816196
20
114.820433
11
8.917879
21
111.696658
0
LINE
8
Layer 1
10
8.917879
20
111.696658
11
11.549732
21
108.724573
0
LINE
8
Layer 1
10
11.549732
20
108.724573
11
14.680338
21
105.921269
0
LINE
8
Layer 1
10
14.680338
20
105.921269
11
18.278281
21
103.303835
0
LINE
8
Layer 1
10
18.278281
20
103.303835
11
22.312145
21
100.889362
0
LINE
8
Layer 1
10
22.312145
20
100.889362
11
26.750515
21
98.694941
0
LINE
8
Layer 1
10
26.750515
20
98.694941
11
31.561974
21
96.737661
0
LINE
8
Layer 1
10
31.561974
20
96.737661
11
36.715107
21
95.034613
0
LINE
8
Layer 1
10
36.715107
20
95.034613
11
42.178498
21
93.602886
0
LINE
8
Layer 1
10
42.178498
20
93.602886
11
47.920731
21
92.459571
0
LINE
8
Layer 1
10
47.920731
20
92.459571
11
53.910389
21
91.621758
0
LINE
8
Layer 1
10
53.910389
20
91.621758
11
60.116058
21
91.106538
0
LINE
8
Layer 1
10
60.116058
20
91.106538
11
66.506320
21
90.931000
0
LINE
8
Layer 1
10
66.506320
20
90.931000
11
72.896582
21
91.106538
0
LINE
8
Layer 1
10
72.896582
20
91.106538
11
79.102251
21
91.621758
0
LINE
8
Layer 1
10
79.102251
20
91.621758
11
85.091909
21
92.459571
0
LINE
8
Layer 1
10
85.091909
20
92.459571
11
90.834142
21
93.602886
0
LINE
8
Layer 1
10
90.834142
20
93.602886
11
96.297533
21
95.034613
0
LINE
8
Layer 1
10
96.297533
20
95.034613
11
101.450666
21
96.737661
0
LINE
8
Layer 1
10
101.450666
20
96.737661
11
106.262125
21
98.694941
0
LINE
8
Layer 1
10
106.262125
20
98.694941
11
110.700495
21
100.889362
0
LINE
8
Layer 1
10
110.700495
20
100.889362
11
114.734359
21
103.303835
0
LINE
8
Layer 1
10
114.734359
20
103.303835
11
118.332302
21
105.921269
0
LINE
8
Layer 1
10
118.332302
20
105.921269
11
121.462908
21
108.724573
0
LINE
8
Layer 1
10
121.462908
20
108.724573
11
124.094761
21
111.696658
0
LINE
8
Layer 1
10
124.094761
20
111.696658
11
126.196444
21
114.820433
0
LINE
8
Layer 1
10
126.196444
20
114.820433
11
127.736542
21
118.078809
0
LINE
8
Layer 1
10
127.736542
20
118.078809
11
128.286180
21
119.753131
0
LINE
8
Layer 1
10
128.286180
20
119.753131
11
128.683640
21
121.454694
0
LINE
8
Layer 1
10
128.683640
20
121.454694
11
128.924995
21
123.181363
0
LINE
8
Layer 1
10
128.924995
20
123.181363
11
129.006320
21
124.931000
0
LINE
8
Layer 1
10
129.006320
20
124.931000
11
128.924995
21
126.680637
0
LINE
8
Layer 1
10
128.924995
20
126.680637
11
128.683640
21
128.407306
0
LINE
8
Layer 1
10
128.683640
20
128.407306
11
128.286180
21
130.108869
0
LINE
8
Layer 1
10
128.286180
20
130.108869
11
127.736542
21
131.783191
0
LINE
8
Layer 1
10
127.736542
20
131.783191
11
126.196444
21
135.041567
0
LINE
8
Layer 1
10
126.196444
20
135.041567
11
124.094761
21
138.165342
0
LINE
8
Layer 1
10
124.094761
20
138.165342
11
121.462908
21
141.137427
0
LINE
8
Layer 1
10
121.462908
20
141.137427
11
118.332302
21
143.940731
0
LINE
8
Layer 1
10
118.332302
20
143.940731
11
114.734359
21
146.558165
0
LINE
8
Layer 1
10
114.734359
20
146.558165
11
110.700495
21
148.972637
0
LINE
8
Layer 1
10
110.700495
20
148.972637
11
106.262125
21
151.167059
0
LINE
8
Layer 1
10
106.262125
20
151.167059
11
101.450666
21
153.124339
0
LINE
8
Layer 1
10
101.450666
20
153.124339
11
96.297533
21
154.827387
0
LINE
8
Layer 1
10
96.297533
20
154.827387
11
90.834142
21
156.259114
0
LINE
8
Layer 1
10
90.834142
20
156.259114
11
85.091909
21
157.402429
0
LINE
8
Layer 1
10
85.091909
20
157.402429
11
79.102251
21
158.240242
0
LINE
8
Layer 1
10
79.102251
20
158.240242
11
72.896582
21
158.755462
0
LINE
8
Layer 1
10
72.896582
20
158.755462
11
66.506320
21
158.931000
0
LINE
8
Layer 1
10
66.506320
20
158.931000
11
60.116058
21
158.755457
0
LINE
8
Layer 1
10
60.116058
20
158.755457
11
53.910389
21
158.240233
0
LINE
8
Layer 1
10
53.910389
20
158.240233
11
47.920731
21
157.402418
0
LINE
8
Layer 1
10
47.920731
20
157.402418
11
42.178498
21
156.259101
0
LINE
8
Layer 1
10
42.178498
20
156.259101
11
36.715107
21
154.827374
0
LINE
8
Layer 1
10
36.715107
20
154.827374
11
31.561974
21
153.124326
0
LINE
8
Layer 1
10
31.561974
20
153.124326
11
26.750515
21
151.167046
0
LINE
8
Layer 1
10
26.750515
20
151.167046
11
22.312145
21
148.972626
0
LINE
8
Layer 1
10
22.312145
20
148.972626
11
18.278281
21
146.558155
0
LINE
8
Layer 1
10
18.278281
20
146.558155
11
14.680338
21
143.940724
0
LINE
8
Layer 1
10
14.680338
20
143.940724
11
11.549732
21
141.137421
0
LINE
8
Layer 1
10
11.549732
20
141.137421
11
8.917879
21
138.165338
0
LINE
8
Layer 1
10
8.917879
20
138.165338
11
6.816196
21
135.041564
0
LINE
8
Layer 1
10
6.816196
20
135.041564
11
5.276098
21
131.783190
0
LINE
8
Layer 1
10
5.276098
20
131.783190
11
4.726460
21
130.108868
0
LINE
8
Layer 1
10
4.726460
20
130.108868
11
4.329000
21
128.407305
0
LINE
8
Layer 1
10
4.329000
20
128.407305
11
4.087645
21
126.680637
0
LINE
8
Layer 1
10
4.087645
20
126.680637
11
4.006320
21
124.931000
0
LINE
8
Layer 1
10
4.006320
20
124.931000
11
4.006320
21
124.931000
0
LINE
8
Layer 1
10
34.535400
20
9.489120
11
34.452735
21
9.897670
0
LINE
8
Layer 1
10
34.452735
20
9.897670
11
34.227679
21
10.231261
0
LINE
8
Layer 1
10
34.227679
20
10.231261
11
33.893983
21
10.456157
0
LINE
8
Layer 1
10
33.893983
20
10.456157
11
33.485400
21
10.538620
0
LINE
8
Layer 1
10
33.485400
20
10.538620
11
33.076816
21
10.456156
0
LINE
8
Layer 1
10
33.076816
20
10.456156
11
32.743118
21
10.231257
0
LINE
8
Layer 1
10
32.743118
20
10.231257
11
32.518060
21
9.897665
0
LINE
8
Layer 1
10
32.518060
20
9.897665
11
32.435400
21
9.489120
0
LINE
8
Layer 1
10
32.435400
20
9.489120
11
32.518060
21
9.080575
0
LINE
8
Layer 1
10
32.518060
20
9.080575
11
32.743118
21
8.746982
0
LINE
8
Layer 1
10
32.743118
20
8.746982
11
33.076816
21
8.522084
0
LINE
8
Layer 1
10
33.076816
20
8.522084
11
33.485400
21
8.439620
0
LINE
8
Layer 1
10
33.485400
20
8.439620
11
33.893983
21
8.522084
0
LINE
8
Layer 1
10
33.893983
20
8.522084
11
34.227679
21
8.746982
0
LINE
8
Layer 1
10
34.227679
20
8.746982
11
34.452735
21
9.080575
0
LINE
8
Layer 1
10
34.452735
20
9.080575
11
34.535400
21
9.489120
0
LINE
8
Layer 1
10
34.535400
20
9.489120
11
34.535400
21
9.489120
0
LINE
8
Layer 1
10
15.915800
20
41.739100
11
15.833286
21
42.147808
0
LINE
8
Layer 1
10
15.833286
20
42.147808
11
15.608263
21
42.481563
0
LINE
8
Layer 1
10
15.608263
20
42.481563
11
15.274508
21
42.706586
0
LINE
8
Layer 1
10
15.274508
20
42.706586
11
14.865800
21
42.789100
0
LINE
8
Layer 1
10
14.865800
20
42.789100
11
14.457092
21
42.706586
0
LINE
8
Layer 1
10
14.457092
20
42.706586
11
14.123337
21
42.481562
0
LINE
8
Layer 1
10
14.123337
20
42.481562
11
13.898314
21
42.147808
0
LINE
8
Layer 1
10
13.898314
20
42.147808
11
13.815800
21
41.739100
0
LINE
8
Layer 1
10
13.815800
20
41.739100
11
13.898314
21
41.330396
0
LINE
8
Layer 1
10
13.898314
20
41.330396
11
14.123337
21
40.996641
0
LINE
8
Layer 1
10
14.123337
20
40.996641
11
14.457092
21
40.771615
0
LINE
8
Layer 1
10
14.457092
20
40.771615
11
14.865800
21
40.689100
0
LINE
8
Layer 1
10
14.865800
20
40.689100
11
15.274508
21
40.771615
0
LINE
8
Layer 1
10
15.274508
20
40.771615
11
15.608263
21
40.996641
0
LINE
8
Layer 1
10
15.608263
20
40.996641
11
15.833286
21
41.330396
0
LINE
8
Layer 1
10
15.833286
20
41.330396
11
15.915800
21
41.739100
0
LINE
8
Layer 1
10
15.915800
20
41.739100
11
15.915800
21
41.739100
0
LINE
8
Layer 1
10
34.535400
20
52.489100
11
34.452735
21
52.897650
0
LINE
8
Layer 1
10
34.452735
20
52.897650
11
34.227679
21
53.231241
0
LINE
8
Layer 1
10
34.227679
20
53.231241
11
33.893983
21
53.456137
0
LINE
8
Layer 1
10
33.893983
20
53.456137
11
33.485400
21
53.538600
0
LINE
8
Layer 1
10
33.485400
20
53.538600
11
33.076816
21
53.456137
0
LINE
8
Layer 1
10
33.076816
20
53.456137
11
32.743118
21
53.231241
0
LINE
8
Layer 1
10
32.743118
20
53.231241
11
32.518060
21
52.897650
0
LINE
8
Layer 1
10
32.518060
20
52.897650
11
32.435400
21
52.489100
0
LINE
8
Layer 1
10
32.435400
20
52.489100
11
32.518060
21
52.080550
0
LINE
8
Layer 1
10
32.518060
20
52.080550
11
32.743118
21
51.746959
0
LINE
8
Layer 1
10
32.743118
20
51.746959
11
33.076816
21
51.522063
0
LINE
8
Layer 1
10
33.076816
20
51.522063
11
33.485400
21
51.439600
0
LINE
8
Layer 1
10
33.485400
20
51.439600
11
33.893983
21
51.522063
0
LINE
8
Layer 1
10
33.893983
20
51.522063
11
34.227679
21
51.746959
0
LINE
8
Layer 1
10
34.227679
20
51.746959
11
34.452735
21
52.080550
0
LINE
8
Layer 1
10
34.452735
20
52.080550
11
34.535400
21
52.489100
0
LINE
8
Layer 1
10
34.535400
20
52.489100
11
34.535400
21
52.489100
0
LINE
8
Layer 1
10
53.154900
20
20.239100
11
53.072240
21
20.647650
0
LINE
8
Layer 1
10
53.072240
20
20.647650
11
52.847182
21
20.981241
0
LINE
8
Layer 1
10
52.847182
20
20.981241
11
52.513484
21
21.206137
0
LINE
8
Layer 1
10
52.513484
20
21.206137
11
52.104900
21
21.288600
0
LINE
8
Layer 1
10
52.104900
20
21.288600
11
51.696316
21
21.206136
0
LINE
8
Layer 1
10
51.696316
20
21.206136
11
51.362617
21
20.981238
0
LINE
8
Layer 1
10
51.362617
20
20.981238
11
51.137560
21
20.647645
0
LINE
8
Layer 1
10
51.137560
20
20.647645
11
51.054900
21
20.239100
0
LINE
8
Layer 1
10
51.054900
20
20.239100
11
51.137560
21
19.830555
0
LINE
8
Layer 1
10
51.137560
20
19.830555
11
51.362618
21
19.496963
0
LINE
8
Layer 1
10
51.362618
20
19.496963
11
51.696316
21
19.272064
0
LINE
8
Layer 1
10
51.696316
20
19.272064
11
52.104900
21
19.189600
0
LINE
8
Layer 1
10
52.104900
20
19.189600
11
52.513484
21
19.272064
0
LINE
8
Layer 1
10
52.513484
20
19.272064
11
52.847183
21
19.496962
0
LINE
8
Layer 1
10
52.847183
20
19.496962
11
53.072240
21
19.830555
0
LINE
8
Layer 1
10
53.072240
20
19.830555
11
53.154900
21
20.239100
0
LINE
8
Layer 1
10
53.154900
20
20.239100
11
53.154900
21
20.239100
0
LINE
8
Layer 1
10
59.985400
20
30.989100
11
59.848581
21
33.698564
0
LINE
8
Layer 1
10
59.848581
20
33.698564
11
59.447009
21
36.329761
0
LINE
8
Layer 1
10
59.447009
20
36.329761
11
58.794005
21
38.869372
0
LINE
8
Layer 1
10
58.794005
20
38.869372
11
57.902888
21
41.304077
0
LINE
8
Layer 1
10
57.902888
20
41.304077
11
56.786979
21
43.620553
0
LINE
8
Layer 1
10
56.786979
20
43.620553
11
55.459600
21
45.805482
0
LINE
8
Layer 1
10
55.459600
20
45.805482
11
53.934069
21
47.845542
0
LINE
8
Layer 1
10
53.934069
20
47.845542
11
52.223709
21
49.727412
0
LINE
8
Layer 1
10
52.223709
20
49.727412
11
50.341839
21
51.437773
0
LINE
8
Layer 1
10
50.341839
20
51.437773
11
48.301779
21
52.963304
0
LINE
8
Layer 1
10
48.301779
20
52.963304
11
46.116851
21
54.290684
0
LINE
8
Layer 1
10
46.116851
20
54.290684
11
43.800375
21
55.406592
0
LINE
8
Layer 1
10
43.800375
20
55.406592
11
41.365671
21
56.297709
0
LINE
8
Layer 1
10
41.365671
20
56.297709
11
38.826061
21
56.950712
0
LINE
8
Layer 1
10
38.826061
20
56.950712
11
36.194863
21
57.352283
0
LINE
8
Layer 1
10
36.194863
20
57.352283
11
33.485400
21
57.489100
0
LINE
8
Layer 1
10
33.485400
20
57.489100
11
30.775920
21
57.352283
0
LINE
8
Layer 1
10
30.775920
20
57.352283
11
28.144710
21
56.950712
0
LINE
8
Layer 1
10
28.144710
20
56.950712
11
25.605091
21
56.297709
0
LINE
8
Layer 1
10
25.605091
20
56.297709
11
23.170381
21
55.406592
0
LINE
8
Layer 1
10
23.170381
20
55.406592
11
20.853902
21
54.290684
0
LINE
8
Layer 1
10
20.853902
20
54.290684
11
18.668974
21
52.963304
0
LINE
8
Layer 1
10
18.668974
20
52.963304
11
16.628917
21
51.437773
0
LINE
8
Layer 1
10
16.628917
20
51.437773
11
14.747050
21
49.727412
0
LINE
8
Layer 1
10
14.747050
20
49.727412
11
13.036694
21
47.845542
0
LINE
8
Layer 1
10
13.036694
20
47.845542
11
11.511170
21
45.805482
0
LINE
8
Layer 1
10
11.511170
20
45.805482
11
10.183796
21
43.620553
0
LINE
8
Layer 1
10
10.183796
20
43.620553
11
9.067894
21
41.304077
0
LINE
8
Layer 1
10
9.067894
20
41.304077
11
8.176783
21
38.869372
0
LINE
8
Layer 1
10
8.176783
20
38.869372
11
7.523784
21
36.329761
0
LINE
8
Layer 1
10
7.523784
20
36.329761
11
7.122216
21
33.698564
0
LINE
8
Layer 1
10
7.122216
20
33.698564
11
6.985400
21
30.989100
0
LINE
8
Layer 1
10
6.985400
20
30.989100
11
7.122217
21
28.279636
0
LINE
8
Layer 1
10
7.122217
20
28.279636
11
7.523788
21
25.648439
0
LINE
8
Layer 1
10
7.523788
20
25.648439
11
8.176791
21
23.108828
0
LINE
8
Layer 1
10
8.176791
20
23.108828
11
9.067908
21
20.674123
0
LINE
8
Layer 1
10
9.067908
20
20.674123
11
10.183816
21
18.357647
0
LINE
8
Layer 1
10
10.183816
20
18.357647
11
11.511196
21
16.172718
0
LINE
8
Layer 1
10
11.511196
20
16.172718
11
13.036727
21
14.132658
0
LINE
8
Layer 1
10
13.036727
20
14.132658
11
14.747087
21
12.250788
0
LINE
8
Layer 1
10
14.747087
20
12.250788
11
16.628958
21
10.540427
0
LINE
8
Layer 1
10
16.628958
20
10.540427
11
18.669018
21
9.014896
0
LINE
8
Layer 1
10
18.669018
20
9.014896
11
20.853947
21
7.687516
0
LINE
8
Layer 1
10
20.853947
20
7.687516
11
23.170423
21
6.571608
0
LINE
8
Layer 1
10
23.170423
20
6.571608
11
25.605128
21
5.680491
0
LINE
8
Layer 1
10
25.605128
20
5.680491
11
28.144739
21
5.027488
0
LINE
8
Layer 1
10
28.144739
20
5.027488
11
30.775936
21
4.625917
0
LINE
8
Layer 1
10
30.775936
20
4.625917
11
33.485400
21
4.489100
0
LINE
8
Layer 1
10
33.485400
20
4.489100
11
36.194864
21
4.625919
0
LINE
8
Layer 1
10
36.194864
20
4.625919
11
38.826061
21
5.027491
0
LINE
8
Layer 1
10
38.826061
20
5.027491
11
41.365672
21
5.680495
0
LINE
8
Layer 1
10
41.365672
20
5.680495
11
43.800377
21
6.571612
0
LINE
8
Layer 1
10
43.800377
20
6.571612
11
46.116853
21
7.687521
0
LINE
8
Layer 1
10
46.116853
20
7.687521
11
48.301782
21
9.014900
0
LINE
8
Layer 1
10
48.301782
20
9.014900
11
50.341842
21
10.540431
0
LINE
8
Layer 1
10
50.341842
20
10.540431
11
52.223713
21
12.250791
0
LINE
8
Layer 1
10
52.223713
20
12.250791
11
53.934073
21
14.132661
0
LINE
8
Layer 1
10
53.934073
20
14.132661
11
55.459604
21
16.172721
0
LINE
8
Layer 1
10
55.459604
20
16.172721
11
56.786984
21
18.357649
0
LINE
8
Layer 1
10
56.786984
20
18.357649
11
57.902892
21
20.674125
0
LINE
8
Layer 1
10
57.902892
20
20.674125
11
58.794009
21
23.108829
0
LINE
8
Layer 1
10
58.794009
20
23.108829
11
59.447012
21
25.648439
0
LINE
8
Layer 1
10
59.447012
20
25.648439
11
59.848583
21
28.279637
0
LINE
8
Layer 1
10
59.848583
20
28.279637
11
59.985400
21
30.989100
0
LINE
8
Layer 1
10
59.985400
20
30.989100
11
59.985400
21
30.989100
0
LINE
8
Layer 1
10
53.154900
20
41.739100
11
53.072240
21
42.147654
0
LINE
8
Layer 1
10
53.072240
20
42.147654
11
52.847182
21
42.481245
0
LINE
8
Layer 1
10
52.847182
20
42.481245
11
52.513484
21
42.706139
0
LINE
8
Layer 1
10
52.513484
20
42.706139
11
52.104900
21
42.788600
0
LINE
8
Layer 1
10
52.104900
20
42.788600
11
51.696316
21
42.706139
0
LINE
8
Layer 1
10
51.696316
20
42.706139
11
51.362617
21
42.481245
0
LINE
8
Layer 1
10
51.362617
20
42.481245
11
51.137560
21
42.147654
0
LINE
8
Layer 1
10
51.137560
20
42.147654
11
51.054900
21
41.739100
0
LINE
8
Layer 1
10
51.054900
20
41.739100
11
51.137560
21
41.330552
0
LINE
8
Layer 1
10
51.137560
20
41.330552
11
51.362618
21
40.996964
0
LINE
8
Layer 1
10
51.362618
20
40.996964
11
51.696316
21
40.772071
0
LINE
8
Layer 1
10
51.696316
20
40.772071
11
52.104900
21
40.689610
0
LINE
8
Layer 1
10
52.104900
20
40.689610
11
52.513484
21
40.772071
0
LINE
8
Layer 1
10
52.513484
20
40.772071
11
52.847183
21
40.996964
0
LINE
8
Layer 1
10
52.847183
20
40.996964
11
53.072240
21
41.330552
0
LINE
8
Layer 1
10
53.072240
20
41.330552
11
53.154900
21
41.739100
0
LINE
8
Layer 1
10
53.154900
20
41.739100
11
53.154900
21
41.739100
0
LINE
8
Layer 1
10
15.915800
20
20.239100
11
15.833286
21
20.647808
0
LINE
8
Layer 1
10
15.833286
20
20.647808
11
15.608263
21
20.981563
0
LINE
8
Layer 1
10
15.608263
20
20.981563
11
15.274508
21
21.206586
0
LINE
8
Layer 1
10
15.274508
20
21.206586
11
14.865800
21
21.289100
0
LINE
8
Layer 1
10
14.865800
20
21.289100
11
14.457092
21
21.206586
0
LINE
8
Layer 1
10
14.457092
20
21.206586
11
14.123337
21
20.981563
0
LINE
8
Layer 1
10
14.123337
20
20.981563
11
13.898314
21
20.647808
0
LINE
8
Layer 1
10
13.898314
20
20.647808
11
13.815800
21
20.239100
0
LINE
8
Layer 1
10
13.815800
20
20.239100
11
13.898314
21
19.830392
0
LINE
8
Layer 1
10
13.898314
20
19.830392
11
14.123337
21
19.496637
0
LINE
8
Layer 1
10
14.123337
20
19.496637
11
14.457092
21
19.271614
0
LINE
8
Layer 1
10
14.457092
20
19.271614
11
14.865800
21
19.189100
0
LINE
8
Layer 1
10
14.865800
20
19.189100
11
15.274508
21
19.271614
0
LINE
8
Layer 1
10
15.274508
20
19.271614
11
15.608263
21
19.496637
0
LINE
8
Layer 1
10
15.608263
20
19.496637
11
15.833286
21
19.830392
0
LINE
8
Layer 1
10
15.833286
20
19.830392
11
15.915800
21
20.239100
0
LINE
8
Layer 1
10
15.915800
20
20.239100
11
15.915800
21
20.239100
0
LINE
8
Layer 1
10
25.485200
20
22.989200
11
41.485200
21
22.989200
0
LINE
8
Layer 1
10
25.485200
20
38.989200
11
41.485200
21
38.989200
0
LINE
8
Layer 1
10
41.485200
20
38.989200
11
41.485200
21
22.989200
0
LINE
8
Layer 1
10
25.485200
20
38.989200
11
25.485200
21
22.989200
0
LINE
8
Layer 1
10
176.965000
20
26.372200
11
176.256707
21
24.292733
0
LINE
8
Layer 1
10
176.256707
20
24.292733
11
175.912753
21
22.169417
0
LINE
8
Layer 1
10
175.912753
20
22.169417
11
175.922298
21
20.044950
0
LINE
8
Layer 1
10
175.922298
20
20.044950
11
176.274501
21
17.962026
0
LINE
8
Layer 1
10
176.274501
20
17.962026
11
176.958524
21
15.963343
0
LINE
8
Layer 1
10
176.958524
20
15.963343
11
177.963526
21
14.091597
0
LINE
8
Layer 1
10
177.963526
20
14.091597
11
179.278668
21
12.389484
0
LINE
8
Layer 1
10
179.278668
20
12.389484
11
180.893110
21
10.899700
0
LINE
8
Layer 1
10
180.893110
20
10.899700
11
182.734348
21
9.701492
0
LINE
8
Layer 1
10
182.734348
20
9.701492
11
184.707736
21
8.845630
0
LINE
8
Layer 1
10
184.707736
20
8.845630
11
186.769225
21
8.332112
0
LINE
8
Layer 1
10
186.769225
20
8.332112
11
188.874764
21
8.160940
0
LINE
8
Layer 1
10
188.874764
20
8.160940
11
190.980302
21
8.332112
0
LINE
8
Layer 1
10
190.980302
20
8.332112
11
193.041790
21
8.845630
0
LINE
8
Layer 1
10
193.041790
20
8.845630
11
195.015176
21
9.701492
0
LINE
8
Layer 1
10
195.015176
20
9.701492
11
196.856410
21
10.899700
0
LINE
8
Layer 1
10
196.856410
20
10.899700
11
198.470852
21
12.389476
0
LINE
8
Layer 1
10
198.470852
20
12.389476
11
199.785994
21
14.091579
0
LINE
8
Layer 1
10
199.785994
20
14.091579
11
200.790997
21
15.963316
0
LINE
8
Layer 1
10
200.790997
20
15.963316
11
201.475020
21
17.961992
0
LINE
8
Layer 1
10
201.475020
20
17.961992
11
201.827225
21
20.044913
0
LINE
8
Layer 1
10
201.827225
20
20.044913
11
201.836771
21
22.169385
0
LINE
8
Layer 1
10
201.836771
20
22.169385
11
201.492819
21
24.292712
0
LINE
8
Layer 1
10
201.492819
20
24.292712
11
200.784530
21
26.372200
0
LINE
8
Layer 1
10
179.364000
20
18.820800
11
178.833885
21
18.601050
0
LINE
8
Layer 1
10
178.833885
20
18.601050
11
178.614300
21
18.070830
0
LINE
8
Layer 1
10
178.614300
20
18.070830
11
178.833848
21
17.540595
0
LINE
8
Layer 1
10
178.833848
20
17.540595
11
179.364000
21
17.320800
0
LINE
8
Layer 1
10
179.364000
20
17.320800
11
179.894119
21
17.540550
0
LINE
8
Layer 1
10
179.894119
20
17.540550
11
180.113700
21
18.070770
0
LINE
8
Layer 1
10
180.113700
20
18.070770
11
179.894152
21
18.601005
0
LINE
8
Layer 1
10
179.894152
20
18.601005
11
179.364000
21
18.820800
0
LINE
8
Layer 1
10
179.364000
20
18.820800
11
179.364000
21
18.820800
0
LINE
8
Layer 1
10
194.752000
20
113.221000
11
194.222512
21
113.000880
0
LINE
8
Layer 1
10
194.222512
20
113.000880
11
194.003300
21
112.471010
0
LINE
8
Layer 1
10
194.003300
20
112.471010
11
194.222509
21
111.941141
0
LINE
8
Layer 1
10
194.222509
20
111.941141
11
194.752000
21
111.721000
0
LINE
8
Layer 1
10
194.752000
20
111.721000
11
195.281488
21
111.941129
0
LINE
8
Layer 1
10
195.281488
20
111.941129
11
195.500700
21
112.471000
0
LINE
8
Layer 1
10
195.500700
20
112.471000
11
195.281491
21
113.000867
0
LINE
8
Layer 1
10
195.281491
20
113.000867
11
194.752000
21
113.221000
0
LINE
8
Layer 1
10
194.752000
20
113.221000
11
194.752000
21
113.221000
0
LINE
8
Layer 1
10
188.875000
20
131.311000
11
188.345641
21
131.090800
0
LINE
8
Layer 1
10
188.345641
20
131.090800
11
188.126490
21
130.561000
0
LINE
8
Layer 1
10
188.126490
20
130.561000
11
188.345630
21
130.031196
0
LINE
8
Layer 1
10
188.345630
20
130.031196
11
188.875000
21
129.811000
0
LINE
8
Layer 1
10
188.875000
20
129.811000
11
189.404359
21
130.031191
0
LINE
8
Layer 1
10
189.404359
20
130.031191
11
189.623510
21
130.560990
0
LINE
8
Layer 1
10
189.623510
20
130.560990
11
189.404366
21
131.090795
0
LINE
8
Layer 1
10
189.404366
20
131.090795
11
188.875000
21
131.311000
0
LINE
8
Layer 1
10
188.875000
20
131.311000
11
188.875000
21
131.311000
0
LINE
8
Layer 1
10
179.364000
20
124.401000
11
178.833885
21
124.181246
0
LINE
8
Layer 1
10
178.833885
20
124.181246
11
178.614300
21
123.651030
0
LINE
8
Layer 1
10
178.614300
20
123.651030
11
178.833848
21
123.120791
0
LINE
8
Layer 1
10
178.833848
20
123.120791
11
179.364000
21
122.901000
0
LINE
8
Layer 1
10
179.364000
20
122.901000
11
179.894119
21
123.120750
0
LINE
8
Layer 1
10
179.894119
20
123.120750
11
180.113700
21
123.650970
0
LINE
8
Layer 1
10
180.113700
20
123.650970
11
179.894152
21
124.181205
0
LINE
8
Layer 1
10
179.894152
20
124.181205
11
179.364000
21
124.401000
0
LINE
8
Layer 1
10
179.364000
20
124.401000
11
179.364000
21
124.401000
0
LINE
8
Layer 1
10
182.997000
20
113.221000
11
182.467521
21
113.000880
0
LINE
8
Layer 1
10
182.467521
20
113.000880
11
182.248310
21
112.471010
0
LINE
8
Layer 1
10
182.248310
20
112.471010
11
182.467514
21
111.941141
0
LINE
8
Layer 1
10
182.467514
20
111.941141
11
182.997000
21
111.721000
0
LINE
8
Layer 1
10
182.997000
20
111.721000
11
183.526488
21
111.941129
0
LINE
8
Layer 1
10
183.526488
20
111.941129
11
183.745700
21
112.471000
0
LINE
8
Layer 1
10
183.745700
20
112.471000
11
183.526499
21
113.000867
0
LINE
8
Layer 1
10
183.526499
20
113.000867
11
182.997000
21
113.221000
0
LINE
8
Layer 1
10
182.997000
20
113.221000
11
182.997000
21
113.221000
0
LINE
8
Layer 1
10
188.875000
20
11.911000
11
188.344885
21
11.691250
0
LINE
8
Layer 1
10
188.344885
20
11.691250
11
188.125300
21
11.161030
0
LINE
8
Layer 1
10
188.125300
20
11.161030
11
188.344847
21
10.630795
0
LINE
8
Layer 1
10
188.344847
20
10.630795
11
188.875000
21
10.411000
0
LINE
8
Layer 1
10
188.875000
20
10.411000
11
189.405115
21
10.630750
0
LINE
8
Layer 1
10
189.405115
20
10.630750
11
189.624700
21
11.160970
0
LINE
8
Layer 1
10
189.624700
20
11.160970
11
189.405153
21
11.691205
0
LINE
8
Layer 1
10
189.405153
20
11.691205
11
188.875000
21
11.911000
0
LINE
8
Layer 1
10
188.875000
20
11.911000
11
188.875000
21
11.911000
0
LINE
8
Layer 1
10
198.385000
20
18.820800
11
197.854885
21
18.601050
0
LINE
8
Layer 1
10
197.854885
20
18.601050
11
197.635300
21
18.070830
0
LINE
8
Layer 1
10
197.635300
20
18.070830
11
197.854847
21
17.540595
0
LINE
8
Layer 1
10
197.854847
20
17.540595
11
198.385000
21
17.320800
0
LINE
8
Layer 1
10
198.385000
20
17.320800
11
198.915119
21
17.540550
0
LINE
8
Layer 1
10
198.915119
20
17.540550
11
199.134700
21
18.070770
0
LINE
8
Layer 1
10
199.134700
20
18.070770
11
198.915153
21
18.601005
0
LINE
8
Layer 1
10
198.915153
20
18.601005
11
198.385000
21
18.820800
0
LINE
8
Layer 1
10
198.385000
20
18.820800
11
198.385000
21
18.820800
0
LINE
8
Layer 1
10
194.752000
20
30.001200
11
194.222044
21
29.781326
0
LINE
8
Layer 1
10
194.222044
20
29.781326
11
194.002580
21
29.251200
0
LINE
8
Layer 1
10
194.002580
20
29.251200
11
194.222044
21
28.721074
0
LINE
8
Layer 1
10
194.222044
20
28.721074
11
194.752000
21
28.501200
0
LINE
8
Layer 1
10
194.752000
20
28.501200
11
195.281931
21
28.721069
0
LINE
8
Layer 1
10
195.281931
20
28.721069
11
195.501400
21
29.251190
0
LINE
8
Layer 1
10
195.501400
20
29.251190
11
195.281950
21
29.781310
0
LINE
8
Layer 1
10
195.281950
20
29.781310
11
194.752000
21
30.001200
0
LINE
8
Layer 1
10
194.752000
20
30.001200
11
194.752000
21
30.001200
0
LINE
8
Layer 1
10
182.997000
20
30.001200
11
182.467048
21
29.781326
0
LINE
8
Layer 1
10
182.467048
20
29.781326
11
182.247580
21
29.251200
0
LINE
8
Layer 1
10
182.247580
20
29.251200
11
182.467048
21
28.721074
0
LINE
8
Layer 1
10
182.467048
20
28.721074
11
182.997000
21
28.501200
0
LINE
8
Layer 1
10
182.997000
20
28.501200
11
183.526940
21
28.721069
0
LINE
8
Layer 1
10
183.526940
20
28.721069
11
183.746410
21
29.251190
0
LINE
8
Layer 1
10
183.746410
20
29.251190
11
183.526959
21
29.781310
0
LINE
8
Layer 1
10
183.526959
20
29.781310
11
182.997000
21
30.001200
0
LINE
8
Layer 1
10
182.997000
20
30.001200
11
182.997000
21
30.001200
0
LINE
8
Layer 1
10
176.965000
20
26.372200
11
178.865385
21
37.424800
0
LINE
8
Layer 1
10
178.865385
20
37.424800
11
180.222803
21
48.537047
0
LINE
8
Layer 1
10
180.222803
20
48.537047
11
181.037254
21
59.689057
0
LINE
8
Layer 1
10
181.037254
20
59.689057
11
181.308738
21
70.860950
0
LINE
8
Layer 1
10
181.308738
20
70.860950
11
181.037254
21
82.032843
0
LINE
8
Layer 1
10
181.037254
20
82.032843
11
180.222803
21
93.184853
0
LINE
8
Layer 1
10
180.222803
20
93.184853
11
178.865385
21
104.297100
0
LINE
8
Layer 1
10
178.865385
20
104.297100
11
176.965000
21
115.349700
0
LINE
8
Layer 1
10
200.784000
20
115.350000
11
201.492289
21
117.429467
0
LINE
8
Layer 1
10
201.492289
20
117.429467
11
201.836241
21
119.552783
0
LINE
8
Layer 1
10
201.836241
20
119.552783
11
201.826695
21
121.677250
0
LINE
8
Layer 1
10
201.826695
20
121.677250
11
201.474490
21
123.760174
0
LINE
8
Layer 1
10
201.474490
20
123.760174
11
200.790467
21
125.758857
0
LINE
8
Layer 1
10
200.790467
20
125.758857
11
199.785464
21
127.630603
0
LINE
8
Layer 1
10
199.785464
20
127.630603
11
198.470322
21
129.332716
0
LINE
8
Layer 1
10
198.470322
20
129.332716
11
196.855880
21
130.822500
0
LINE
8
Layer 1
10
196.855880
20
130.822500
11
195.014645
21
132.020708
0
LINE
8
Layer 1
10
195.014645
20
132.020708
11
193.041258
21
132.876570
0
LINE
8
Layer 1
10
193.041258
20
132.876570
11
190.979769
21
133.390088
0
LINE
8
Layer 1
10
190.979769
20
133.390088
11
188.874230
21
133.561260
0
LINE
8
Layer 1
10
188.874230
20
133.561260
11
186.768691
21
133.390088
0
LINE
8
Layer 1
10
186.768691
20
133.390088
11
184.707202
21
132.876570
0
LINE
8
Layer 1
10
184.707202
20
132.876570
11
182.733815
21
132.020708
0
LINE
8
Layer 1
10
182.733815
20
132.020708
11
180.892580
21
130.822500
0
LINE
8
Layer 1
10
180.892580
20
130.822500
11
179.278141
21
129.332720
0
LINE
8
Layer 1
10
179.278141
20
129.332720
11
177.963002
21
127.630607
0
LINE
8
Layer 1
10
177.963002
20
127.630607
11
176.958001
21
125.758857
0
LINE
8
Layer 1
10
176.958001
20
125.758857
11
176.273979
21
123.760170
0
LINE
8
Layer 1
10
176.273979
20
123.760170
11
175.921775
21
121.677243
0
LINE
8
Layer 1
10
175.921775
20
121.677243
11
175.912229
21
119.552773
0
LINE
8
Layer 1
10
175.912229
20
119.552773
11
176.256181
21
117.429460
0
LINE
8
Layer 1
10
176.256181
20
117.429460
11
176.964470
21
115.350000
0
LINE
8
Layer 1
10
200.784000
20
115.350000
11
198.883615
21
104.297400
0
LINE
8
Layer 1
10
198.883615
20
104.297400
11
197.526197
21
93.185153
0
LINE
8
Layer 1
10
197.526197
20
93.185153
11
196.711746
21
82.033143
0
LINE
8
Layer 1
10
196.711746
20
82.033143
11
196.440262
21
70.861250
0
LINE
8
Layer 1
10
196.440262
20
70.861250
11
196.711746
21
59.689357
0
LINE
8
Layer 1
10
196.711746
20
59.689357
11
197.526197
21
48.537347
0
LINE
8
Layer 1
10
197.526197
20
48.537347
11
198.883615
21
37.425100
0
LINE
8
Layer 1
10
198.883615
20
37.425100
11
200.784000
21
26.372500
0
LINE
8
Layer 1
10
198.385000
20
124.401000
11
197.854885
21
124.181246
0
LINE
8
Layer 1
10
197.854885
20
124.181246
11
197.635300
21
123.651030
0
LINE
8
Layer 1
10
197.635300
20
123.651030
11
197.854847
21
123.120791
0
LINE
8
Layer 1
10
197.854847
20
123.120791
11
198.385000
21
122.901000
0
LINE
8
Layer 1
10
198.385000
20
122.901000
11
198.915119
21
123.120750
0
LINE
8
Layer 1
10
198.915119
20
123.120750
11
199.134700
21
123.650970
0
LINE
8
Layer 1
10
199.134700
20
123.650970
11
198.915153
21
124.181205
0
LINE
8
Layer 1
10
198.915153
20
124.181205
11
198.385000
21
124.401000
0
LINE
8
Layer 1
10
198.385000
20
124.401000
11
198.385000
21
124.401000
0
LINE
8
Layer 1
10
95.781700
20
76.405200
11
95.527744
21
78.924386
0
LINE
8
Layer 1
10
95.527744
20
78.924386
11
94.799388
21
81.270764
0
LINE
8
Layer 1
10
94.799388
20
81.270764
11
93.646896
21
83.394069
0
LINE
8
Layer 1
10
93.646896
20
83.394069
11
92.120535
21
85.244035
0
LINE
8
Layer 1
10
92.120535
20
85.244035
11
90.270569
21
86.770396
0
LINE
8
Layer 1
10
90.270569
20
86.770396
11
88.147264
21
87.922888
0
LINE
8
Layer 1
10
88.147264
20
87.922888
11
85.800886
21
88.651244
0
LINE
8
Layer 1
10
85.800886
20
88.651244
11
83.281700
21
88.905200
0
LINE
8
Layer 1
10
83.281700
20
88.905200
11
80.762514
21
88.651244
0
LINE
8
Layer 1
10
80.762514
20
88.651244
11
78.416136
21
87.922888
0
LINE
8
Layer 1
10
78.416136
20
87.922888
11
76.292831
21
86.770396
0
LINE
8
Layer 1
10
76.292831
20
86.770396
11
74.442865
21
85.244035
0
LINE
8
Layer 1
10
74.442865
20
85.244035
11
72.916504
21
83.394069
0
LINE
8
Layer 1
10
72.916504
20
83.394069
11
71.764012
21
81.270764
0
LINE
8
Layer 1
10
71.764012
20
81.270764
11
71.035656
21
78.924386
0
LINE
8
Layer 1
10
71.035656
20
78.924386
11
70.781700
21
76.405200
0
LINE
8
Layer 1
10
70.781700
20
76.405200
11
71.035656
21
73.886014
0
LINE
8
Layer 1
10
71.035656
20
73.886014
11
71.764012
21
71.539636
0
LINE
8
Layer 1
10
71.764012
20
71.539636
11
72.916504
21
69.416331
0
LINE
8
Layer 1
10
72.916504
20
69.416331
11
74.442865
21
67.566365
0
LINE
8
Layer 1
10
74.442865
20
67.566365
11
76.292831
21
66.040004
0
LINE
8
Layer 1
10
76.292831
20
66.040004
11
78.416136
21
64.887512
0
LINE
8
Layer 1
10
78.416136
20
64.887512
11
80.762514
21
64.159156
0
LINE
8
Layer 1
10
80.762514
20
64.159156
11
83.281700
21
63.905200
0
LINE
8
Layer 1
10
83.281700
20
63.905200
11
85.800886
21
64.159156
0
LINE
8
Layer 1
10
85.800886
20
64.159156
11
88.147264
21
64.887512
0
LINE
8
Layer 1
10
88.147264
20
64.887512
11
90.270569
21
66.040004
0
LINE
8
Layer 1
10
90.270569
20
66.040004
11
92.120535
21
67.566365
0
LINE
8
Layer 1
10
92.120535
20
67.566365
11
93.646896
21
69.416331
0
LINE
8
Layer 1
10
93.646896
20
69.416331
11
94.799388
21
71.539636
0
LINE
8
Layer 1
10
94.799388
20
71.539636
11
95.527744
21
73.886014
0
LINE
8
Layer 1
10
95.527744
20
73.886014
11
95.781700
21
76.405200
0
LINE
8
Layer 1
10
95.781700
20
76.405200
11
95.781700
21
76.405200
0
LINE
8
Layer 1
10
87.281700
20
76.405200
11
87.200434
21
77.211337
0
LINE
8
Layer 1
10
87.200434
20
77.211337
11
86.967360
21
77.962177
0
LINE
8
Layer 1
10
86.967360
20
77.962177
11
86.110128
21
79.233624
0
LINE
8
Layer 1
10
86.110128
20
79.233624
11
84.838681
21
80.090859
0
LINE
8
Layer 1
10
84.838681
20
80.090859
11
84.087840
21
80.323934
0
LINE
8
Layer 1
10
84.087840
20
80.323934
11
83.281700
21
80.405200
0
LINE
8
Layer 1
10
83.281700
20
80.405200
11
82.475560
21
80.323934
0
LINE
8
Layer 1
10
82.475560
20
80.323934
11
81.724719
21
80.090859
0
LINE
8
Layer 1
10
81.724719
20
80.090859
11
80.453272
21
79.233624
0
LINE
8
Layer 1
10
80.453272
20
79.233624
11
79.596040
21
77.962177
0
LINE
8
Layer 1
10
79.596040
20
77.962177
11
79.362966
21
77.211337
0
LINE
8
Layer 1
10
79.362966
20
77.211337
11
79.281700
21
76.405200
0
LINE
8
Layer 1
10
79.281700
20
76.405200
11
79.362966
21
75.599060
0
LINE
8
Layer 1
10
79.362966
20
75.599060
11
79.596040
21
74.848219
0
LINE
8
Layer 1
10
79.596040
20
74.848219
11
80.453272
21
73.576772
0
LINE
8
Layer 1
10
80.453272
20
73.576772
11
81.724719
21
72.719540
0
LINE
8
Layer 1
10
81.724719
20
72.719540
11
82.475560
21
72.486466
0
LINE
8
Layer 1
10
82.475560
20
72.486466
11
83.281700
21
72.405200
0
LINE
8
Layer 1
10
83.281700
20
72.405200
11
84.087840
21
72.486466
0
LINE
8
Layer 1
10
84.087840
20
72.486466
11
84.838681
21
72.719540
0
LINE
8
Layer 1
10
84.838681
20
72.719540
11
86.110128
21
73.576772
0
LINE
8
Layer 1
10
86.110128
20
73.576772
11
86.967360
21
74.848219
0
LINE
8
Layer 1
10
86.967360
20
74.848219
11
87.200434
21
75.599060
0
LINE
8
Layer 1
10
87.200434
20
75.599060
11
87.281700
21
76.405200
0
LINE
8
Layer 1
10
87.281700
20
76.405200
11
87.281700
21
76.405200
0
LINE
8
Layer 1
10
77.667600
20
56.921000
11
77.413644
21
59.440186
0
LINE
8
Layer 1
10
77.413644
20
59.440186
11
76.685288
21
61.786564
0
LINE
8
Layer 1
10
76.685288
20
61.786564
11
75.532796
21
63.909869
0
LINE
8
Layer 1
10
75.532796
20
63.909869
11
74.006435
21
65.759835
0
LINE
8
Layer 1
10
74.006435
20
65.759835
11
72.156469
21
67.286196
0
LINE
8
Layer 1
10
72.156469
20
67.286196
11
70.033164
21
68.438688
0
LINE
8
Layer 1
10
70.033164
20
68.438688
11
67.686786
21
69.167044
0
LINE
8
Layer 1
10
67.686786
20
69.167044
11
65.167600
21
69.421000
0
LINE
8
Layer 1
10
65.167600
20
69.421000
11
62.648417
21
69.167044
0
LINE
8
Layer 1
10
62.648417
20
69.167044
11
60.302040
21
68.438688
0
LINE
8
Layer 1
10
60.302040
20
68.438688
11
58.178735
21
67.286196
0
LINE
8
Layer 1
10
58.178735
20
67.286196
11
56.328769
21
65.759835
0
LINE
8
Layer 1
10
56.328769
20
65.759835
11
54.802406
21
63.909869
0
LINE
8
Layer 1
10
54.802406
20
63.909869
11
53.649913
21
61.786564
0
LINE
8
Layer 1
10
53.649913
20
61.786564
11
52.921556
21
59.440186
0
LINE
8
Layer 1
10
52.921556
20
59.440186
11
52.667600
21
56.921000
0
LINE
8
Layer 1
10
52.667600
20
56.921000
11
52.921556
21
54.401814
0
LINE
8
Layer 1
10
52.921556
20
54.401814
11
53.649913
21
52.055436
0
LINE
8
Layer 1
10
53.649913
20
52.055436
11
54.802406
21
49.932131
0
LINE
8
Layer 1
10
54.802406
20
49.932131
11
56.328769
21
48.082165
0
LINE
8
Layer 1
10
56.328769
20
48.082165
11
58.178735
21
46.555804
0
LINE
8
Layer 1
10
58.178735
20
46.555804
11
60.302040
21
45.403312
0
LINE
8
Layer 1
10
60.302040
20
45.403312
11
62.648417
21
44.674956
0
LINE
8
Layer 1
10
62.648417
20
44.674956
11
65.167600
21
44.421000
0
LINE
8
Layer 1
10
65.167600
20
44.421000
11
67.686786
21
44.674956
0
LINE
8
Layer 1
10
67.686786
20
44.674956
11
70.033164
21
45.403312
0
LINE
8
Layer 1
10
70.033164
20
45.403312
11
72.156469
21
46.555804
0
LINE
8
Layer 1
10
72.156469
20
46.555804
11
74.006435
21
48.082165
0
LINE
8
Layer 1
10
74.006435
20
48.082165
11
75.532796
21
49.932131
0
LINE
8
Layer 1
10
75.532796
20
49.932131
11
76.685288
21
52.055436
0
LINE
8
Layer 1
10
76.685288
20
52.055436
11
77.413644
21
54.401814
0
LINE
8
Layer 1
10
77.413644
20
54.401814
11
77.667600
21
56.921000
0
LINE
8
Layer 1
10
77.667600
20
56.921000
11
77.667600
21
56.921000
0
LINE
8
Layer 1
10
69.167600
20
56.921000
11
69.086334
21
57.727140
0
LINE
8
Layer 1
10
69.086334
20
57.727140
11
68.853260
21
58.477981
0
LINE
8
Layer 1
10
68.853260
20
58.477981
11
67.996027
21
59.749428
0
LINE
8
Layer 1
10
67.996027
20
59.749428
11
66.724581
21
60.606660
0
LINE
8
Layer 1
10
66.724581
20
60.606660
11
65.973740
21
60.839734
0
LINE
8
Layer 1
10
65.973740
20
60.839734
11
65.167600
21
60.921000
0
LINE
8
Layer 1
10
65.167600
20
60.921000
11
64.361460
21
60.839734
0
LINE
8
Layer 1
10
64.361460
20
60.839734
11
63.610619
21
60.606660
0
LINE
8
Layer 1
10
63.610619
20
60.606660
11
62.339172
21
59.749428
0
LINE
8
Layer 1
10
62.339172
20
59.749428
11
61.481940
21
58.477981
0
LINE
8
Layer 1
10
61.481940
20
58.477981
11
61.248866
21
57.727140
0
LINE
8
Layer 1
10
61.248866
20
57.727140
11
61.167600
21
56.921000
0
LINE
8
Layer 1
10
61.167600
20
56.921000
11
61.248866
21
56.114860
0
LINE
8
Layer 1
10
61.248866
20
56.114860
11
61.481940
21
55.364019
0
LINE
8
Layer 1
10
61.481940
20
55.364019
11
62.339172
21
54.092572
0
LINE
8
Layer 1
10
62.339172
20
54.092572
11
63.610619
21
53.235340
0
LINE
8
Layer 1
10
63.610619
20
53.235340
11
64.361460
21
53.002266
0
LINE
8
Layer 1
10
64.361460
20
53.002266
11
65.167600
21
52.921000
0
LINE
8
Layer 1
10
65.167600
20
52.921000
11
65.973740
21
53.002266
0
LINE
8
Layer 1
10
65.973740
20
53.002266
11
66.724581
21
53.235340
0
LINE
8
Layer 1
10
66.724581
20
53.235340
11
67.996027
21
54.092572
0
LINE
8
Layer 1
10
67.996027
20
54.092572
11
68.853260
21
55.364019
0
LINE
8
Layer 1
10
68.853260
20
55.364019
11
69.086334
21
56.114860
0
LINE
8
Layer 1
10
69.086334
20
56.114860
11
69.167600
21
56.921000
0
LINE
8
Layer 1
10
69.167600
20
56.921000
11
69.167600
21
56.921000
0
LINE
8
Layer 1
10
180.555000
20
208.989000
11
179.748863
21
208.907734
0
LINE
8
Layer 1
10
179.748863
20
208.907734
11
178.998023
21
208.674659
0
LINE
8
Layer 1
10
178.998023
20
208.674659
11
177.726576
21
207.817424
0
LINE
8
Layer 1
10
177.726576
20
207.817424
11
176.869341
21
206.545977
0
LINE
8
Layer 1
10
176.869341
20
206.545977
11
176.636266
21
205.795137
0
LINE
8
Layer 1
10
176.636266
20
205.795137
11
176.555000
21
204.989000
0
LINE
8
Layer 1
10
176.555000
20
204.989000
11
176.636266
21
204.182860
0
LINE
8
Layer 1
10
176.636266
20
204.182860
11
176.869341
21
203.432019
0
LINE
8
Layer 1
10
176.869341
20
203.432019
11
177.726576
21
202.160573
0
LINE
8
Layer 1
10
177.726576
20
202.160573
11
178.998023
21
201.303340
0
LINE
8
Layer 1
10
178.998023
20
201.303340
11
179.748863
21
201.070266
0
LINE
8
Layer 1
10
179.748863
20
201.070266
11
180.555000
21
200.989000
0
LINE
8
Layer 1
10
180.555000
20
200.989000
11
181.361140
21
201.070266
0
LINE
8
Layer 1
10
181.361140
20
201.070266
11
182.111981
21
201.303340
0
LINE
8
Layer 1
10
182.111981
20
201.303340
11
183.383427
21
202.160573
0
LINE
8
Layer 1
10
183.383427
20
202.160573
11
184.240660
21
203.432019
0
LINE
8
Layer 1
10
184.240660
20
203.432019
11
184.473734
21
204.182860
0
LINE
8
Layer 1
10
184.473734
20
204.182860
11
184.555000
21
204.989000
0
LINE
8
Layer 1
10
184.555000
20
204.989000
11
184.473734
21
205.795137
0
LINE
8
Layer 1
10
184.473734
20
205.795137
11
184.240660
21
206.545977
0
LINE
8
Layer 1
10
184.240660
20
206.545977
11
183.383427
21
207.817424
0
LINE
8
Layer 1
10
183.383427
20
207.817424
11
182.111981
21
208.674659
0
LINE
8
Layer 1
10
182.111981
20
208.674659
11
181.361140
21
208.907734
0
LINE
8
Layer 1
10
181.361140
20
208.907734
11
180.555000
21
208.989000
0
LINE
8
Layer 1
10
180.555000
20
208.989000
11
180.555000
21
208.989000
0
LINE
8
Layer 1
10
180.555000
20
219.989000
11
179.021337
21
219.911557
0
LINE
8
Layer 1
10
179.021337
20
219.911557
11
177.531977
21
219.684253
0
LINE
8
Layer 1
10
177.531977
20
219.684253
11
174.716324
21
218.810225
0
LINE
8
Layer 1
10
174.716324
20
218.810225
11
172.168358
21
217.427235
0
LINE
8
Layer 1
10
172.168358
20
217.427235
11
169.948399
21
215.595601
0
LINE
8
Layer 1
10
169.948399
20
215.595601
11
168.116765
21
213.375642
0
LINE
8
Layer 1
10
168.116765
20
213.375642
11
166.733775
21
210.827676
0
LINE
8
Layer 1
10
166.733775
20
210.827676
11
165.859747
21
208.012023
0
LINE
8
Layer 1
10
165.859747
20
208.012023
11
165.632443
21
206.522663
0
LINE
8
Layer 1
10
165.632443
20
206.522663
11
165.555000
21
204.989000
0
LINE
8
Layer 1
10
165.555000
20
204.989000
11
165.632443
21
203.455336
0
LINE
8
Layer 1
10
165.632443
20
203.455336
11
165.859747
21
201.965974
0
LINE
8
Layer 1
10
165.859747
20
201.965974
11
166.733775
21
199.150319
0
LINE
8
Layer 1
10
166.733775
20
199.150319
11
168.116765
21
196.602354
0
LINE
8
Layer 1
10
168.116765
20
196.602354
11
169.948399
21
194.382395
0
LINE
8
Layer 1
10
169.948399
20
194.382395
11
172.168358
21
192.550762
0
LINE
8
Layer 1
10
172.168358
20
192.550762
11
174.716324
21
191.167773
0
LINE
8
Layer 1
10
174.716324
20
191.167773
11
177.531977
21
190.293746
0
LINE
8
Layer 1
10
177.531977
20
190.293746
11
179.021337
21
190.066443
0
LINE
8
Layer 1
10
179.021337
20
190.066443
11
180.555000
21
189.989000
0
LINE
8
Layer 1
10
180.555000
20
189.989000
11
182.088663
21
190.066443
0
LINE
8
Layer 1
10
182.088663
20
190.066443
11
183.578023
21
190.293746
0
LINE
8
Layer 1
10
183.578023
20
190.293746
11
186.393676
21
191.167773
0
LINE
8
Layer 1
10
186.393676
20
191.167773
11
188.941642
21
192.550762
0
LINE
8
Layer 1
10
188.941642
20
192.550762
11
191.161601
21
194.382395
0
LINE
8
Layer 1
10
191.161601
20
194.382395
11
192.993235
21
196.602354
0
LINE
8
Layer 1
10
192.993235
20
196.602354
11
194.376225
21
199.150319
0
LINE
8
Layer 1
10
194.376225
20
199.150319
11
195.250253
21
201.965974
0
LINE
8
Layer 1
10
195.250253
20
201.965974
11
195.477557
21
203.455336
0
LINE
8
Layer 1
10
195.477557
20
203.455336
11
195.555000
21
204.989000
0
LINE
8
Layer 1
10
195.555000
20
204.989000
11
195.477557
21
206.522663
0
LINE
8
Layer 1
10
195.477557
20
206.522663
11
195.250253
21
208.012023
0
LINE
8
Layer 1
10
195.250253
20
208.012023
11
194.376225
21
210.827676
0
LINE
8
Layer 1
10
194.376225
20
210.827676
11
192.993235
21
213.375642
0
LINE
8
Layer 1
10
192.993235
20
213.375642
11
191.161601
21
215.595601
0
LINE
8
Layer 1
10
191.161601
20
215.595601
11
188.941642
21
217.427235
0
LINE
8
Layer 1
10
188.941642
20
217.427235
11
186.393676
21
218.810225
0
LINE
8
Layer 1
10
186.393676
20
218.810225
11
183.578023
21
219.684253
0
LINE
8
Layer 1
10
183.578023
20
219.684253
11
182.088663
21
219.911557
0
LINE
8
Layer 1
10
182.088663
20
219.911557
11
180.555000
21
219.989000
0
LINE
8
Layer 1
10
180.555000
20
219.989000
11
180.555000
21
219.989000
0
LINE
8
Layer 1
10
180.555000
20
243.989000
11
179.748863
21
243.907734
0
LINE
8
Layer 1
10
179.748863
20
243.907734
11
178.998023
21
243.674659
0
LINE
8
Layer 1
10
178.998023
20
243.674659
11
177.726576
21
242.817424
0
LINE
8
Layer 1
10
177.726576
20
242.817424
11
176.869341
21
241.545977
0
LINE
8
Layer 1
10
176.869341
20
241.545977
11
176.636266
21
240.795137
0
LINE
8
Layer 1
10
176.636266
20
240.795137
11
176.555000
21
239.989000
0
LINE
8
Layer 1
10
176.555000
20
239.989000
11
176.636266
21
239.182860
0
LINE
8
Layer 1
10
176.636266
20
239.182860
11
176.869341
21
238.432019
0
LINE
8
Layer 1
10
176.869341
20
238.432019
11
177.726576
21
237.160573
0
LINE
8
Layer 1
10
177.726576
20
237.160573
11
178.998023
21
236.303340
0
LINE
8
Layer 1
10
178.998023
20
236.303340
11
179.748863
21
236.070266
0
LINE
8
Layer 1
10
179.748863
20
236.070266
11
180.555000
21
235.989000
0
LINE
8
Layer 1
10
180.555000
20
235.989000
11
181.361140
21
236.070266
0
LINE
8
Layer 1
10
181.361140
20
236.070266
11
182.111981
21
236.303340
0
LINE
8
Layer 1
10
182.111981
20
236.303340
11
183.383427
21
237.160573
0
LINE
8
Layer 1
10
183.383427
20
237.160573
11
184.240660
21
238.432019
0
LINE
8
Layer 1
10
184.240660
20
238.432019
11
184.473734
21
239.182860
0
LINE
8
Layer 1
10
184.473734
20
239.182860
11
184.555000
21
239.989000
0
LINE
8
Layer 1
10
184.555000
20
239.989000
11
184.473734
21
240.795137
0
LINE
8
Layer 1
10
184.473734
20
240.795137
11
184.240660
21
241.545977
0
LINE
8
Layer 1
10
184.240660
20
241.545977
11
183.383427
21
242.817424
0
LINE
8
Layer 1
10
183.383427
20
242.817424
11
182.111981
21
243.674659
0
LINE
8
Layer 1
10
182.111981
20
243.674659
11
181.361140
21
243.907734
0
LINE
8
Layer 1
10
181.361140
20
243.907734
11
180.555000
21
243.989000
0
LINE
8
Layer 1
10
180.555000
20
243.989000
11
180.555000
21
243.989000
0
LINE
8
Layer 1
10
180.555000
20
254.989000
11
179.021337
21
254.911557
0
LINE
8
Layer 1
10
179.021337
20
254.911557
11
177.531977
21
254.684253
0
LINE
8
Layer 1
10
177.531977
20
254.684253
11
174.716324
21
253.810225
0
LINE
8
Layer 1
10
174.716324
20
253.810225
11
172.168358
21
252.427235
0
LINE
8
Layer 1
10
172.168358
20
252.427235
11
169.948399
21
250.595601
0
LINE
8
Layer 1
10
169.948399
20
250.595601
11
168.116765
21
248.375642
0
LINE
8
Layer 1
10
168.116765
20
248.375642
11
166.733775
21
245.827676
0
LINE
8
Layer 1
10
166.733775
20
245.827676
11
165.859747
21
243.012023
0
LINE
8
Layer 1
10
165.859747
20
243.012023
11
165.632443
21
241.522663
0
LINE
8
Layer 1
10
165.632443
20
241.522663
11
165.555000
21
239.989000
0
LINE
8
Layer 1
10
165.555000
20
239.989000
11
165.632443
21
238.455336
0
LINE
8
Layer 1
10
165.632443
20
238.455336
11
165.859747
21
236.965974
0
LINE
8
Layer 1
10
165.859747
20
236.965974
11
166.733775
21
234.150319
0
LINE
8
Layer 1
10
166.733775
20
234.150319
11
168.116765
21
231.602354
0
LINE
8
Layer 1
10
168.116765
20
231.602354
11
169.948399
21
229.382395
0
LINE
8
Layer 1
10
169.948399
20
229.382395
11
172.168358
21
227.550762
0
LINE
8
Layer 1
10
172.168358
20
227.550762
11
174.716324
21
226.167773
0
LINE
8
Layer 1
10
174.716324
20
226.167773
11
177.531977
21
225.293746
0
LINE
8
Layer 1
10
177.531977
20
225.293746
11
179.021337
21
225.066443
0
LINE
8
Layer 1
10
179.021337
20
225.066443
11
180.555000
21
224.989000
0
LINE
8
Layer 1
10
180.555000
20
224.989000
11
182.088663
21
225.066443
0
LINE
8
Layer 1
10
182.088663
20
225.066443
11
183.578023
21
225.293746
0
LINE
8
Layer 1
10
183.578023
20
225.293746
11
186.393676
21
226.167773
0
LINE
8
Layer 1
10
186.393676
20
226.167773
11
188.941642
21
227.550762
0
LINE
8
Layer 1
10
188.941642
20
227.550762
11
191.161601
21
229.382395
0
LINE
8
Layer 1
10
191.161601
20
229.382395
11
192.993235
21
231.602354
0
LINE
8
Layer 1
10
192.993235
20
231.602354
11
194.376225
21
234.150319
0
LINE
8
Layer 1
10
194.376225
20
234.150319
11
195.250253
21
236.965974
0
LINE
8
Layer 1
10
195.250253
20
236.965974
11
195.477557
21
238.455336
0
LINE
8
Layer 1
10
195.477557
20
238.455336
11
195.555000
21
239.989000
0
LINE
8
Layer 1
10
195.555000
20
239.989000
11
195.477557
21
241.522663
0
LINE
8
Layer 1
10
195.477557
20
241.522663
11
195.250253
21
243.012023
0
LINE
8
Layer 1
10
195.250253
20
243.012023
11
194.376225
21
245.827676
0
LINE
8
Layer 1
10
194.376225
20
245.827676
11
192.993235
21
248.375642
0
LINE
8
Layer 1
10
192.993235
20
248.375642
11
191.161601
21
250.595601
0
LINE
8
Layer 1
10
191.161601
20
250.595601
11
188.941642
21
252.427235
0
LINE
8
Layer 1
10
188.941642
20
252.427235
11
186.393676
21
253.810225
0
LINE
8
Layer 1
10
186.393676
20
253.810225
11
183.578023
21
254.684253
0
LINE
8
Layer 1
10
183.578023
20
254.684253
11
182.088663
21
254.911557
0
LINE
8
Layer 1
10
182.088663
20
254.911557
11
180.555000
21
254.989000
0
LINE
8
Layer 1
10
180.555000
20
254.989000
11
180.555000
21
254.989000
0
LINE
8
Layer 1
10
180.555000
20
278.989000
11
179.748863
21
278.907734
0
LINE
8
Layer 1
10
179.748863
20
278.907734
11
178.998023
21
278.674659
0
LINE
8
Layer 1
10
178.998023
20
278.674659
11
177.726576
21
277.817424
0
LINE
8
Layer 1
10
177.726576
20
277.817424
11
176.869341
21
276.545977
0
LINE
8
Layer 1
10
176.869341
20
276.545977
11
176.636266
21
275.795137
0
LINE
8
Layer 1
10
176.636266
20
275.795137
11
176.555000
21
274.989000
0
LINE
8
Layer 1
10
176.555000
20
274.989000
11
176.636266
21
274.182860
0
LINE
8
Layer 1
10
176.636266
20
274.182860
11
176.869341
21
273.432019
0
LINE
8
Layer 1
10
176.869341
20
273.432019
11
177.726576
21
272.160572
0
LINE
8
Layer 1
10
177.726576
20
272.160572
11
178.998023
21
271.303340
0
LINE
8
Layer 1
10
178.998023
20
271.303340
11
179.748863
21
271.070266
0
LINE
8
Layer 1
10
179.748863
20
271.070266
11
180.555000
21
270.989000
0
LINE
8
Layer 1
10
180.555000
20
270.989000
11
181.361140
21
271.070266
0
LINE
8
Layer 1
10
181.361140
20
271.070266
11
182.111981
21
271.303340
0
LINE
8
Layer 1
10
182.111981
20
271.303340
11
183.383427
21
272.160572
0
LINE
8
Layer 1
10
183.383427
20
272.160572
11
184.240660
21
273.432019
0
LINE
8
Layer 1
10
184.240660
20
273.432019
11
184.473734
21
274.182860
0
LINE
8
Layer 1
10
184.473734
20
274.182860
11
184.555000
21
274.989000
0
LINE
8
Layer 1
10
184.555000
20
274.989000
11
184.473734
21
275.795137
0
LINE
8
Layer 1
10
184.473734
20
275.795137
11
184.240660
21
276.545977
0
LINE
8
Layer 1
10
184.240660
20
276.545977
11
183.383427
21
277.817424
0
LINE
8
Layer 1
10
183.383427
20
277.817424
11
182.111981
21
278.674659
0
LINE
8
Layer 1
10
182.111981
20
278.674659
11
181.361140
21
278.907734
0
LINE
8
Layer 1
10
181.361140
20
278.907734
11
180.555000
21
278.989000
0
LINE
8
Layer 1
10
180.555000
20
278.989000
11
180.555000
21
278.989000
0
LINE
8
Layer 1
10
180.555000
20
289.989000
11
179.021337
21
289.911557
0
LINE
8
Layer 1
10
179.021337
20
289.911557
11
177.531977
21
289.684253
0
LINE
8
Layer 1
10
177.531977
20
289.684253
11
174.716324
21
288.810225
0
LINE
8
Layer 1
10
174.716324
20
288.810225
11
172.168358
21
287.427235
0
LINE
8
Layer 1
10
172.168358
20
287.427235
11
169.948399
21
285.595601
0
LINE
8
Layer 1
10
169.948399
20
285.595601
11
168.116765
21
283.375642
0
LINE
8
Layer 1
10
168.116765
20
283.375642
11
166.733775
21
280.827676
0
LINE
8
Layer 1
10
166.733775
20
280.827676
11
165.859747
21
278.012023
0
LINE
8
Layer 1
10
165.859747
20
278.012023
11
165.632443
21
276.522663
0
LINE
8
Layer 1
10
165.632443
20
276.522663
11
165.555000
21
274.989000
0
LINE
8
Layer 1
10
165.555000
20
274.989000
11
165.632443
21
273.455336
0
LINE
8
Layer 1
10
165.632443
20
273.455336
11
165.859747
21
271.965974
0
LINE
8
Layer 1
10
165.859747
20
271.965974
11
166.733775
21
269.150319
0
LINE
8
Layer 1
10
166.733775
20
269.150319
11
168.116765
21
266.602354
0
LINE
8
Layer 1
10
168.116765
20
266.602354
11
169.948399
21
264.382395
0
LINE
8
Layer 1
10
169.948399
20
264.382395
11
172.168358
21
262.550762
0
LINE
8
Layer 1
10
172.168358
20
262.550762
11
174.716324
21
261.167773
0
LINE
8
Layer 1
10
174.716324
20
261.167773
11
177.531977
21
260.293746
0
LINE
8
Layer 1
10
177.531977
20
260.293746
11
179.021337
21
260.066443
0
LINE
8
Layer 1
10
179.021337
20
260.066443
11
180.555000
21
259.989000
0
LINE
8
Layer 1
10
180.555000
20
259.989000
11
182.088663
21
260.066443
0
LINE
8
Layer 1
10
182.088663
20
260.066443
11
183.578023
21
260.293746
0
LINE
8
Layer 1
10
183.578023
20
260.293746
11
186.393676
21
261.167773
0
LINE
8
Layer 1
10
186.393676
20
261.167773
11
188.941642
21
262.550762
0
LINE
8
Layer 1
10
188.941642
20
262.550762
11
191.161601
21
264.382395
0
LINE
8
Layer 1
10
191.161601
20
264.382395
11
192.993235
21
266.602354
0
LINE
8
Layer 1
10
192.993235
20
266.602354
11
194.376225
21
269.150319
0
LINE
8
Layer 1
10
194.376225
20
269.150319
11
195.250253
21
271.965974
0
LINE
8
Layer 1
10
195.250253
20
271.965974
11
195.477557
21
273.455336
0
LINE
8
Layer 1
10
195.477557
20
273.455336
11
195.555000
21
274.989000
0
LINE
8
Layer 1
10
195.555000
20
274.989000
11
195.477557
21
276.522663
0
LINE
8
Layer 1
10
195.477557
20
276.522663
11
195.250253
21
278.012023
0
LINE
8
Layer 1
10
195.250253
20
278.012023
11
194.376225
21
280.827676
0
LINE
8
Layer 1
10
194.376225
20
280.827676
11
192.993235
21
283.375642
0
LINE
8
Layer 1
10
192.993235
20
283.375642
11
191.161601
21
285.595601
0
LINE
8
Layer 1
10
191.161601
20
285.595601
11
188.941642
21
287.427235
0
LINE
8
Layer 1
10
188.941642
20
287.427235
11
186.393676
21
288.810225
0
LINE
8
Layer 1
10
186.393676
20
288.810225
11
183.578023
21
289.684253
0
LINE
8
Layer 1
10
183.578023
20
289.684253
11
182.088663
21
289.911557
0
LINE
8
Layer 1
10
182.088663
20
289.911557
11
180.555000
21
289.989000
0
LINE
8
Layer 1
10
180.555000
20
289.989000
11
180.555000
21
289.989000
0
LINE
8
Layer 1
10
107.233000
20
47.981200
11
106.979044
21
50.500386
0
LINE
8
Layer 1
10
106.979044
20
50.500386
11
106.250688
21
52.846764
0
LINE
8
Layer 1
10
106.250688
20
52.846764
11
105.098196
21
54.970069
0
LINE
8
Layer 1
10
105.098196
20
54.970069
11
103.571835
21
56.820035
0
LINE
8
Layer 1
10
103.571835
20
56.820035
11
101.721869
21
58.346396
0
LINE
8
Layer 1
10
101.721869
20
58.346396
11
99.598564
21
59.498888
0
LINE
8
Layer 1
10
99.598564
20
59.498888
11
97.252186
21
60.227244
0
LINE
8
Layer 1
10
97.252186
20
60.227244
11
94.733000
21
60.481200
0
LINE
8
Layer 1
10
94.733000
20
60.481200
11
92.213814
21
60.227244
0
LINE
8
Layer 1
10
92.213814
20
60.227244
11
89.867436
21
59.498888
0
LINE
8
Layer 1
10
89.867436
20
59.498888
11
87.744131
21
58.346396
0
LINE
8
Layer 1
10
87.744131
20
58.346396
11
85.894165
21
56.820035
0
LINE
8
Layer 1
10
85.894165
20
56.820035
11
84.367804
21
54.970069
0
LINE
8
Layer 1
10
84.367804
20
54.970069
11
83.215312
21
52.846764
0
LINE
8
Layer 1
10
83.215312
20
52.846764
11
82.486956
21
50.500386
0
LINE
8
Layer 1
10
82.486956
20
50.500386
11
82.233000
21
47.981200
0
LINE
8
Layer 1
10
82.233000
20
47.981200
11
82.486956
21
45.462014
0
LINE
8
Layer 1
10
82.486956
20
45.462014
11
83.215312
21
43.115636
0
LINE
8
Layer 1
10
83.215312
20
43.115636
11
84.367804
21
40.992331
0
LINE
8
Layer 1
10
84.367804
20
40.992331
11
85.894165
21
39.142365
0
LINE
8
Layer 1
10
85.894165
20
39.142365
11
87.744131
21
37.616004
0
LINE
8
Layer 1
10
87.744131
20
37.616004
11
89.867436
21
36.463512
0
LINE
8
Layer 1
10
89.867436
20
36.463512
11
92.213814
21
35.735156
0
LINE
8
Layer 1
10
92.213814
20
35.735156
11
94.733000
21
35.481200
0
LINE
8
Layer 1
10
94.733000
20
35.481200
11
97.252186
21
35.735156
0
LINE
8
Layer 1
10
97.252186
20
35.735156
11
99.598564
21
36.463512
0
LINE
8
Layer 1
10
99.598564
20
36.463512
11
101.721869
21
37.616004
0
LINE
8
Layer 1
10
101.721869
20
37.616004
11
103.571835
21
39.142365
0
LINE
8
Layer 1
10
103.571835
20
39.142365
11
105.098196
21
40.992331
0
LINE
8
Layer 1
10
105.098196
20
40.992331
11
106.250688
21
43.115636
0
LINE
8
Layer 1
10
106.250688
20
43.115636
11
106.979044
21
45.462014
0
LINE
8
Layer 1
10
106.979044
20
45.462014
11
107.233000
21
47.981200
0
LINE
8
Layer 1
10
107.233000
20
47.981200
11
107.233000
21
47.981200
0
LINE
8
Layer 1
10
98.733100
20
47.981200
11
98.651834
21
48.787337
0
LINE
8
Layer 1
10
98.651834
20
48.787337
11
98.418760
21
49.538177
0
LINE
8
Layer 1
10
98.418760
20
49.538177
11
97.561527
21
50.809624
0
LINE
8
Layer 1
10
97.561527
20
50.809624
11
96.290081
21
51.666859
0
LINE
8
Layer 1
10
96.290081
20
51.666859
11
95.539240
21
51.899934
0
LINE
8
Layer 1
10
95.539240
20
51.899934
11
94.733100
21
51.981200
0
LINE
8
Layer 1
10
94.733100
20
51.981200
11
93.926960
21
51.899934
0
LINE
8
Layer 1
10
93.926960
20
51.899934
11
93.176119
21
51.666859
0
LINE
8
Layer 1
10
93.176119
20
51.666859
11
91.904672
21
50.809624
0
LINE
8
Layer 1
10
91.904672
20
50.809624
11
91.047440
21
49.538177
0
LINE
8
Layer 1
10
91.047440
20
49.538177
11
90.814366
21
48.787337
0
LINE
8
Layer 1
10
90.814366
20
48.787337
11
90.733100
21
47.981200
0
LINE
8
Layer 1
10
90.733100
20
47.981200
11
90.814366
21
47.175060
0
LINE
8
Layer 1
10
90.814366
20
47.175060
11
91.047440
21
46.424219
0
LINE
8
Layer 1
10
91.047440
20
46.424219
11
91.904672
21
45.152773
0
LINE
8
Layer 1
10
91.904672
20
45.152773
11
93.176119
21
44.295540
0
LINE
8
Layer 1
10
93.176119
20
44.295540
11
93.926960
21
44.062466
0
LINE
8
Layer 1
10
93.926960
20
44.062466
11
94.733100
21
43.981200
0
LINE
8
Layer 1
10
94.733100
20
43.981200
11
95.539240
21
44.062466
0
LINE
8
Layer 1
10
95.539240
20
44.062466
11
96.290081
21
44.295540
0
LINE
8
Layer 1
10
96.290081
20
44.295540
11
97.561527
21
45.152773
0
LINE
8
Layer 1
10
97.561527
20
45.152773
11
98.418760
21
46.424219
0
LINE
8
Layer 1
10
98.418760
20
46.424219
11
98.651834
21
47.175060
0
LINE
8
Layer 1
10
98.651834
20
47.175060
11
98.733100
21
47.981200
0
LINE
8
Layer 1
10
98.733100
20
47.981200
11
98.733100
21
47.981200
0
LINE
8
Layer 1
10
89.119000
20
28.496900
11
88.865044
21
31.016086
0
LINE
8
Layer 1
10
88.865044
20
31.016086
11
88.136688
21
33.362464
0
LINE
8
Layer 1
10
88.136688
20
33.362464
11
86.984196
21
35.485769
0
LINE
8
Layer 1
10
86.984196
20
35.485769
11
85.457835
21
37.335735
0
LINE
8
Layer 1
10
85.457835
20
37.335735
11
83.607869
21
38.862096
0
LINE
8
Layer 1
10
83.607869
20
38.862096
11
81.484564
21
40.014588
0
LINE
8
Layer 1
10
81.484564
20
40.014588
11
79.138186
21
40.742944
0
LINE
8
Layer 1
10
79.138186
20
40.742944
11
76.619000
21
40.996900
0
LINE
8
Layer 1
10
76.619000
20
40.996900
11
74.099817
21
40.742944
0
LINE
8
Layer 1
10
74.099817
20
40.742944
11
71.753440
21
40.014588
0
LINE
8
Layer 1
10
71.753440
20
40.014588
11
69.630135
21
38.862096
0
LINE
8
Layer 1
10
69.630135
20
38.862096
11
67.780169
21
37.335735
0
LINE
8
Layer 1
10
67.780169
20
37.335735
11
66.253806
21
35.485769
0
LINE
8
Layer 1
10
66.253806
20
35.485769
11
65.101313
21
33.362464
0
LINE
8
Layer 1
10
65.101313
20
33.362464
11
64.372956
21
31.016086
0
LINE
8
Layer 1
10
64.372956
20
31.016086
11
64.119000
21
28.496900
0
LINE
8
Layer 1
10
64.119000
20
28.496900
11
64.372956
21
25.977714
0
LINE
8
Layer 1
10
64.372956
20
25.977714
11
65.101313
21
23.631336
0
LINE
8
Layer 1
10
65.101313
20
23.631336
11
66.253806
21
21.508031
0
LINE
8
Layer 1
10
66.253806
20
21.508031
11
67.780169
21
19.658065
0
LINE
8
Layer 1
10
67.780169
20
19.658065
11
69.630135
21
18.131704
0
LINE
8
Layer 1
10
69.630135
20
18.131704
11
71.753440
21
16.979212
0
LINE
8
Layer 1
10
71.753440
20
16.979212
11
74.099817
21
16.250856
0
LINE
8
Layer 1
10
74.099817
20
16.250856
11
76.619000
21
15.996900
0
LINE
8
Layer 1
10
76.619000
20
15.996900
11
79.138186
21
16.250856
0
LINE
8
Layer 1
10
79.138186
20
16.250856
11
81.484564
21
16.979212
0
LINE
8
Layer 1
10
81.484564
20
16.979212
11
83.607869
21
18.131704
0
LINE
8
Layer 1
10
83.607869
20
18.131704
11
85.457835
21
19.658065
0
LINE
8
Layer 1
10
85.457835
20
19.658065
11
86.984196
21
21.508031
0
LINE
8
Layer 1
10
86.984196
20
21.508031
11
88.136688
21
23.631336
0
LINE
8
Layer 1
10
88.136688
20
23.631336
11
88.865044
21
25.977714
0
LINE
8
Layer 1
10
88.865044
20
25.977714
11
89.119000
21
28.496900
0
LINE
8
Layer 1
10
89.119000
20
28.496900
11
89.119000
21
28.496900
0
LINE
8
Layer 1
10
80.619000
20
28.496900
11
80.537734
21
29.303040
0
LINE
8
Layer 1
10
80.537734
20
29.303040
11
80.304660
21
30.053881
0
LINE
8
Layer 1
10
80.304660
20
30.053881
11
79.447428
21
31.325327
0
LINE
8
Layer 1
10
79.447428
20
31.325327
11
78.175981
21
32.182560
0
LINE
8
Layer 1
10
78.175981
20
32.182560
11
77.425140
21
32.415634
0
LINE
8
Layer 1
10
77.425140
20
32.415634
11
76.619000
21
32.496900
0
LINE
8
Layer 1
10
76.619000
20
32.496900
11
75.812860
21
32.415634
0
LINE
8
Layer 1
10
75.812860
20
32.415634
11
75.062019
21
32.182560
0
LINE
8
Layer 1
10
75.062019
20
32.182560
11
73.790572
21
31.325327
0
LINE
8
Layer 1
10
73.790572
20
31.325327
11
72.933340
21
30.053881
0
LINE
8
Layer 1
10
72.933340
20
30.053881
11
72.700266
21
29.303040
0
LINE
8
Layer 1
10
72.700266
20
29.303040
11
72.619000
21
28.496900
0
LINE
8
Layer 1
10
72.619000
20
28.496900
11
72.700266
21
27.690760
0
LINE
8
Layer 1
10
72.700266
20
27.690760
11
72.933340
21
26.939919
0
LINE
8
Layer 1
10
72.933340
20
26.939919
11
73.790572
21
25.668472
0
LINE
8
Layer 1
10
73.790572
20
25.668472
11
75.062019
21
24.811240
0
LINE
8
Layer 1
10
75.062019
20
24.811240
11
75.812860
21
24.578166
0
LINE
8
Layer 1
10
75.812860
20
24.578166
11
76.619000
21
24.496900
0
LINE
8
Layer 1
10
76.619000
20
24.496900
11
77.425140
21
24.578166
0
LINE
8
Layer 1
10
77.425140
20
24.578166
11
78.175981
21
24.811240
0
LINE
8
Layer 1
10
78.175981
20
24.811240
11
79.447428
21
25.668472
0
LINE
8
Layer 1
10
79.447428
20
25.668472
11
80.304660
21
26.939919
0
LINE
8
Layer 1
10
80.304660
20
26.939919
11
80.537734
21
27.690760
0
LINE
8
Layer 1
10
80.537734
20
27.690760
11
80.619000
21
28.496900
0
LINE
8
Layer 1
10
80.619000
20
28.496900
11
80.619000
21
28.496900
0
LINE
8
Layer 1
10
176.177000
20
100.119000
11
175.923045
21
102.638186
0
LINE
8
Layer 1
10
175.923045
20
102.638186
11
175.194690
21
104.984564
0
LINE
8
Layer 1
10
175.194690
20
104.984564
11
174.042199
21
107.107869
0
LINE
8
Layer 1
10
174.042199
20
107.107869
11
172.515839
21
108.957835
0
LINE
8
Layer 1
10
172.515839
20
108.957835
11
170.665874
21
110.484196
0
LINE
8
Layer 1
10
170.665874
20
110.484196
11
168.542569
21
111.636688
0
LINE
8
Layer 1
10
168.542569
20
111.636688
11
166.196189
21
112.365044
0
LINE
8
Layer 1
10
166.196189
20
112.365044
11
163.677000
21
112.619000
0
LINE
8
Layer 1
10
163.677000
20
112.619000
11
161.157814
21
112.365044
0
LINE
8
Layer 1
10
161.157814
20
112.365044
11
158.811436
21
111.636688
0
LINE
8
Layer 1
10
158.811436
20
111.636688
11
156.688131
21
110.484196
0
LINE
8
Layer 1
10
156.688131
20
110.484196
11
154.838165
21
108.957835
0
LINE
8
Layer 1
10
154.838165
20
108.957835
11
153.311804
21
107.107869
0
LINE
8
Layer 1
10
153.311804
20
107.107869
11
152.159312
21
104.984564
0
LINE
8
Layer 1
10
152.159312
20
104.984564
11
151.430956
21
102.638186
0
LINE
8
Layer 1
10
151.430956
20
102.638186
11
151.177000
21
100.119000
0
LINE
8
Layer 1
10
151.177000
20
100.119000
11
151.430956
21
97.599814
0
LINE
8
Layer 1
10
151.430956
20
97.599814
11
152.159312
21
95.253436
0
LINE
8
Layer 1
10
152.159312
20
95.253436
11
153.311804
21
93.130131
0
LINE
8
Layer 1
10
153.311804
20
93.130131
11
154.838165
21
91.280165
0
LINE
8
Layer 1
10
154.838165
20
91.280165
11
156.688131
21
89.753804
0
LINE
8
Layer 1
10
156.688131
20
89.753804
11
158.811436
21
88.601312
0
LINE
8
Layer 1
10
158.811436
20
88.601312
11
161.157814
21
87.872956
0
LINE
8
Layer 1
10
161.157814
20
87.872956
11
163.677000
21
87.619000
0
LINE
8
Layer 1
10
163.677000
20
87.619000
11
166.196189
21
87.872956
0
LINE
8
Layer 1
10
166.196189
20
87.872956
11
168.542569
21
88.601312
0
LINE
8
Layer 1
10
168.542569
20
88.601312
11
170.665874
21
89.753804
0
LINE
8
Layer 1
10
170.665874
20
89.753804
11
172.515839
21
91.280165
0
LINE
8
Layer 1
10
172.515839
20
91.280165
11
174.042199
21
93.130131
0
LINE
8
Layer 1
10
174.042199
20
93.130131
11
175.194690
21
95.253436
0
LINE
8
Layer 1
10
175.194690
20
95.253436
11
175.923045
21
97.599814
0
LINE
8
Layer 1
10
175.923045
20
97.599814
11
176.177000
21
100.119000
0
LINE
8
Layer 1
10
176.177000
20
100.119000
11
176.177000
21
100.119000
0
LINE
8
Layer 1
10
167.677000
20
100.119000
11
167.595734
21
100.925137
0
LINE
8
Layer 1
10
167.595734
20
100.925137
11
167.362660
21
101.675977
0
LINE
8
Layer 1
10
167.362660
20
101.675977
11
166.505427
21
102.947424
0
LINE
8
Layer 1
10
166.505427
20
102.947424
11
165.233981
21
103.804659
0
LINE
8
Layer 1
10
165.233981
20
103.804659
11
164.483140
21
104.037734
0
LINE
8
Layer 1
10
164.483140
20
104.037734
11
163.677000
21
104.119000
0
LINE
8
Layer 1
10
163.677000
20
104.119000
11
162.870860
21
104.037734
0
LINE
8
Layer 1
10
162.870860
20
104.037734
11
162.120019
21
103.804659
0
LINE
8
Layer 1
10
162.120019
20
103.804659
11
160.848572
21
102.947424
0
LINE
8
Layer 1
10
160.848572
20
102.947424
11
159.991340
21
101.675977
0
LINE
8
Layer 1
10
159.991340
20
101.675977
11
159.758266
21
100.925137
0
LINE
8
Layer 1
10
159.758266
20
100.925137
11
159.677000
21
100.119000
0
LINE
8
Layer 1
10
159.677000
20
100.119000
11
159.758266
21
99.312860
0
LINE
8
Layer 1
10
159.758266
20
99.312860
11
159.991340
21
98.562019
0
LINE
8
Layer 1
10
159.991340
20
98.562019
11
160.848572
21
97.290572
0
LINE
8
Layer 1
10
160.848572
20
97.290572
11
162.120019
21
96.433340
0
LINE
8
Layer 1
10
162.120019
20
96.433340
11
162.870860
21
96.200266
0
LINE
8
Layer 1
10
162.870860
20
96.200266
11
163.677000
21
96.119000
0
LINE
8
Layer 1
10
163.677000
20
96.119000
11
164.483140
21
96.200266
0
LINE
8
Layer 1
10
164.483140
20
96.200266
11
165.233981
21
96.433340
0
LINE
8
Layer 1
10
165.233981
20
96.433340
11
166.505427
21
97.290572
0
LINE
8
Layer 1
10
166.505427
20
97.290572
11
167.362660
21
98.562019
0
LINE
8
Layer 1
10
167.362660
20
98.562019
11
167.595734
21
99.312860
0
LINE
8
Layer 1
10
167.595734
20
99.312860
11
167.677000
21
100.119000
0
LINE
8
Layer 1
10
167.677000
20
100.119000
11
167.677000
21
100.119000
0
LINE
8
Layer 1
10
176.755000
20
71.778200
11
176.501045
21
74.297386
0
LINE
8
Layer 1
10
176.501045
20
74.297386
11
175.772690
21
76.643764
0
LINE
8
Layer 1
10
175.772690
20
76.643764
11
174.620199
21
78.767069
0
LINE
8
Layer 1
10
174.620199
20
78.767069
11
173.093839
21
80.617035
0
LINE
8
Layer 1
10
173.093839
20
80.617035
11
171.243874
21
82.143396
0
LINE
8
Layer 1
10
171.243874
20
82.143396
11
169.120569
21
83.295888
0
LINE
8
Layer 1
10
169.120569
20
83.295888
11
166.774189
21
84.024244
0
LINE
8
Layer 1
10
166.774189
20
84.024244
11
164.255000
21
84.278200
0
LINE
8
Layer 1
10
164.255000
20
84.278200
11
161.735814
21
84.024244
0
LINE
8
Layer 1
10
161.735814
20
84.024244
11
159.389436
21
83.295888
0
LINE
8
Layer 1
10
159.389436
20
83.295888
11
157.266131
21
82.143396
0
LINE
8
Layer 1
10
157.266131
20
82.143396
11
155.416165
21
80.617035
0
LINE
8
Layer 1
10
155.416165
20
80.617035
11
153.889804
21
78.767069
0
LINE
8
Layer 1
10
153.889804
20
78.767069
11
152.737312
21
76.643764
0
LINE
8
Layer 1
10
152.737312
20
76.643764
11
152.008956
21
74.297386
0
LINE
8
Layer 1
10
152.008956
20
74.297386
11
151.755000
21
71.778200
0
LINE
8
Layer 1
10
151.755000
20
71.778200
11
152.008956
21
69.259014
0
LINE
8
Layer 1
10
152.008956
20
69.259014
11
152.737312
21
66.912636
0
LINE
8
Layer 1
10
152.737312
20
66.912636
11
153.889804
21
64.789331
0
LINE
8
Layer 1
10
153.889804
20
64.789331
11
155.416165
21
62.939365
0
LINE
8
Layer 1
10
155.416165
20
62.939365
11
157.266131
21
61.413004
0
LINE
8
Layer 1
10
157.266131
20
61.413004
11
159.389436
21
60.260512
0
LINE
8
Layer 1
10
159.389436
20
60.260512
11
161.735814
21
59.532156
0
LINE
8
Layer 1
10
161.735814
20
59.532156
11
164.255000
21
59.278200
0
LINE
8
Layer 1
10
164.255000
20
59.278200
11
166.774189
21
59.532156
0
LINE
8
Layer 1
10
166.774189
20
59.532156
11
169.120569
21
60.260512
0
LINE
8
Layer 1
10
169.120569
20
60.260512
11
171.243874
21
61.413004
0
LINE
8
Layer 1
10
171.243874
20
61.413004
11
173.093839
21
62.939365
0
LINE
8
Layer 1
10
173.093839
20
62.939365
11
174.620199
21
64.789331
0
LINE
8
Layer 1
10
174.620199
20
64.789331
11
175.772690
21
66.912636
0
LINE
8
Layer 1
10
175.772690
20
66.912636
11
176.501045
21
69.259014
0
LINE
8
Layer 1
10
176.501045
20
69.259014
11
176.755000
21
71.778200
0
LINE
8
Layer 1
10
176.755000
20
71.778200
11
176.755000
21
71.778200
0
LINE
8
Layer 1
10
168.255000
20
71.778200
11
168.173734
21
72.584337
0
LINE
8
Layer 1
10
168.173734
20
72.584337
11
167.940660
21
73.335177
0
LINE
8
Layer 1
10
167.940660
20
73.335177
11
167.083427
21
74.606624
0
LINE
8
Layer 1
10
167.083427
20
74.606624
11
165.811981
21
75.463859
0
LINE
8
Layer 1
10
165.811981
20
75.463859
11
165.061140
21
75.696934
0
LINE
8
Layer 1
10
165.061140
20
75.696934
11
164.255000
21
75.778200
0
LINE
8
Layer 1
10
164.255000
20
75.778200
11
163.448860
21
75.696934
0
LINE
8
Layer 1
10
163.448860
20
75.696934
11
162.698019
21
75.463859
0
LINE
8
Layer 1
10
162.698019
20
75.463859
11
161.426573
21
74.606624
0
LINE
8
Layer 1
10
161.426573
20
74.606624
11
160.569340
21
73.335177
0
LINE
8
Layer 1
10
160.569340
20
73.335177
11
160.336266
21
72.584337
0
LINE
8
Layer 1
10
160.336266
20
72.584337
11
160.255000
21
71.778200
0
LINE
8
Layer 1
10
160.255000
20
71.778200
11
160.336266
21
70.972060
0
LINE
8
Layer 1
10
160.336266
20
70.972060
11
160.569340
21
70.221219
0
LINE
8
Layer 1
10
160.569340
20
70.221219
11
161.426573
21
68.949772
0
LINE
8
Layer 1
10
161.426573
20
68.949772
11
162.698019
21
68.092540
0
LINE
8
Layer 1
10
162.698019
20
68.092540
11
163.448860
21
67.859466
0
LINE
8
Layer 1
10
163.448860
20
67.859466
11
164.255000
21
67.778200
0
LINE
8
Layer 1
10
164.255000
20
67.778200
11
165.061140
21
67.859466
0
LINE
8
Layer 1
10
165.061140
20
67.859466
11
165.811981
21
68.092540
0
LINE
8
Layer 1
10
165.811981
20
68.092540
11
167.083427
21
68.949772
0
LINE
8
Layer 1
10
167.083427
20
68.949772
11
167.940660
21
70.221219
0
LINE
8
Layer 1
10
167.940660
20
70.221219
11
168.173734
21
70.972060
0
LINE
8
Layer 1
10
168.173734
20
70.972060
11
168.255000
21
71.778200
0
LINE
8
Layer 1
10
168.255000
20
71.778200
11
168.255000
21
71.778200
0
LINE
8
Layer 1
10
175.599000
20
44.594200
11
175.345045
21
47.113386
0
LINE
8
Layer 1
10
175.345045
20
47.113386
11
174.616690
21
49.459764
0
LINE
8
Layer 1
10
174.616690
20
49.459764
11
173.464199
21
51.583069
0
LINE
8
Layer 1
10
173.464199
20
51.583069
11
171.937839
21
53.433035
0
LINE
8
Layer 1
10
171.937839
20
53.433035
11
170.087874
21
54.959396
0
LINE
8
Layer 1
10
170.087874
20
54.959396
11
167.964569
21
56.111888
0
LINE
8
Layer 1
10
167.964569
20
56.111888
11
165.618189
21
56.840244
0
LINE
8
Layer 1
10
165.618189
20
56.840244
11
163.099000
21
57.094200
0
LINE
8
Layer 1
10
163.099000
20
57.094200
11
160.579814
21
56.840244
0
LINE
8
Layer 1
10
160.579814
20
56.840244
11
158.233436
21
56.111888
0
LINE
8
Layer 1
10
158.233436
20
56.111888
11
156.110131
21
54.959396
0
LINE
8
Layer 1
10
156.110131
20
54.959396
11
154.260165
21
53.433035
0
LINE
8
Layer 1
10
154.260165
20
53.433035
11
152.733804
21
51.583069
0
LINE
8
Layer 1
10
152.733804
20
51.583069
11
151.581312
21
49.459764
0
LINE
8
Layer 1
10
151.581312
20
49.459764
11
150.852956
21
47.113386
0
LINE
8
Layer 1
10
150.852956
20
47.113386
11
150.599000
21
44.594200
0
LINE
8
Layer 1
10
150.599000
20
44.594200
11
150.852956
21
42.075014
0
LINE
8
Layer 1
10
150.852956
20
42.075014
11
151.581312
21
39.728636
0
LINE
8
Layer 1
10
151.581312
20
39.728636
11
152.733804
21
37.605331
0
LINE
8
Layer 1
10
152.733804
20
37.605331
11
154.260165
21
35.755365
0
LINE
8
Layer 1
10
154.260165
20
35.755365
11
156.110131
21
34.229004
0
LINE
8
Layer 1
10
156.110131
20
34.229004
11
158.233436
21
33.076512
0
LINE
8
Layer 1
10
158.233436
20
33.076512
11
160.579814
21
32.348156
0
LINE
8
Layer 1
10
160.579814
20
32.348156
11
163.099000
21
32.094200
0
LINE
8
Layer 1
10
163.099000
20
32.094200
11
165.618189
21
32.348156
0
LINE
8
Layer 1
10
165.618189
20
32.348156
11
167.964569
21
33.076512
0
LINE
8
Layer 1
10
167.964569
20
33.076512
11
170.087874
21
34.229004
0
LINE
8
Layer 1
10
170.087874
20
34.229004
11
171.937839
21
35.755365
0
LINE
8
Layer 1
10
171.937839
20
35.755365
11
173.464199
21
37.605331
0
LINE
8
Layer 1
10
173.464199
20
37.605331
11
174.616690
21
39.728636
0
LINE
8
Layer 1
10
174.616690
20
39.728636
11
175.345045
21
42.075014
0
LINE
8
Layer 1
10
175.345045
20
42.075014
11
175.599000
21
44.594200
0
LINE
8
Layer 1
10
175.599000
20
44.594200
11
175.599000
21
44.594200
0
LINE
8
Layer 1
10
167.099000
20
44.594200
11
167.017734
21
45.400337
0
LINE
8
Layer 1
10
167.017734
20
45.400337
11
166.784660
21
46.151177
0
LINE
8
Layer 1
10
166.784660
20
46.151177
11
165.927427
21
47.422624
0
LINE
8
Layer 1
10
165.927427
20
47.422624
11
164.655981
21
48.279859
0
LINE
8
Layer 1
10
164.655981
20
48.279859
11
163.905140
21
48.512934
0
LINE
8
Layer 1
10
163.905140
20
48.512934
11
163.099000
21
48.594200
0
LINE
8
Layer 1
10
163.099000
20
48.594200
11
162.292860
21
48.512934
0
LINE
8
Layer 1
10
162.292860
20
48.512934
11
161.542019
21
48.279859
0
LINE
8
Layer 1
10
161.542019
20
48.279859
11
160.270573
21
47.422624
0
LINE
8
Layer 1
10
160.270573
20
47.422624
11
159.413340
21
46.151177
0
LINE
8
Layer 1
10
159.413340
20
46.151177
11
159.180266
21
45.400337
0
LINE
8
Layer 1
10
159.180266
20
45.400337
11
159.099000
21
44.594200
0
LINE
8
Layer 1
10
159.099000
20
44.594200
11
159.180266
21
43.788060
0
LINE
8
Layer 1
10
159.180266
20
43.788060
11
159.413340
21
43.037219
0
LINE
8
Layer 1
10
159.413340
20
43.037219
11
160.270573
21
41.765773
0
LINE
8
Layer 1
10
160.270573
20
41.765773
11
161.542019
21
40.908540
0
LINE
8
Layer 1
10
161.542019
20
40.908540
11
162.292860
21
40.675466
0
LINE
8
Layer 1
10
162.292860
20
40.675466
11
163.099000
21
40.594200
0
LINE
8
Layer 1
10
163.099000
20
40.594200
11
163.905140
21
40.675466
0
LINE
8
Layer 1
10
163.905140
20
40.675466
11
164.655981
21
40.908540
0
LINE
8
Layer 1
10
164.655981
20
40.908540
11
165.927427
21
41.765773
0
LINE
8
Layer 1
10
165.927427
20
41.765773
11
166.784660
21
43.037219
0
LINE
8
Layer 1
10
166.784660
20
43.037219
11
167.017734
21
43.788060
0
LINE
8
Layer 1
10
167.017734
20
43.788060
11
167.099000
21
44.594200
0
LINE
8
Layer 1
10
167.099000
20
44.594200
11
167.099000
21
44.594200
0
LINE
8
Layer 1
10
173.285000
20
16.542500
11
173.031045
21
19.061686
0
LINE
8
Layer 1
10
173.031045
20
19.061686
11
172.302690
21
21.408064
0
LINE
8
Layer 1
10
172.302690
20
21.408064
11
171.150199
21
23.531369
0
LINE
8
Layer 1
10
171.150199
20
23.531369
11
169.623839
21
25.381335
0
LINE
8
Layer 1
10
169.623839
20
25.381335
11
167.773874
21
26.907696
0
LINE
8
Layer 1
10
167.773874
20
26.907696
11
165.650569
21
28.060188
0
LINE
8
Layer 1
10
165.650569
20
28.060188
11
163.304189
21
28.788544
0
LINE
8
Layer 1
10
163.304189
20
28.788544
11
160.785000
21
29.042500
0
LINE
8
Layer 1
10
160.785000
20
29.042500
11
158.265814
21
28.788544
0
LINE
8
Layer 1
10
158.265814
20
28.788544
11
155.919436
21
28.060188
0
LINE
8
Layer 1
10
155.919436
20
28.060188
11
153.796131
21
26.907696
0
LINE
8
Layer 1
10
153.796131
20
26.907696
11
151.946165
21
25.381335
0
LINE
8
Layer 1
10
151.946165
20
25.381335
11
150.419804
21
23.531369
0
LINE
8
Layer 1
10
150.419804
20
23.531369
11
149.267312
21
21.408064
0
LINE
8
Layer 1
10
149.267312
20
21.408064
11
148.538956
21
19.061686
0
LINE
8
Layer 1
10
148.538956
20
19.061686
11
148.285000
21
16.542500
0
LINE
8
Layer 1
10
148.285000
20
16.542500
11
148.538956
21
14.023314
0
LINE
8
Layer 1
10
148.538956
20
14.023314
11
149.267312
21
11.676936
0
LINE
8
Layer 1
10
149.267312
20
11.676936
11
150.419804
21
9.553631
0
LINE
8
Layer 1
10
150.419804
20
9.553631
11
151.946165
21
7.703665
0
LINE
8
Layer 1
10
151.946165
20
7.703665
11
153.796131
21
6.177304
0
LINE
8
Layer 1
10
153.796131
20
6.177304
11
155.919436
21
5.024812
0
LINE
8
Layer 1
10
155.919436
20
5.024812
11
158.265814
21
4.296456
0
LINE
8
Layer 1
10
158.265814
20
4.296456
11
160.785000
21
4.042500
0
LINE
8
Layer 1
10
160.785000
20
4.042500
11
163.304189
21
4.296456
0
LINE
8
Layer 1
10
163.304189
20
4.296456
11
165.650569
21
5.024812
0
LINE
8
Layer 1
10
165.650569
20
5.024812
11
167.773874
21
6.177304
0
LINE
8
Layer 1
10
167.773874
20
6.177304
11
169.623839
21
7.703665
0
LINE
8
Layer 1
10
169.623839
20
7.703665
11
171.150199
21
9.553631
0
LINE
8
Layer 1
10
171.150199
20
9.553631
11
172.302690
21
11.676936
0
LINE
8
Layer 1
10
172.302690
20
11.676936
11
173.031045
21
14.023314
0
LINE
8
Layer 1
10
173.031045
20
14.023314
11
173.285000
21
16.542500
0
LINE
8
Layer 1
10
173.285000
20
16.542500
11
173.285000
21
16.542500
0
LINE
8
Layer 1
10
164.785000
20
16.542500
11
164.703734
21
17.348637
0
LINE
8
Layer 1
10
164.703734
20
17.348637
11
164.470660
21
18.099477
0
LINE
8
Layer 1
10
164.470660
20
18.099477
11
163.613428
21
19.370924
0
LINE
8
Layer 1
10
163.613428
20
19.370924
11
162.341981
21
20.228159
0
LINE
8
Layer 1
10
162.341981
20
20.228159
11
161.591140
21
20.461234
0
LINE
8
Layer 1
10
161.591140
20
20.461234
11
160.785000
21
20.542500
0
LINE
8
Layer 1
10
160.785000
20
20.542500
11
159.978860
21
20.461234
0
LINE
8
Layer 1
10
159.978860
20
20.461234
11
159.228019
21
20.228159
0
LINE
8
Layer 1
10
159.228019
20
20.228159
11
157.956572
21
19.370924
0
LINE
8
Layer 1
10
157.956572
20
19.370924
11
157.099340
21
18.099477
0
LINE
8
Layer 1
10
157.099340
20
18.099477
11
156.866266
21
17.348637
0
LINE
8
Layer 1
10
156.866266
20
17.348637
11
156.785000
21
16.542500
0
LINE
8
Layer 1
10
156.785000
20
16.542500
11
156.866266
21
15.736360
0
LINE
8
Layer 1
10
156.866266
20
15.736360
11
157.099340
21
14.985519
0
LINE
8
Layer 1
10
157.099340
20
14.985519
11
157.956572
21
13.714073
0
LINE
8
Layer 1
10
157.956572
20
13.714073
11
159.228019
21
12.856840
0
LINE
8
Layer 1
10
159.228019
20
12.856840
11
159.978860
21
12.623766
0
LINE
8
Layer 1
10
159.978860
20
12.623766
11
160.785000
21
12.542500
0
LINE
8
Layer 1
10
160.785000
20
12.542500
11
161.591140
21
12.623766
0
LINE
8
Layer 1
10
161.591140
20
12.623766
11
162.341981
21
12.856840
0
LINE
8
Layer 1
10
162.341981
20
12.856840
11
163.613428
21
13.714073
0
LINE
8
Layer 1
10
163.613428
20
13.714073
11
164.470660
21
14.985519
0
LINE
8
Layer 1
10
164.470660
20
14.985519
11
164.703734
21
15.736360
0
LINE
8
Layer 1
10
164.703734
20
15.736360
11
164.785000
21
16.542500
0
LINE
8
Layer 1
10
164.785000
20
16.542500
11
164.785000
21
16.542500
 0 
ENDSEC
 0 
EOF