999
"DXF R12 Output" (www.mydxf.blogspot.com)
 0 
SECTION
 2 
HEADER
 9 
$ACADVER
 1 
AC1009
 9 
$EXTMIN
 10 
 0 
 20 
 0 
 9 
$EXTMAX
 10 
 8.5 
 20 
 11 
 0 
ENDSEC
 0 
SECTION
 2 
ENTITIES
0
LINE
8
Layer 1
10
268.531000
20
138.897000
11
268.446948
21
139.304073
0
LINE
8
Layer 1
10
268.446948
20
139.304073
11
268.221612
21
139.636171
0
LINE
8
Layer 1
10
268.221612
20
139.636171
11
267.888476
21
139.859911
0
LINE
8
Layer 1
10
267.888476
20
139.859911
11
267.481020
21
139.941910
0
LINE
8
Layer 1
10
267.481020
20
139.941910
11
267.073544
21
139.859911
0
LINE
8
Layer 1
10
267.073544
20
139.859911
11
266.740352
21
139.636171
0
LINE
8
Layer 1
10
266.740352
20
139.636171
11
266.514999
21
139.304073
0
LINE
8
Layer 1
10
266.514999
20
139.304073
11
266.431040
21
138.897000
0
LINE
8
Layer 1
10
266.431040
20
138.897000
11
266.515092
21
138.489925
0
LINE
8
Layer 1
10
266.515092
20
138.489925
11
266.740428
21
138.157824
0
LINE
8
Layer 1
10
266.740428
20
138.157824
11
267.073564
21
137.934080
0
LINE
8
Layer 1
10
267.073564
20
137.934080
11
267.481020
21
137.852080
0
LINE
8
Layer 1
10
267.481020
20
137.852080
11
267.888496
21
137.934080
0
LINE
8
Layer 1
10
267.888496
20
137.934080
11
268.221688
21
138.157824
0
LINE
8
Layer 1
10
268.221688
20
138.157824
11
268.447041
21
138.489925
0
LINE
8
Layer 1
10
268.447041
20
138.489925
11
268.531000
21
138.897000
0
LINE
8
Layer 1
10
268.531000
20
138.897000
11
268.531000
21
138.897000
0
LINE
8
Layer 1
10
247.515000
20
117.881000
11
247.432469
21
118.289702
0
LINE
8
Layer 1
10
247.432469
20
118.289702
11
247.207437
21
118.623454
0
LINE
8
Layer 1
10
247.207437
20
118.623454
11
246.873682
21
118.848476
0
LINE
8
Layer 1
10
246.873682
20
118.848476
11
246.464980
21
118.930990
0
LINE
8
Layer 1
10
246.464980
20
118.930990
11
246.056280
21
118.848476
0
LINE
8
Layer 1
10
246.056280
20
118.848476
11
245.722531
21
118.623454
0
LINE
8
Layer 1
10
245.722531
20
118.623454
11
245.497512
21
118.289702
0
LINE
8
Layer 1
10
245.497512
20
118.289702
11
245.415000
21
117.881000
0
LINE
8
Layer 1
10
245.415000
20
117.881000
11
245.497512
21
117.472295
0
LINE
8
Layer 1
10
245.497512
20
117.472295
11
245.722531
21
117.138547
0
LINE
8
Layer 1
10
245.722531
20
117.138547
11
246.056280
21
116.913531
0
LINE
8
Layer 1
10
246.056280
20
116.913531
11
246.464980
21
116.831020
0
LINE
8
Layer 1
10
246.464980
20
116.831020
11
246.873683
21
116.913531
0
LINE
8
Layer 1
10
246.873683
20
116.913531
11
247.207437
21
117.138547
0
LINE
8
Layer 1
10
247.207437
20
117.138547
11
247.432469
21
117.472295
0
LINE
8
Layer 1
10
247.432469
20
117.472295
11
247.515000
21
117.881000
0
LINE
8
Layer 1
10
247.515000
20
117.881000
11
247.515000
21
117.881000
0
LINE
8
Layer 1
10
255.074000
20
123.089000
11
257.249438
21
124.485026
0
LINE
8
Layer 1
10
257.249438
20
124.485026
11
259.193202
21
126.168987
0
LINE
8
Layer 1
10
259.193202
20
126.168987
11
260.877163
21
128.112761
0
LINE
8
Layer 1
10
260.877163
20
128.112761
11
262.273190
21
130.288220
0
LINE
8
Layer 1
10
247.515000
20
149.897000
11
247.432469
21
150.305702
0
LINE
8
Layer 1
10
247.432469
20
150.305702
11
247.207437
21
150.639454
0
LINE
8
Layer 1
10
247.207437
20
150.639454
11
246.873682
21
150.864476
0
LINE
8
Layer 1
10
246.873682
20
150.864476
11
246.464980
21
150.946990
0
LINE
8
Layer 1
10
246.464980
20
150.946990
11
246.056280
21
150.864476
0
LINE
8
Layer 1
10
246.056280
20
150.864476
11
245.722531
21
150.639454
0
LINE
8
Layer 1
10
245.722531
20
150.639454
11
245.497512
21
150.305702
0
LINE
8
Layer 1
10
245.497512
20
150.305702
11
245.415000
21
149.897000
0
LINE
8
Layer 1
10
245.415000
20
149.897000
11
245.497512
21
149.488300
0
LINE
8
Layer 1
10
245.497512
20
149.488300
11
245.722531
21
149.154551
0
LINE
8
Layer 1
10
245.722531
20
149.154551
11
246.056280
21
148.929532
0
LINE
8
Layer 1
10
246.056280
20
148.929532
11
246.464980
21
148.847020
0
LINE
8
Layer 1
10
246.464980
20
148.847020
11
246.873683
21
148.929532
0
LINE
8
Layer 1
10
246.873683
20
148.929532
11
247.207437
21
149.154551
0
LINE
8
Layer 1
10
247.207437
20
149.154551
11
247.432469
21
149.488300
0
LINE
8
Layer 1
10
247.432469
20
149.488300
11
247.515000
21
149.897000
0
LINE
8
Layer 1
10
247.515000
20
149.897000
11
247.515000
21
149.897000
0
LINE
8
Layer 1
10
247.515000
20
107.397000
11
247.432469
21
107.805702
0
LINE
8
Layer 1
10
247.432469
20
107.805702
11
247.207437
21
108.139454
0
LINE
8
Layer 1
10
247.207437
20
108.139454
11
246.873682
21
108.364476
0
LINE
8
Layer 1
10
246.873682
20
108.364476
11
246.464980
21
108.446990
0
LINE
8
Layer 1
10
246.464980
20
108.446990
11
246.056280
21
108.364476
0
LINE
8
Layer 1
10
246.056280
20
108.364476
11
245.722531
21
108.139454
0
LINE
8
Layer 1
10
245.722531
20
108.139454
11
245.497512
21
107.805702
0
LINE
8
Layer 1
10
245.497512
20
107.805702
11
245.415000
21
107.397000
0
LINE
8
Layer 1
10
245.415000
20
107.397000
11
245.497512
21
106.988300
0
LINE
8
Layer 1
10
245.497512
20
106.988300
11
245.722531
21
106.654551
0
LINE
8
Layer 1
10
245.722531
20
106.654551
11
246.056280
21
106.429532
0
LINE
8
Layer 1
10
246.056280
20
106.429532
11
246.464980
21
106.347020
0
LINE
8
Layer 1
10
246.464980
20
106.347020
11
246.873683
21
106.429532
0
LINE
8
Layer 1
10
246.873683
20
106.429532
11
247.207437
21
106.654551
0
LINE
8
Layer 1
10
247.207437
20
106.654551
11
247.432469
21
106.988300
0
LINE
8
Layer 1
10
247.432469
20
106.988300
11
247.515000
21
107.397000
0
LINE
8
Layer 1
10
247.515000
20
107.397000
11
247.515000
21
107.397000
0
LINE
8
Layer 1
10
237.857000
20
154.705000
11
235.681564
21
153.308973
0
LINE
8
Layer 1
10
235.681564
20
153.308973
11
233.737801
21
151.625009
0
LINE
8
Layer 1
10
233.737801
20
151.625009
11
232.053841
21
149.681235
0
LINE
8
Layer 1
10
232.053841
20
149.681235
11
230.657810
21
147.505780
0
LINE
8
Layer 1
10
257.041000
20
133.397000
11
256.958488
21
133.805702
0
LINE
8
Layer 1
10
256.958488
20
133.805702
11
256.733469
21
134.139454
0
LINE
8
Layer 1
10
256.733469
20
134.139454
11
256.399720
21
134.364476
0
LINE
8
Layer 1
10
256.399720
20
134.364476
11
255.991020
21
134.446990
0
LINE
8
Layer 1
10
255.991020
20
134.446990
11
255.582319
21
134.364476
0
LINE
8
Layer 1
10
255.582319
20
134.364476
11
255.248568
21
134.139454
0
LINE
8
Layer 1
10
255.248568
20
134.139454
11
255.023540
21
133.805702
0
LINE
8
Layer 1
10
255.023540
20
133.805702
11
254.941010
21
133.397000
0
LINE
8
Layer 1
10
254.941010
20
133.397000
11
255.023540
21
132.988294
0
LINE
8
Layer 1
10
255.023540
20
132.988294
11
255.248568
21
132.654542
0
LINE
8
Layer 1
10
255.248568
20
132.654542
11
255.582319
21
132.429522
0
LINE
8
Layer 1
10
255.582319
20
132.429522
11
255.991020
21
132.347010
0
LINE
8
Layer 1
10
255.991020
20
132.347010
11
256.399720
21
132.429522
0
LINE
8
Layer 1
10
256.399720
20
132.429522
11
256.733469
21
132.654542
0
LINE
8
Layer 1
10
256.733469
20
132.654542
11
256.958488
21
132.988294
0
LINE
8
Layer 1
10
256.958488
20
132.988294
11
257.041000
21
133.397000
0
LINE
8
Layer 1
10
257.041000
20
133.397000
11
257.041000
21
133.397000
0
LINE
8
Layer 1
10
240.455000
20
119.013000
11
240.215518
21
120.257871
0
LINE
8
Layer 1
10
240.215518
20
120.257871
11
239.680985
21
121.386056
0
LINE
8
Layer 1
10
239.680985
20
121.386056
11
238.883772
21
122.346776
0
LINE
8
Layer 1
10
238.883772
20
122.346776
11
237.856250
21
123.089250
0
LINE
8
Layer 1
10
256.697000
20
161.707000
11
255.955072
21
161.930211
0
LINE
8
Layer 1
10
255.955072
20
161.930211
11
255.192966
21
161.957007
0
LINE
8
Layer 1
10
255.192966
20
161.957007
11
254.448697
21
161.790908
0
LINE
8
Layer 1
10
254.448697
20
161.790908
11
253.760280
21
161.435430
0
LINE
8
Layer 1
10
253.760280
20
161.435430
11
253.185773
21
160.915595
0
LINE
8
Layer 1
10
253.185773
20
160.915595
11
252.768996
21
160.276986
0
LINE
8
Layer 1
10
252.768996
20
160.276986
11
252.526581
21
159.553967
0
LINE
8
Layer 1
10
252.526581
20
159.553967
11
252.475160
21
158.780900
0
LINE
8
Layer 1
10
206.708000
20
141.291000
11
206.553370
21
141.210800
0
LINE
8
Layer 1
10
206.553370
20
141.210800
11
206.184870
21
141.013010
0
LINE
8
Layer 1
10
206.184870
20
141.013010
11
205.808430
21
140.801190
0
LINE
8
Layer 1
10
205.808430
20
140.801190
11
205.424490
21
140.574930
0
LINE
8
Layer 1
10
205.424490
20
140.574930
11
205.033500
21
140.333810
0
LINE
8
Layer 1
10
205.033500
20
140.333810
11
204.635860
21
140.077530
0
LINE
8
Layer 1
10
204.635860
20
140.077530
11
204.232060
21
139.805680
0
LINE
8
Layer 1
10
204.232060
20
139.805680
11
203.822540
21
139.517910
0
LINE
8
Layer 1
10
203.822540
20
139.517910
11
203.407810
21
139.213890
0
LINE
8
Layer 1
10
203.407810
20
139.213890
11
202.993230
21
138.897120
0
LINE
8
Layer 1
10
279.699000
20
116.945000
11
279.872980
21
116.937000
0
LINE
8
Layer 1
10
279.872980
20
116.937000
11
280.291010
21
116.924000
0
LINE
8
Layer 1
10
280.291010
20
116.924000
11
280.722920
21
116.919000
0
LINE
8
Layer 1
10
280.722920
20
116.919000
11
281.168570
21
116.923000
0
LINE
8
Layer 1
10
281.168570
20
116.923000
11
281.627730
21
116.936200
0
LINE
8
Layer 1
10
281.627730
20
116.936200
11
282.100230
21
116.959500
0
LINE
8
Layer 1
10
282.100230
20
116.959500
11
282.585860
21
116.993000
0
LINE
8
Layer 1
10
282.585860
20
116.993000
11
283.084390
21
117.037500
0
LINE
8
Layer 1
10
283.084390
20
117.037500
11
283.595560
21
117.093400
0
LINE
8
Layer 1
10
283.595560
20
117.093400
11
284.112950
21
117.160400
0
LINE
8
Layer 1
10
286.222000
20
141.291000
11
286.376630
21
141.210800
0
LINE
8
Layer 1
10
286.376630
20
141.210800
11
286.745130
21
141.013010
0
LINE
8
Layer 1
10
286.745130
20
141.013010
11
287.121560
21
140.801190
0
LINE
8
Layer 1
10
287.121560
20
140.801190
11
287.505500
21
140.574930
0
LINE
8
Layer 1
10
287.505500
20
140.574930
11
287.896490
21
140.333810
0
LINE
8
Layer 1
10
287.896490
20
140.333810
11
288.294130
21
140.077530
0
LINE
8
Layer 1
10
288.294130
20
140.077530
11
288.697940
21
139.805680
0
LINE
8
Layer 1
10
288.697940
20
139.805680
11
289.107450
21
139.517910
0
LINE
8
Layer 1
10
289.107450
20
139.517910
11
289.522190
21
139.213890
0
LINE
8
Layer 1
10
289.522190
20
139.213890
11
289.936770
21
138.897120
0
LINE
8
Layer 1
10
282.093000
20
121.092000
11
282.186800
21
120.945270
0
LINE
8
Layer 1
10
282.186800
20
120.945270
11
282.407040
21
120.589710
0
LINE
8
Layer 1
10
282.407040
20
120.589710
11
282.627130
21
120.218030
0
LINE
8
Layer 1
10
282.627130
20
120.218030
11
282.846490
21
119.830100
0
LINE
8
Layer 1
10
282.846490
20
119.830100
11
283.064570
21
119.425810
0
LINE
8
Layer 1
10
283.064570
20
119.425810
11
283.280760
21
119.005030
0
LINE
8
Layer 1
10
283.280760
20
119.005030
11
283.494530
21
118.567690
0
LINE
8
Layer 1
10
283.494530
20
118.567690
11
283.705290
21
118.113710
0
LINE
8
Layer 1
10
283.705290
20
118.113710
11
283.912440
21
117.643060
0
LINE
8
Layer 1
10
283.912440
20
117.643060
11
284.113090
21
117.161450
0
LINE
8
Layer 1
10
206.708000
20
141.291000
11
208.595058
21
142.524351
0
LINE
8
Layer 1
10
208.595058
20
142.524351
11
210.168654
21
144.105205
0
LINE
8
Layer 1
10
210.168654
20
144.105205
11
211.382660
21
145.976437
0
LINE
8
Layer 1
10
211.382660
20
145.976437
11
212.190950
21
148.080920
0
LINE
8
Layer 1
10
212.190950
20
148.080920
11
212.543190
21
150.307574
0
LINE
8
Layer 1
10
212.543190
20
150.307574
11
212.427440
21
152.535098
0
LINE
8
Layer 1
10
212.427440
20
152.535098
11
211.855090
21
154.690947
0
LINE
8
Layer 1
10
211.855090
20
154.690947
11
210.837530
21
156.702580
0
LINE
8
Layer 1
10
268.417000
20
172.131000
11
268.541594
21
169.880103
0
LINE
8
Layer 1
10
268.541594
20
169.880103
11
269.123864
21
167.726911
0
LINE
8
Layer 1
10
269.123864
20
167.726911
11
270.137396
21
165.739944
0
LINE
8
Layer 1
10
270.137396
20
165.739944
11
271.555780
21
163.987720
0
LINE
8
Layer 1
10
271.555780
20
163.987720
11
273.308000
21
162.569321
0
LINE
8
Layer 1
10
273.308000
20
162.569321
11
275.294967
21
161.555792
0
LINE
8
Layer 1
10
275.294967
20
161.555792
11
277.448162
21
160.973533
0
LINE
8
Layer 1
10
277.448162
20
160.973533
11
279.699060
21
160.848940
0
LINE
8
Layer 1
10
279.699000
20
160.849000
11
279.872980
21
160.857000
0
LINE
8
Layer 1
10
279.872980
20
160.857000
11
280.291010
21
160.870000
0
LINE
8
Layer 1
10
280.291010
20
160.870000
11
280.722920
21
160.875000
0
LINE
8
Layer 1
10
280.722920
20
160.875000
11
281.168570
21
160.871000
0
LINE
8
Layer 1
10
281.168570
20
160.871000
11
281.627730
21
160.857800
0
LINE
8
Layer 1
10
281.627730
20
160.857800
11
282.100230
21
160.834500
0
LINE
8
Layer 1
10
282.100230
20
160.834500
11
282.585860
21
160.801000
0
LINE
8
Layer 1
10
282.585860
20
160.801000
11
283.084390
21
160.756500
0
LINE
8
Layer 1
10
283.084390
20
160.756500
11
283.595560
21
160.700600
0
LINE
8
Layer 1
10
283.595560
20
160.700600
11
284.112950
21
160.633600
0
LINE
8
Layer 1
10
213.231000
20
160.849000
11
215.481897
21
160.973593
0
LINE
8
Layer 1
10
215.481897
20
160.973593
11
217.635089
21
161.555852
0
LINE
8
Layer 1
10
217.635089
20
161.555852
11
219.622056
21
162.569381
0
LINE
8
Layer 1
10
219.622056
20
162.569381
11
221.374280
21
163.987780
0
LINE
8
Layer 1
10
221.374280
20
163.987780
11
222.792662
21
165.740004
0
LINE
8
Layer 1
10
222.792662
20
165.740004
11
223.806193
21
167.726971
0
LINE
8
Layer 1
10
223.806193
20
167.726971
11
224.388462
21
169.880163
0
LINE
8
Layer 1
10
224.388462
20
169.880163
11
224.513060
21
172.131060
0
LINE
8
Layer 1
10
279.699000
20
116.945000
11
277.448102
21
116.820406
0
LINE
8
Layer 1
10
277.448102
20
116.820406
11
275.294908
21
116.238143
0
LINE
8
Layer 1
10
275.294908
20
116.238143
11
273.307940
21
115.224611
0
LINE
8
Layer 1
10
273.307940
20
115.224611
11
271.555720
21
113.806210
0
LINE
8
Layer 1
10
271.555720
20
113.806210
11
270.137320
21
112.053990
0
LINE
8
Layer 1
10
270.137320
20
112.053990
11
269.123789
21
110.067023
0
LINE
8
Layer 1
10
269.123789
20
110.067023
11
268.541529
21
107.913828
0
LINE
8
Layer 1
10
268.541529
20
107.913828
11
268.416940
21
105.662930
0
LINE
8
Layer 1
10
248.859000
20
178.654000
11
248.778800
21
178.808630
0
LINE
8
Layer 1
10
248.778800
20
178.808630
11
248.581020
21
179.177130
0
LINE
8
Layer 1
10
248.581020
20
179.177130
11
248.369200
21
179.553590
0
LINE
8
Layer 1
10
248.369200
20
179.553590
11
248.142910
21
179.937500
0
LINE
8
Layer 1
10
248.142910
20
179.937500
11
247.901790
21
180.328520
0
LINE
8
Layer 1
10
247.901790
20
180.328520
11
247.645510
21
180.726140
0
LINE
8
Layer 1
10
247.645510
20
180.726140
11
247.373630
21
181.129950
0
LINE
8
Layer 1
10
247.373630
20
181.129950
11
247.085850
21
181.539420
0
LINE
8
Layer 1
10
247.085850
20
181.539420
11
246.781830
21
181.954150
0
LINE
8
Layer 1
10
246.781830
20
181.954150
11
246.465060
21
182.368700
0
LINE
8
Layer 1
10
244.071000
20
99.139900
11
242.837662
21
101.026945
0
LINE
8
Layer 1
10
242.837662
20
101.026945
11
241.256810
21
102.600540
0
LINE
8
Layer 1
10
241.256810
20
102.600540
11
239.385580
21
103.814548
0
LINE
8
Layer 1
10
239.385580
20
103.814548
11
237.281110
21
104.622830
0
LINE
8
Layer 1
10
237.281110
20
104.622830
11
235.054450
21
104.975065
0
LINE
8
Layer 1
10
235.054450
20
104.975065
11
232.826912
21
104.859311
0
LINE
8
Layer 1
10
232.826912
20
104.859311
11
230.671049
21
104.286960
0
LINE
8
Layer 1
10
230.671049
20
104.286960
11
228.659410
21
103.269400
0
LINE
8
Layer 1
10
210.838000
20
121.092000
11
211.855560
21
123.103634
0
LINE
8
Layer 1
10
211.855560
20
123.103634
11
212.427910
21
125.259486
0
LINE
8
Layer 1
10
212.427910
20
125.259486
11
212.543660
21
127.487010
0
LINE
8
Layer 1
10
212.543660
20
127.487010
11
212.191420
21
129.713660
0
LINE
8
Layer 1
10
212.191420
20
129.713660
11
211.383130
21
131.818144
0
LINE
8
Layer 1
10
211.383130
20
131.818144
11
210.169124
21
133.689376
0
LINE
8
Layer 1
10
210.169124
20
133.689376
11
208.595528
21
135.270233
0
LINE
8
Layer 1
10
208.595528
20
135.270233
11
206.708470
21
136.503590
0
LINE
8
Layer 1
10
210.838000
20
156.703000
11
210.744200
21
156.849730
0
LINE
8
Layer 1
10
210.744200
20
156.849730
11
210.523950
21
157.205260
0
LINE
8
Layer 1
10
210.523950
20
157.205260
11
210.303860
21
157.576960
0
LINE
8
Layer 1
10
210.303860
20
157.576960
11
210.084500
21
157.964900
0
LINE
8
Layer 1
10
210.084500
20
157.964900
11
209.866420
21
158.369200
0
LINE
8
Layer 1
10
209.866420
20
158.369200
11
209.650240
21
158.789980
0
LINE
8
Layer 1
10
209.650240
20
158.789980
11
209.436460
21
159.227310
0
LINE
8
Layer 1
10
209.436460
20
159.227310
11
209.225710
21
159.681290
0
LINE
8
Layer 1
10
209.225710
20
159.681290
11
209.018560
21
160.151930
0
LINE
8
Layer 1
10
209.018560
20
160.151930
11
208.817910
21
160.633530
0
LINE
8
Layer 1
10
264.271000
20
103.269000
11
262.259367
21
104.286560
0
LINE
8
Layer 1
10
262.259367
20
104.286560
11
260.103512
21
104.858911
0
LINE
8
Layer 1
10
260.103512
20
104.858911
11
257.875977
21
104.974665
0
LINE
8
Layer 1
10
257.875977
20
104.974665
11
255.649300
21
104.622430
0
LINE
8
Layer 1
10
255.649300
20
104.622430
11
253.544835
21
103.814148
0
LINE
8
Layer 1
10
253.544835
20
103.814148
11
251.673608
21
102.600141
0
LINE
8
Layer 1
10
251.673608
20
102.600141
11
250.092753
21
101.026549
0
LINE
8
Layer 1
10
250.092753
20
101.026549
11
248.859410
21
99.139510
0
LINE
8
Layer 1
10
282.093000
20
156.703000
11
281.075440
21
154.691368
0
LINE
8
Layer 1
10
281.075440
20
154.691368
11
280.503090
21
152.535518
0
LINE
8
Layer 1
10
280.503090
20
152.535518
11
280.387340
21
150.307994
0
LINE
8
Layer 1
10
280.387340
20
150.307994
11
280.739580
21
148.081340
0
LINE
8
Layer 1
10
280.739580
20
148.081340
11
281.547870
21
145.976857
0
LINE
8
Layer 1
10
281.547870
20
145.976857
11
282.761876
21
144.105625
0
LINE
8
Layer 1
10
282.761876
20
144.105625
11
284.335472
21
142.524771
0
LINE
8
Layer 1
10
284.335472
20
142.524771
11
286.222530
21
141.291420
0
LINE
8
Layer 1
10
224.513000
20
172.131000
11
224.505000
21
172.304980
0
LINE
8
Layer 1
10
224.505000
20
172.304980
11
224.492000
21
172.723010
0
LINE
8
Layer 1
10
224.492000
20
172.723010
11
224.487000
21
173.154890
0
LINE
8
Layer 1
10
224.487000
20
173.154890
11
224.491000
21
173.600540
0
LINE
8
Layer 1
10
224.491000
20
173.600540
11
224.504300
21
174.059700
0
LINE
8
Layer 1
10
224.504300
20
174.059700
11
224.527400
21
174.532200
0
LINE
8
Layer 1
10
224.527400
20
174.532200
11
224.560900
21
175.017830
0
LINE
8
Layer 1
10
224.560900
20
175.017830
11
224.605400
21
175.516360
0
LINE
8
Layer 1
10
224.605400
20
175.516360
11
224.661300
21
176.027530
0
LINE
8
Layer 1
10
224.661300
20
176.027530
11
224.728300
21
176.544920
0
LINE
8
Layer 1
10
228.660000
20
174.525000
11
230.671621
21
173.507440
0
LINE
8
Layer 1
10
230.671621
20
173.507440
11
232.827476
21
172.935090
0
LINE
8
Layer 1
10
232.827476
20
172.935090
11
235.055010
21
172.819340
0
LINE
8
Layer 1
10
235.055010
20
172.819340
11
237.281670
21
173.171580
0
LINE
8
Layer 1
10
237.281670
20
173.171580
11
239.386153
21
173.979856
0
LINE
8
Layer 1
10
239.386153
20
173.979856
11
241.257385
21
175.193861
0
LINE
8
Layer 1
10
241.257385
20
175.193861
11
242.838239
21
176.767455
0
LINE
8
Layer 1
10
242.838239
20
176.767455
11
244.071590
21
178.654500
0
LINE
8
Layer 1
10
264.271000
20
103.269000
11
264.417730
21
103.175200
0
LINE
8
Layer 1
10
264.417730
20
103.175200
11
264.773260
21
102.954950
0
LINE
8
Layer 1
10
264.773260
20
102.954950
11
265.144930
21
102.734860
0
LINE
8
Layer 1
10
265.144930
20
102.734860
11
265.532870
21
102.515500
0
LINE
8
Layer 1
10
265.532870
20
102.515500
11
265.937170
21
102.297420
0
LINE
8
Layer 1
10
265.937170
20
102.297420
11
266.357940
21
102.081250
0
LINE
8
Layer 1
10
266.357940
20
102.081250
11
266.795280
21
101.867470
0
LINE
8
Layer 1
10
266.795280
20
101.867470
11
267.249260
21
101.656720
0
LINE
8
Layer 1
10
267.249260
20
101.656720
11
267.719900
21
101.449530
0
LINE
8
Layer 1
10
267.719900
20
101.449530
11
268.201500
21
101.248880
0
LINE
8
Layer 1
10
224.513000
20
105.663000
11
224.505000
21
105.489020
0
LINE
8
Layer 1
10
224.505000
20
105.489020
11
224.492000
21
105.070990
0
LINE
8
Layer 1
10
224.492000
20
105.070990
11
224.487000
21
104.639120
0
LINE
8
Layer 1
10
224.487000
20
104.639120
11
224.491000
21
104.193470
0
LINE
8
Layer 1
10
224.491000
20
104.193470
11
224.504300
21
103.734300
0
LINE
8
Layer 1
10
224.504300
20
103.734300
11
224.527400
21
103.261800
0
LINE
8
Layer 1
10
224.527400
20
103.261800
11
224.560900
21
102.776170
0
LINE
8
Layer 1
10
224.560900
20
102.776170
11
224.605400
21
102.277630
0
LINE
8
Layer 1
10
224.605400
20
102.277630
11
224.661300
21
101.766480
0
LINE
8
Layer 1
10
224.661300
20
101.766480
11
224.728300
21
101.249050
0
LINE
8
Layer 1
10
268.417000
20
172.131000
11
268.425000
21
172.304980
0
LINE
8
Layer 1
10
268.425000
20
172.304980
11
268.438000
21
172.723010
0
LINE
8
Layer 1
10
268.438000
20
172.723010
11
268.443000
21
173.154890
0
LINE
8
Layer 1
10
268.443000
20
173.154890
11
268.439000
21
173.600540
0
LINE
8
Layer 1
10
268.439000
20
173.600540
11
268.425700
21
174.059700
0
LINE
8
Layer 1
10
268.425700
20
174.059700
11
268.402600
21
174.532200
0
LINE
8
Layer 1
10
268.402600
20
174.532200
11
268.369100
21
175.017830
0
LINE
8
Layer 1
10
268.369100
20
175.017830
11
268.324600
21
175.516360
0
LINE
8
Layer 1
10
268.324600
20
175.516360
11
268.268700
21
176.027530
0
LINE
8
Layer 1
10
268.268700
20
176.027530
11
268.201700
21
176.544920
0
LINE
8
Layer 1
10
286.222000
20
136.503000
11
286.376630
21
136.583200
0
LINE
8
Layer 1
10
286.376630
20
136.583200
11
286.745130
21
136.780980
0
LINE
8
Layer 1
10
286.745130
20
136.780980
11
287.121560
21
136.992810
0
LINE
8
Layer 1
10
287.121560
20
136.992810
11
287.505500
21
137.219050
0
LINE
8
Layer 1
10
287.505500
20
137.219050
11
287.896490
21
137.460170
0
LINE
8
Layer 1
10
287.896490
20
137.460170
11
288.294130
21
137.716460
0
LINE
8
Layer 1
10
288.294130
20
137.716460
11
288.697940
21
137.988310
0
LINE
8
Layer 1
10
288.697940
20
137.988310
11
289.107450
21
138.276090
0
LINE
8
Layer 1
10
289.107450
20
138.276090
11
289.522190
21
138.580110
0
LINE
8
Layer 1
10
289.522190
20
138.580110
11
289.936770
21
138.896880
0
LINE
8
Layer 1
10
206.708000
20
136.503000
11
206.553370
21
136.583200
0
LINE
8
Layer 1
10
206.553370
20
136.583200
11
206.184870
21
136.780980
0
LINE
8
Layer 1
10
206.184870
20
136.780980
11
205.808430
21
136.992810
0
LINE
8
Layer 1
10
205.808430
20
136.992810
11
205.424490
21
137.219050
0
LINE
8
Layer 1
10
205.424490
20
137.219050
11
205.033500
21
137.460170
0
LINE
8
Layer 1
10
205.033500
20
137.460170
11
204.635860
21
137.716460
0
LINE
8
Layer 1
10
204.635860
20
137.716460
11
204.232060
21
137.988310
0
LINE
8
Layer 1
10
204.232060
20
137.988310
11
203.822540
21
138.276090
0
LINE
8
Layer 1
10
203.822540
20
138.276090
11
203.407810
21
138.580110
0
LINE
8
Layer 1
10
203.407810
20
138.580110
11
202.993230
21
138.896880
0
LINE
8
Layer 1
10
244.071000
20
178.654000
11
244.151200
21
178.808630
0
LINE
8
Layer 1
10
244.151200
20
178.808630
11
244.348990
21
179.177130
0
LINE
8
Layer 1
10
244.348990
20
179.177130
11
244.560810
21
179.553590
0
LINE
8
Layer 1
10
244.560810
20
179.553590
11
244.787090
21
179.937500
0
LINE
8
Layer 1
10
244.787090
20
179.937500
11
245.028210
21
180.328520
0
LINE
8
Layer 1
10
245.028210
20
180.328520
11
245.284500
21
180.726140
0
LINE
8
Layer 1
10
245.284500
20
180.726140
11
245.556380
21
181.129950
0
LINE
8
Layer 1
10
245.556380
20
181.129950
11
245.844160
21
181.539420
0
LINE
8
Layer 1
10
245.844160
20
181.539420
11
246.148170
21
181.954150
0
LINE
8
Layer 1
10
246.148170
20
181.954150
11
246.464940
21
182.368700
0
LINE
8
Layer 1
10
228.660000
20
103.269000
11
228.513270
21
103.175200
0
LINE
8
Layer 1
10
228.513270
20
103.175200
11
228.157750
21
102.954950
0
LINE
8
Layer 1
10
228.157750
20
102.954950
11
227.786070
21
102.734860
0
LINE
8
Layer 1
10
227.786070
20
102.734860
11
227.398140
21
102.515500
0
LINE
8
Layer 1
10
227.398140
20
102.515500
11
226.993840
21
102.297420
0
LINE
8
Layer 1
10
226.993840
20
102.297420
11
226.573070
21
102.081250
0
LINE
8
Layer 1
10
226.573070
20
102.081250
11
226.135720
21
101.867470
0
LINE
8
Layer 1
10
226.135720
20
101.867470
11
225.681770
21
101.656720
0
LINE
8
Layer 1
10
225.681770
20
101.656720
11
225.211130
21
101.449530
0
LINE
8
Layer 1
10
225.211130
20
101.449530
11
224.729540
21
101.248880
0
LINE
8
Layer 1
10
244.071000
20
99.139900
11
244.151200
21
98.985270
0
LINE
8
Layer 1
10
244.151200
20
98.985270
11
244.348990
21
98.616770
0
LINE
8
Layer 1
10
244.348990
20
98.616770
11
244.560810
21
98.240310
0
LINE
8
Layer 1
10
244.560810
20
98.240310
11
244.787090
21
97.856370
0
LINE
8
Layer 1
10
244.787090
20
97.856370
11
245.028210
21
97.465370
0
LINE
8
Layer 1
10
245.028210
20
97.465370
11
245.284500
21
97.067770
0
LINE
8
Layer 1
10
245.284500
20
97.067770
11
245.556380
21
96.663960
0
LINE
8
Layer 1
10
245.556380
20
96.663960
11
245.844160
21
96.254480
0
LINE
8
Layer 1
10
245.844160
20
96.254480
11
246.148170
21
95.839740
0
LINE
8
Layer 1
10
246.148170
20
95.839740
11
246.464940
21
95.425160
0
LINE
8
Layer 1
10
282.093000
20
156.703000
11
282.186800
21
156.849730
0
LINE
8
Layer 1
10
282.186800
20
156.849730
11
282.407040
21
157.205260
0
LINE
8
Layer 1
10
282.407040
20
157.205260
11
282.627130
21
157.576960
0
LINE
8
Layer 1
10
282.627130
20
157.576960
11
282.846490
21
157.964900
0
LINE
8
Layer 1
10
282.846490
20
157.964900
11
283.064570
21
158.369200
0
LINE
8
Layer 1
10
283.064570
20
158.369200
11
283.280760
21
158.789980
0
LINE
8
Layer 1
10
283.280760
20
158.789980
11
283.494530
21
159.227310
0
LINE
8
Layer 1
10
283.494530
20
159.227310
11
283.705290
21
159.681290
0
LINE
8
Layer 1
10
283.705290
20
159.681290
11
283.912440
21
160.151930
0
LINE
8
Layer 1
10
283.912440
20
160.151930
11
284.113090
21
160.633530
0
LINE
8
Layer 1
10
228.660000
20
174.525000
11
228.513270
21
174.618800
0
LINE
8
Layer 1
10
228.513270
20
174.618800
11
228.157750
21
174.839040
0
LINE
8
Layer 1
10
228.157750
20
174.839040
11
227.786070
21
175.059140
0
LINE
8
Layer 1
10
227.786070
20
175.059140
11
227.398140
21
175.278500
0
LINE
8
Layer 1
10
227.398140
20
175.278500
11
226.993840
21
175.496570
0
LINE
8
Layer 1
10
226.993840
20
175.496570
11
226.573070
21
175.712760
0
LINE
8
Layer 1
10
226.573070
20
175.712760
11
226.135720
21
175.926540
0
LINE
8
Layer 1
10
226.135720
20
175.926540
11
225.681770
21
176.137290
0
LINE
8
Layer 1
10
225.681770
20
176.137290
11
225.211130
21
176.344480
0
LINE
8
Layer 1
10
225.211130
20
176.344480
11
224.729540
21
176.545130
0
LINE
8
Layer 1
10
224.513000
20
105.663000
11
224.388402
21
107.913898
0
LINE
8
Layer 1
10
224.388402
20
107.913898
11
223.806132
21
110.067093
0
LINE
8
Layer 1
10
223.806132
20
110.067093
11
222.792602
21
112.054060
0
LINE
8
Layer 1
10
222.792602
20
112.054060
11
221.374220
21
113.806280
0
LINE
8
Layer 1
10
221.374220
20
113.806280
11
219.621996
21
115.224681
0
LINE
8
Layer 1
10
219.621996
20
115.224681
11
217.635029
21
116.238213
0
LINE
8
Layer 1
10
217.635029
20
116.238213
11
215.481837
21
116.820476
0
LINE
8
Layer 1
10
215.481837
20
116.820476
11
213.230940
21
116.945070
0
LINE
8
Layer 1
10
268.417000
20
105.663000
11
268.425000
21
105.489020
0
LINE
8
Layer 1
10
268.425000
20
105.489020
11
268.438000
21
105.070990
0
LINE
8
Layer 1
10
268.438000
20
105.070990
11
268.443000
21
104.639120
0
LINE
8
Layer 1
10
268.443000
20
104.639120
11
268.439000
21
104.193470
0
LINE
8
Layer 1
10
268.439000
20
104.193470
11
268.425700
21
103.734300
0
LINE
8
Layer 1
10
268.425700
20
103.734300
11
268.402600
21
103.261800
0
LINE
8
Layer 1
10
268.402600
20
103.261800
11
268.369100
21
102.776170
0
LINE
8
Layer 1
10
268.369100
20
102.776170
11
268.324600
21
102.277630
0
LINE
8
Layer 1
10
268.324600
20
102.277630
11
268.268700
21
101.766480
0
LINE
8
Layer 1
10
268.268700
20
101.766480
11
268.201700
21
101.249050
0
LINE
8
Layer 1
10
213.231000
20
116.945000
11
213.057020
21
116.937000
0
LINE
8
Layer 1
10
213.057020
20
116.937000
11
212.638990
21
116.924000
0
LINE
8
Layer 1
10
212.638990
20
116.924000
11
212.207080
21
116.919000
0
LINE
8
Layer 1
10
212.207080
20
116.919000
11
211.761430
21
116.923000
0
LINE
8
Layer 1
10
211.761430
20
116.923000
11
211.302260
21
116.936200
0
LINE
8
Layer 1
10
211.302260
20
116.936200
11
210.829760
21
116.959500
0
LINE
8
Layer 1
10
210.829760
20
116.959500
11
210.344140
21
116.993000
0
LINE
8
Layer 1
10
210.344140
20
116.993000
11
209.845610
21
117.037500
0
LINE
8
Layer 1
10
209.845610
20
117.037500
11
209.334440
21
117.093400
0
LINE
8
Layer 1
10
209.334440
20
117.093400
11
208.817040
21
117.160400
0
LINE
8
Layer 1
10
286.222000
20
136.503000
11
284.334942
21
135.269644
0
LINE
8
Layer 1
10
284.334942
20
135.269644
11
282.761346
21
133.688790
0
LINE
8
Layer 1
10
282.761346
20
133.688790
11
281.547340
21
131.817566
0
LINE
8
Layer 1
10
281.547340
20
131.817566
11
280.739050
21
129.713100
0
LINE
8
Layer 1
10
280.739050
20
129.713100
11
280.386810
21
127.486433
0
LINE
8
Layer 1
10
280.386810
20
127.486433
11
280.502560
21
125.258900
0
LINE
8
Layer 1
10
280.502560
20
125.258900
11
281.074910
21
123.103044
0
LINE
8
Layer 1
10
281.074910
20
123.103044
11
282.092470
21
121.091410
0
LINE
8
Layer 1
10
264.271000
20
174.525000
11
264.417730
21
174.618800
0
LINE
8
Layer 1
10
264.417730
20
174.618800
11
264.773260
21
174.839040
0
LINE
8
Layer 1
10
264.773260
20
174.839040
11
265.144930
21
175.059140
0
LINE
8
Layer 1
10
265.144930
20
175.059140
11
265.532870
21
175.278500
0
LINE
8
Layer 1
10
265.532870
20
175.278500
11
265.937170
21
175.496570
0
LINE
8
Layer 1
10
265.937170
20
175.496570
11
266.357940
21
175.712760
0
LINE
8
Layer 1
10
266.357940
20
175.712760
11
266.795280
21
175.926540
0
LINE
8
Layer 1
10
266.795280
20
175.926540
11
267.249260
21
176.137290
0
LINE
8
Layer 1
10
267.249260
20
176.137290
11
267.719900
21
176.344480
0
LINE
8
Layer 1
10
267.719900
20
176.344480
11
268.201500
21
176.545130
0
LINE
8
Layer 1
10
248.859000
20
99.139900
11
248.778800
21
98.985270
0
LINE
8
Layer 1
10
248.778800
20
98.985270
11
248.581020
21
98.616770
0
LINE
8
Layer 1
10
248.581020
20
98.616770
11
248.369200
21
98.240310
0
LINE
8
Layer 1
10
248.369200
20
98.240310
11
248.142910
21
97.856370
0
LINE
8
Layer 1
10
248.142910
20
97.856370
11
247.901790
21
97.465370
0
LINE
8
Layer 1
10
247.901790
20
97.465370
11
247.645510
21
97.067770
0
LINE
8
Layer 1
10
247.645510
20
97.067770
11
247.373630
21
96.663960
0
LINE
8
Layer 1
10
247.373630
20
96.663960
11
247.085850
21
96.254480
0
LINE
8
Layer 1
10
247.085850
20
96.254480
11
246.781830
21
95.839740
0
LINE
8
Layer 1
10
246.781830
20
95.839740
11
246.465060
21
95.425160
0
LINE
8
Layer 1
10
248.859000
20
178.654000
11
250.092343
21
176.766955
0
LINE
8
Layer 1
10
250.092343
20
176.766955
11
251.673198
21
175.193361
0
LINE
8
Layer 1
10
251.673198
20
175.193361
11
253.544425
21
173.979356
0
LINE
8
Layer 1
10
253.544425
20
173.979356
11
255.648890
21
173.171080
0
LINE
8
Layer 1
10
255.648890
20
173.171080
11
257.875567
21
172.818840
0
LINE
8
Layer 1
10
257.875567
20
172.818840
11
260.103102
21
172.934590
0
LINE
8
Layer 1
10
260.103102
20
172.934590
11
262.258957
21
173.506940
0
LINE
8
Layer 1
10
262.258957
20
173.506940
11
264.270590
21
174.524500
0
LINE
8
Layer 1
10
210.838000
20
121.092000
11
210.744200
21
120.945270
0
LINE
8
Layer 1
10
210.744200
20
120.945270
11
210.523950
21
120.589710
0
LINE
8
Layer 1
10
210.523950
20
120.589710
11
210.303860
21
120.218030
0
LINE
8
Layer 1
10
210.303860
20
120.218030
11
210.084500
21
119.830100
0
LINE
8
Layer 1
10
210.084500
20
119.830100
11
209.866420
21
119.425810
0
LINE
8
Layer 1
10
209.866420
20
119.425810
11
209.650240
21
119.005030
0
LINE
8
Layer 1
10
209.650240
20
119.005030
11
209.436460
21
118.567690
0
LINE
8
Layer 1
10
209.436460
20
118.567690
11
209.225710
21
118.113710
0
LINE
8
Layer 1
10
209.225710
20
118.113710
11
209.018560
21
117.643060
0
LINE
8
Layer 1
10
209.018560
20
117.643060
11
208.817910
21
117.161450
0
LINE
8
Layer 1
10
213.231000
20
160.849000
11
213.057020
21
160.857000
0
LINE
8
Layer 1
10
213.057020
20
160.857000
11
212.638990
21
160.870000
0
LINE
8
Layer 1
10
212.638990
20
160.870000
11
212.207080
21
160.875000
0
LINE
8
Layer 1
10
212.207080
20
160.875000
11
211.761430
21
160.871000
0
LINE
8
Layer 1
10
211.761430
20
160.871000
11
211.302260
21
160.857800
0
LINE
8
Layer 1
10
211.302260
20
160.857800
11
210.829760
21
160.834500
0
LINE
8
Layer 1
10
210.829760
20
160.834500
11
210.344140
21
160.801000
0
LINE
8
Layer 1
10
210.344140
20
160.801000
11
209.845610
21
160.756500
0
LINE
8
Layer 1
10
209.845610
20
160.756500
11
209.334440
21
160.700600
0
LINE
8
Layer 1
10
209.334440
20
160.700600
11
208.817040
21
160.633600
0
LINE
8
Layer 1
10
236.233000
20
116.087000
11
236.974928
21
115.863789
0
LINE
8
Layer 1
10
236.974928
20
115.863789
11
237.737035
21
115.836992
0
LINE
8
Layer 1
10
237.737035
20
115.836992
11
238.481307
21
116.003092
0
LINE
8
Layer 1
10
238.481307
20
116.003092
11
239.169730
21
116.358570
0
LINE
8
Layer 1
10
239.169730
20
116.358570
11
239.744233
21
116.878408
0
LINE
8
Layer 1
10
239.744233
20
116.878408
11
240.161010
21
117.517014
0
LINE
8
Layer 1
10
240.161010
20
117.517014
11
240.403428
21
118.240030
0
LINE
8
Layer 1
10
240.403428
20
118.240030
11
240.454850
21
119.013100
0
LINE
8
Layer 1
10
226.581000
20
132.887000
11
225.807928
21
132.835594
0
LINE
8
Layer 1
10
225.807928
20
132.835594
11
225.084910
21
132.593175
0
LINE
8
Layer 1
10
225.084910
20
132.593175
11
224.446304
21
132.176388
0
LINE
8
Layer 1
10
224.446304
20
132.176388
11
223.926470
21
131.601880
0
LINE
8
Layer 1
10
223.926470
20
131.601880
11
223.570992
21
130.913463
0
LINE
8
Layer 1
10
223.570992
20
130.913463
11
223.404891
21
130.169194
0
LINE
8
Layer 1
10
223.404891
20
130.169194
11
223.431685
21
129.407088
0
LINE
8
Layer 1
10
223.431685
20
129.407088
11
223.654890
21
128.665160
0
LINE
8
Layer 1
10
250.440000
20
138.897000
11
250.357672
21
139.696772
0
LINE
8
Layer 1
10
250.357672
20
139.696772
11
250.125055
21
140.441503
0
LINE
8
Layer 1
10
250.125055
20
140.441503
11
249.272649
21
141.702231
0
LINE
8
Layer 1
10
249.272649
20
141.702231
11
248.010179
21
142.551969
0
LINE
8
Layer 1
10
248.010179
20
142.551969
11
247.264981
21
142.782961
0
LINE
8
Layer 1
10
247.264981
20
142.782961
11
246.465040
21
142.863500
0
LINE
8
Layer 1
10
246.465040
20
142.863500
11
245.665087
21
142.782972
0
LINE
8
Layer 1
10
245.665087
20
142.782972
11
244.919855
21
142.551990
0
LINE
8
Layer 1
10
244.919855
20
142.551990
11
243.657296
21
141.702265
0
LINE
8
Layer 1
10
243.657296
20
141.702265
11
242.804862
21
140.441532
0
LINE
8
Layer 1
10
242.804862
20
140.441532
11
242.572285
21
139.696791
0
LINE
8
Layer 1
10
242.572285
20
139.696791
11
242.490050
21
138.897000
0
LINE
8
Layer 1
10
242.490050
20
138.897000
11
242.572377
21
138.097227
0
LINE
8
Layer 1
10
242.572377
20
138.097227
11
242.804991
21
137.352495
0
LINE
8
Layer 1
10
242.804991
20
137.352495
11
243.657386
21
136.091764
0
LINE
8
Layer 1
10
243.657386
20
136.091764
11
244.919846
21
135.242023
0
LINE
8
Layer 1
10
244.919846
20
135.242023
11
245.665041
21
135.011029
0
LINE
8
Layer 1
10
245.665041
20
135.011029
11
246.464980
21
134.930490
0
LINE
8
Layer 1
10
246.464980
20
134.930490
11
247.264935
21
135.011018
0
LINE
8
Layer 1
10
247.264935
20
135.011018
11
248.010170
21
135.242002
0
LINE
8
Layer 1
10
248.010170
20
135.242002
11
249.272731
21
136.091730
0
LINE
8
Layer 1
10
249.272731
20
136.091730
11
250.125172
21
137.352466
0
LINE
8
Layer 1
10
250.125172
20
137.352466
11
250.357756
21
138.097209
0
LINE
8
Layer 1
10
250.357756
20
138.097209
11
250.440000
21
138.897000
0
LINE
8
Layer 1
10
250.440000
20
138.897000
11
250.440000
21
138.897000
0
LINE
8
Layer 1
10
226.581000
20
144.907000
11
227.825871
21
145.146477
0
LINE
8
Layer 1
10
227.825871
20
145.146477
11
228.954055
21
145.681010
0
LINE
8
Layer 1
10
228.954055
20
145.681010
11
229.914772
21
146.478223
0
LINE
8
Layer 1
10
229.914772
20
146.478223
11
230.657240
21
147.505740
0
LINE
8
Layer 1
10
237.857000
20
154.705000
11
238.884522
21
155.447474
0
LINE
8
Layer 1
10
238.884522
20
155.447474
11
239.681735
21
156.408194
0
LINE
8
Layer 1
10
239.681735
20
156.408194
11
240.216268
21
157.536379
0
LINE
8
Layer 1
10
240.216268
20
157.536379
11
240.455750
21
158.781250
0
LINE
8
Layer 1
10
274.795000
20
154.647000
11
274.712470
21
155.055702
0
LINE
8
Layer 1
10
274.712470
20
155.055702
11
274.487443
21
155.389454
0
LINE
8
Layer 1
10
274.487443
20
155.389454
11
274.153691
21
155.614476
0
LINE
8
Layer 1
10
274.153691
20
155.614476
11
273.744990
21
155.696990
0
LINE
8
Layer 1
10
273.744990
20
155.696990
11
273.336290
21
155.614476
0
LINE
8
Layer 1
10
273.336290
20
155.614476
11
273.002541
21
155.389454
0
LINE
8
Layer 1
10
273.002541
20
155.389454
11
272.777522
21
155.055702
0
LINE
8
Layer 1
10
272.777522
20
155.055702
11
272.695010
21
154.647000
0
LINE
8
Layer 1
10
272.695010
20
154.647000
11
272.777522
21
154.238295
0
LINE
8
Layer 1
10
272.777522
20
154.238295
11
273.002541
21
153.904547
0
LINE
8
Layer 1
10
273.002541
20
153.904547
11
273.336290
21
153.679531
0
LINE
8
Layer 1
10
273.336290
20
153.679531
11
273.744990
21
153.597020
0
LINE
8
Layer 1
10
273.744990
20
153.597020
11
274.153691
21
153.679531
0
LINE
8
Layer 1
10
274.153691
20
153.679531
11
274.487443
21
153.904547
0
LINE
8
Layer 1
10
274.487443
20
153.904547
11
274.712470
21
154.238295
0
LINE
8
Layer 1
10
274.712470
20
154.238295
11
274.795000
21
154.647000
0
LINE
8
Layer 1
10
274.795000
20
154.647000
11
274.795000
21
154.647000
0
LINE
8
Layer 1
10
266.349000
20
144.907000
11
267.122067
21
144.958404
0
LINE
8
Layer 1
10
267.122067
20
144.958404
11
267.845086
21
145.200821
0
LINE
8
Layer 1
10
267.845086
20
145.200821
11
268.483695
21
145.617608
0
LINE
8
Layer 1
10
268.483695
20
145.617608
11
269.003530
21
146.192120
0
LINE
8
Layer 1
10
269.003530
20
146.192120
11
269.359008
21
146.880543
0
LINE
8
Layer 1
10
269.359008
20
146.880543
11
269.525109
21
147.624815
0
LINE
8
Layer 1
10
269.525109
20
147.624815
11
269.498315
21
148.386922
0
LINE
8
Layer 1
10
269.498315
20
148.386922
11
269.275110
21
149.128850
0
LINE
8
Layer 1
10
220.235000
20
154.647000
11
220.152470
21
155.055702
0
LINE
8
Layer 1
10
220.152470
20
155.055702
11
219.927443
21
155.389454
0
LINE
8
Layer 1
10
219.927443
20
155.389454
11
219.593691
21
155.614476
0
LINE
8
Layer 1
10
219.593691
20
155.614476
11
219.184990
21
155.696990
0
LINE
8
Layer 1
10
219.184990
20
155.696990
11
218.776284
21
155.614476
0
LINE
8
Layer 1
10
218.776284
20
155.614476
11
218.442532
21
155.389454
0
LINE
8
Layer 1
10
218.442532
20
155.389454
11
218.217513
21
155.055702
0
LINE
8
Layer 1
10
218.217513
20
155.055702
11
218.135000
21
154.647000
0
LINE
8
Layer 1
10
218.135000
20
154.647000
11
218.217513
21
154.238295
0
LINE
8
Layer 1
10
218.217513
20
154.238295
11
218.442532
21
153.904547
0
LINE
8
Layer 1
10
218.442532
20
153.904547
11
218.776284
21
153.679531
0
LINE
8
Layer 1
10
218.776284
20
153.679531
11
219.184990
21
153.597020
0
LINE
8
Layer 1
10
219.184990
20
153.597020
11
219.593691
21
153.679531
0
LINE
8
Layer 1
10
219.593691
20
153.679531
11
219.927443
21
153.904547
0
LINE
8
Layer 1
10
219.927443
20
153.904547
11
220.152470
21
154.238295
0
LINE
8
Layer 1
10
220.152470
20
154.238295
11
220.235000
21
154.647000
0
LINE
8
Layer 1
10
220.235000
20
154.647000
11
220.235000
21
154.647000
0
LINE
8
Layer 1
10
274.795000
20
123.147000
11
274.712470
21
123.555702
0
LINE
8
Layer 1
10
274.712470
20
123.555702
11
274.487443
21
123.889454
0
LINE
8
Layer 1
10
274.487443
20
123.889454
11
274.153691
21
124.114476
0
LINE
8
Layer 1
10
274.153691
20
124.114476
11
273.744990
21
124.196990
0
LINE
8
Layer 1
10
273.744990
20
124.196990
11
273.336290
21
124.114476
0
LINE
8
Layer 1
10
273.336290
20
124.114476
11
273.002541
21
123.889454
0
LINE
8
Layer 1
10
273.002541
20
123.889454
11
272.777522
21
123.555702
0
LINE
8
Layer 1
10
272.777522
20
123.555702
11
272.695010
21
123.147000
0
LINE
8
Layer 1
10
272.695010
20
123.147000
11
272.777522
21
122.738295
0
LINE
8
Layer 1
10
272.777522
20
122.738295
11
273.002541
21
122.404548
0
LINE
8
Layer 1
10
273.002541
20
122.404548
11
273.336290
21
122.179531
0
LINE
8
Layer 1
10
273.336290
20
122.179531
11
273.744990
21
122.097020
0
LINE
8
Layer 1
10
273.744990
20
122.097020
11
274.153691
21
122.179531
0
LINE
8
Layer 1
10
274.153691
20
122.179531
11
274.487443
21
122.404548
0
LINE
8
Layer 1
10
274.487443
20
122.404548
11
274.712470
21
122.738295
0
LINE
8
Layer 1
10
274.712470
20
122.738295
11
274.795000
21
123.147000
0
LINE
8
Layer 1
10
274.795000
20
123.147000
11
274.795000
21
123.147000
0
LINE
8
Layer 1
10
262.273000
20
147.506000
11
263.015474
21
146.478483
0
LINE
8
Layer 1
10
263.015474
20
146.478483
11
263.976194
21
145.681270
0
LINE
8
Layer 1
10
263.976194
20
145.681270
11
265.104379
21
145.146737
0
LINE
8
Layer 1
10
265.104379
20
145.146737
11
266.349250
21
144.907260
0
LINE
8
Layer 1
10
252.475000
20
158.781000
11
252.714476
21
157.536129
0
LINE
8
Layer 1
10
252.714476
20
157.536129
11
253.249006
21
156.407944
0
LINE
8
Layer 1
10
253.249006
20
156.407944
11
254.046219
21
155.447224
0
LINE
8
Layer 1
10
254.046219
20
155.447224
11
255.073740
21
154.704750
0
LINE
8
Layer 1
10
266.349000
20
132.887000
11
265.104129
21
132.647524
0
LINE
8
Layer 1
10
265.104129
20
132.647524
11
263.975944
21
132.112994
0
LINE
8
Layer 1
10
263.975944
20
132.112994
11
263.015224
21
131.315781
0
LINE
8
Layer 1
10
263.015224
20
131.315781
11
262.272750
21
130.288260
0
LINE
8
Layer 1
10
220.235000
20
123.147000
11
220.152470
21
123.555702
0
LINE
8
Layer 1
10
220.152470
20
123.555702
11
219.927443
21
123.889454
0
LINE
8
Layer 1
10
219.927443
20
123.889454
11
219.593691
21
124.114476
0
LINE
8
Layer 1
10
219.593691
20
124.114476
11
219.184990
21
124.196990
0
LINE
8
Layer 1
10
219.184990
20
124.196990
11
218.776284
21
124.114476
0
LINE
8
Layer 1
10
218.776284
20
124.114476
11
218.442532
21
123.889454
0
LINE
8
Layer 1
10
218.442532
20
123.889454
11
218.217513
21
123.555702
0
LINE
8
Layer 1
10
218.217513
20
123.555702
11
218.135000
21
123.147000
0
LINE
8
Layer 1
10
218.135000
20
123.147000
11
218.217513
21
122.738295
0
LINE
8
Layer 1
10
218.217513
20
122.738295
11
218.442532
21
122.404548
0
LINE
8
Layer 1
10
218.442532
20
122.404548
11
218.776284
21
122.179531
0
LINE
8
Layer 1
10
218.776284
20
122.179531
11
219.184990
21
122.097020
0
LINE
8
Layer 1
10
219.184990
20
122.097020
11
219.593691
21
122.179531
0
LINE
8
Layer 1
10
219.593691
20
122.179531
11
219.927443
21
122.404548
0
LINE
8
Layer 1
10
219.927443
20
122.404548
11
220.152470
21
122.738295
0
LINE
8
Layer 1
10
220.152470
20
122.738295
11
220.235000
21
123.147000
0
LINE
8
Layer 1
10
220.235000
20
123.147000
11
220.235000
21
123.147000
0
LINE
8
Layer 1
10
237.989000
20
133.397000
11
237.906488
21
133.805702
0
LINE
8
Layer 1
10
237.906488
20
133.805702
11
237.681469
21
134.139454
0
LINE
8
Layer 1
10
237.681469
20
134.139454
11
237.347720
21
134.364476
0
LINE
8
Layer 1
10
237.347720
20
134.364476
11
236.939020
21
134.446990
0
LINE
8
Layer 1
10
236.939020
20
134.446990
11
236.530313
21
134.364476
0
LINE
8
Layer 1
10
236.530313
20
134.364476
11
236.196559
21
134.139454
0
LINE
8
Layer 1
10
236.196559
20
134.139454
11
235.971530
21
133.805702
0
LINE
8
Layer 1
10
235.971530
20
133.805702
11
235.889000
21
133.397000
0
LINE
8
Layer 1
10
235.889000
20
133.397000
11
235.971530
21
132.988294
0
LINE
8
Layer 1
10
235.971530
20
132.988294
11
236.196559
21
132.654542
0
LINE
8
Layer 1
10
236.196559
20
132.654542
11
236.530313
21
132.429522
0
LINE
8
Layer 1
10
236.530313
20
132.429522
11
236.939020
21
132.347010
0
LINE
8
Layer 1
10
236.939020
20
132.347010
11
237.347720
21
132.429522
0
LINE
8
Layer 1
10
237.347720
20
132.429522
11
237.681469
21
132.654542
0
LINE
8
Layer 1
10
237.681469
20
132.654542
11
237.906488
21
132.988294
0
LINE
8
Layer 1
10
237.906488
20
132.988294
11
237.989000
21
133.397000
0
LINE
8
Layer 1
10
237.989000
20
133.397000
11
237.989000
21
133.397000
0
LINE
8
Layer 1
10
226.499000
20
138.897000
11
226.416470
21
139.305700
0
LINE
8
Layer 1
10
226.416470
20
139.305700
11
226.191442
21
139.639449
0
LINE
8
Layer 1
10
226.191442
20
139.639449
11
225.857691
21
139.864468
0
LINE
8
Layer 1
10
225.857691
20
139.864468
11
225.448990
21
139.946980
0
LINE
8
Layer 1
10
225.448990
20
139.946980
11
225.040284
21
139.864468
0
LINE
8
Layer 1
10
225.040284
20
139.864468
11
224.706533
21
139.639449
0
LINE
8
Layer 1
10
224.706533
20
139.639449
11
224.481513
21
139.305700
0
LINE
8
Layer 1
10
224.481513
20
139.305700
11
224.399000
21
138.897000
0
LINE
8
Layer 1
10
224.399000
20
138.897000
11
224.481513
21
138.488294
0
LINE
8
Layer 1
10
224.481513
20
138.488294
11
224.706533
21
138.154542
0
LINE
8
Layer 1
10
224.706533
20
138.154542
11
225.040284
21
137.929522
0
LINE
8
Layer 1
10
225.040284
20
137.929522
11
225.448990
21
137.847010
0
LINE
8
Layer 1
10
225.448990
20
137.847010
11
225.857691
21
137.929522
0
LINE
8
Layer 1
10
225.857691
20
137.929522
11
226.191443
21
138.154542
0
LINE
8
Layer 1
10
226.191443
20
138.154542
11
226.416470
21
138.488294
0
LINE
8
Layer 1
10
226.416470
20
138.488294
11
226.499000
21
138.897000
0
LINE
8
Layer 1
10
226.499000
20
138.897000
11
226.499000
21
138.897000
0
LINE
8
Layer 1
10
223.655000
20
128.665000
11
224.686394
21
126.621567
0
LINE
8
Layer 1
10
224.686394
20
126.621567
11
225.892275
21
124.692801
0
LINE
8
Layer 1
10
225.892275
20
124.692801
11
227.262675
21
122.888670
0
LINE
8
Layer 1
10
227.262675
20
122.888670
11
228.787622
21
121.219145
0
LINE
8
Layer 1
10
228.787622
20
121.219145
11
230.457149
21
119.694196
0
LINE
8
Layer 1
10
230.457149
20
119.694196
11
232.261284
21
118.323792
0
LINE
8
Layer 1
10
232.261284
20
118.323792
11
234.190057
21
117.117903
0
LINE
8
Layer 1
10
234.190057
20
117.117903
11
236.233500
21
116.086500
0
LINE
8
Layer 1
10
230.657000
20
130.288000
11
229.914532
21
131.315521
0
LINE
8
Layer 1
10
229.914532
20
131.315521
11
228.953815
21
132.112734
0
LINE
8
Layer 1
10
228.953815
20
132.112734
11
227.825631
21
132.647264
0
LINE
8
Layer 1
10
227.825631
20
132.647264
11
226.580760
21
132.886740
0
LINE
8
Layer 1
10
269.275000
20
149.129000
11
268.243603
21
151.172430
0
LINE
8
Layer 1
10
268.243603
20
151.172430
11
267.037719
21
153.101195
0
LINE
8
Layer 1
10
267.037719
20
153.101195
11
265.667318
21
154.905326
0
LINE
8
Layer 1
10
265.667318
20
154.905326
11
264.142370
21
156.574851
0
LINE
8
Layer 1
10
264.142370
20
156.574851
11
262.472844
21
158.099802
0
LINE
8
Layer 1
10
262.472844
20
158.099802
11
260.668711
21
159.470207
0
LINE
8
Layer 1
10
260.668711
20
159.470207
11
258.739939
21
160.676096
0
LINE
8
Layer 1
10
258.739939
20
160.676096
11
256.696500
21
161.707500
0
LINE
8
Layer 1
10
262.273000
20
147.506000
11
260.876973
21
149.681455
0
LINE
8
Layer 1
10
260.876973
20
149.681455
11
259.193013
21
151.625229
0
LINE
8
Layer 1
10
259.193013
20
151.625229
11
257.249248
21
153.309193
0
LINE
8
Layer 1
10
257.249248
20
153.309193
11
255.073810
21
154.705220
0
LINE
8
Layer 1
10
230.657000
20
130.288000
11
232.053031
21
128.112541
0
LINE
8
Layer 1
10
232.053031
20
128.112541
11
233.736991
21
126.168768
0
LINE
8
Layer 1
10
233.736991
20
126.168768
11
235.680754
21
124.484806
0
LINE
8
Layer 1
10
235.680754
20
124.484806
11
237.856190
21
123.088780
0
LINE
8
Layer 1
10
256.697000
20
116.087000
11
258.740433
21
117.118394
0
LINE
8
Layer 1
10
258.740433
20
117.118394
11
260.669199
21
118.324275
0
LINE
8
Layer 1
10
260.669199
20
118.324275
11
262.473330
21
119.694675
0
LINE
8
Layer 1
10
262.473330
20
119.694675
11
264.142855
21
121.219623
0
LINE
8
Layer 1
10
264.142855
20
121.219623
11
265.667804
21
122.889149
0
LINE
8
Layer 1
10
265.667804
20
122.889149
11
267.038208
21
124.693284
0
LINE
8
Layer 1
10
267.038208
20
124.693284
11
268.244097
21
126.622057
0
LINE
8
Layer 1
10
268.244097
20
126.622057
11
269.275500
21
128.665500
0
LINE
8
Layer 1
10
247.515000
20
170.397000
11
247.432469
21
170.805700
0
LINE
8
Layer 1
10
247.432469
20
170.805700
11
247.207437
21
171.139449
0
LINE
8
Layer 1
10
247.207437
20
171.139449
11
246.873682
21
171.364468
0
LINE
8
Layer 1
10
246.873682
20
171.364468
11
246.464980
21
171.446980
0
LINE
8
Layer 1
10
246.464980
20
171.446980
11
246.056280
21
171.364468
0
LINE
8
Layer 1
10
246.056280
20
171.364468
11
245.722531
21
171.139449
0
LINE
8
Layer 1
10
245.722531
20
171.139449
11
245.497512
21
170.805700
0
LINE
8
Layer 1
10
245.497512
20
170.805700
11
245.415000
21
170.397000
0
LINE
8
Layer 1
10
245.415000
20
170.397000
11
245.497512
21
169.988294
0
LINE
8
Layer 1
10
245.497512
20
169.988294
11
245.722531
21
169.654542
0
LINE
8
Layer 1
10
245.722531
20
169.654542
11
246.056280
21
169.429522
0
LINE
8
Layer 1
10
246.056280
20
169.429522
11
246.464980
21
169.347010
0
LINE
8
Layer 1
10
246.464980
20
169.347010
11
246.873683
21
169.429522
0
LINE
8
Layer 1
10
246.873683
20
169.429522
11
247.207437
21
169.654542
0
LINE
8
Layer 1
10
247.207437
20
169.654542
11
247.432469
21
169.988294
0
LINE
8
Layer 1
10
247.432469
20
169.988294
11
247.515000
21
170.397000
0
LINE
8
Layer 1
10
247.515000
20
170.397000
11
247.515000
21
170.397000
0
LINE
8
Layer 1
10
240.455000
20
158.781000
11
240.403594
21
159.554067
0
LINE
8
Layer 1
10
240.403594
20
159.554067
11
240.161175
21
160.277086
0
LINE
8
Layer 1
10
240.161175
20
160.277086
11
239.744388
21
160.915695
0
LINE
8
Layer 1
10
239.744388
20
160.915695
11
239.169880
21
161.435530
0
LINE
8
Layer 1
10
239.169880
20
161.435530
11
238.481457
21
161.791008
0
LINE
8
Layer 1
10
238.481457
20
161.791008
11
237.737185
21
161.957108
0
LINE
8
Layer 1
10
237.737185
20
161.957108
11
236.975078
21
161.930311
0
LINE
8
Layer 1
10
236.975078
20
161.930311
11
236.233150
21
161.707100
0
LINE
8
Layer 1
10
236.233000
20
161.707000
11
234.189567
21
160.675606
0
LINE
8
Layer 1
10
234.189567
20
160.675606
11
232.260801
21
159.469725
0
LINE
8
Layer 1
10
232.260801
20
159.469725
11
230.456670
21
158.099325
0
LINE
8
Layer 1
10
230.456670
20
158.099325
11
228.787145
21
156.574378
0
LINE
8
Layer 1
10
228.787145
20
156.574378
11
227.262196
21
154.904851
0
LINE
8
Layer 1
10
227.262196
20
154.904851
11
225.891792
21
153.100716
0
LINE
8
Layer 1
10
225.891792
20
153.100716
11
224.685903
21
151.171943
0
LINE
8
Layer 1
10
224.685903
20
151.171943
11
223.654500
21
149.128500
0
LINE
8
Layer 1
10
223.655000
20
149.129000
11
223.431794
21
148.387072
0
LINE
8
Layer 1
10
223.431794
20
148.387072
11
223.404997
21
147.624965
0
LINE
8
Layer 1
10
223.404997
20
147.624965
11
223.571098
21
146.880693
0
LINE
8
Layer 1
10
223.571098
20
146.880693
11
223.926580
21
146.192270
0
LINE
8
Layer 1
10
223.926580
20
146.192270
11
224.446414
21
145.617763
0
LINE
8
Layer 1
10
224.446414
20
145.617763
11
225.085020
21
145.200986
0
LINE
8
Layer 1
10
225.085020
20
145.200986
11
225.808038
21
144.958571
0
LINE
8
Layer 1
10
225.808038
20
144.958571
11
226.581110
21
144.907150
0
LINE
8
Layer 1
10
269.275000
20
128.665000
11
269.498205
21
129.406928
0
LINE
8
Layer 1
10
269.498205
20
129.406928
11
269.524999
21
130.169034
0
LINE
8
Layer 1
10
269.524999
20
130.169034
11
269.358898
21
130.913303
0
LINE
8
Layer 1
10
269.358898
20
130.913303
11
269.003420
21
131.601720
0
LINE
8
Layer 1
10
269.003420
20
131.601720
11
268.483585
21
132.176222
0
LINE
8
Layer 1
10
268.483585
20
132.176222
11
267.844976
21
132.593000
0
LINE
8
Layer 1
10
267.844976
20
132.593000
11
267.121957
21
132.835418
0
LINE
8
Layer 1
10
267.121957
20
132.835418
11
266.348890
21
132.886840
0
LINE
8
Layer 1
10
252.475000
20
119.013000
11
252.526404
21
118.239930
0
LINE
8
Layer 1
10
252.526404
20
118.239930
11
252.768821
21
117.516914
0
LINE
8
Layer 1
10
252.768821
20
117.516914
11
253.185608
21
116.878308
0
LINE
8
Layer 1
10
253.185608
20
116.878308
11
253.760120
21
116.358470
0
LINE
8
Layer 1
10
253.760120
20
116.358470
11
254.448537
21
116.002992
0
LINE
8
Layer 1
10
254.448537
20
116.002992
11
255.192806
21
115.836893
0
LINE
8
Layer 1
10
255.192806
20
115.836893
11
255.954912
21
115.863689
0
LINE
8
Layer 1
10
255.954912
20
115.863689
11
256.696840
21
116.086900
0
LINE
8
Layer 1
10
255.074000
20
123.089000
11
254.046479
21
122.346526
0
LINE
8
Layer 1
10
254.046479
20
122.346526
11
253.249266
21
121.385806
0
LINE
8
Layer 1
10
253.249266
20
121.385806
11
252.714736
21
120.257621
0
LINE
8
Layer 1
10
252.714736
20
120.257621
11
252.475260
21
119.012750
0
LINE
8
Layer 1
10
247.515000
20
159.913000
11
247.432469
21
160.321706
0
LINE
8
Layer 1
10
247.432469
20
160.321706
11
247.207437
21
160.655458
0
LINE
8
Layer 1
10
247.207437
20
160.655458
11
246.873682
21
160.880478
0
LINE
8
Layer 1
10
246.873682
20
160.880478
11
246.464980
21
160.962990
0
LINE
8
Layer 1
10
246.464980
20
160.962990
11
246.056280
21
160.880478
0
LINE
8
Layer 1
10
246.056280
20
160.880478
11
245.722531
21
160.655458
0
LINE
8
Layer 1
10
245.722531
20
160.655458
11
245.497512
21
160.321706
0
LINE
8
Layer 1
10
245.497512
20
160.321706
11
245.415000
21
159.913000
0
LINE
8
Layer 1
10
245.415000
20
159.913000
11
245.497512
21
159.504298
0
LINE
8
Layer 1
10
245.497512
20
159.504298
11
245.722531
21
159.170546
0
LINE
8
Layer 1
10
245.722531
20
159.170546
11
246.056280
21
158.945524
0
LINE
8
Layer 1
10
246.056280
20
158.945524
11
246.464980
21
158.863010
0
LINE
8
Layer 1
10
246.464980
20
158.863010
11
246.873683
21
158.945524
0
LINE
8
Layer 1
10
246.873683
20
158.945524
11
247.207437
21
159.170546
0
LINE
8
Layer 1
10
247.207437
20
159.170546
11
247.432469
21
159.504298
0
LINE
8
Layer 1
10
247.432469
20
159.504298
11
247.515000
21
159.913000
0
LINE
8
Layer 1
10
247.515000
20
159.913000
11
247.515000
21
159.913000
0
LINE
8
Layer 1
10
268.059000
20
228.425000
11
267.974948
21
228.832074
0
LINE
8
Layer 1
10
267.974948
20
228.832074
11
267.749613
21
229.164175
0
LINE
8
Layer 1
10
267.749613
20
229.164175
11
267.416476
21
229.387920
0
LINE
8
Layer 1
10
267.416476
20
229.387920
11
267.009020
21
229.469920
0
LINE
8
Layer 1
10
267.009020
20
229.469920
11
266.601544
21
229.387920
0
LINE
8
Layer 1
10
266.601544
20
229.387920
11
266.268352
21
229.164177
0
LINE
8
Layer 1
10
266.268352
20
229.164177
11
266.042999
21
228.832075
0
LINE
8
Layer 1
10
266.042999
20
228.832075
11
265.959040
21
228.425000
0
LINE
8
Layer 1
10
265.959040
20
228.425000
11
266.043092
21
228.017926
0
LINE
8
Layer 1
10
266.043092
20
228.017926
11
266.268428
21
227.685825
0
LINE
8
Layer 1
10
266.268428
20
227.685825
11
266.601564
21
227.462080
0
LINE
8
Layer 1
10
266.601564
20
227.462080
11
267.009020
21
227.380080
0
LINE
8
Layer 1
10
267.009020
20
227.380080
11
267.416496
21
227.462080
0
LINE
8
Layer 1
10
267.416496
20
227.462080
11
267.749688
21
227.685823
0
LINE
8
Layer 1
10
267.749688
20
227.685823
11
267.975041
21
228.017925
0
LINE
8
Layer 1
10
267.975041
20
228.017925
11
268.059000
21
228.425000
0
LINE
8
Layer 1
10
268.059000
20
228.425000
11
268.059000
21
228.425000
0
LINE
8
Layer 1
10
247.043000
20
207.409000
11
246.960469
21
207.817701
0
LINE
8
Layer 1
10
246.960469
20
207.817701
11
246.735437
21
208.151453
0
LINE
8
Layer 1
10
246.735437
20
208.151453
11
246.401682
21
208.376476
0
LINE
8
Layer 1
10
246.401682
20
208.376476
11
245.992980
21
208.458990
0
LINE
8
Layer 1
10
245.992980
20
208.458990
11
245.584280
21
208.376476
0
LINE
8
Layer 1
10
245.584280
20
208.376476
11
245.250531
21
208.151454
0
LINE
8
Layer 1
10
245.250531
20
208.151454
11
245.025512
21
207.817703
0
LINE
8
Layer 1
10
245.025512
20
207.817703
11
244.943000
21
207.409000
0
LINE
8
Layer 1
10
244.943000
20
207.409000
11
245.025512
21
207.000295
0
LINE
8
Layer 1
10
245.025512
20
207.000295
11
245.250531
21
206.666544
0
LINE
8
Layer 1
10
245.250531
20
206.666544
11
245.584280
21
206.441523
0
LINE
8
Layer 1
10
245.584280
20
206.441523
11
245.992980
21
206.359010
0
LINE
8
Layer 1
10
245.992980
20
206.359010
11
246.401683
21
206.441522
0
LINE
8
Layer 1
10
246.401683
20
206.441522
11
246.735438
21
206.666542
0
LINE
8
Layer 1
10
246.735438
20
206.666542
11
246.960469
21
207.000293
0
LINE
8
Layer 1
10
246.960469
20
207.000293
11
247.043000
21
207.409000
0
LINE
8
Layer 1
10
247.043000
20
207.409000
11
247.043000
21
207.409000
0
LINE
8
Layer 1
10
254.602000
20
212.617000
11
256.777438
21
214.013026
0
LINE
8
Layer 1
10
256.777438
20
214.013026
11
258.721203
21
215.696987
0
LINE
8
Layer 1
10
258.721203
20
215.696987
11
260.405163
21
217.640761
0
LINE
8
Layer 1
10
260.405163
20
217.640761
11
261.801190
21
219.816220
0
LINE
8
Layer 1
10
247.043000
20
239.425000
11
246.960469
21
239.833701
0
LINE
8
Layer 1
10
246.960469
20
239.833701
11
246.735437
21
240.167453
0
LINE
8
Layer 1
10
246.735437
20
240.167453
11
246.401682
21
240.392476
0
LINE
8
Layer 1
10
246.401682
20
240.392476
11
245.992980
21
240.474990
0
LINE
8
Layer 1
10
245.992980
20
240.474990
11
245.584280
21
240.392476
0
LINE
8
Layer 1
10
245.584280
20
240.392476
11
245.250531
21
240.167455
0
LINE
8
Layer 1
10
245.250531
20
240.167455
11
245.025512
21
239.833703
0
LINE
8
Layer 1
10
245.025512
20
239.833703
11
244.943000
21
239.425000
0
LINE
8
Layer 1
10
244.943000
20
239.425000
11
245.025512
21
239.016295
0
LINE
8
Layer 1
10
245.025512
20
239.016295
11
245.250531
21
238.682543
0
LINE
8
Layer 1
10
245.250531
20
238.682543
11
245.584280
21
238.457523
0
LINE
8
Layer 1
10
245.584280
20
238.457523
11
245.992980
21
238.375010
0
LINE
8
Layer 1
10
245.992980
20
238.375010
11
246.401683
21
238.457522
0
LINE
8
Layer 1
10
246.401683
20
238.457522
11
246.735438
21
238.682542
0
LINE
8
Layer 1
10
246.735438
20
238.682542
11
246.960469
21
239.016293
0
LINE
8
Layer 1
10
246.960469
20
239.016293
11
247.043000
21
239.425000
0
LINE
8
Layer 1
10
247.043000
20
239.425000
11
247.043000
21
239.425000
0
LINE
8
Layer 1
10
247.043000
20
196.925000
11
246.960469
21
197.333702
0
LINE
8
Layer 1
10
246.960469
20
197.333702
11
246.735437
21
197.667453
0
LINE
8
Layer 1
10
246.735437
20
197.667453
11
246.401682
21
197.892476
0
LINE
8
Layer 1
10
246.401682
20
197.892476
11
245.992980
21
197.974990
0
LINE
8
Layer 1
10
245.992980
20
197.974990
11
245.584280
21
197.892476
0
LINE
8
Layer 1
10
245.584280
20
197.892476
11
245.250531
21
197.667455
0
LINE
8
Layer 1
10
245.250531
20
197.667455
11
245.025512
21
197.333703
0
LINE
8
Layer 1
10
245.025512
20
197.333703
11
244.943000
21
196.925000
0
LINE
8
Layer 1
10
244.943000
20
196.925000
11
245.025512
21
196.516294
0
LINE
8
Layer 1
10
245.025512
20
196.516294
11
245.250531
21
196.182542
0
LINE
8
Layer 1
10
245.250531
20
196.182542
11
245.584280
21
195.957523
0
LINE
8
Layer 1
10
245.584280
20
195.957523
11
245.992980
21
195.875010
0
LINE
8
Layer 1
10
245.992980
20
195.875010
11
246.401683
21
195.957523
0
LINE
8
Layer 1
10
246.401683
20
195.957523
11
246.735438
21
196.182542
0
LINE
8
Layer 1
10
246.735438
20
196.182542
11
246.960469
21
196.516294
0
LINE
8
Layer 1
10
246.960469
20
196.516294
11
247.043000
21
196.925000
0
LINE
8
Layer 1
10
247.043000
20
196.925000
11
247.043000
21
196.925000
0
LINE
8
Layer 1
10
237.385000
20
244.233000
11
235.209564
21
242.836973
0
LINE
8
Layer 1
10
235.209564
20
242.836973
11
233.265801
21
241.153009
0
LINE
8
Layer 1
10
233.265801
20
241.153009
11
231.581841
21
239.209235
0
LINE
8
Layer 1
10
231.581841
20
239.209235
11
230.185810
21
237.033780
0
LINE
8
Layer 1
10
256.569000
20
222.925000
11
256.486488
21
223.333701
0
LINE
8
Layer 1
10
256.486488
20
223.333701
11
256.261469
21
223.667453
0
LINE
8
Layer 1
10
256.261469
20
223.667453
11
255.927720
21
223.892476
0
LINE
8
Layer 1
10
255.927720
20
223.892476
11
255.519020
21
223.974990
0
LINE
8
Layer 1
10
255.519020
20
223.974990
11
255.110319
21
223.892476
0
LINE
8
Layer 1
10
255.110319
20
223.892476
11
254.776568
21
223.667455
0
LINE
8
Layer 1
10
254.776568
20
223.667455
11
254.551540
21
223.333703
0
LINE
8
Layer 1
10
254.551540
20
223.333703
11
254.469010
21
222.925000
0
LINE
8
Layer 1
10
254.469010
20
222.925000
11
254.551540
21
222.516295
0
LINE
8
Layer 1
10
254.551540
20
222.516295
11
254.776568
21
222.182543
0
LINE
8
Layer 1
10
254.776568
20
222.182543
11
255.110319
21
221.957523
0
LINE
8
Layer 1
10
255.110319
20
221.957523
11
255.519020
21
221.875010
0
LINE
8
Layer 1
10
255.519020
20
221.875010
11
255.927720
21
221.957522
0
LINE
8
Layer 1
10
255.927720
20
221.957522
11
256.261469
21
222.182542
0
LINE
8
Layer 1
10
256.261469
20
222.182542
11
256.486488
21
222.516293
0
LINE
8
Layer 1
10
256.486488
20
222.516293
11
256.569000
21
222.925000
0
LINE
8
Layer 1
10
256.569000
20
222.925000
11
256.569000
21
222.925000
0
LINE
8
Layer 1
10
239.983000
20
208.541000
11
239.743518
21
209.785872
0
LINE
8
Layer 1
10
239.743518
20
209.785872
11
239.208985
21
210.914060
0
LINE
8
Layer 1
10
239.208985
20
210.914060
11
238.411772
21
211.874780
0
LINE
8
Layer 1
10
238.411772
20
211.874780
11
237.384250
21
212.617250
0
LINE
8
Layer 1
10
256.225000
20
251.235000
11
255.483072
21
251.458210
0
LINE
8
Layer 1
10
255.483072
20
251.458210
11
254.720966
21
251.485006
0
LINE
8
Layer 1
10
254.720966
20
251.485006
11
253.976697
21
251.318907
0
LINE
8
Layer 1
10
253.976697
20
251.318907
11
253.288280
21
250.963431
0
LINE
8
Layer 1
10
253.288280
20
250.963431
11
252.713773
21
250.443592
0
LINE
8
Layer 1
10
252.713773
20
250.443592
11
252.296996
21
249.804983
0
LINE
8
Layer 1
10
252.296996
20
249.804983
11
252.054581
21
249.081963
0
LINE
8
Layer 1
10
252.054581
20
249.081963
11
252.003160
21
248.308891
0
LINE
8
Layer 1
10
206.236000
20
230.819000
11
206.081370
21
230.738800
0
LINE
8
Layer 1
10
206.081370
20
230.738800
11
205.712870
21
230.541011
0
LINE
8
Layer 1
10
205.712870
20
230.541011
11
205.336430
21
230.329192
0
LINE
8
Layer 1
10
205.336430
20
230.329192
11
204.952490
21
230.102932
0
LINE
8
Layer 1
10
204.952490
20
230.102932
11
204.561500
21
229.861813
0
LINE
8
Layer 1
10
204.561500
20
229.861813
11
204.163860
21
229.605534
0
LINE
8
Layer 1
10
204.163860
20
229.605534
11
203.760060
21
229.333686
0
LINE
8
Layer 1
10
203.760060
20
229.333686
11
203.350540
21
229.045907
0
LINE
8
Layer 1
10
203.350540
20
229.045907
11
202.935810
21
228.741888
0
LINE
8
Layer 1
10
202.935810
20
228.741888
11
202.521230
21
228.425119
0
LINE
8
Layer 1
10
279.227000
20
206.473000
11
279.400980
21
206.465000
0
LINE
8
Layer 1
10
279.400980
20
206.465000
11
279.819010
21
206.452000
0
LINE
8
Layer 1
10
279.819010
20
206.452000
11
280.250920
21
206.447000
0
LINE
8
Layer 1
10
280.250920
20
206.447000
11
280.696570
21
206.451000
0
LINE
8
Layer 1
10
280.696570
20
206.451000
11
281.155730
21
206.464200
0
LINE
8
Layer 1
10
281.155730
20
206.464200
11
281.628230
21
206.487500
0
LINE
8
Layer 1
10
281.628230
20
206.487500
11
282.113860
21
206.521000
0
LINE
8
Layer 1
10
282.113860
20
206.521000
11
282.612390
21
206.565500
0
LINE
8
Layer 1
10
282.612390
20
206.565500
11
283.123560
21
206.621400
0
LINE
8
Layer 1
10
283.123560
20
206.621400
11
283.640950
21
206.688400
0
LINE
8
Layer 1
10
285.750000
20
230.819000
11
285.904630
21
230.738800
0
LINE
8
Layer 1
10
285.904630
20
230.738800
11
286.273130
21
230.541011
0
LINE
8
Layer 1
10
286.273130
20
230.541011
11
286.649560
21
230.329192
0
LINE
8
Layer 1
10
286.649560
20
230.329192
11
287.033500
21
230.102932
0
LINE
8
Layer 1
10
287.033500
20
230.102932
11
287.424490
21
229.861813
0
LINE
8
Layer 1
10
287.424490
20
229.861813
11
287.822130
21
229.605534
0
LINE
8
Layer 1
10
287.822130
20
229.605534
11
288.225940
21
229.333686
0
LINE
8
Layer 1
10
288.225940
20
229.333686
11
288.635450
21
229.045907
0
LINE
8
Layer 1
10
288.635450
20
229.045907
11
289.050190
21
228.741888
0
LINE
8
Layer 1
10
289.050190
20
228.741888
11
289.464770
21
228.425119
0
LINE
8
Layer 1
10
281.621000
20
210.620000
11
281.714800
21
210.473271
0
LINE
8
Layer 1
10
281.714800
20
210.473271
11
281.935040
21
210.117712
0
LINE
8
Layer 1
10
281.935040
20
210.117712
11
282.155130
21
209.746034
0
LINE
8
Layer 1
10
282.155130
20
209.746034
11
282.374490
21
209.358105
0
LINE
8
Layer 1
10
282.374490
20
209.358105
11
282.592570
21
208.953807
0
LINE
8
Layer 1
10
282.592570
20
208.953807
11
282.808760
21
208.533029
0
LINE
8
Layer 1
10
282.808760
20
208.533029
11
283.022530
21
208.095690
0
LINE
8
Layer 1
10
283.022530
20
208.095690
11
283.233290
21
207.641712
0
LINE
8
Layer 1
10
283.233290
20
207.641712
11
283.440440
21
207.171064
0
LINE
8
Layer 1
10
283.440440
20
207.171064
11
283.641090
21
206.689446
0
LINE
8
Layer 1
10
206.236000
20
230.819000
11
208.123058
21
232.052351
0
LINE
8
Layer 1
10
208.123058
20
232.052351
11
209.696654
21
233.633205
0
LINE
8
Layer 1
10
209.696654
20
233.633205
11
210.910660
21
235.504437
0
LINE
8
Layer 1
10
210.910660
20
235.504437
11
211.718950
21
237.608920
0
LINE
8
Layer 1
10
211.718950
20
237.608920
11
212.071190
21
239.835575
0
LINE
8
Layer 1
10
212.071190
20
239.835575
11
211.955440
21
242.063102
0
LINE
8
Layer 1
10
211.955440
20
242.063102
11
211.383090
21
244.218956
0
LINE
8
Layer 1
10
211.383090
20
244.218956
11
210.365530
21
246.230590
0
LINE
8
Layer 1
10
267.945000
20
261.659000
11
268.069594
21
259.408102
0
LINE
8
Layer 1
10
268.069594
20
259.408102
11
268.651864
21
257.254907
0
LINE
8
Layer 1
10
268.651864
20
257.254907
11
269.665396
21
255.267940
0
LINE
8
Layer 1
10
269.665396
20
255.267940
11
271.083780
21
253.515720
0
LINE
8
Layer 1
10
271.083780
20
253.515720
11
272.836000
21
252.097319
0
LINE
8
Layer 1
10
272.836000
20
252.097319
11
274.822968
21
251.083787
0
LINE
8
Layer 1
10
274.822968
20
251.083787
11
276.976162
21
250.501524
0
LINE
8
Layer 1
10
276.976162
20
250.501524
11
279.227060
21
250.376930
0
LINE
8
Layer 1
10
279.227000
20
250.377000
11
279.400980
21
250.385000
0
LINE
8
Layer 1
10
279.400980
20
250.385000
11
279.819010
21
250.398000
0
LINE
8
Layer 1
10
279.819010
20
250.398000
11
280.250920
21
250.403000
0
LINE
8
Layer 1
10
280.250920
20
250.403000
11
280.696570
21
250.399000
0
LINE
8
Layer 1
10
280.696570
20
250.399000
11
281.155730
21
250.385800
0
LINE
8
Layer 1
10
281.155730
20
250.385800
11
281.628230
21
250.362500
0
LINE
8
Layer 1
10
281.628230
20
250.362500
11
282.113860
21
250.329000
0
LINE
8
Layer 1
10
282.113860
20
250.329000
11
282.612390
21
250.284500
0
LINE
8
Layer 1
10
282.612390
20
250.284500
11
283.123560
21
250.228600
0
LINE
8
Layer 1
10
283.123560
20
250.228600
11
283.640950
21
250.161600
0
LINE
8
Layer 1
10
212.759000
20
250.377000
11
215.009897
21
250.501594
0
LINE
8
Layer 1
10
215.009897
20
250.501594
11
217.163089
21
251.083856
0
LINE
8
Layer 1
10
217.163089
20
251.083856
11
219.150056
21
252.097388
0
LINE
8
Layer 1
10
219.150056
20
252.097388
11
220.902280
21
253.515790
0
LINE
8
Layer 1
10
220.902280
20
253.515790
11
222.320662
21
255.268010
0
LINE
8
Layer 1
10
222.320662
20
255.268010
11
223.334192
21
257.254977
0
LINE
8
Layer 1
10
223.334192
20
257.254977
11
223.916462
21
259.408172
0
LINE
8
Layer 1
10
223.916462
20
259.408172
11
224.041060
21
261.659070
0
LINE
8
Layer 1
10
279.227000
20
206.473000
11
276.976102
21
206.348406
0
LINE
8
Layer 1
10
276.976102
20
206.348406
11
274.822907
21
205.766144
0
LINE
8
Layer 1
10
274.822907
20
205.766144
11
272.835940
21
204.752612
0
LINE
8
Layer 1
10
272.835940
20
204.752612
11
271.083720
21
203.334210
0
LINE
8
Layer 1
10
271.083720
20
203.334210
11
269.665320
21
201.581990
0
LINE
8
Layer 1
10
269.665320
20
201.581990
11
268.651789
21
199.595023
0
LINE
8
Layer 1
10
268.651789
20
199.595023
11
268.069529
21
197.441828
0
LINE
8
Layer 1
10
268.069529
20
197.441828
11
267.944940
21
195.190930
0
LINE
8
Layer 1
10
248.387000
20
268.182000
11
248.306800
21
268.336639
0
LINE
8
Layer 1
10
248.306800
20
268.336639
11
248.109020
21
268.705138
0
LINE
8
Layer 1
10
248.109020
20
268.705138
11
247.897200
21
269.081597
0
LINE
8
Layer 1
10
247.897200
20
269.081597
11
247.670910
21
269.465505
0
LINE
8
Layer 1
10
247.670910
20
269.465505
11
247.429790
21
269.856523
0
LINE
8
Layer 1
10
247.429790
20
269.856523
11
247.173510
21
270.254142
0
LINE
8
Layer 1
10
247.173510
20
270.254142
11
246.901630
21
270.657950
0
LINE
8
Layer 1
10
246.901630
20
270.657950
11
246.613850
21
271.067429
0
LINE
8
Layer 1
10
246.613850
20
271.067429
11
246.309830
21
271.482157
0
LINE
8
Layer 1
10
246.309830
20
271.482157
11
245.993060
21
271.896705
0
LINE
8
Layer 1
10
243.599000
20
188.668000
11
242.365662
21
190.555045
0
LINE
8
Layer 1
10
242.365662
20
190.555045
11
240.784810
21
192.128640
0
LINE
8
Layer 1
10
240.784810
20
192.128640
11
238.913580
21
193.342648
0
LINE
8
Layer 1
10
238.913580
20
193.342648
11
236.809110
21
194.150930
0
LINE
8
Layer 1
10
236.809110
20
194.150930
11
234.582450
21
194.503170
0
LINE
8
Layer 1
10
234.582450
20
194.503170
11
232.354912
21
194.387420
0
LINE
8
Layer 1
10
232.354912
20
194.387420
11
230.199049
21
193.815070
0
LINE
8
Layer 1
10
230.199049
20
193.815070
11
228.187410
21
192.797510
0
LINE
8
Layer 1
10
210.366000
20
210.620000
11
211.383560
21
212.631634
0
LINE
8
Layer 1
10
211.383560
20
212.631634
11
211.955910
21
214.787487
0
LINE
8
Layer 1
10
211.955910
20
214.787487
11
212.071660
21
217.015015
0
LINE
8
Layer 1
10
212.071660
20
217.015015
11
211.719420
21
219.241670
0
LINE
8
Layer 1
10
211.719420
20
219.241670
11
210.911130
21
221.346153
0
LINE
8
Layer 1
10
210.911130
20
221.346153
11
209.697124
21
223.217385
0
LINE
8
Layer 1
10
209.697124
20
223.217385
11
208.123528
21
224.798239
0
LINE
8
Layer 1
10
208.123528
20
224.798239
11
206.236470
21
226.031590
0
LINE
8
Layer 1
10
210.366000
20
246.231000
11
210.272200
21
246.377729
0
LINE
8
Layer 1
10
210.272200
20
246.377729
11
210.051950
21
246.733258
0
LINE
8
Layer 1
10
210.051950
20
246.733258
11
209.831860
21
247.104956
0
LINE
8
Layer 1
10
209.831860
20
247.104956
11
209.612500
21
247.492895
0
LINE
8
Layer 1
10
209.612500
20
247.492895
11
209.394420
21
247.897193
0
LINE
8
Layer 1
10
209.394420
20
247.897193
11
209.178240
21
248.317971
0
LINE
8
Layer 1
10
209.178240
20
248.317971
11
208.964460
21
248.755310
0
LINE
8
Layer 1
10
208.964460
20
248.755310
11
208.753710
21
249.209288
0
LINE
8
Layer 1
10
208.753710
20
249.209288
11
208.546560
21
249.679926
0
LINE
8
Layer 1
10
208.546560
20
249.679926
11
208.345910
21
250.161524
0
LINE
8
Layer 1
10
263.799000
20
192.798000
11
261.787367
21
193.815560
0
LINE
8
Layer 1
10
261.787367
20
193.815560
11
259.631512
21
194.387910
0
LINE
8
Layer 1
10
259.631512
20
194.387910
11
257.403977
21
194.503660
0
LINE
8
Layer 1
10
257.403977
20
194.503660
11
255.177300
21
194.151420
0
LINE
8
Layer 1
10
255.177300
20
194.151420
11
253.072835
21
193.343138
0
LINE
8
Layer 1
10
253.072835
20
193.343138
11
251.201607
21
192.129131
0
LINE
8
Layer 1
10
251.201607
20
192.129131
11
249.620753
21
190.555539
0
LINE
8
Layer 1
10
249.620753
20
190.555539
11
248.387410
21
188.668500
0
LINE
8
Layer 1
10
281.621000
20
246.231000
11
280.603440
21
244.219366
0
LINE
8
Layer 1
10
280.603440
20
244.219366
11
280.031090
21
242.063513
0
LINE
8
Layer 1
10
280.031090
20
242.063513
11
279.915340
21
239.835985
0
LINE
8
Layer 1
10
279.915340
20
239.835985
11
280.267580
21
237.609330
0
LINE
8
Layer 1
10
280.267580
20
237.609330
11
281.075870
21
235.504847
0
LINE
8
Layer 1
10
281.075870
20
235.504847
11
282.289876
21
233.633615
0
LINE
8
Layer 1
10
282.289876
20
233.633615
11
283.863472
21
232.052761
0
LINE
8
Layer 1
10
283.863472
20
232.052761
11
285.750530
21
230.819410
0
LINE
8
Layer 1
10
224.041000
20
261.659000
11
224.033000
21
261.832979
0
LINE
8
Layer 1
10
224.033000
20
261.832979
11
224.020000
21
262.251008
0
LINE
8
Layer 1
10
224.020000
20
262.251008
11
224.015000
21
262.682886
0
LINE
8
Layer 1
10
224.015000
20
262.682886
11
224.019000
21
263.128534
0
LINE
8
Layer 1
10
224.019000
20
263.128534
11
224.032300
21
263.587702
0
LINE
8
Layer 1
10
224.032300
20
263.587702
11
224.055400
21
264.060201
0
LINE
8
Layer 1
10
224.055400
20
264.060201
11
224.088900
21
264.545829
0
LINE
8
Layer 1
10
224.088900
20
264.545829
11
224.133400
21
265.044357
0
LINE
8
Layer 1
10
224.133400
20
265.044357
11
224.189300
21
265.555525
0
LINE
8
Layer 1
10
224.189300
20
265.555525
11
224.256300
21
266.072923
0
LINE
8
Layer 1
10
228.188000
20
264.053000
11
230.199621
21
263.035440
0
LINE
8
Layer 1
10
230.199621
20
263.035440
11
232.355476
21
262.463090
0
LINE
8
Layer 1
10
232.355476
20
262.463090
11
234.583010
21
262.347340
0
LINE
8
Layer 1
10
234.583010
20
262.347340
11
236.809670
21
262.699580
0
LINE
8
Layer 1
10
236.809670
20
262.699580
11
238.914153
21
263.507859
0
LINE
8
Layer 1
10
238.914153
20
263.507859
11
240.785385
21
264.721864
0
LINE
8
Layer 1
10
240.785385
20
264.721864
11
242.366239
21
266.295456
0
LINE
8
Layer 1
10
242.366239
20
266.295456
11
243.599590
21
268.182500
0
LINE
8
Layer 1
10
263.799000
20
192.798000
11
263.945730
21
192.704200
0
LINE
8
Layer 1
10
263.945730
20
192.704200
11
264.301260
21
192.483950
0
LINE
8
Layer 1
10
264.301260
20
192.483950
11
264.672930
21
192.263860
0
LINE
8
Layer 1
10
264.672930
20
192.263860
11
265.060870
21
192.044500
0
LINE
8
Layer 1
10
265.060870
20
192.044500
11
265.465170
21
191.826420
0
LINE
8
Layer 1
10
265.465170
20
191.826420
11
265.885940
21
191.610240
0
LINE
8
Layer 1
10
265.885940
20
191.610240
11
266.323280
21
191.396460
0
LINE
8
Layer 1
10
266.323280
20
191.396460
11
266.777260
21
191.185710
0
LINE
8
Layer 1
10
266.777260
20
191.185710
11
267.247900
21
190.978520
0
LINE
8
Layer 1
10
267.247900
20
190.978520
11
267.729500
21
190.777880
0
LINE
8
Layer 1
10
224.041000
20
195.191000
11
224.033000
21
195.017020
0
LINE
8
Layer 1
10
224.033000
20
195.017020
11
224.020000
21
194.598990
0
LINE
8
Layer 1
10
224.020000
20
194.598990
11
224.015000
21
194.167110
0
LINE
8
Layer 1
10
224.015000
20
194.167110
11
224.019000
21
193.721460
0
LINE
8
Layer 1
10
224.019000
20
193.721460
11
224.032300
21
193.262300
0
LINE
8
Layer 1
10
224.032300
20
193.262300
11
224.055400
21
192.789800
0
LINE
8
Layer 1
10
224.055400
20
192.789800
11
224.088900
21
192.304170
0
LINE
8
Layer 1
10
224.088900
20
192.304170
11
224.133400
21
191.805630
0
LINE
8
Layer 1
10
224.133400
20
191.805630
11
224.189300
21
191.294470
0
LINE
8
Layer 1
10
224.189300
20
191.294470
11
224.256300
21
190.777050
0
LINE
8
Layer 1
10
267.945000
20
261.659000
11
267.953000
21
261.832979
0
LINE
8
Layer 1
10
267.953000
20
261.832979
11
267.966000
21
262.251008
0
LINE
8
Layer 1
10
267.966000
20
262.251008
11
267.971000
21
262.682886
0
LINE
8
Layer 1
10
267.971000
20
262.682886
11
267.967000
21
263.128534
0
LINE
8
Layer 1
10
267.967000
20
263.128534
11
267.953700
21
263.587702
0
LINE
8
Layer 1
10
267.953700
20
263.587702
11
267.930600
21
264.060201
0
LINE
8
Layer 1
10
267.930600
20
264.060201
11
267.897100
21
264.545829
0
LINE
8
Layer 1
10
267.897100
20
264.545829
11
267.852600
21
265.044357
0
LINE
8
Layer 1
10
267.852600
20
265.044357
11
267.796700
21
265.555525
0
LINE
8
Layer 1
10
267.796700
20
265.555525
11
267.729700
21
266.072923
0
LINE
8
Layer 1
10
285.750000
20
226.031000
11
285.904630
21
226.111200
0
LINE
8
Layer 1
10
285.904630
20
226.111200
11
286.273130
21
226.308980
0
LINE
8
Layer 1
10
286.273130
20
226.308980
11
286.649560
21
226.520809
0
LINE
8
Layer 1
10
286.649560
20
226.520809
11
287.033500
21
226.747058
0
LINE
8
Layer 1
10
287.033500
20
226.747058
11
287.424490
21
226.988177
0
LINE
8
Layer 1
10
287.424490
20
226.988177
11
287.822130
21
227.244466
0
LINE
8
Layer 1
10
287.822130
20
227.244466
11
288.225940
21
227.516315
0
LINE
8
Layer 1
10
288.225940
20
227.516315
11
288.635450
21
227.804094
0
LINE
8
Layer 1
10
288.635450
20
227.804094
11
289.050190
21
228.108112
0
LINE
8
Layer 1
10
289.050190
20
228.108112
11
289.464770
21
228.424881
0
LINE
8
Layer 1
10
206.236000
20
226.031000
11
206.081370
21
226.111200
0
LINE
8
Layer 1
10
206.081370
20
226.111200
11
205.712870
21
226.308980
0
LINE
8
Layer 1
10
205.712870
20
226.308980
11
205.336430
21
226.520809
0
LINE
8
Layer 1
10
205.336430
20
226.520809
11
204.952490
21
226.747058
0
LINE
8
Layer 1
10
204.952490
20
226.747058
11
204.561500
21
226.988177
0
LINE
8
Layer 1
10
204.561500
20
226.988177
11
204.163860
21
227.244466
0
LINE
8
Layer 1
10
204.163860
20
227.244466
11
203.760060
21
227.516315
0
LINE
8
Layer 1
10
203.760060
20
227.516315
11
203.350540
21
227.804094
0
LINE
8
Layer 1
10
203.350540
20
227.804094
11
202.935810
21
228.108112
0
LINE
8
Layer 1
10
202.935810
20
228.108112
11
202.521230
21
228.424881
0
LINE
8
Layer 1
10
243.599000
20
268.182000
11
243.679200
21
268.336639
0
LINE
8
Layer 1
10
243.679200
20
268.336639
11
243.876990
21
268.705138
0
LINE
8
Layer 1
10
243.876990
20
268.705138
11
244.088810
21
269.081597
0
LINE
8
Layer 1
10
244.088810
20
269.081597
11
244.315090
21
269.465505
0
LINE
8
Layer 1
10
244.315090
20
269.465505
11
244.556210
21
269.856523
0
LINE
8
Layer 1
10
244.556210
20
269.856523
11
244.812500
21
270.254142
0
LINE
8
Layer 1
10
244.812500
20
270.254142
11
245.084380
21
270.657950
0
LINE
8
Layer 1
10
245.084380
20
270.657950
11
245.372160
21
271.067429
0
LINE
8
Layer 1
10
245.372160
20
271.067429
11
245.676170
21
271.482157
0
LINE
8
Layer 1
10
245.676170
20
271.482157
11
245.992940
21
271.896705
0
LINE
8
Layer 1
10
228.188000
20
192.798000
11
228.041270
21
192.704200
0
LINE
8
Layer 1
10
228.041270
20
192.704200
11
227.685750
21
192.483950
0
LINE
8
Layer 1
10
227.685750
20
192.483950
11
227.314070
21
192.263860
0
LINE
8
Layer 1
10
227.314070
20
192.263860
11
226.926140
21
192.044500
0
LINE
8
Layer 1
10
226.926140
20
192.044500
11
226.521840
21
191.826420
0
LINE
8
Layer 1
10
226.521840
20
191.826420
11
226.101070
21
191.610240
0
LINE
8
Layer 1
10
226.101070
20
191.610240
11
225.663720
21
191.396460
0
LINE
8
Layer 1
10
225.663720
20
191.396460
11
225.209770
21
191.185710
0
LINE
8
Layer 1
10
225.209770
20
191.185710
11
224.739130
21
190.978520
0
LINE
8
Layer 1
10
224.739130
20
190.978520
11
224.257540
21
190.777880
0
LINE
8
Layer 1
10
243.599000
20
188.668000
11
243.679200
21
188.513370
0
LINE
8
Layer 1
10
243.679200
20
188.513370
11
243.876990
21
188.144880
0
LINE
8
Layer 1
10
243.876990
20
188.144880
11
244.088810
21
187.768420
0
LINE
8
Layer 1
10
244.088810
20
187.768420
11
244.315090
21
187.384480
0
LINE
8
Layer 1
10
244.315090
20
187.384480
11
244.556210
21
186.993480
0
LINE
8
Layer 1
10
244.556210
20
186.993480
11
244.812500
21
186.595870
0
LINE
8
Layer 1
10
244.812500
20
186.595870
11
245.084380
21
186.192060
0
LINE
8
Layer 1
10
245.084380
20
186.192060
11
245.372160
21
185.782590
0
LINE
8
Layer 1
10
245.372160
20
185.782590
11
245.676170
21
185.367850
0
LINE
8
Layer 1
10
245.676170
20
185.367850
11
245.992940
21
184.953270
0
LINE
8
Layer 1
10
281.621000
20
246.231000
11
281.714800
21
246.377729
0
LINE
8
Layer 1
10
281.714800
20
246.377729
11
281.935040
21
246.733258
0
LINE
8
Layer 1
10
281.935040
20
246.733258
11
282.155130
21
247.104956
0
LINE
8
Layer 1
10
282.155130
20
247.104956
11
282.374490
21
247.492895
0
LINE
8
Layer 1
10
282.374490
20
247.492895
11
282.592570
21
247.897193
0
LINE
8
Layer 1
10
282.592570
20
247.897193
11
282.808760
21
248.317971
0
LINE
8
Layer 1
10
282.808760
20
248.317971
11
283.022530
21
248.755310
0
LINE
8
Layer 1
10
283.022530
20
248.755310
11
283.233290
21
249.209288
0
LINE
8
Layer 1
10
283.233290
20
249.209288
11
283.440440
21
249.679926
0
LINE
8
Layer 1
10
283.440440
20
249.679926
11
283.641090
21
250.161524
0
LINE
8
Layer 1
10
228.188000
20
264.053000
11
228.041270
21
264.146800
0
LINE
8
Layer 1
10
228.041270
20
264.146800
11
227.685750
21
264.367039
0
LINE
8
Layer 1
10
227.685750
20
264.367039
11
227.314070
21
264.587138
0
LINE
8
Layer 1
10
227.314070
20
264.587138
11
226.926140
21
264.806498
0
LINE
8
Layer 1
10
226.926140
20
264.806498
11
226.521840
21
265.024567
0
LINE
8
Layer 1
10
226.521840
20
265.024567
11
226.101070
21
265.240756
0
LINE
8
Layer 1
10
226.101070
20
265.240756
11
225.663720
21
265.454535
0
LINE
8
Layer 1
10
225.663720
20
265.454535
11
225.209770
21
265.665284
0
LINE
8
Layer 1
10
225.209770
20
265.665284
11
224.739130
21
265.872473
0
LINE
8
Layer 1
10
224.739130
20
265.872473
11
224.257540
21
266.073123
0
LINE
8
Layer 1
10
224.041000
20
195.191000
11
223.916402
21
197.441897
0
LINE
8
Layer 1
10
223.916402
20
197.441897
11
223.334133
21
199.595089
0
LINE
8
Layer 1
10
223.334133
20
199.595089
11
222.320602
21
201.582056
0
LINE
8
Layer 1
10
222.320602
20
201.582056
11
220.902220
21
203.334280
0
LINE
8
Layer 1
10
220.902220
20
203.334280
11
219.149996
21
204.752681
0
LINE
8
Layer 1
10
219.149996
20
204.752681
11
217.163029
21
205.766213
0
LINE
8
Layer 1
10
217.163029
20
205.766213
11
215.009837
21
206.348476
0
LINE
8
Layer 1
10
215.009837
20
206.348476
11
212.758940
21
206.473070
0
LINE
8
Layer 1
10
267.945000
20
195.191000
11
267.953000
21
195.017020
0
LINE
8
Layer 1
10
267.953000
20
195.017020
11
267.966000
21
194.598990
0
LINE
8
Layer 1
10
267.966000
20
194.598990
11
267.971000
21
194.167110
0
LINE
8
Layer 1
10
267.971000
20
194.167110
11
267.967000
21
193.721460
0
LINE
8
Layer 1
10
267.967000
20
193.721460
11
267.953700
21
193.262300
0
LINE
8
Layer 1
10
267.953700
20
193.262300
11
267.930600
21
192.789800
0
LINE
8
Layer 1
10
267.930600
20
192.789800
11
267.897100
21
192.304170
0
LINE
8
Layer 1
10
267.897100
20
192.304170
11
267.852600
21
191.805630
0
LINE
8
Layer 1
10
267.852600
20
191.805630
11
267.796700
21
191.294470
0
LINE
8
Layer 1
10
267.796700
20
191.294470
11
267.729700
21
190.777050
0
LINE
8
Layer 1
10
212.759000
20
206.473000
11
212.585020
21
206.465000
0
LINE
8
Layer 1
10
212.585020
20
206.465000
11
212.166990
21
206.452000
0
LINE
8
Layer 1
10
212.166990
20
206.452000
11
211.735080
21
206.447000
0
LINE
8
Layer 1
10
211.735080
20
206.447000
11
211.289430
21
206.451000
0
LINE
8
Layer 1
10
211.289430
20
206.451000
11
210.830260
21
206.464200
0
LINE
8
Layer 1
10
210.830260
20
206.464200
11
210.357760
21
206.487500
0
LINE
8
Layer 1
10
210.357760
20
206.487500
11
209.872140
21
206.521000
0
LINE
8
Layer 1
10
209.872140
20
206.521000
11
209.373610
21
206.565500
0
LINE
8
Layer 1
10
209.373610
20
206.565500
11
208.862440
21
206.621400
0
LINE
8
Layer 1
10
208.862440
20
206.621400
11
208.345040
21
206.688400
0
LINE
8
Layer 1
10
285.750000
20
226.031000
11
283.862942
21
224.797644
0
LINE
8
Layer 1
10
283.862942
20
224.797644
11
282.289346
21
223.216791
0
LINE
8
Layer 1
10
282.289346
20
223.216791
11
281.075340
21
221.345570
0
LINE
8
Layer 1
10
281.075340
20
221.345570
11
280.267050
21
219.241110
0
LINE
8
Layer 1
10
280.267050
20
219.241110
11
279.914810
21
217.014437
0
LINE
8
Layer 1
10
279.914810
20
217.014437
11
280.030560
21
214.786901
0
LINE
8
Layer 1
10
280.030560
20
214.786901
11
280.602910
21
212.631045
0
LINE
8
Layer 1
10
280.602910
20
212.631045
11
281.620470
21
210.619410
0
LINE
8
Layer 1
10
263.799000
20
264.053000
11
263.945730
21
264.146800
0
LINE
8
Layer 1
10
263.945730
20
264.146800
11
264.301260
21
264.367039
0
LINE
8
Layer 1
10
264.301260
20
264.367039
11
264.672930
21
264.587138
0
LINE
8
Layer 1
10
264.672930
20
264.587138
11
265.060870
21
264.806498
0
LINE
8
Layer 1
10
265.060870
20
264.806498
11
265.465170
21
265.024567
0
LINE
8
Layer 1
10
265.465170
20
265.024567
11
265.885940
21
265.240756
0
LINE
8
Layer 1
10
265.885940
20
265.240756
11
266.323280
21
265.454535
0
LINE
8
Layer 1
10
266.323280
20
265.454535
11
266.777260
21
265.665284
0
LINE
8
Layer 1
10
266.777260
20
265.665284
11
267.247900
21
265.872473
0
LINE
8
Layer 1
10
267.247900
20
265.872473
11
267.729500
21
266.073123
0
LINE
8
Layer 1
10
248.387000
20
188.668000
11
248.306800
21
188.513370
0
LINE
8
Layer 1
10
248.306800
20
188.513370
11
248.109020
21
188.144880
0
LINE
8
Layer 1
10
248.109020
20
188.144880
11
247.897200
21
187.768420
0
LINE
8
Layer 1
10
247.897200
20
187.768420
11
247.670910
21
187.384480
0
LINE
8
Layer 1
10
247.670910
20
187.384480
11
247.429790
21
186.993480
0
LINE
8
Layer 1
10
247.429790
20
186.993480
11
247.173510
21
186.595870
0
LINE
8
Layer 1
10
247.173510
20
186.595870
11
246.901630
21
186.192060
0
LINE
8
Layer 1
10
246.901630
20
186.192060
11
246.613850
21
185.782590
0
LINE
8
Layer 1
10
246.613850
20
185.782590
11
246.309830
21
185.367850
0
LINE
8
Layer 1
10
246.309830
20
185.367850
11
245.993060
21
184.953270
0
LINE
8
Layer 1
10
248.387000
20
268.182000
11
249.620343
21
266.294957
0
LINE
8
Layer 1
10
249.620343
20
266.294957
11
251.201197
21
264.721365
0
LINE
8
Layer 1
10
251.201197
20
264.721365
11
253.072425
21
263.507361
0
LINE
8
Layer 1
10
253.072425
20
263.507361
11
255.176890
21
262.699080
0
LINE
8
Layer 1
10
255.176890
20
262.699080
11
257.403567
21
262.346841
0
LINE
8
Layer 1
10
257.403567
20
262.346841
11
259.631102
21
262.462592
0
LINE
8
Layer 1
10
259.631102
20
262.462592
11
261.786957
21
263.034941
0
LINE
8
Layer 1
10
261.786957
20
263.034941
11
263.798590
21
264.052500
0
LINE
8
Layer 1
10
210.366000
20
210.620000
11
210.272200
21
210.473271
0
LINE
8
Layer 1
10
210.272200
20
210.473271
11
210.051950
21
210.117712
0
LINE
8
Layer 1
10
210.051950
20
210.117712
11
209.831860
21
209.746034
0
LINE
8
Layer 1
10
209.831860
20
209.746034
11
209.612500
21
209.358105
0
LINE
8
Layer 1
10
209.612500
20
209.358105
11
209.394420
21
208.953807
0
LINE
8
Layer 1
10
209.394420
20
208.953807
11
209.178240
21
208.533029
0
LINE
8
Layer 1
10
209.178240
20
208.533029
11
208.964460
21
208.095690
0
LINE
8
Layer 1
10
208.964460
20
208.095690
11
208.753710
21
207.641712
0
LINE
8
Layer 1
10
208.753710
20
207.641712
11
208.546560
21
207.171064
0
LINE
8
Layer 1
10
208.546560
20
207.171064
11
208.345910
21
206.689446
0
LINE
8
Layer 1
10
212.759000
20
250.377000
11
212.585020
21
250.385000
0
LINE
8
Layer 1
10
212.585020
20
250.385000
11
212.166990
21
250.398000
0
LINE
8
Layer 1
10
212.166990
20
250.398000
11
211.735080
21
250.403000
0
LINE
8
Layer 1
10
211.735080
20
250.403000
11
211.289430
21
250.399000
0
LINE
8
Layer 1
10
211.289430
20
250.399000
11
210.830260
21
250.385800
0
LINE
8
Layer 1
10
210.830260
20
250.385800
11
210.357760
21
250.362500
0
LINE
8
Layer 1
10
210.357760
20
250.362500
11
209.872140
21
250.329000
0
LINE
8
Layer 1
10
209.872140
20
250.329000
11
209.373610
21
250.284500
0
LINE
8
Layer 1
10
209.373610
20
250.284500
11
208.862440
21
250.228600
0
LINE
8
Layer 1
10
208.862440
20
250.228600
11
208.345040
21
250.161600
0
LINE
8
Layer 1
10
235.761000
20
205.615000
11
236.502928
21
205.391790
0
LINE
8
Layer 1
10
236.502928
20
205.391790
11
237.265035
21
205.364994
0
LINE
8
Layer 1
10
237.265035
20
205.364994
11
238.009307
21
205.531093
0
LINE
8
Layer 1
10
238.009307
20
205.531093
11
238.697730
21
205.886569
0
LINE
8
Layer 1
10
238.697730
20
205.886569
11
239.272233
21
206.406406
0
LINE
8
Layer 1
10
239.272233
20
206.406406
11
239.689010
21
207.045012
0
LINE
8
Layer 1
10
239.689010
20
207.045012
11
239.931428
21
207.768029
0
LINE
8
Layer 1
10
239.931428
20
207.768029
11
239.982850
21
208.541099
0
LINE
8
Layer 1
10
226.109000
20
222.415000
11
225.335928
21
222.363595
0
LINE
8
Layer 1
10
225.335928
20
222.363595
11
224.612910
21
222.121176
0
LINE
8
Layer 1
10
224.612910
20
222.121176
11
223.974304
21
221.704389
0
LINE
8
Layer 1
10
223.974304
20
221.704389
11
223.454470
21
221.129880
0
LINE
8
Layer 1
10
223.454470
20
221.129880
11
223.098992
21
220.441464
0
LINE
8
Layer 1
10
223.098992
20
220.441464
11
222.932891
21
219.697195
0
LINE
8
Layer 1
10
222.932891
20
219.697195
11
222.959685
21
218.935089
0
LINE
8
Layer 1
10
222.959685
20
218.935089
11
223.182890
21
218.193160
0
LINE
8
Layer 1
10
249.968000
20
228.425000
11
249.885672
21
229.224772
0
LINE
8
Layer 1
10
249.885672
20
229.224772
11
249.653055
21
229.969503
0
LINE
8
Layer 1
10
249.653055
20
229.969503
11
248.800649
21
231.230231
0
LINE
8
Layer 1
10
248.800649
20
231.230231
11
247.538179
21
232.079969
0
LINE
8
Layer 1
10
247.538179
20
232.079969
11
246.792981
21
232.310961
0
LINE
8
Layer 1
10
246.792981
20
232.310961
11
245.993040
21
232.391500
0
LINE
8
Layer 1
10
245.993040
20
232.391500
11
245.193087
21
232.310972
0
LINE
8
Layer 1
10
245.193087
20
232.310972
11
244.447855
21
232.079990
0
LINE
8
Layer 1
10
244.447855
20
232.079990
11
243.185296
21
231.230265
0
LINE
8
Layer 1
10
243.185296
20
231.230265
11
242.332862
21
229.969533
0
LINE
8
Layer 1
10
242.332862
20
229.969533
11
242.100285
21
229.224791
0
LINE
8
Layer 1
10
242.100285
20
229.224791
11
242.018050
21
228.425000
0
LINE
8
Layer 1
10
242.018050
20
228.425000
11
242.100377
21
227.625228
0
LINE
8
Layer 1
10
242.100377
20
227.625228
11
242.332991
21
226.880497
0
LINE
8
Layer 1
10
242.332991
20
226.880497
11
243.185386
21
225.619769
0
LINE
8
Layer 1
10
243.185386
20
225.619769
11
244.447846
21
224.770031
0
LINE
8
Layer 1
10
244.447846
20
224.770031
11
245.193041
21
224.539039
0
LINE
8
Layer 1
10
245.193041
20
224.539039
11
245.992980
21
224.458500
0
LINE
8
Layer 1
10
245.992980
20
224.458500
11
246.792935
21
224.539028
0
LINE
8
Layer 1
10
246.792935
20
224.539028
11
247.538170
21
224.770010
0
LINE
8
Layer 1
10
247.538170
20
224.770010
11
248.800731
21
225.619735
0
LINE
8
Layer 1
10
248.800731
20
225.619735
11
249.653172
21
226.880468
0
LINE
8
Layer 1
10
249.653172
20
226.880468
11
249.885756
21
227.625209
0
LINE
8
Layer 1
10
249.885756
20
227.625209
11
249.968000
21
228.425000
0
LINE
8
Layer 1
10
249.968000
20
228.425000
11
249.968000
21
228.425000
0
LINE
8
Layer 1
10
226.109000
20
234.435000
11
227.353871
21
234.674477
0
LINE
8
Layer 1
10
227.353871
20
234.674477
11
228.482055
21
235.209010
0
LINE
8
Layer 1
10
228.482055
20
235.209010
11
229.442772
21
236.006223
0
LINE
8
Layer 1
10
229.442772
20
236.006223
11
230.185240
21
237.033740
0
LINE
8
Layer 1
10
237.385000
20
244.233000
11
238.412522
21
244.975472
0
LINE
8
Layer 1
10
238.412522
20
244.975472
11
239.209735
21
245.936191
0
LINE
8
Layer 1
10
239.209735
20
245.936191
11
239.744268
21
247.064374
0
LINE
8
Layer 1
10
239.744268
20
247.064374
11
239.983750
21
248.309240
0
LINE
8
Layer 1
10
274.323000
20
244.175000
11
274.240470
21
244.583701
0
LINE
8
Layer 1
10
274.240470
20
244.583701
11
274.015443
21
244.917453
0
LINE
8
Layer 1
10
274.015443
20
244.917453
11
273.681691
21
245.142476
0
LINE
8
Layer 1
10
273.681691
20
245.142476
11
273.272990
21
245.224990
0
LINE
8
Layer 1
10
273.272990
20
245.224990
11
272.864290
21
245.142476
0
LINE
8
Layer 1
10
272.864290
20
245.142476
11
272.530541
21
244.917455
0
LINE
8
Layer 1
10
272.530541
20
244.917455
11
272.305522
21
244.583703
0
LINE
8
Layer 1
10
272.305522
20
244.583703
11
272.223010
21
244.175000
0
LINE
8
Layer 1
10
272.223010
20
244.175000
11
272.305522
21
243.766295
0
LINE
8
Layer 1
10
272.305522
20
243.766295
11
272.530541
21
243.432543
0
LINE
8
Layer 1
10
272.530541
20
243.432543
11
272.864290
21
243.207523
0
LINE
8
Layer 1
10
272.864290
20
243.207523
11
273.272990
21
243.125010
0
LINE
8
Layer 1
10
273.272990
20
243.125010
11
273.681691
21
243.207522
0
LINE
8
Layer 1
10
273.681691
20
243.207522
11
274.015443
21
243.432542
0
LINE
8
Layer 1
10
274.015443
20
243.432542
11
274.240470
21
243.766293
0
LINE
8
Layer 1
10
274.240470
20
243.766293
11
274.323000
21
244.175000
0
LINE
8
Layer 1
10
274.323000
20
244.175000
11
274.323000
21
244.175000
0
LINE
8
Layer 1
10
265.877000
20
234.435000
11
266.650067
21
234.486404
0
LINE
8
Layer 1
10
266.650067
20
234.486404
11
267.373086
21
234.728819
0
LINE
8
Layer 1
10
267.373086
20
234.728819
11
268.011695
21
235.145603
0
LINE
8
Layer 1
10
268.011695
20
235.145603
11
268.531530
21
235.720110
0
LINE
8
Layer 1
10
268.531530
20
235.720110
11
268.887008
21
236.408532
0
LINE
8
Layer 1
10
268.887008
20
236.408532
11
269.053109
21
237.152804
0
LINE
8
Layer 1
10
269.053109
20
237.152804
11
269.026315
21
237.914911
0
LINE
8
Layer 1
10
269.026315
20
237.914911
11
268.803110
21
238.656840
0
LINE
8
Layer 1
10
219.763000
20
244.175000
11
219.680470
21
244.583701
0
LINE
8
Layer 1
10
219.680470
20
244.583701
11
219.455443
21
244.917453
0
LINE
8
Layer 1
10
219.455443
20
244.917453
11
219.121691
21
245.142476
0
LINE
8
Layer 1
10
219.121691
20
245.142476
11
218.712990
21
245.224990
0
LINE
8
Layer 1
10
218.712990
20
245.224990
11
218.304284
21
245.142476
0
LINE
8
Layer 1
10
218.304284
20
245.142476
11
217.970533
21
244.917455
0
LINE
8
Layer 1
10
217.970533
20
244.917455
11
217.745513
21
244.583703
0
LINE
8
Layer 1
10
217.745513
20
244.583703
11
217.663000
21
244.175000
0
LINE
8
Layer 1
10
217.663000
20
244.175000
11
217.745513
21
243.766295
0
LINE
8
Layer 1
10
217.745513
20
243.766295
11
217.970533
21
243.432543
0
LINE
8
Layer 1
10
217.970533
20
243.432543
11
218.304284
21
243.207523
0
LINE
8
Layer 1
10
218.304284
20
243.207523
11
218.712990
21
243.125010
0
LINE
8
Layer 1
10
218.712990
20
243.125010
11
219.121691
21
243.207522
0
LINE
8
Layer 1
10
219.121691
20
243.207522
11
219.455443
21
243.432542
0
LINE
8
Layer 1
10
219.455443
20
243.432542
11
219.680470
21
243.766293
0
LINE
8
Layer 1
10
219.680470
20
243.766293
11
219.763000
21
244.175000
0
LINE
8
Layer 1
10
219.763000
20
244.175000
11
219.763000
21
244.175000
0
LINE
8
Layer 1
10
274.323000
20
212.675000
11
274.240470
21
213.083701
0
LINE
8
Layer 1
10
274.240470
20
213.083701
11
274.015443
21
213.417453
0
LINE
8
Layer 1
10
274.015443
20
213.417453
11
273.681691
21
213.642476
0
LINE
8
Layer 1
10
273.681691
20
213.642476
11
273.272990
21
213.724990
0
LINE
8
Layer 1
10
273.272990
20
213.724990
11
272.864290
21
213.642476
0
LINE
8
Layer 1
10
272.864290
20
213.642476
11
272.530541
21
213.417455
0
LINE
8
Layer 1
10
272.530541
20
213.417455
11
272.305522
21
213.083703
0
LINE
8
Layer 1
10
272.305522
20
213.083703
11
272.223010
21
212.675000
0
LINE
8
Layer 1
10
272.223010
20
212.675000
11
272.305522
21
212.266295
0
LINE
8
Layer 1
10
272.305522
20
212.266295
11
272.530541
21
211.932543
0
LINE
8
Layer 1
10
272.530541
20
211.932543
11
272.864290
21
211.707523
0
LINE
8
Layer 1
10
272.864290
20
211.707523
11
273.272990
21
211.625010
0
LINE
8
Layer 1
10
273.272990
20
211.625010
11
273.681691
21
211.707522
0
LINE
8
Layer 1
10
273.681691
20
211.707522
11
274.015443
21
211.932542
0
LINE
8
Layer 1
10
274.015443
20
211.932542
11
274.240470
21
212.266293
0
LINE
8
Layer 1
10
274.240470
20
212.266293
11
274.323000
21
212.675000
0
LINE
8
Layer 1
10
274.323000
20
212.675000
11
274.323000
21
212.675000
0
LINE
8
Layer 1
10
261.801000
20
237.034000
11
262.543474
21
236.006483
0
LINE
8
Layer 1
10
262.543474
20
236.006483
11
263.504194
21
235.209270
0
LINE
8
Layer 1
10
263.504194
20
235.209270
11
264.632379
21
234.674737
0
LINE
8
Layer 1
10
264.632379
20
234.674737
11
265.877250
21
234.435260
0
LINE
8
Layer 1
10
252.003000
20
248.309000
11
252.242476
21
247.064133
0
LINE
8
Layer 1
10
252.242476
20
247.064133
11
252.777006
21
245.935949
0
LINE
8
Layer 1
10
252.777006
20
245.935949
11
253.574219
21
244.975230
0
LINE
8
Layer 1
10
253.574219
20
244.975230
11
254.601740
21
244.232760
0
LINE
8
Layer 1
10
265.877000
20
222.415000
11
264.632129
21
222.175525
0
LINE
8
Layer 1
10
264.632129
20
222.175525
11
263.503944
21
221.640994
0
LINE
8
Layer 1
10
263.503944
20
221.640994
11
262.543224
21
220.843782
0
LINE
8
Layer 1
10
262.543224
20
220.843782
11
261.800750
21
219.816260
0
LINE
8
Layer 1
10
219.763000
20
212.675000
11
219.680470
21
213.083701
0
LINE
8
Layer 1
10
219.680470
20
213.083701
11
219.455443
21
213.417453
0
LINE
8
Layer 1
10
219.455443
20
213.417453
11
219.121691
21
213.642476
0
LINE
8
Layer 1
10
219.121691
20
213.642476
11
218.712990
21
213.724990
0
LINE
8
Layer 1
10
218.712990
20
213.724990
11
218.304284
21
213.642476
0
LINE
8
Layer 1
10
218.304284
20
213.642476
11
217.970533
21
213.417455
0
LINE
8
Layer 1
10
217.970533
20
213.417455
11
217.745513
21
213.083703
0
LINE
8
Layer 1
10
217.745513
20
213.083703
11
217.663000
21
212.675000
0
LINE
8
Layer 1
10
217.663000
20
212.675000
11
217.745513
21
212.266295
0
LINE
8
Layer 1
10
217.745513
20
212.266295
11
217.970533
21
211.932543
0
LINE
8
Layer 1
10
217.970533
20
211.932543
11
218.304284
21
211.707523
0
LINE
8
Layer 1
10
218.304284
20
211.707523
11
218.712990
21
211.625010
0
LINE
8
Layer 1
10
218.712990
20
211.625010
11
219.121691
21
211.707522
0
LINE
8
Layer 1
10
219.121691
20
211.707522
11
219.455443
21
211.932542
0
LINE
8
Layer 1
10
219.455443
20
211.932542
11
219.680470
21
212.266293
0
LINE
8
Layer 1
10
219.680470
20
212.266293
11
219.763000
21
212.675000
0
LINE
8
Layer 1
10
219.763000
20
212.675000
11
219.763000
21
212.675000
0
LINE
8
Layer 1
10
237.517000
20
222.925000
11
237.434488
21
223.333701
0
LINE
8
Layer 1
10
237.434488
20
223.333701
11
237.209469
21
223.667453
0
LINE
8
Layer 1
10
237.209469
20
223.667453
11
236.875720
21
223.892476
0
LINE
8
Layer 1
10
236.875720
20
223.892476
11
236.467020
21
223.974990
0
LINE
8
Layer 1
10
236.467020
20
223.974990
11
236.058313
21
223.892476
0
LINE
8
Layer 1
10
236.058313
20
223.892476
11
235.724559
21
223.667455
0
LINE
8
Layer 1
10
235.724559
20
223.667455
11
235.499530
21
223.333703
0
LINE
8
Layer 1
10
235.499530
20
223.333703
11
235.417000
21
222.925000
0
LINE
8
Layer 1
10
235.417000
20
222.925000
11
235.499530
21
222.516295
0
LINE
8
Layer 1
10
235.499530
20
222.516295
11
235.724559
21
222.182543
0
LINE
8
Layer 1
10
235.724559
20
222.182543
11
236.058313
21
221.957523
0
LINE
8
Layer 1
10
236.058313
20
221.957523
11
236.467020
21
221.875010
0
LINE
8
Layer 1
10
236.467020
20
221.875010
11
236.875720
21
221.957522
0
LINE
8
Layer 1
10
236.875720
20
221.957522
11
237.209469
21
222.182542
0
LINE
8
Layer 1
10
237.209469
20
222.182542
11
237.434488
21
222.516293
0
LINE
8
Layer 1
10
237.434488
20
222.516293
11
237.517000
21
222.925000
0
LINE
8
Layer 1
10
237.517000
20
222.925000
11
237.517000
21
222.925000
0
LINE
8
Layer 1
10
226.027000
20
228.425000
11
225.944470
21
228.833701
0
LINE
8
Layer 1
10
225.944470
20
228.833701
11
225.719442
21
229.167453
0
LINE
8
Layer 1
10
225.719442
20
229.167453
11
225.385691
21
229.392476
0
LINE
8
Layer 1
10
225.385691
20
229.392476
11
224.976990
21
229.474990
0
LINE
8
Layer 1
10
224.976990
20
229.474990
11
224.568284
21
229.392476
0
LINE
8
Layer 1
10
224.568284
20
229.392476
11
224.234532
21
229.167455
0
LINE
8
Layer 1
10
224.234532
20
229.167455
11
224.009512
21
228.833703
0
LINE
8
Layer 1
10
224.009512
20
228.833703
11
223.927000
21
228.425000
0
LINE
8
Layer 1
10
223.927000
20
228.425000
11
224.009512
21
228.016295
0
LINE
8
Layer 1
10
224.009512
20
228.016295
11
224.234532
21
227.682543
0
LINE
8
Layer 1
10
224.234532
20
227.682543
11
224.568284
21
227.457523
0
LINE
8
Layer 1
10
224.568284
20
227.457523
11
224.976990
21
227.375010
0
LINE
8
Layer 1
10
224.976990
20
227.375010
11
225.385691
21
227.457522
0
LINE
8
Layer 1
10
225.385691
20
227.457522
11
225.719442
21
227.682542
0
LINE
8
Layer 1
10
225.719442
20
227.682542
11
225.944470
21
228.016293
0
LINE
8
Layer 1
10
225.944470
20
228.016293
11
226.027000
21
228.425000
0
LINE
8
Layer 1
10
226.027000
20
228.425000
11
226.027000
21
228.425000
0
LINE
8
Layer 1
10
223.183000
20
218.193000
11
224.214394
21
216.149567
0
LINE
8
Layer 1
10
224.214394
20
216.149567
11
225.420275
21
214.220801
0
LINE
8
Layer 1
10
225.420275
20
214.220801
11
226.790675
21
212.416670
0
LINE
8
Layer 1
10
226.790675
20
212.416670
11
228.315622
21
210.747145
0
LINE
8
Layer 1
10
228.315622
20
210.747145
11
229.985149
21
209.222196
0
LINE
8
Layer 1
10
229.985149
20
209.222196
11
231.789284
21
207.851792
0
LINE
8
Layer 1
10
231.789284
20
207.851792
11
233.718057
21
206.645903
0
LINE
8
Layer 1
10
233.718057
20
206.645903
11
235.761500
21
205.614500
0
LINE
8
Layer 1
10
230.185000
20
219.817000
11
229.442532
21
220.844517
0
LINE
8
Layer 1
10
229.442532
20
220.844517
11
228.481815
21
221.641730
0
LINE
8
Layer 1
10
228.481815
20
221.641730
11
227.353631
21
222.176263
0
LINE
8
Layer 1
10
227.353631
20
222.176263
11
226.108760
21
222.415740
0
LINE
8
Layer 1
10
268.803000
20
238.657000
11
267.771603
21
240.700433
0
LINE
8
Layer 1
10
267.771603
20
240.700433
11
266.565719
21
242.629199
0
LINE
8
Layer 1
10
266.565719
20
242.629199
11
265.195318
21
244.433330
0
LINE
8
Layer 1
10
265.195318
20
244.433330
11
263.670370
21
246.102855
0
LINE
8
Layer 1
10
263.670370
20
246.102855
11
262.000844
21
247.627804
0
LINE
8
Layer 1
10
262.000844
20
247.627804
11
260.196711
21
248.998208
0
LINE
8
Layer 1
10
260.196711
20
248.998208
11
258.267939
21
250.204097
0
LINE
8
Layer 1
10
258.267939
20
250.204097
11
256.224500
21
251.235500
0
LINE
8
Layer 1
10
261.801000
20
237.034000
11
260.404973
21
239.209455
0
LINE
8
Layer 1
10
260.404973
20
239.209455
11
258.721013
21
241.153229
0
LINE
8
Layer 1
10
258.721013
20
241.153229
11
256.777248
21
242.837193
0
LINE
8
Layer 1
10
256.777248
20
242.837193
11
254.601810
21
244.233220
0
LINE
8
Layer 1
10
230.185000
20
219.817000
11
231.581031
21
217.641541
0
LINE
8
Layer 1
10
231.581031
20
217.641541
11
233.264991
21
215.697767
0
LINE
8
Layer 1
10
233.264991
20
215.697767
11
235.208754
21
214.013806
0
LINE
8
Layer 1
10
235.208754
20
214.013806
11
237.384190
21
212.617780
0
LINE
8
Layer 1
10
256.225000
20
205.615000
11
258.268433
21
206.646394
0
LINE
8
Layer 1
10
258.268433
20
206.646394
11
260.197199
21
207.852275
0
LINE
8
Layer 1
10
260.197199
20
207.852275
11
262.001330
21
209.222675
0
LINE
8
Layer 1
10
262.001330
20
209.222675
11
263.670855
21
210.747622
0
LINE
8
Layer 1
10
263.670855
20
210.747622
11
265.195804
21
212.417149
0
LINE
8
Layer 1
10
265.195804
20
212.417149
11
266.566208
21
214.221284
0
LINE
8
Layer 1
10
266.566208
20
214.221284
11
267.772097
21
216.150057
0
LINE
8
Layer 1
10
267.772097
20
216.150057
11
268.803500
21
218.193500
0
LINE
8
Layer 1
10
247.043000
20
259.925000
11
246.960469
21
260.333701
0
LINE
8
Layer 1
10
246.960469
20
260.333701
11
246.735437
21
260.667453
0
LINE
8
Layer 1
10
246.735437
20
260.667453
11
246.401682
21
260.892476
0
LINE
8
Layer 1
10
246.401682
20
260.892476
11
245.992980
21
260.974990
0
LINE
8
Layer 1
10
245.992980
20
260.974990
11
245.584280
21
260.892476
0
LINE
8
Layer 1
10
245.584280
20
260.892476
11
245.250531
21
260.667454
0
LINE
8
Layer 1
10
245.250531
20
260.667454
11
245.025512
21
260.333703
0
LINE
8
Layer 1
10
245.025512
20
260.333703
11
244.943000
21
259.925000
0
LINE
8
Layer 1
10
244.943000
20
259.925000
11
245.025512
21
259.516295
0
LINE
8
Layer 1
10
245.025512
20
259.516295
11
245.250531
21
259.182543
0
LINE
8
Layer 1
10
245.250531
20
259.182543
11
245.584280
21
258.957523
0
LINE
8
Layer 1
10
245.584280
20
258.957523
11
245.992980
21
258.875010
0
LINE
8
Layer 1
10
245.992980
20
258.875010
11
246.401683
21
258.957522
0
LINE
8
Layer 1
10
246.401683
20
258.957522
11
246.735438
21
259.182542
0
LINE
8
Layer 1
10
246.735438
20
259.182542
11
246.960469
21
259.516293
0
LINE
8
Layer 1
10
246.960469
20
259.516293
11
247.043000
21
259.925000
0
LINE
8
Layer 1
10
247.043000
20
259.925000
11
247.043000
21
259.925000
0
LINE
8
Layer 1
10
239.983000
20
248.309000
11
239.931594
21
249.082072
0
LINE
8
Layer 1
10
239.931594
20
249.082072
11
239.689175
21
249.805091
0
LINE
8
Layer 1
10
239.689175
20
249.805091
11
239.272388
21
250.443700
0
LINE
8
Layer 1
10
239.272388
20
250.443700
11
238.697880
21
250.963540
0
LINE
8
Layer 1
10
238.697880
20
250.963540
11
238.009457
21
251.319016
0
LINE
8
Layer 1
10
238.009457
20
251.319016
11
237.265185
21
251.485115
0
LINE
8
Layer 1
10
237.265185
20
251.485115
11
236.503078
21
251.458319
0
LINE
8
Layer 1
10
236.503078
20
251.458319
11
235.761150
21
251.235109
0
LINE
8
Layer 1
10
235.761000
20
251.235000
11
233.717567
21
250.203606
0
LINE
8
Layer 1
10
233.717567
20
250.203606
11
231.788801
21
248.997725
0
LINE
8
Layer 1
10
231.788801
20
248.997725
11
229.984670
21
247.627325
0
LINE
8
Layer 1
10
229.984670
20
247.627325
11
228.315145
21
246.102378
0
LINE
8
Layer 1
10
228.315145
20
246.102378
11
226.790196
21
244.432851
0
LINE
8
Layer 1
10
226.790196
20
244.432851
11
225.419792
21
242.628716
0
LINE
8
Layer 1
10
225.419792
20
242.628716
11
224.213903
21
240.699943
0
LINE
8
Layer 1
10
224.213903
20
240.699943
11
223.182500
21
238.656500
0
LINE
8
Layer 1
10
223.183000
20
238.657000
11
222.959794
21
237.915074
0
LINE
8
Layer 1
10
222.959794
20
237.915074
11
222.932997
21
237.152966
0
LINE
8
Layer 1
10
222.932997
20
237.152966
11
223.099097
21
236.408694
0
LINE
8
Layer 1
10
223.099097
20
236.408694
11
223.454580
21
235.720270
0
LINE
8
Layer 1
10
223.454580
20
235.720270
11
223.974414
21
235.145766
0
LINE
8
Layer 1
10
223.974414
20
235.145766
11
224.613020
21
234.728992
0
LINE
8
Layer 1
10
224.613020
20
234.728992
11
225.336038
21
234.486580
0
LINE
8
Layer 1
10
225.336038
20
234.486580
11
226.109110
21
234.435160
0
LINE
8
Layer 1
10
268.803000
20
218.193000
11
269.026205
21
218.934926
0
LINE
8
Layer 1
10
269.026205
20
218.934926
11
269.052999
21
219.697032
0
LINE
8
Layer 1
10
269.052999
20
219.697032
11
268.886898
21
220.441302
0
LINE
8
Layer 1
10
268.886898
20
220.441302
11
268.531420
21
221.129720
0
LINE
8
Layer 1
10
268.531420
20
221.129720
11
268.011585
21
221.704227
0
LINE
8
Layer 1
10
268.011585
20
221.704227
11
267.372976
21
222.121006
0
LINE
8
Layer 1
10
267.372976
20
222.121006
11
266.649957
21
222.363423
0
LINE
8
Layer 1
10
266.649957
20
222.363423
11
265.876890
21
222.414840
0
LINE
8
Layer 1
10
252.003000
20
208.541000
11
252.054404
21
207.767930
0
LINE
8
Layer 1
10
252.054404
20
207.767930
11
252.296821
21
207.044914
0
LINE
8
Layer 1
10
252.296821
20
207.044914
11
252.713608
21
206.406308
0
LINE
8
Layer 1
10
252.713608
20
206.406308
11
253.288120
21
205.886470
0
LINE
8
Layer 1
10
253.288120
20
205.886470
11
253.976537
21
205.530994
0
LINE
8
Layer 1
10
253.976537
20
205.530994
11
254.720806
21
205.364895
0
LINE
8
Layer 1
10
254.720806
20
205.364895
11
255.482912
21
205.391691
0
LINE
8
Layer 1
10
255.482912
20
205.391691
11
256.224840
21
205.614901
0
LINE
8
Layer 1
10
254.602000
20
212.617000
11
253.574479
21
211.874527
0
LINE
8
Layer 1
10
253.574479
20
211.874527
11
252.777266
21
210.913808
0
LINE
8
Layer 1
10
252.777266
20
210.913808
11
252.242736
21
209.785622
0
LINE
8
Layer 1
10
252.242736
20
209.785622
11
252.003260
21
208.540750
0
LINE
8
Layer 1
10
247.043000
20
249.441000
11
246.960469
21
249.849705
0
LINE
8
Layer 1
10
246.960469
20
249.849705
11
246.735437
21
250.183457
0
LINE
8
Layer 1
10
246.735437
20
250.183457
11
246.401682
21
250.408477
0
LINE
8
Layer 1
10
246.401682
20
250.408477
11
245.992980
21
250.490990
0
LINE
8
Layer 1
10
245.992980
20
250.490990
11
245.584280
21
250.408478
0
LINE
8
Layer 1
10
245.584280
20
250.408478
11
245.250531
21
250.183458
0
LINE
8
Layer 1
10
245.250531
20
250.183458
11
245.025512
21
249.849707
0
LINE
8
Layer 1
10
245.025512
20
249.849707
11
244.943000
21
249.441000
0
LINE
8
Layer 1
10
244.943000
20
249.441000
11
245.025512
21
249.032299
0
LINE
8
Layer 1
10
245.025512
20
249.032299
11
245.250531
21
248.698547
0
LINE
8
Layer 1
10
245.250531
20
248.698547
11
245.584280
21
248.473524
0
LINE
8
Layer 1
10
245.584280
20
248.473524
11
245.992980
21
248.391010
0
LINE
8
Layer 1
10
245.992980
20
248.391010
11
246.401683
21
248.473524
0
LINE
8
Layer 1
10
246.401683
20
248.473524
11
246.735438
21
248.698545
0
LINE
8
Layer 1
10
246.735438
20
248.698545
11
246.960469
21
249.032297
0
LINE
8
Layer 1
10
246.960469
20
249.032297
11
247.043000
21
249.441000
0
LINE
8
Layer 1
10
247.043000
20
249.441000
11
247.043000
21
249.441000
0
LINE
8
Layer 1
10
111.229000
20
130.862000
11
111.429058
21
129.200063
0
LINE
8
Layer 1
10
111.429058
20
129.200063
11
112.007584
21
127.653582
0
LINE
8
Layer 1
10
112.007584
20
127.653582
11
112.932105
21
126.285531
0
LINE
8
Layer 1
10
112.932105
20
126.285531
11
114.170150
21
125.158880
0
LINE
8
Layer 1
10
114.170150
20
125.158880
11
115.640187
21
124.358225
0
LINE
8
Layer 1
10
115.640187
20
124.358225
11
117.235607
21
123.932869
0
LINE
8
Layer 1
10
117.235607
20
123.932869
11
118.886277
21
123.892868
0
LINE
8
Layer 1
10
118.886277
20
123.892868
11
120.522060
21
124.248280
0
LINE
8
Layer 1
10
120.522000
20
124.248000
11
124.001096
21
125.566780
0
LINE
8
Layer 1
10
124.001096
20
125.566780
11
127.379598
21
127.073008
0
LINE
8
Layer 1
10
127.379598
20
127.073008
11
130.651303
21
128.760480
0
LINE
8
Layer 1
10
130.651303
20
128.760480
11
133.810006
21
130.622994
0
LINE
8
Layer 1
10
133.810006
20
130.622994
11
136.849504
21
132.654344
0
LINE
8
Layer 1
10
136.849504
20
132.654344
11
139.763592
21
134.848327
0
LINE
8
Layer 1
10
139.763592
20
134.848327
11
142.546067
21
137.198738
0
LINE
8
Layer 1
10
142.546067
20
137.198738
11
145.190725
21
139.699375
0
LINE
8
Layer 1
10
145.190725
20
139.699375
11
147.691362
21
142.344033
0
LINE
8
Layer 1
10
147.691362
20
142.344033
11
150.041773
21
145.126508
0
LINE
8
Layer 1
10
150.041773
20
145.126508
11
152.235756
21
148.040596
0
LINE
8
Layer 1
10
152.235756
20
148.040596
11
154.267106
21
151.080094
0
LINE
8
Layer 1
10
154.267106
20
151.080094
11
156.129620
21
154.238797
0
LINE
8
Layer 1
10
156.129620
20
154.238797
11
157.817092
21
157.510502
0
LINE
8
Layer 1
10
157.817092
20
157.510502
11
159.323320
21
160.889004
0
LINE
8
Layer 1
10
159.323320
20
160.889004
11
160.642100
21
164.368100
0
LINE
8
Layer 1
10
160.643000
20
164.368000
11
160.998402
21
166.003772
0
LINE
8
Layer 1
10
160.998402
20
166.003772
11
160.958400
21
167.654438
0
LINE
8
Layer 1
10
160.958400
20
167.654438
11
160.533048
21
169.249862
0
LINE
8
Layer 1
10
160.533048
20
169.249862
11
159.732400
21
170.719910
0
LINE
8
Layer 1
10
159.732400
20
170.719910
11
158.605755
21
171.957951
0
LINE
8
Layer 1
10
158.605755
20
171.957951
11
157.237706
21
172.882474
0
LINE
8
Layer 1
10
157.237706
20
172.882474
11
155.691227
21
173.461005
0
LINE
8
Layer 1
10
155.691227
20
173.461005
11
154.029290
21
173.661070
0
LINE
8
Layer 1
10
140.762000
20
173.661000
11
154.028000
21
173.661000
0
LINE
8
Layer 1
10
140.762000
20
173.661000
11
139.390146
21
173.566668
0
LINE
8
Layer 1
10
139.390146
20
173.566668
11
138.062697
21
173.290085
0
LINE
8
Layer 1
10
138.062697
20
173.290085
11
136.795628
21
172.840868
0
LINE
8
Layer 1
10
136.795628
20
172.840868
11
135.604917
21
172.228634
0
LINE
8
Layer 1
10
135.604917
20
172.228634
11
134.506542
21
171.463000
0
LINE
8
Layer 1
10
134.506542
20
171.463000
11
133.516480
21
170.553583
0
LINE
8
Layer 1
10
133.516480
20
170.553583
11
132.650707
21
169.510000
0
LINE
8
Layer 1
10
132.650707
20
169.510000
11
131.925200
21
168.341870
0
LINE
8
Layer 1
10
116.549000
20
152.965000
11
118.948067
21
154.353242
0
LINE
8
Layer 1
10
118.948067
20
154.353242
11
121.227140
21
155.910297
0
LINE
8
Layer 1
10
121.227140
20
155.910297
11
123.378085
21
157.628031
0
LINE
8
Layer 1
10
123.378085
20
157.628031
11
125.392764
21
159.498306
0
LINE
8
Layer 1
10
125.392764
20
159.498306
11
127.263041
21
161.512987
0
LINE
8
Layer 1
10
127.263041
20
161.512987
11
128.980780
21
163.663937
0
LINE
8
Layer 1
10
128.980780
20
163.663937
11
130.537845
21
165.943020
0
LINE
8
Layer 1
10
130.537845
20
165.943020
11
131.926100
21
168.342100
0
LINE
8
Layer 1
10
116.549000
20
152.965000
11
115.380867
21
152.239493
0
LINE
8
Layer 1
10
115.380867
20
152.239493
11
114.337283
21
151.373719
0
LINE
8
Layer 1
10
114.337283
20
151.373719
11
113.427866
21
150.383654
0
LINE
8
Layer 1
10
113.427866
20
150.383654
11
112.662233
21
149.285278
0
LINE
8
Layer 1
10
112.662233
20
149.285278
11
112.049999
21
148.094565
0
LINE
8
Layer 1
10
112.049999
20
148.094565
11
111.600783
21
146.827495
0
LINE
8
Layer 1
10
111.600783
20
146.827495
11
111.324201
21
145.500044
0
LINE
8
Layer 1
10
111.324201
20
145.500044
11
111.229870
21
144.128190
0
LINE
8
Layer 1
10
111.229000
20
144.128000
11
111.229000
21
130.862000
0
LINE
8
Layer 1
10
154.029000
20
197.661000
11
155.690937
21
197.861064
0
LINE
8
Layer 1
10
155.690937
20
197.861064
11
157.237416
21
198.439597
0
LINE
8
Layer 1
10
157.237416
20
198.439597
11
158.605465
21
199.364123
0
LINE
8
Layer 1
10
158.605465
20
199.364123
11
159.732110
21
200.602170
0
LINE
8
Layer 1
10
159.732110
20
200.602170
11
160.532758
21
202.072213
0
LINE
8
Layer 1
10
160.532758
20
202.072213
11
160.958110
21
203.667635
0
LINE
8
Layer 1
10
160.958110
20
203.667635
11
160.998112
21
205.318302
0
LINE
8
Layer 1
10
160.998112
20
205.318302
11
160.642710
21
206.954080
0
LINE
8
Layer 1
10
160.643000
20
206.954000
11
159.324151
21
210.433200
0
LINE
8
Layer 1
10
159.324151
20
210.433200
11
157.817863
21
213.811791
0
LINE
8
Layer 1
10
157.817863
20
213.811791
11
156.130339
21
217.083568
0
LINE
8
Layer 1
10
156.130339
20
217.083568
11
154.267781
21
220.242328
0
LINE
8
Layer 1
10
154.267781
20
220.242328
11
152.236391
21
223.281867
0
LINE
8
Layer 1
10
152.236391
20
223.281867
11
150.042371
21
226.195982
0
LINE
8
Layer 1
10
150.042371
20
226.195982
11
147.691923
21
228.978469
0
LINE
8
Layer 1
10
147.691923
20
228.978469
11
145.191250
21
231.623125
0
LINE
8
Layer 1
10
145.191250
20
231.623125
11
142.546553
21
234.123745
0
LINE
8
Layer 1
10
142.546553
20
234.123745
11
139.764035
21
236.474127
0
LINE
8
Layer 1
10
139.764035
20
236.474127
11
136.849898
21
238.668066
0
LINE
8
Layer 1
10
136.849898
20
238.668066
11
133.810344
21
240.699359
0
LINE
8
Layer 1
10
133.810344
20
240.699359
11
130.651575
21
242.561803
0
LINE
8
Layer 1
10
130.651575
20
242.561803
11
127.379793
21
244.249193
0
LINE
8
Layer 1
10
127.379793
20
244.249193
11
124.001201
21
245.755327
0
LINE
8
Layer 1
10
124.001201
20
245.755327
11
120.522000
21
247.074000
0
LINE
8
Layer 1
10
120.522000
20
247.074000
11
118.886225
21
247.429407
0
LINE
8
Layer 1
10
118.886225
20
247.429407
11
117.235555
21
247.389405
0
LINE
8
Layer 1
10
117.235555
20
247.389405
11
115.640130
21
246.964048
0
LINE
8
Layer 1
10
115.640130
20
246.964048
11
114.170090
21
246.163391
0
LINE
8
Layer 1
10
114.170090
20
246.163391
11
112.932045
21
245.036746
0
LINE
8
Layer 1
10
112.932045
20
245.036746
11
112.007524
21
243.668696
0
LINE
8
Layer 1
10
112.007524
20
243.668696
11
111.428998
21
242.122214
0
LINE
8
Layer 1
10
111.428998
20
242.122214
11
111.228940
21
240.460271
0
LINE
8
Layer 1
10
111.229000
20
227.194000
11
111.229000
21
240.461000
0
LINE
8
Layer 1
10
111.229000
20
227.194000
11
111.323331
21
225.822145
0
LINE
8
Layer 1
10
111.323331
20
225.822145
11
111.599913
21
224.494694
0
LINE
8
Layer 1
10
111.599913
20
224.494694
11
112.049129
21
223.227622
0
LINE
8
Layer 1
10
112.049129
20
223.227622
11
112.661362
21
222.036909
0
LINE
8
Layer 1
10
112.661362
20
222.036909
11
113.426996
21
220.938531
0
LINE
8
Layer 1
10
113.426996
20
220.938531
11
114.336413
21
219.948467
0
LINE
8
Layer 1
10
114.336413
20
219.948467
11
115.379997
21
219.082694
0
LINE
8
Layer 1
10
115.379997
20
219.082694
11
116.548130
21
218.357190
0
LINE
8
Layer 1
10
131.926000
20
202.980000
11
130.537751
21
205.379070
0
LINE
8
Layer 1
10
130.537751
20
205.379070
11
128.980690
21
207.658145
0
LINE
8
Layer 1
10
128.980690
20
207.658145
11
127.262952
21
209.809089
0
LINE
8
Layer 1
10
127.262952
20
209.809089
11
125.392675
21
211.823768
0
LINE
8
Layer 1
10
125.392675
20
211.823768
11
123.377995
21
213.694044
0
LINE
8
Layer 1
10
123.377995
20
213.694044
11
121.227047
21
215.411782
0
LINE
8
Layer 1
10
121.227047
20
215.411782
11
118.947970
21
216.968846
0
LINE
8
Layer 1
10
118.947970
20
216.968846
11
116.548900
21
218.357100
0
LINE
8
Layer 1
10
131.926000
20
202.980000
11
132.651503
21
201.811870
0
LINE
8
Layer 1
10
132.651503
20
201.811870
11
133.517274
21
200.768287
0
LINE
8
Layer 1
10
133.517274
20
200.768287
11
134.507335
21
199.858870
0
LINE
8
Layer 1
10
134.507335
20
199.858870
11
135.605710
21
199.093236
0
LINE
8
Layer 1
10
135.605710
20
199.093236
11
136.796421
21
198.481002
0
LINE
8
Layer 1
10
136.796421
20
198.481002
11
138.063491
21
198.031785
0
LINE
8
Layer 1
10
138.063491
20
198.031785
11
139.390943
21
197.755202
0
LINE
8
Layer 1
10
139.390943
20
197.755202
11
140.762800
21
197.660870
0
LINE
8
Layer 1
10
140.762000
20
197.661000
11
154.028000
21
197.661000
0
LINE
8
Layer 1
10
77.936400
20
124.248000
11
79.572174
21
123.892594
0
LINE
8
Layer 1
10
79.572174
20
123.892594
11
81.222841
21
123.932598
0
LINE
8
Layer 1
10
81.222841
20
123.932598
11
82.818266
21
124.357955
0
LINE
8
Layer 1
10
82.818266
20
124.357955
11
84.288310
21
125.158610
0
LINE
8
Layer 1
10
84.288310
20
125.158610
11
85.526351
21
126.285255
0
LINE
8
Layer 1
10
85.526351
20
126.285255
11
86.450873
21
127.653305
0
LINE
8
Layer 1
10
86.450873
20
127.653305
11
87.029401
21
129.199787
0
LINE
8
Layer 1
10
87.029401
20
129.199787
11
87.229460
21
130.861730
0
LINE
8
Layer 1
10
87.228600
20
144.128000
11
87.228600
21
130.862000
0
LINE
8
Layer 1
10
87.229500
20
144.128000
11
87.135169
21
145.499857
0
LINE
8
Layer 1
10
87.135169
20
145.499857
11
86.858586
21
146.827311
0
LINE
8
Layer 1
10
86.858586
20
146.827311
11
86.409369
21
148.094382
0
LINE
8
Layer 1
10
86.409369
20
148.094382
11
85.797136
21
149.285095
0
LINE
8
Layer 1
10
85.797136
20
149.285095
11
85.031504
21
150.383471
0
LINE
8
Layer 1
10
85.031504
20
150.383471
11
84.122091
21
151.373534
0
LINE
8
Layer 1
10
84.122091
20
151.373534
11
83.078514
21
152.239306
0
LINE
8
Layer 1
10
83.078514
20
152.239306
11
81.910390
21
152.964810
0
LINE
8
Layer 1
10
66.533300
20
168.342000
11
67.921545
21
165.942927
0
LINE
8
Layer 1
10
67.921545
20
165.942927
11
69.478603
21
163.663851
0
LINE
8
Layer 1
10
69.478603
20
163.663851
11
71.196338
21
161.512906
0
LINE
8
Layer 1
10
71.196338
20
161.512906
11
73.066614
21
159.498229
0
LINE
8
Layer 1
10
73.066614
20
159.498229
11
75.081294
21
157.627954
0
LINE
8
Layer 1
10
75.081294
20
157.627954
11
77.232243
21
155.910217
0
LINE
8
Layer 1
10
77.232243
20
155.910217
11
79.511323
21
154.353154
0
LINE
8
Layer 1
10
79.511323
20
154.353154
11
81.910400
21
152.964900
0
LINE
8
Layer 1
10
66.533300
20
168.342000
11
65.807796
21
169.510131
0
LINE
8
Layer 1
10
65.807796
20
169.510131
11
64.942023
21
170.553714
0
LINE
8
Layer 1
10
64.942023
20
170.553714
11
63.951958
21
171.463132
0
LINE
8
Layer 1
10
63.951958
20
171.463132
11
62.853580
21
172.228768
0
LINE
8
Layer 1
10
62.853580
20
172.228768
11
61.662865
21
172.841003
0
LINE
8
Layer 1
10
61.662865
20
172.841003
11
60.395792
21
173.290220
0
LINE
8
Layer 1
10
60.395792
20
173.290220
11
59.068338
21
173.566801
0
LINE
8
Layer 1
10
59.068338
20
173.566801
11
57.696480
21
173.661130
0
LINE
8
Layer 1
10
44.430000
20
173.661000
11
57.696400
21
173.661000
0
LINE
8
Layer 1
10
44.430000
20
173.661000
11
42.768051
21
173.460941
0
LINE
8
Layer 1
10
42.768051
20
173.460941
11
41.221566
21
172.882412
0
LINE
8
Layer 1
10
41.221566
20
172.882412
11
39.853515
21
171.957891
0
LINE
8
Layer 1
10
39.853515
20
171.957891
11
38.726870
21
170.719850
0
LINE
8
Layer 1
10
38.726870
20
170.719850
11
37.926216
21
169.249801
0
LINE
8
Layer 1
10
37.926216
20
169.249801
11
37.500863
21
167.654376
0
LINE
8
Layer 1
10
37.500863
20
167.654376
11
37.460864
21
166.003708
0
LINE
8
Layer 1
10
37.460864
20
166.003708
11
37.816274
21
164.367930
0
LINE
8
Layer 1
10
37.816200
20
164.368000
11
39.134981
21
160.888975
0
LINE
8
Layer 1
10
39.134981
20
160.888975
11
40.641212
21
157.510537
0
LINE
8
Layer 1
10
40.641212
20
157.510537
11
42.328690
21
154.238889
0
LINE
8
Layer 1
10
42.328690
20
154.238889
11
44.191209
21
151.080234
0
LINE
8
Layer 1
10
44.191209
20
151.080234
11
46.222567
21
148.040777
0
LINE
8
Layer 1
10
46.222567
20
148.040777
11
48.416558
21
145.126721
0
LINE
8
Layer 1
10
48.416558
20
145.126721
11
50.766979
21
142.344269
0
LINE
8
Layer 1
10
50.766979
20
142.344269
11
53.267625
21
139.699625
0
LINE
8
Layer 1
10
53.267625
20
139.699625
11
55.912292
21
137.198993
0
LINE
8
Layer 1
10
55.912292
20
137.198993
11
58.694776
21
134.848576
0
LINE
8
Layer 1
10
58.694776
20
134.848576
11
61.608873
21
132.654578
0
LINE
8
Layer 1
10
61.608873
20
132.654578
11
64.648378
21
130.623203
0
LINE
8
Layer 1
10
64.648378
20
130.623203
11
67.807088
21
128.760654
0
LINE
8
Layer 1
10
67.807088
20
128.760654
11
71.078797
21
127.073135
0
LINE
8
Layer 1
10
71.078797
20
127.073135
11
74.457303
21
125.566849
0
LINE
8
Layer 1
10
74.457303
20
125.566849
11
77.936400
21
124.248000
0
LINE
8
Layer 1
10
37.816200
20
206.954000
11
37.460790
21
205.318222
0
LINE
8
Layer 1
10
37.460790
20
205.318222
11
37.500790
21
203.667554
0
LINE
8
Layer 1
10
37.500790
20
203.667554
11
37.926144
21
202.072129
0
LINE
8
Layer 1
10
37.926144
20
202.072129
11
38.726796
21
200.602080
0
LINE
8
Layer 1
10
38.726796
20
200.602080
11
39.853441
21
199.364038
0
LINE
8
Layer 1
10
39.853441
20
199.364038
11
41.221492
21
198.439513
0
LINE
8
Layer 1
10
41.221492
20
198.439513
11
42.767977
21
197.860981
0
LINE
8
Layer 1
10
42.767977
20
197.860981
11
44.429926
21
197.660920
0
LINE
8
Layer 1
10
44.430000
20
197.661000
11
57.696400
21
197.661000
0
LINE
8
Layer 1
10
57.696400
20
197.661000
11
59.068258
21
197.755330
0
LINE
8
Layer 1
10
59.068258
20
197.755330
11
60.395712
21
198.031913
0
LINE
8
Layer 1
10
60.395712
20
198.031913
11
61.662785
21
198.481130
0
LINE
8
Layer 1
10
61.662785
20
198.481130
11
62.853500
21
199.093365
0
LINE
8
Layer 1
10
62.853500
20
199.093365
11
63.951878
21
199.858999
0
LINE
8
Layer 1
10
63.951878
20
199.858999
11
64.941943
21
200.768417
0
LINE
8
Layer 1
10
64.941943
20
200.768417
11
65.807716
21
201.811999
0
LINE
8
Layer 1
10
65.807716
20
201.811999
11
66.533220
21
202.980130
0
LINE
8
Layer 1
10
81.910400
20
218.357000
11
79.511327
21
216.968755
0
LINE
8
Layer 1
10
79.511327
20
216.968755
11
77.232251
21
215.411696
0
LINE
8
Layer 1
10
77.232251
20
215.411696
11
75.081306
21
213.693959
0
LINE
8
Layer 1
10
75.081306
20
213.693959
11
73.066629
21
211.823682
0
LINE
8
Layer 1
10
73.066629
20
211.823682
11
71.196354
21
209.809002
0
LINE
8
Layer 1
10
71.196354
20
209.809002
11
69.478617
21
207.658053
0
LINE
8
Layer 1
10
69.478617
20
207.658053
11
67.921554
21
205.378974
0
LINE
8
Layer 1
10
67.921554
20
205.378974
11
66.533300
21
202.979900
0
LINE
8
Layer 1
10
81.910400
20
218.357000
11
83.078527
21
219.082507
0
LINE
8
Layer 1
10
83.078527
20
219.082507
11
84.122105
21
219.948281
0
LINE
8
Layer 1
10
84.122105
20
219.948281
11
85.031519
21
220.938346
0
LINE
8
Layer 1
10
85.031519
20
220.938346
11
85.797150
21
222.036722
0
LINE
8
Layer 1
10
85.797150
20
222.036722
11
86.409382
21
223.227435
0
LINE
8
Layer 1
10
86.409382
20
223.227435
11
86.858597
21
224.494505
0
LINE
8
Layer 1
10
86.858597
20
224.494505
11
87.135179
21
225.821956
0
LINE
8
Layer 1
10
87.135179
20
225.821956
11
87.229510
21
227.193810
0
LINE
8
Layer 1
10
87.228600
20
240.461000
11
87.228600
21
227.194000
0
LINE
8
Layer 1
10
87.229500
20
240.461000
11
87.029441
21
242.122943
0
LINE
8
Layer 1
10
87.029441
20
242.122943
11
86.450913
21
243.669425
0
LINE
8
Layer 1
10
86.450913
20
243.669425
11
85.526391
21
245.037475
0
LINE
8
Layer 1
10
85.526391
20
245.037475
11
84.288350
21
246.164120
0
LINE
8
Layer 1
10
84.288350
20
246.164120
11
82.818311
21
246.964780
0
LINE
8
Layer 1
10
82.818311
20
246.964780
11
81.222889
21
247.390136
0
LINE
8
Layer 1
10
81.222889
20
247.390136
11
79.572219
21
247.430138
0
LINE
8
Layer 1
10
79.572219
20
247.430138
11
77.936440
21
247.074731
0
LINE
8
Layer 1
10
77.936400
20
247.074000
11
74.457303
21
245.755327
0
LINE
8
Layer 1
10
74.457303
20
245.755327
11
71.078797
21
244.249193
0
LINE
8
Layer 1
10
71.078797
20
244.249193
11
67.807088
21
242.561803
0
LINE
8
Layer 1
10
67.807088
20
242.561803
11
64.648378
21
240.699359
0
LINE
8
Layer 1
10
64.648378
20
240.699359
11
61.608873
21
238.668066
0
LINE
8
Layer 1
10
61.608873
20
238.668066
11
58.694776
21
236.474127
0
LINE
8
Layer 1
10
58.694776
20
236.474127
11
55.912292
21
234.123745
0
LINE
8
Layer 1
10
55.912292
20
234.123745
11
53.267625
21
231.623125
0
LINE
8
Layer 1
10
53.267625
20
231.623125
11
50.766979
21
228.978469
0
LINE
8
Layer 1
10
50.766979
20
228.978469
11
48.416558
21
226.195982
0
LINE
8
Layer 1
10
48.416558
20
226.195982
11
46.222567
21
223.281867
0
LINE
8
Layer 1
10
46.222567
20
223.281867
11
44.191209
21
220.242328
0
LINE
8
Layer 1
10
44.191209
20
220.242328
11
42.328690
21
217.083568
0
LINE
8
Layer 1
10
42.328690
20
217.083568
11
40.641212
21
213.811791
0
LINE
8
Layer 1
10
40.641212
20
213.811791
11
39.134981
21
210.433200
0
LINE
8
Layer 1
10
39.134981
20
210.433200
11
37.816200
21
206.954000
0
LINE
8
Layer 1
10
103.204000
20
185.661000
11
103.121992
21
186.461087
0
LINE
8
Layer 1
10
103.121992
20
186.461087
11
102.889590
21
187.206155
0
LINE
8
Layer 1
10
102.889590
20
187.206155
11
102.037329
21
188.467546
0
LINE
8
Layer 1
10
102.037329
20
188.467546
11
100.774665
21
189.317797
0
LINE
8
Layer 1
10
100.774665
20
189.317797
11
100.029261
21
189.548939
0
LINE
8
Layer 1
10
100.029261
20
189.548939
11
99.229050
21
189.629530
0
LINE
8
Layer 1
10
99.229050
20
189.629530
11
98.428828
21
189.548954
0
LINE
8
Layer 1
10
98.428828
20
189.548954
11
97.683380
21
189.317825
0
LINE
8
Layer 1
10
97.683380
20
189.317825
11
96.420597
21
188.467591
0
LINE
8
Layer 1
10
96.420597
20
188.467591
11
95.568286
21
187.206194
0
LINE
8
Layer 1
10
95.568286
20
187.206194
11
95.335927
21
186.461111
0
LINE
8
Layer 1
10
95.335927
20
186.461111
11
95.254030
21
185.661000
0
LINE
8
Layer 1
10
95.254030
20
185.661000
11
95.336038
21
184.860913
0
LINE
8
Layer 1
10
95.336038
20
184.860913
11
95.568442
21
184.115845
0
LINE
8
Layer 1
10
95.568442
20
184.115845
11
96.420710
21
182.854454
0
LINE
8
Layer 1
10
96.420710
20
182.854454
11
97.683377
21
182.004203
0
LINE
8
Layer 1
10
97.683377
20
182.004203
11
98.428782
21
181.773061
0
LINE
8
Layer 1
10
98.428782
20
181.773061
11
99.228990
21
181.692470
0
LINE
8
Layer 1
10
99.228990
20
181.692470
11
100.029215
21
181.773046
0
LINE
8
Layer 1
10
100.029215
20
181.773046
11
100.774665
21
182.004175
0
LINE
8
Layer 1
10
100.774665
20
182.004175
11
102.037449
21
182.854409
0
LINE
8
Layer 1
10
102.037449
20
182.854409
11
102.889755
21
184.115806
0
LINE
8
Layer 1
10
102.889755
20
184.115806
11
103.122110
21
184.860889
0
LINE
8
Layer 1
10
103.122110
20
184.860889
11
103.204000
21
185.661000
0
LINE
8
Layer 1
10
103.204000
20
185.661000
11
103.204000
21
185.661000
0
LINE
8
Layer 1
10
100.279000
20
136.161000
11
100.196141
21
136.569298
0
LINE
8
Layer 1
10
100.196141
20
136.569298
11
99.971047
21
136.902649
0
LINE
8
Layer 1
10
99.971047
20
136.902649
11
99.637437
21
137.127368
0
LINE
8
Layer 1
10
99.637437
20
137.127368
11
99.229030
21
137.209770
0
LINE
8
Layer 1
10
99.229030
20
137.209770
11
98.820614
21
137.127392
0
LINE
8
Layer 1
10
98.820614
20
137.127392
11
98.486988
21
136.902682
0
LINE
8
Layer 1
10
98.486988
20
136.902682
11
98.261876
21
136.569324
0
LINE
8
Layer 1
10
98.261876
20
136.569324
11
98.179000
21
136.161000
0
LINE
8
Layer 1
10
98.179000
20
136.161000
11
98.261854
21
135.752701
0
LINE
8
Layer 1
10
98.261854
20
135.752701
11
98.486946
21
135.419348
0
LINE
8
Layer 1
10
98.486946
20
135.419348
11
98.820558
21
135.194628
0
LINE
8
Layer 1
10
98.820558
20
135.194628
11
99.228970
21
135.112230
0
LINE
8
Layer 1
10
99.228970
20
135.112230
11
99.637381
21
135.194608
0
LINE
8
Layer 1
10
99.637381
20
135.194608
11
99.971005
21
135.419318
0
LINE
8
Layer 1
10
99.971005
20
135.419318
11
100.196118
21
135.752676
0
LINE
8
Layer 1
10
100.196118
20
135.752676
11
100.279000
21
136.161000
0
LINE
8
Layer 1
10
100.279000
20
136.161000
11
100.279000
21
136.161000
0
LINE
8
Layer 1
10
50.779600
20
185.661000
11
50.696610
21
186.069168
0
LINE
8
Layer 1
10
50.696610
20
186.069168
11
50.471481
21
186.402380
0
LINE
8
Layer 1
10
50.471481
20
186.402380
11
50.137913
21
186.626984
0
LINE
8
Layer 1
10
50.137913
20
186.626984
11
49.729610
21
186.709330
0
LINE
8
Layer 1
10
49.729610
20
186.709330
11
49.321305
21
186.626984
0
LINE
8
Layer 1
10
49.321305
20
186.626984
11
48.987735
21
186.402380
0
LINE
8
Layer 1
10
48.987735
20
186.402380
11
48.762603
21
186.069168
0
LINE
8
Layer 1
10
48.762603
20
186.069168
11
48.679610
21
185.661000
0
LINE
8
Layer 1
10
48.679610
20
185.661000
11
48.762604
21
185.252826
0
LINE
8
Layer 1
10
48.762604
20
185.252826
11
48.987736
21
184.919611
0
LINE
8
Layer 1
10
48.987736
20
184.919611
11
49.321305
21
184.695006
0
LINE
8
Layer 1
10
49.321305
20
184.695006
11
49.729610
21
184.612660
0
LINE
8
Layer 1
10
49.729610
20
184.612660
11
50.137915
21
184.695006
0
LINE
8
Layer 1
10
50.137915
20
184.695006
11
50.471483
21
184.919611
0
LINE
8
Layer 1
10
50.471483
20
184.919611
11
50.696612
21
185.252826
0
LINE
8
Layer 1
10
50.696612
20
185.252826
11
50.779600
21
185.661000
0
LINE
8
Layer 1
10
50.779600
20
185.661000
11
50.779600
21
185.661000
0
LINE
8
Layer 1
10
100.279000
20
235.161000
11
100.196141
21
235.569301
0
LINE
8
Layer 1
10
100.196141
20
235.569301
11
99.971047
21
235.902654
0
LINE
8
Layer 1
10
99.971047
20
235.902654
11
99.637437
21
236.127373
0
LINE
8
Layer 1
10
99.637437
20
236.127373
11
99.229030
21
236.209770
0
LINE
8
Layer 1
10
99.229030
20
236.209770
11
98.820614
21
236.127390
0
LINE
8
Layer 1
10
98.820614
20
236.127390
11
98.486988
21
235.902683
0
LINE
8
Layer 1
10
98.486988
20
235.902683
11
98.261876
21
235.569326
0
LINE
8
Layer 1
10
98.261876
20
235.569326
11
98.179000
21
235.161000
0
LINE
8
Layer 1
10
98.179000
20
235.161000
11
98.261854
21
234.752700
0
LINE
8
Layer 1
10
98.261854
20
234.752700
11
98.486946
21
234.419346
0
LINE
8
Layer 1
10
98.486946
20
234.419346
11
98.820558
21
234.194627
0
LINE
8
Layer 1
10
98.820558
20
234.194627
11
99.228970
21
234.112230
0
LINE
8
Layer 1
10
99.228970
20
234.112230
11
99.637381
21
234.194610
0
LINE
8
Layer 1
10
99.637381
20
234.194610
11
99.971005
21
234.419318
0
LINE
8
Layer 1
10
99.971005
20
234.419318
11
100.196118
21
234.752674
0
LINE
8
Layer 1
10
100.196118
20
234.752674
11
100.279000
21
235.161000
0
LINE
8
Layer 1
10
100.279000
20
235.161000
11
100.279000
21
235.161000
0
LINE
8
Layer 1
10
139.029000
20
252.778000
11
138.946485
21
253.186707
0
LINE
8
Layer 1
10
138.946485
20
253.186707
11
138.721460
21
253.520462
0
LINE
8
Layer 1
10
138.721460
20
253.520462
11
138.387708
21
253.745486
0
LINE
8
Layer 1
10
138.387708
20
253.745486
11
137.979010
21
253.828000
0
LINE
8
Layer 1
10
137.979010
20
253.828000
11
137.570301
21
253.745486
0
LINE
8
Layer 1
10
137.570301
20
253.745486
11
137.236542
21
253.520463
0
LINE
8
Layer 1
10
137.236542
20
253.520463
11
137.011516
21
253.186709
0
LINE
8
Layer 1
10
137.011516
20
253.186709
11
136.929000
21
252.778000
0
LINE
8
Layer 1
10
136.929000
20
252.778000
11
137.011516
21
252.369293
0
LINE
8
Layer 1
10
137.011516
20
252.369293
11
137.236543
21
252.035539
0
LINE
8
Layer 1
10
137.236543
20
252.035539
11
137.570301
21
251.810514
0
LINE
8
Layer 1
10
137.570301
20
251.810514
11
137.979010
21
251.728000
0
LINE
8
Layer 1
10
137.979010
20
251.728000
11
138.387708
21
251.810514
0
LINE
8
Layer 1
10
138.387708
20
251.810514
11
138.721460
21
252.035537
0
LINE
8
Layer 1
10
138.721460
20
252.035537
11
138.946485
21
252.369292
0
LINE
8
Layer 1
10
138.946485
20
252.369292
11
139.029000
21
252.778000
0
LINE
8
Layer 1
10
139.029000
20
252.778000
11
139.029000
21
252.778000
0
LINE
8
Layer 1
10
167.396000
20
224.411000
11
167.313484
21
224.819707
0
LINE
8
Layer 1
10
167.313484
20
224.819707
11
167.088457
21
225.153461
0
LINE
8
Layer 1
10
167.088457
20
225.153461
11
166.754699
21
225.378486
0
LINE
8
Layer 1
10
166.754699
20
225.378486
11
166.345990
21
225.461000
0
LINE
8
Layer 1
10
166.345990
20
225.461000
11
165.937286
21
225.378486
0
LINE
8
Layer 1
10
165.937286
20
225.378486
11
165.603531
21
225.153463
0
LINE
8
Layer 1
10
165.603531
20
225.153463
11
165.378505
21
224.819708
0
LINE
8
Layer 1
10
165.378505
20
224.819708
11
165.295990
21
224.411000
0
LINE
8
Layer 1
10
165.295990
20
224.411000
11
165.378505
21
224.002293
0
LINE
8
Layer 1
10
165.378505
20
224.002293
11
165.603531
21
223.668538
0
LINE
8
Layer 1
10
165.603531
20
223.668538
11
165.937286
21
223.443514
0
LINE
8
Layer 1
10
165.937286
20
223.443514
11
166.345990
21
223.361000
0
LINE
8
Layer 1
10
166.345990
20
223.361000
11
166.754699
21
223.443514
0
LINE
8
Layer 1
10
166.754699
20
223.443514
11
167.088458
21
223.668538
0
LINE
8
Layer 1
10
167.088458
20
223.668538
11
167.313484
21
224.002292
0
LINE
8
Layer 1
10
167.313484
20
224.002292
11
167.396000
21
224.411000
0
LINE
8
Layer 1
10
167.396000
20
224.411000
11
167.396000
21
224.411000
0
LINE
8
Layer 1
10
177.779000
20
185.661000
11
177.695968
21
186.069133
0
LINE
8
Layer 1
10
177.695968
20
186.069133
11
177.470822
21
186.402304
0
LINE
8
Layer 1
10
177.470822
20
186.402304
11
177.137261
21
186.626873
0
LINE
8
Layer 1
10
177.137261
20
186.626873
11
176.728980
21
186.709200
0
LINE
8
Layer 1
10
176.728980
20
186.709200
11
176.320711
21
186.626866
0
LINE
8
Layer 1
10
176.320711
20
186.626866
11
175.987155
21
186.402293
0
LINE
8
Layer 1
10
175.987155
20
186.402293
11
175.762012
21
186.069123
0
LINE
8
Layer 1
10
175.762012
20
186.069123
11
175.678980
21
185.661000
0
LINE
8
Layer 1
10
175.678980
20
185.661000
11
175.762018
21
185.252863
0
LINE
8
Layer 1
10
175.762018
20
185.252863
11
175.987166
21
184.919691
0
LINE
8
Layer 1
10
175.987166
20
184.919691
11
176.320729
21
184.695121
0
LINE
8
Layer 1
10
176.320729
20
184.695121
11
176.729010
21
184.612790
0
LINE
8
Layer 1
10
176.729010
20
184.612790
11
177.137279
21
184.695128
0
LINE
8
Layer 1
10
177.137279
20
184.695128
11
177.470834
21
184.919702
0
LINE
8
Layer 1
10
177.470834
20
184.919702
11
177.695974
21
185.252873
0
LINE
8
Layer 1
10
177.695974
20
185.252873
11
177.779000
21
185.661000
0
LINE
8
Layer 1
10
177.779000
20
185.661000
11
177.779000
21
185.661000
0
LINE
8
Layer 1
10
167.396000
20
146.911000
11
167.313484
21
147.319708
0
LINE
8
Layer 1
10
167.313484
20
147.319708
11
167.088457
21
147.653463
0
LINE
8
Layer 1
10
167.088457
20
147.653463
11
166.754699
21
147.878486
0
LINE
8
Layer 1
10
166.754699
20
147.878486
11
166.345990
21
147.961000
0
LINE
8
Layer 1
10
166.345990
20
147.961000
11
165.937286
21
147.878486
0
LINE
8
Layer 1
10
165.937286
20
147.878486
11
165.603531
21
147.653463
0
LINE
8
Layer 1
10
165.603531
20
147.653463
11
165.378505
21
147.319708
0
LINE
8
Layer 1
10
165.378505
20
147.319708
11
165.295990
21
146.911000
0
LINE
8
Layer 1
10
165.295990
20
146.911000
11
165.378505
21
146.502288
0
LINE
8
Layer 1
10
165.378505
20
146.502288
11
165.603531
21
146.168534
0
LINE
8
Layer 1
10
165.603531
20
146.168534
11
165.937286
21
145.943513
0
LINE
8
Layer 1
10
165.937286
20
145.943513
11
166.345990
21
145.861000
0
LINE
8
Layer 1
10
166.345990
20
145.861000
11
166.754699
21
145.943513
0
LINE
8
Layer 1
10
166.754699
20
145.943513
11
167.088458
21
146.168534
0
LINE
8
Layer 1
10
167.088458
20
146.168534
11
167.313484
21
146.502288
0
LINE
8
Layer 1
10
167.313484
20
146.502288
11
167.396000
21
146.911000
0
LINE
8
Layer 1
10
167.396000
20
146.911000
11
167.396000
21
146.911000
0
LINE
8
Layer 1
10
139.029000
20
118.544000
11
138.946485
21
118.952714
0
LINE
8
Layer 1
10
138.946485
20
118.952714
11
138.721460
21
119.286471
0
LINE
8
Layer 1
10
138.721460
20
119.286471
11
138.387708
21
119.511496
0
LINE
8
Layer 1
10
138.387708
20
119.511496
11
137.979010
21
119.594010
0
LINE
8
Layer 1
10
137.979010
20
119.594010
11
137.570301
21
119.511496
0
LINE
8
Layer 1
10
137.570301
20
119.511496
11
137.236542
21
119.286471
0
LINE
8
Layer 1
10
137.236542
20
119.286471
11
137.011516
21
118.952714
0
LINE
8
Layer 1
10
137.011516
20
118.952714
11
136.929000
21
118.544000
0
LINE
8
Layer 1
10
136.929000
20
118.544000
11
137.011516
21
118.135294
0
LINE
8
Layer 1
10
137.011516
20
118.135294
11
137.236543
21
117.801543
0
LINE
8
Layer 1
10
137.236543
20
117.801543
11
137.570301
21
117.576523
0
LINE
8
Layer 1
10
137.570301
20
117.576523
11
137.979010
21
117.494010
0
LINE
8
Layer 1
10
137.979010
20
117.494010
11
138.387708
21
117.576523
0
LINE
8
Layer 1
10
138.387708
20
117.576523
11
138.721460
21
117.801543
0
LINE
8
Layer 1
10
138.721460
20
117.801543
11
138.946485
21
118.135294
0
LINE
8
Layer 1
10
138.946485
20
118.135294
11
139.029000
21
118.544000
0
LINE
8
Layer 1
10
139.029000
20
118.544000
11
139.029000
21
118.544000
0
LINE
8
Layer 1
10
149.779000
20
185.661000
11
149.695477
21
186.068709
0
LINE
8
Layer 1
10
149.695477
20
186.068709
11
149.470274
21
186.401456
0
LINE
8
Layer 1
10
149.470274
20
186.401456
11
149.136941
21
186.625703
0
LINE
8
Layer 1
10
149.136941
20
186.625703
11
148.729030
21
186.707910
0
LINE
8
Layer 1
10
148.729030
20
186.707910
11
148.321072
21
186.625710
0
LINE
8
Layer 1
10
148.321072
20
186.625710
11
147.987657
21
186.401468
0
LINE
8
Layer 1
10
147.987657
20
186.401468
11
147.762427
21
186.068719
0
LINE
8
Layer 1
10
147.762427
20
186.068719
11
147.679020
21
185.661000
0
LINE
8
Layer 1
10
147.679020
20
185.661000
11
147.762546
21
185.253290
0
LINE
8
Layer 1
10
147.762546
20
185.253290
11
147.987755
21
184.920540
0
LINE
8
Layer 1
10
147.987755
20
184.920540
11
148.321091
21
184.696293
0
LINE
8
Layer 1
10
148.321091
20
184.696293
11
148.729000
21
184.614090
0
LINE
8
Layer 1
10
148.729000
20
184.614090
11
149.136968
21
184.696286
0
LINE
8
Layer 1
10
149.136968
20
184.696286
11
149.470383
21
184.920529
0
LINE
8
Layer 1
10
149.470383
20
184.920529
11
149.695606
21
185.253280
0
LINE
8
Layer 1
10
149.695606
20
185.253280
11
149.779000
21
185.661000
0
LINE
8
Layer 1
10
149.779000
20
185.661000
11
149.779000
21
185.661000
0
LINE
8
Layer 1
10
118.899000
20
174.911000
11
118.816486
21
175.319709
0
LINE
8
Layer 1
10
118.816486
20
175.319709
11
118.591461
21
175.653468
0
LINE
8
Layer 1
10
118.591461
20
175.653468
11
118.257704
21
175.878494
0
LINE
8
Layer 1
10
118.257704
20
175.878494
11
117.848990
21
175.961010
0
LINE
8
Layer 1
10
117.848990
20
175.961010
11
117.440276
21
175.878494
0
LINE
8
Layer 1
10
117.440276
20
175.878494
11
117.106519
21
175.653467
0
LINE
8
Layer 1
10
117.106519
20
175.653467
11
116.881494
21
175.319709
0
LINE
8
Layer 1
10
116.881494
20
175.319709
11
116.798980
21
174.911000
0
LINE
8
Layer 1
10
116.798980
20
174.911000
11
116.881494
21
174.502286
0
LINE
8
Layer 1
10
116.881494
20
174.502286
11
117.106519
21
174.168529
0
LINE
8
Layer 1
10
117.106519
20
174.168529
11
117.440276
21
173.943504
0
LINE
8
Layer 1
10
117.440276
20
173.943504
11
117.848990
21
173.860990
0
LINE
8
Layer 1
10
117.848990
20
173.860990
11
118.257704
21
173.943504
0
LINE
8
Layer 1
10
118.257704
20
173.943504
11
118.591461
21
174.168529
0
LINE
8
Layer 1
10
118.591461
20
174.168529
11
118.816486
21
174.502286
0
LINE
8
Layer 1
10
118.816486
20
174.502286
11
118.899000
21
174.911000
0
LINE
8
Layer 1
10
118.899000
20
174.911000
11
118.899000
21
174.911000
0
LINE
8
Layer 1
10
100.279000
20
164.161000
11
100.196141
21
164.569303
0
LINE
8
Layer 1
10
100.196141
20
164.569303
11
99.971047
21
164.902657
0
LINE
8
Layer 1
10
99.971047
20
164.902657
11
99.637437
21
165.127378
0
LINE
8
Layer 1
10
99.637437
20
165.127378
11
99.229030
21
165.209780
0
LINE
8
Layer 1
10
99.229030
20
165.209780
11
98.820614
21
165.127398
0
LINE
8
Layer 1
10
98.820614
20
165.127398
11
98.486988
21
164.902688
0
LINE
8
Layer 1
10
98.486988
20
164.902688
11
98.261876
21
164.569329
0
LINE
8
Layer 1
10
98.261876
20
164.569329
11
98.179000
21
164.161000
0
LINE
8
Layer 1
10
98.179000
20
164.161000
11
98.261854
21
163.752702
0
LINE
8
Layer 1
10
98.261854
20
163.752702
11
98.486946
21
163.419351
0
LINE
8
Layer 1
10
98.486946
20
163.419351
11
98.820558
21
163.194632
0
LINE
8
Layer 1
10
98.820558
20
163.194632
11
99.228970
21
163.112230
0
LINE
8
Layer 1
10
99.228970
20
163.112230
11
99.637381
21
163.194612
0
LINE
8
Layer 1
10
99.637381
20
163.194612
11
99.971005
21
163.419321
0
LINE
8
Layer 1
10
99.971005
20
163.419321
11
100.196118
21
163.752677
0
LINE
8
Layer 1
10
100.196118
20
163.752677
11
100.279000
21
164.161000
0
LINE
8
Layer 1
10
100.279000
20
164.161000
11
100.279000
21
164.161000
0
LINE
8
Layer 1
10
81.660000
20
174.911000
11
81.577139
21
175.319298
0
LINE
8
Layer 1
10
81.577139
20
175.319298
11
81.352042
21
175.652649
0
LINE
8
Layer 1
10
81.352042
20
175.652649
11
81.018428
21
175.877368
0
LINE
8
Layer 1
10
81.018428
20
175.877368
11
80.610020
21
175.959770
0
LINE
8
Layer 1
10
80.610020
20
175.959770
11
80.201609
21
175.877393
0
LINE
8
Layer 1
10
80.201609
20
175.877393
11
79.867987
21
175.652686
0
LINE
8
Layer 1
10
79.867987
20
175.652686
11
79.642876
21
175.319329
0
LINE
8
Layer 1
10
79.642876
20
175.319329
11
79.560000
21
174.911000
0
LINE
8
Layer 1
10
79.560000
20
174.911000
11
79.642851
21
174.502701
0
LINE
8
Layer 1
10
79.642851
20
174.502701
11
79.867945
21
174.169348
0
LINE
8
Layer 1
10
79.867945
20
174.169348
11
80.201556
21
173.944628
0
LINE
8
Layer 1
10
80.201556
20
173.944628
11
80.609960
21
173.862230
0
LINE
8
Layer 1
10
80.609960
20
173.862230
11
81.018376
21
173.944607
0
LINE
8
Layer 1
10
81.018376
20
173.944607
11
81.352003
21
174.169314
0
LINE
8
Layer 1
10
81.352003
20
174.169314
11
81.577118
21
174.502671
0
LINE
8
Layer 1
10
81.577118
20
174.502671
11
81.660000
21
174.911000
0
LINE
8
Layer 1
10
81.660000
20
174.911000
11
81.660000
21
174.911000
0
LINE
8
Layer 1
10
81.660000
20
196.411000
11
81.577139
21
196.819303
0
LINE
8
Layer 1
10
81.577139
20
196.819303
11
81.352042
21
197.152656
0
LINE
8
Layer 1
10
81.352042
20
197.152656
11
81.018428
21
197.377374
0
LINE
8
Layer 1
10
81.018428
20
197.377374
11
80.610020
21
197.459770
0
LINE
8
Layer 1
10
80.610020
20
197.459770
11
80.201609
21
197.377391
0
LINE
8
Layer 1
10
80.201609
20
197.377391
11
79.867987
21
197.152683
0
LINE
8
Layer 1
10
79.867987
20
197.152683
11
79.642876
21
196.819326
0
LINE
8
Layer 1
10
79.642876
20
196.819326
11
79.560000
21
196.411000
0
LINE
8
Layer 1
10
79.560000
20
196.411000
11
79.642851
21
196.002702
0
LINE
8
Layer 1
10
79.642851
20
196.002702
11
79.867945
21
195.669351
0
LINE
8
Layer 1
10
79.867945
20
195.669351
11
80.201556
21
195.444632
0
LINE
8
Layer 1
10
80.201556
20
195.444632
11
80.609960
21
195.362230
0
LINE
8
Layer 1
10
80.609960
20
195.362230
11
81.018376
21
195.444612
0
LINE
8
Layer 1
10
81.018376
20
195.444612
11
81.352003
21
195.669321
0
LINE
8
Layer 1
10
81.352003
20
195.669321
11
81.577118
21
196.002677
0
LINE
8
Layer 1
10
81.577118
20
196.002677
11
81.660000
21
196.411000
0
LINE
8
Layer 1
10
81.660000
20
196.411000
11
81.660000
21
196.411000
0
LINE
8
Layer 1
10
100.279000
20
207.161000
11
100.196141
21
207.569301
0
LINE
8
Layer 1
10
100.196141
20
207.569301
11
99.971047
21
207.902654
0
LINE
8
Layer 1
10
99.971047
20
207.902654
11
99.637437
21
208.127373
0
LINE
8
Layer 1
10
99.637437
20
208.127373
11
99.229030
21
208.209770
0
LINE
8
Layer 1
10
99.229030
20
208.209770
11
98.820614
21
208.127391
0
LINE
8
Layer 1
10
98.820614
20
208.127391
11
98.486988
21
207.902684
0
LINE
8
Layer 1
10
98.486988
20
207.902684
11
98.261876
21
207.569327
0
LINE
8
Layer 1
10
98.261876
20
207.569327
11
98.179000
21
207.161000
0
LINE
8
Layer 1
10
98.179000
20
207.161000
11
98.261854
21
206.752700
0
LINE
8
Layer 1
10
98.261854
20
206.752700
11
98.486946
21
206.419346
0
LINE
8
Layer 1
10
98.486946
20
206.419346
11
98.820558
21
206.194627
0
LINE
8
Layer 1
10
98.820558
20
206.194627
11
99.228970
21
206.112230
0
LINE
8
Layer 1
10
99.228970
20
206.112230
11
99.637381
21
206.194609
0
LINE
8
Layer 1
10
99.637381
20
206.194609
11
99.971005
21
206.419317
0
LINE
8
Layer 1
10
99.971005
20
206.419317
11
100.196118
21
206.752673
0
LINE
8
Layer 1
10
100.196118
20
206.752673
11
100.279000
21
207.161000
0
LINE
8
Layer 1
10
100.279000
20
207.161000
11
100.279000
21
207.161000
0
LINE
8
Layer 1
10
118.899000
20
196.411000
11
118.816486
21
196.819714
0
LINE
8
Layer 1
10
118.816486
20
196.819714
11
118.591461
21
197.153471
0
LINE
8
Layer 1
10
118.591461
20
197.153471
11
118.257704
21
197.378496
0
LINE
8
Layer 1
10
118.257704
20
197.378496
11
117.848990
21
197.461010
0
LINE
8
Layer 1
10
117.848990
20
197.461010
11
117.440276
21
197.378495
0
LINE
8
Layer 1
10
117.440276
20
197.378495
11
117.106519
21
197.153469
0
LINE
8
Layer 1
10
117.106519
20
197.153469
11
116.881494
21
196.819711
0
LINE
8
Layer 1
10
116.881494
20
196.819711
11
116.798980
21
196.411000
0
LINE
8
Layer 1
10
116.798980
20
196.411000
11
116.881494
21
196.002291
0
LINE
8
Layer 1
10
116.881494
20
196.002291
11
117.106519
21
195.668532
0
LINE
8
Layer 1
10
117.106519
20
195.668532
11
117.440276
21
195.443506
0
LINE
8
Layer 1
10
117.440276
20
195.443506
11
117.848990
21
195.360990
0
LINE
8
Layer 1
10
117.848990
20
195.360990
11
118.257704
21
195.443506
0
LINE
8
Layer 1
10
118.257704
20
195.443506
11
118.591461
21
195.668533
0
LINE
8
Layer 1
10
118.591461
20
195.668533
11
118.816486
21
196.002291
0
LINE
8
Layer 1
10
118.816486
20
196.002291
11
118.899000
21
196.411000
0
LINE
8
Layer 1
10
118.899000
20
196.411000
11
118.899000
21
196.411000
0
LINE
8
Layer 1
10
100.279000
20
263.161000
11
100.196141
21
263.569301
0
LINE
8
Layer 1
10
100.196141
20
263.569301
11
99.971047
21
263.902654
0
LINE
8
Layer 1
10
99.971047
20
263.902654
11
99.637437
21
264.127373
0
LINE
8
Layer 1
10
99.637437
20
264.127373
11
99.229030
21
264.209770
0
LINE
8
Layer 1
10
99.229030
20
264.209770
11
98.820614
21
264.127391
0
LINE
8
Layer 1
10
98.820614
20
264.127391
11
98.486988
21
263.902683
0
LINE
8
Layer 1
10
98.486988
20
263.902683
11
98.261876
21
263.569326
0
LINE
8
Layer 1
10
98.261876
20
263.569326
11
98.179000
21
263.161000
0
LINE
8
Layer 1
10
98.179000
20
263.161000
11
98.261854
21
262.752700
0
LINE
8
Layer 1
10
98.261854
20
262.752700
11
98.486946
21
262.419346
0
LINE
8
Layer 1
10
98.486946
20
262.419346
11
98.820558
21
262.194627
0
LINE
8
Layer 1
10
98.820558
20
262.194627
11
99.228970
21
262.112230
0
LINE
8
Layer 1
10
99.228970
20
262.112230
11
99.637381
21
262.194610
0
LINE
8
Layer 1
10
99.637381
20
262.194610
11
99.971005
21
262.419318
0
LINE
8
Layer 1
10
99.971005
20
262.419318
11
100.196118
21
262.752674
0
LINE
8
Layer 1
10
100.196118
20
262.752674
11
100.279000
21
263.161000
0
LINE
8
Layer 1
10
100.279000
20
263.161000
11
100.279000
21
263.161000
0
LINE
8
Layer 1
10
61.529600
20
252.778000
11
61.446742
21
253.186301
0
LINE
8
Layer 1
10
61.446742
20
253.186301
11
61.221646
21
253.519654
0
LINE
8
Layer 1
10
61.221646
20
253.519654
11
60.888035
21
253.744373
0
LINE
8
Layer 1
10
60.888035
20
253.744373
11
60.479630
21
253.826770
0
LINE
8
Layer 1
10
60.479630
20
253.826770
11
60.071219
21
253.744391
0
LINE
8
Layer 1
10
60.071219
20
253.744391
11
59.737596
21
253.519684
0
LINE
8
Layer 1
10
59.737596
20
253.519684
11
59.512486
21
253.186327
0
LINE
8
Layer 1
10
59.512486
20
253.186327
11
59.429610
21
252.778000
0
LINE
8
Layer 1
10
59.429610
20
252.778000
11
59.512463
21
252.369700
0
LINE
8
Layer 1
10
59.512463
20
252.369700
11
59.737557
21
252.036346
0
LINE
8
Layer 1
10
59.737557
20
252.036346
11
60.071167
21
251.811627
0
LINE
8
Layer 1
10
60.071167
20
251.811627
11
60.479570
21
251.729230
0
LINE
8
Layer 1
10
60.479570
20
251.729230
11
60.887983
21
251.811609
0
LINE
8
Layer 1
10
60.887983
20
251.811609
11
61.221609
21
252.036317
0
LINE
8
Layer 1
10
61.221609
20
252.036317
11
61.446723
21
252.369673
0
LINE
8
Layer 1
10
61.446723
20
252.369673
11
61.529600
21
252.778000
0
LINE
8
Layer 1
10
61.529600
20
252.778000
11
61.529600
21
252.778000
0
LINE
8
Layer 1
10
33.162700
20
224.411000
11
33.079843
21
224.819301
0
LINE
8
Layer 1
10
33.079843
20
224.819301
11
32.854748
21
225.152654
0
LINE
8
Layer 1
10
32.854748
20
225.152654
11
32.521136
21
225.377373
0
LINE
8
Layer 1
10
32.521136
20
225.377373
11
32.112730
21
225.459770
0
LINE
8
Layer 1
10
32.112730
20
225.459770
11
31.704319
21
225.377391
0
LINE
8
Layer 1
10
31.704319
20
225.377391
11
31.370697
21
225.152683
0
LINE
8
Layer 1
10
31.370697
20
225.152683
11
31.145586
21
224.819327
0
LINE
8
Layer 1
10
31.145586
20
224.819327
11
31.062710
21
224.411000
0
LINE
8
Layer 1
10
31.062710
20
224.411000
11
31.145567
21
224.002699
0
LINE
8
Layer 1
10
31.145567
20
224.002699
11
31.370662
21
223.669346
0
LINE
8
Layer 1
10
31.370662
20
223.669346
11
31.704273
21
223.444627
0
LINE
8
Layer 1
10
31.704273
20
223.444627
11
32.112680
21
223.362230
0
LINE
8
Layer 1
10
32.112680
20
223.362230
11
32.521090
21
223.444609
0
LINE
8
Layer 1
10
32.521090
20
223.444609
11
32.854712
21
223.669317
0
LINE
8
Layer 1
10
32.854712
20
223.669317
11
33.079824
21
224.002673
0
LINE
8
Layer 1
10
33.079824
20
224.002673
11
33.162700
21
224.411000
0
LINE
8
Layer 1
10
33.162700
20
224.411000
11
33.162700
21
224.411000
0
LINE
8
Layer 1
10
22.779700
20
185.661000
11
22.696758
21
186.069219
0
LINE
8
Layer 1
10
22.696758
20
186.069219
11
22.471640
21
186.402483
0
LINE
8
Layer 1
10
22.471640
20
186.402483
11
22.138058
21
186.627127
0
LINE
8
Layer 1
10
22.138058
20
186.627127
11
21.729720
21
186.709490
0
LINE
8
Layer 1
10
21.729720
20
186.709490
11
21.321377
21
186.627135
0
LINE
8
Layer 1
10
21.321377
20
186.627135
11
20.987788
21
186.402494
0
LINE
8
Layer 1
10
20.987788
20
186.402494
11
20.762663
21
186.069229
0
LINE
8
Layer 1
10
20.762663
20
186.069229
11
20.679710
21
185.661000
0
LINE
8
Layer 1
10
20.679710
20
185.661000
11
20.762652
21
185.252775
0
LINE
8
Layer 1
10
20.762652
20
185.252775
11
20.987769
21
184.919509
0
LINE
8
Layer 1
10
20.987769
20
184.919509
11
21.321352
21
184.694863
0
LINE
8
Layer 1
10
21.321352
20
184.694863
11
21.729690
21
184.612500
0
LINE
8
Layer 1
10
21.729690
20
184.612500
11
22.138032
21
184.694856
0
LINE
8
Layer 1
10
22.138032
20
184.694856
11
22.471621
21
184.919498
0
LINE
8
Layer 1
10
22.471621
20
184.919498
11
22.696747
21
185.252766
0
LINE
8
Layer 1
10
22.696747
20
185.252766
11
22.779700
21
185.661000
0
LINE
8
Layer 1
10
22.779700
20
185.661000
11
22.779700
21
185.661000
0
LINE
8
Layer 1
10
33.162700
20
146.911000
11
33.079843
21
147.319298
0
LINE
8
Layer 1
10
33.079843
20
147.319298
11
32.854748
21
147.652649
0
LINE
8
Layer 1
10
32.854748
20
147.652649
11
32.521136
21
147.877368
0
LINE
8
Layer 1
10
32.521136
20
147.877368
11
32.112730
21
147.959770
0
LINE
8
Layer 1
10
32.112730
20
147.959770
11
31.704319
21
147.877388
0
LINE
8
Layer 1
10
31.704319
20
147.877388
11
31.370697
21
147.652679
0
LINE
8
Layer 1
10
31.370697
20
147.652679
11
31.145586
21
147.319323
0
LINE
8
Layer 1
10
31.145586
20
147.319323
11
31.062710
21
146.911000
0
LINE
8
Layer 1
10
31.062710
20
146.911000
11
31.145567
21
146.502701
0
LINE
8
Layer 1
10
31.145567
20
146.502701
11
31.370662
21
146.169346
0
LINE
8
Layer 1
10
31.370662
20
146.169346
11
31.704273
21
145.944624
0
LINE
8
Layer 1
10
31.704273
20
145.944624
11
32.112680
21
145.862220
0
LINE
8
Layer 1
10
32.112680
20
145.862220
11
32.521090
21
145.944602
0
LINE
8
Layer 1
10
32.521090
20
145.944602
11
32.854712
21
146.169312
0
LINE
8
Layer 1
10
32.854712
20
146.169312
11
33.079824
21
146.502671
0
LINE
8
Layer 1
10
33.079824
20
146.502671
11
33.162700
21
146.911000
0
LINE
8
Layer 1
10
33.162700
20
146.911000
11
33.162700
21
146.911000
0
LINE
8
Layer 1
10
61.529600
20
118.544000
11
61.446742
21
118.952299
0
LINE
8
Layer 1
10
61.446742
20
118.952299
11
61.221646
21
119.285654
0
LINE
8
Layer 1
10
61.221646
20
119.285654
11
60.888035
21
119.510376
0
LINE
8
Layer 1
10
60.888035
20
119.510376
11
60.479630
21
119.592780
0
LINE
8
Layer 1
10
60.479630
20
119.592780
11
60.071219
21
119.510397
0
LINE
8
Layer 1
10
60.071219
20
119.510397
11
59.737596
21
119.285687
0
LINE
8
Layer 1
10
59.737596
20
119.285687
11
59.512486
21
118.952329
0
LINE
8
Layer 1
10
59.512486
20
118.952329
11
59.429610
21
118.544000
0
LINE
8
Layer 1
10
59.429610
20
118.544000
11
59.512463
21
118.135702
0
LINE
8
Layer 1
10
59.512463
20
118.135702
11
59.737557
21
117.802352
0
LINE
8
Layer 1
10
59.737557
20
117.802352
11
60.071167
21
117.577636
0
LINE
8
Layer 1
10
60.071167
20
117.577636
11
60.479570
21
117.495240
0
LINE
8
Layer 1
10
60.479570
20
117.495240
11
60.887983
21
117.577617
0
LINE
8
Layer 1
10
60.887983
20
117.577617
11
61.221609
21
117.802322
0
LINE
8
Layer 1
10
61.221609
20
117.802322
11
61.446723
21
118.135677
0
LINE
8
Layer 1
10
61.446723
20
118.135677
11
61.529600
21
118.544000
0
LINE
8
Layer 1
10
61.529600
20
118.544000
11
61.529600
21
118.544000
0
LINE
8
Layer 1
10
100.279000
20
108.161000
11
100.196141
21
108.569299
0
LINE
8
Layer 1
10
100.196141
20
108.569299
11
99.971047
21
108.902653
0
LINE
8
Layer 1
10
99.971047
20
108.902653
11
99.637437
21
109.127372
0
LINE
8
Layer 1
10
99.637437
20
109.127372
11
99.229030
21
109.209770
0
LINE
8
Layer 1
10
99.229030
20
109.209770
11
98.820614
21
109.127392
0
LINE
8
Layer 1
10
98.820614
20
109.127392
11
98.486988
21
108.902683
0
LINE
8
Layer 1
10
98.486988
20
108.902683
11
98.261876
21
108.569324
0
LINE
8
Layer 1
10
98.261876
20
108.569324
11
98.179000
21
108.161000
0
LINE
8
Layer 1
10
98.179000
20
108.161000
11
98.261854
21
107.752707
0
LINE
8
Layer 1
10
98.261854
20
107.752707
11
98.486946
21
107.419355
0
LINE
8
Layer 1
10
98.486946
20
107.419355
11
98.820558
21
107.194633
0
LINE
8
Layer 1
10
98.820558
20
107.194633
11
99.228970
21
107.112230
0
LINE
8
Layer 1
10
99.228970
20
107.112230
11
99.637381
21
107.194612
0
LINE
8
Layer 1
10
99.637381
20
107.194612
11
99.971005
21
107.419321
0
LINE
8
Layer 1
10
99.971005
20
107.419321
11
100.196118
21
107.752677
0
LINE
8
Layer 1
10
100.196118
20
107.752677
11
100.279000
21
108.161000
0
LINE
8
Layer 1
10
100.279000
20
108.161000
11
100.279000
21
108.161000
0
LINE
8
Layer 1
10
170.826000
20
131.440000
11
170.994700
21
131.087060
0
LINE
8
Layer 1
10
170.994700
20
131.087060
11
171.348970
21
130.316730
0
LINE
8
Layer 1
10
171.348970
20
130.316730
11
171.700540
21
129.510150
0
LINE
8
Layer 1
10
171.700540
20
129.510150
11
172.048110
21
128.667120
0
LINE
8
Layer 1
10
172.048110
20
128.667120
11
172.390360
21
127.787480
0
LINE
8
Layer 1
10
172.390360
20
127.787480
11
172.636570
21
127.120830
0
LINE
8
Layer 1
10
168.023000
20
127.925000
11
168.404630
21
127.839100
0
LINE
8
Layer 1
10
168.404630
20
127.839100
11
169.234460
21
127.665120
0
LINE
8
Layer 1
10
169.234460
20
127.665120
11
170.099070
21
127.501840
0
LINE
8
Layer 1
10
170.099070
20
127.501840
11
170.998310
21
127.350560
0
LINE
8
Layer 1
10
170.998310
20
127.350560
11
171.932050
21
127.212630
0
LINE
8
Layer 1
10
171.932050
20
127.212630
11
172.636760
21
127.120930
0
LINE
8
Layer 1
10
168.023000
20
127.925000
11
166.856786
21
128.115857
0
LINE
8
Layer 1
10
166.856786
20
128.115857
11
165.690068
21
128.156371
0
LINE
8
Layer 1
10
165.690068
20
128.156371
11
163.408914
21
127.801815
0
LINE
8
Layer 1
10
163.408914
20
127.801815
11
161.287117
21
126.892222
0
LINE
8
Layer 1
10
161.287117
20
126.892222
11
160.319597
21
126.238939
0
LINE
8
Layer 1
10
160.319597
20
126.238939
11
159.432260
21
125.458480
0
LINE
8
Layer 1
10
159.432260
20
125.458480
11
158.651798
21
124.571146
0
LINE
8
Layer 1
10
158.651798
20
124.571146
11
157.998514
21
123.603629
0
LINE
8
Layer 1
10
157.998514
20
123.603629
11
157.088921
21
121.481836
0
LINE
8
Layer 1
10
157.088921
20
121.481836
11
156.734368
21
119.200686
0
LINE
8
Layer 1
10
156.734368
20
119.200686
11
156.774883
21
118.033971
0
LINE
8
Layer 1
10
156.774883
20
118.033971
11
156.965740
21
116.867760
0
LINE
8
Layer 1
10
156.966000
20
116.868000
11
157.051900
21
116.486370
0
LINE
8
Layer 1
10
157.051900
20
116.486370
11
157.225900
21
115.656520
0
LINE
8
Layer 1
10
157.225900
20
115.656520
11
157.389170
21
114.791920
0
LINE
8
Layer 1
10
157.389170
20
114.791920
11
157.540460
21
113.892690
0
LINE
8
Layer 1
10
157.540460
20
113.892690
11
157.678380
21
112.958950
0
LINE
8
Layer 1
10
157.678380
20
112.958950
11
157.770080
21
112.254230
0
LINE
8
Layer 1
10
153.451000
20
114.064000
11
153.803950
21
113.895310
0
LINE
8
Layer 1
10
153.803950
20
113.895310
11
154.574290
21
113.541040
0
LINE
8
Layer 1
10
154.574290
20
113.541040
11
155.380860
21
113.189440
0
LINE
8
Layer 1
10
155.380860
20
113.189440
11
156.223890
21
112.841860
0
LINE
8
Layer 1
10
156.223890
20
112.841860
11
157.103530
21
112.499620
0
LINE
8
Layer 1
10
157.103530
20
112.499620
11
157.770170
21
112.253390
0
LINE
8
Layer 1
10
153.451000
20
114.064000
11
152.356493
21
114.509579
0
LINE
8
Layer 1
10
152.356493
20
114.509579
11
151.228043
21
114.808696
0
LINE
8
Layer 1
10
151.228043
20
114.808696
11
148.925187
21
114.970632
0
LINE
8
Layer 1
10
148.925187
20
114.970632
11
146.654189
21
114.555988
0
LINE
8
Layer 1
10
146.654189
20
114.555988
11
145.565559
21
114.134378
0
LINE
8
Layer 1
10
145.565559
20
114.134378
11
144.526800
21
113.570940
0
LINE
8
Layer 1
10
144.526800
20
113.570940
11
143.568458
21
112.879518
0
LINE
8
Layer 1
10
143.568458
20
112.879518
11
142.716262
21
112.081625
0
LINE
8
Layer 1
10
142.716262
20
112.081625
11
141.357332
21
110.215431
0
LINE
8
Layer 1
10
141.357332
20
110.215431
11
140.504064
21
108.070366
0
LINE
8
Layer 1
10
140.504064
20
108.070366
11
140.283945
21
106.923885
0
LINE
8
Layer 1
10
140.283945
20
106.923885
11
140.210510
21
105.744440
0
LINE
8
Layer 1
10
140.210000
20
105.745000
11
140.210000
21
105.353820
0
LINE
8
Layer 1
10
140.210000
20
105.353820
11
140.194900
21
104.506070
0
LINE
8
Layer 1
10
140.194900
20
104.506070
11
140.161700
21
103.626840
0
LINE
8
Layer 1
10
140.161700
20
103.626840
11
140.109100
21
102.716460
0
LINE
8
Layer 1
10
140.109100
20
102.716460
11
140.035800
21
101.775440
0
LINE
8
Layer 1
10
140.035800
20
101.775440
11
139.968400
21
101.068000
0
LINE
8
Layer 1
10
136.159000
20
103.794000
11
136.465530
21
103.551010
0
LINE
8
Layer 1
10
136.465530
20
103.551010
11
137.137730
21
103.034200
0
LINE
8
Layer 1
10
137.137730
20
103.034200
11
137.845860
21
102.511960
0
LINE
8
Layer 1
10
137.845860
20
102.511960
11
138.590390
21
101.985500
0
LINE
8
Layer 1
10
138.590390
20
101.985500
11
139.371800
21
101.456090
0
LINE
8
Layer 1
10
139.371800
20
101.456090
11
139.966960
21
101.067710
0
LINE
8
Layer 1
10
136.159000
20
103.794000
11
135.191091
21
104.471959
0
LINE
8
Layer 1
10
135.191091
20
104.471959
11
134.157497
21
105.014684
0
LINE
8
Layer 1
10
134.157497
20
105.014684
11
131.948416
21
105.685004
0
LINE
8
Layer 1
10
131.948416
20
105.685004
11
129.642085
21
105.786109
0
LINE
8
Layer 1
10
129.642085
20
105.786109
11
128.486927
21
105.617316
0
LINE
8
Layer 1
10
128.486927
20
105.617316
11
127.348830
21
105.299150
0
LINE
8
Layer 1
10
127.348830
20
105.299150
11
126.260659
21
104.838320
0
LINE
8
Layer 1
10
126.260659
20
104.838320
11
125.252280
21
104.250067
0
LINE
8
Layer 1
10
125.252280
20
104.250067
11
123.512150
21
102.733052
0
LINE
8
Layer 1
10
123.512150
20
102.733052
11
122.202948
21
100.831637
0
LINE
8
Layer 1
10
122.202948
20
100.831637
11
121.733228
21
99.762882
0
LINE
8
Layer 1
10
121.733228
20
99.762882
11
121.399180
21
98.629350
0
LINE
8
Layer 1
10
121.400000
20
98.629500
11
121.311800
21
98.248360
0
LINE
8
Layer 1
10
121.311800
20
98.248360
11
121.108490
21
97.425230
0
LINE
8
Layer 1
10
121.108490
20
97.425230
11
120.880470
21
96.575400
0
LINE
8
Layer 1
10
120.880470
20
96.575400
11
120.626590
21
95.699580
0
LINE
8
Layer 1
10
120.626590
20
95.699580
11
120.345710
21
94.798460
0
LINE
8
Layer 1
10
120.345710
20
94.798460
11
120.122590
21
94.123720
0
LINE
8
Layer 1
10
117.016000
20
97.629100
11
117.260830
21
97.324000
0
LINE
8
Layer 1
10
117.260830
20
97.324000
11
117.801140
21
96.670560
0
LINE
8
Layer 1
10
117.801140
20
96.670560
11
118.375320
21
96.003820
0
LINE
8
Layer 1
10
118.375320
20
96.003820
11
118.984040
21
95.324870
0
LINE
8
Layer 1
10
118.984040
20
95.324870
11
119.628050
21
94.634870
0
LINE
8
Layer 1
10
119.628050
20
94.634870
11
120.121870
21
94.123780
0
LINE
8
Layer 1
10
117.016000
20
97.629100
11
116.223221
21
98.505442
0
LINE
8
Layer 1
10
116.223221
20
98.505442
11
115.336308
21
99.264555
0
LINE
8
Layer 1
10
115.336308
20
99.264555
11
113.331769
21
100.409627
0
LINE
8
Layer 1
10
113.331769
20
100.409627
11
111.105760
21
101.021394
0
LINE
8
Layer 1
10
111.105760
20
101.021394
11
109.942011
21
101.113874
0
LINE
8
Layer 1
10
109.942011
20
101.113874
11
108.761660
21
101.056930
0
LINE
8
Layer 1
10
108.761660
20
101.056930
11
107.598226
21
100.849796
0
LINE
8
Layer 1
10
107.598226
20
100.849796
11
106.484230
21
100.500677
0
LINE
8
Layer 1
10
106.484230
20
100.500677
11
104.450164
21
99.408916
0
LINE
8
Layer 1
10
104.450164
20
99.408916
11
102.750685
21
97.846502
0
LINE
8
Layer 1
10
102.750685
20
97.846502
11
102.054924
21
96.909067
0
LINE
8
Layer 1
10
102.054924
20
96.909067
11
101.477020
21
95.878290
0
LINE
8
Layer 1
10
101.477000
20
95.878300
11
101.306230
21
95.526360
0
LINE
8
Layer 1
10
101.306230
20
95.526360
11
100.924840
21
94.769100
0
LINE
8
Layer 1
10
100.924840
20
94.769100
11
100.513430
21
93.991350
0
LINE
8
Layer 1
10
100.513430
20
93.991350
11
100.071050
21
93.193970
0
LINE
8
Layer 1
10
100.071050
20
93.193970
11
99.596721
21
92.377950
0
LINE
8
Layer 1
10
99.596721
20
92.377950
11
99.229012
21
91.769780
0
LINE
8
Layer 1
10
96.981400
20
95.878300
11
97.152190
21
95.526360
0
LINE
8
Layer 1
10
97.152190
20
95.526360
11
97.533558
21
94.769100
0
LINE
8
Layer 1
10
97.533558
20
94.769100
11
97.944957
21
93.991350
0
LINE
8
Layer 1
10
97.944957
20
93.991350
11
98.387376
21
93.193970
0
LINE
8
Layer 1
10
98.387376
20
93.193970
11
98.861694
21
92.377950
0
LINE
8
Layer 1
10
98.861694
20
92.377950
11
99.229383
21
91.769780
0
LINE
8
Layer 1
10
96.981400
20
95.878300
11
96.403492
21
96.909081
0
LINE
8
Layer 1
10
96.403492
20
96.909081
11
95.707729
21
97.846518
0
LINE
8
Layer 1
10
95.707729
20
97.846518
11
94.008249
21
99.408934
0
LINE
8
Layer 1
10
94.008249
20
99.408934
11
91.974184
21
100.500693
0
LINE
8
Layer 1
10
91.974184
20
100.500693
11
90.860190
21
100.849809
0
LINE
8
Layer 1
10
90.860190
20
100.849809
11
89.696760
21
101.056940
0
LINE
8
Layer 1
10
89.696760
20
101.056940
11
88.516404
21
101.113884
0
LINE
8
Layer 1
10
88.516404
20
101.113884
11
87.352652
21
101.021404
0
LINE
8
Layer 1
10
87.352652
20
101.021404
11
85.126646
21
100.409636
0
LINE
8
Layer 1
10
85.126646
20
100.409636
11
83.122110
21
99.264560
0
LINE
8
Layer 1
10
83.122110
20
99.264560
11
82.235195
21
98.505446
0
LINE
8
Layer 1
10
82.235195
20
98.505446
11
81.442410
21
97.629100
0
LINE
8
Layer 1
10
81.442400
20
97.629100
11
81.197610
21
97.324000
0
LINE
8
Layer 1
10
81.197610
20
97.324000
11
80.657282
21
96.670570
0
LINE
8
Layer 1
10
80.657282
20
96.670570
11
80.083114
21
96.003850
0
LINE
8
Layer 1
10
80.083114
20
96.003850
11
79.474385
21
95.324900
0
LINE
8
Layer 1
10
79.474385
20
95.324900
11
78.830367
21
94.634900
0
LINE
8
Layer 1
10
78.830367
20
94.634900
11
78.336569
21
94.123810
0
LINE
8
Layer 1
10
77.059200
20
98.629600
11
77.147400
21
98.248480
0
LINE
8
Layer 1
10
77.147400
20
98.248480
11
77.350700
21
97.425350
0
LINE
8
Layer 1
10
77.350700
20
97.425350
11
77.578719
21
96.575500
0
LINE
8
Layer 1
10
77.578719
20
96.575500
11
77.832618
21
95.699670
0
LINE
8
Layer 1
10
77.832618
20
95.699670
11
78.113468
21
94.798550
0
LINE
8
Layer 1
10
78.113468
20
94.798550
11
78.336617
21
94.123850
0
LINE
8
Layer 1
10
77.059200
20
98.629600
11
76.725156
21
99.763135
0
LINE
8
Layer 1
10
76.725156
20
99.763135
11
76.255441
21
100.831892
0
LINE
8
Layer 1
10
76.255441
20
100.831892
11
74.946246
21
102.733307
0
LINE
8
Layer 1
10
74.946246
20
102.733307
11
73.206123
21
104.250322
0
LINE
8
Layer 1
10
73.206123
20
104.250322
11
72.197747
21
104.838577
0
LINE
8
Layer 1
10
72.197747
20
104.838577
11
71.109580
21
105.299410
0
LINE
8
Layer 1
10
71.109580
20
105.299410
11
69.971489
21
105.617583
0
LINE
8
Layer 1
10
69.971489
20
105.617583
11
68.816337
21
105.786382
0
LINE
8
Layer 1
10
68.816337
20
105.786382
11
66.510010
21
105.685287
0
LINE
8
Layer 1
10
66.510010
20
105.685287
11
64.300928
21
105.014976
0
LINE
8
Layer 1
10
64.300928
20
105.014976
11
63.267332
21
104.472256
0
LINE
8
Layer 1
10
63.267332
20
104.472256
11
62.299420
21
103.794300
0
LINE
8
Layer 1
10
62.299400
20
103.794000
11
61.992829
21
103.551000
0
LINE
8
Layer 1
10
61.992829
20
103.551000
11
61.320658
21
103.034200
0
LINE
8
Layer 1
10
61.320658
20
103.034200
11
60.612530
21
102.511930
0
LINE
8
Layer 1
10
60.612530
20
102.511930
11
59.867972
21
101.985490
0
LINE
8
Layer 1
10
59.867972
20
101.985490
11
59.086557
21
101.456060
0
LINE
8
Layer 1
10
59.086557
20
101.456060
11
58.491420
21
101.067680
0
LINE
8
Layer 1
10
58.248700
20
105.745000
11
58.249800
21
105.353810
0
LINE
8
Layer 1
10
58.249800
20
105.353810
11
58.264850
21
104.506060
0
LINE
8
Layer 1
10
58.264850
20
104.506060
11
58.298050
21
103.626800
0
LINE
8
Layer 1
10
58.298050
20
103.626800
11
58.350670
21
102.716450
0
LINE
8
Layer 1
10
58.350670
20
102.716450
11
58.423970
21
101.775440
0
LINE
8
Layer 1
10
58.423970
20
101.775440
11
58.491380
21
101.067970
0
LINE
8
Layer 1
10
58.248700
20
105.745000
11
58.175281
21
106.924400
0
LINE
8
Layer 1
10
58.175281
20
106.924400
11
57.955177
21
108.070851
0
LINE
8
Layer 1
10
57.955177
20
108.070851
11
57.101939
21
110.215889
0
LINE
8
Layer 1
10
57.101939
20
110.215889
11
55.743034
21
112.082090
0
LINE
8
Layer 1
10
55.743034
20
112.082090
11
54.890846
21
112.879994
0
LINE
8
Layer 1
10
54.890846
20
112.879994
11
53.932510
21
113.571430
0
LINE
8
Layer 1
10
53.932510
20
113.571430
11
52.893761
21
114.134883
0
LINE
8
Layer 1
10
52.893761
20
114.134883
11
51.805136
21
114.556507
0
LINE
8
Layer 1
10
51.805136
20
114.556507
11
49.534131
21
114.971176
0
LINE
8
Layer 1
10
49.534131
20
114.971176
11
47.231238
21
114.809255
0
LINE
8
Layer 1
10
47.231238
20
114.809255
11
46.102753
21
114.510141
0
LINE
8
Layer 1
10
46.102753
20
114.510141
11
45.008200
21
114.064560
0
LINE
8
Layer 1
10
45.008200
20
114.065000
11
44.655258
21
113.896310
0
LINE
8
Layer 1
10
44.655258
20
113.896310
11
43.884935
21
113.542030
0
LINE
8
Layer 1
10
43.884935
20
113.542030
11
43.078351
21
113.190450
0
LINE
8
Layer 1
10
43.078351
20
113.190450
11
42.235313
21
112.842870
0
LINE
8
Layer 1
10
42.235313
20
112.842870
11
41.355677
21
112.500620
0
LINE
8
Layer 1
10
41.355677
20
112.500620
11
40.689030
21
112.254400
0
LINE
8
Layer 1
10
41.493100
20
116.868000
11
41.407180
21
116.486360
0
LINE
8
Layer 1
10
41.407180
20
116.486360
11
41.233207
21
115.656520
0
LINE
8
Layer 1
10
41.233207
20
115.656520
11
41.069924
21
114.791920
0
LINE
8
Layer 1
10
41.069924
20
114.791920
11
40.918648
21
113.892690
0
LINE
8
Layer 1
10
40.918648
20
113.892690
11
40.780710
21
112.958950
0
LINE
8
Layer 1
10
40.780710
20
112.958950
11
40.689010
21
112.254230
0
LINE
8
Layer 1
10
41.493100
20
116.868000
11
41.683958
21
118.034211
0
LINE
8
Layer 1
10
41.683958
20
118.034211
11
41.724473
21
119.200926
0
LINE
8
Layer 1
10
41.724473
20
119.200926
11
41.369920
21
121.482076
0
LINE
8
Layer 1
10
41.369920
20
121.482076
11
40.460329
21
123.603869
0
LINE
8
Layer 1
10
40.460329
20
123.603869
11
39.807048
21
124.571386
0
LINE
8
Layer 1
10
39.807048
20
124.571386
11
39.026590
21
125.458720
0
LINE
8
Layer 1
10
39.026590
20
125.458720
11
38.139256
21
126.239182
0
LINE
8
Layer 1
10
38.139256
20
126.239182
11
37.171738
21
126.892468
0
LINE
8
Layer 1
10
37.171738
20
126.892468
11
35.049945
21
127.802064
0
LINE
8
Layer 1
10
35.049945
20
127.802064
11
32.768792
21
128.156620
0
LINE
8
Layer 1
10
32.768792
20
128.156620
11
31.602074
21
128.116107
0
LINE
8
Layer 1
10
31.602074
20
128.116107
11
30.435860
21
127.925250
0
LINE
8
Layer 1
10
30.435900
20
127.925000
11
30.054267
21
127.839100
0
LINE
8
Layer 1
10
30.054267
20
127.839100
11
29.224423
21
127.665120
0
LINE
8
Layer 1
10
29.224423
20
127.665120
11
28.359829
21
127.501840
0
LINE
8
Layer 1
10
28.359829
20
127.501840
11
27.460589
21
127.350570
0
LINE
8
Layer 1
10
27.460589
20
127.350570
11
26.526849
21
127.212630
0
LINE
8
Layer 1
10
26.526849
20
127.212630
11
25.822128
21
127.120930
0
LINE
8
Layer 1
10
27.632700
20
131.440000
11
27.464010
21
131.087050
0
LINE
8
Layer 1
10
27.464010
20
131.087050
11
27.109737
21
130.316730
0
LINE
8
Layer 1
10
27.109737
20
130.316730
11
26.758153
21
129.510150
0
LINE
8
Layer 1
10
26.758153
20
129.510150
11
26.410574
21
128.667120
0
LINE
8
Layer 1
10
26.410574
20
128.667120
11
26.068317
21
127.787490
0
LINE
8
Layer 1
10
26.068317
20
127.787490
11
25.822093
21
127.120840
0
LINE
8
Layer 1
10
27.632700
20
131.440000
11
28.078280
21
132.534501
0
LINE
8
Layer 1
10
28.078280
20
132.534501
11
28.377399
21
133.662949
0
LINE
8
Layer 1
10
28.377399
20
133.662949
11
28.539341
21
135.965804
0
LINE
8
Layer 1
10
28.539341
20
135.965804
11
28.124698
21
138.236804
0
LINE
8
Layer 1
10
28.124698
20
138.236804
11
27.703087
21
139.325434
0
LINE
8
Layer 1
10
27.703087
20
139.325434
11
27.139644
21
140.364190
0
LINE
8
Layer 1
10
27.139644
20
140.364190
11
26.448226
21
141.322536
0
LINE
8
Layer 1
10
26.448226
20
141.322536
11
25.650335
21
142.174735
0
LINE
8
Layer 1
10
25.650335
20
142.174735
11
23.784144
21
143.533671
0
LINE
8
Layer 1
10
23.784144
20
143.533671
11
21.639080
21
144.386944
0
LINE
8
Layer 1
10
21.639080
20
144.386944
11
20.492599
21
144.607065
0
LINE
8
Layer 1
10
20.492599
20
144.607065
11
19.313154
21
144.680500
0
LINE
8
Layer 1
10
19.313200
20
144.681000
11
18.922019
21
144.682000
0
LINE
8
Layer 1
10
18.922019
20
144.682000
11
18.074271
21
144.697100
0
LINE
8
Layer 1
10
18.074271
20
144.697100
11
17.195019
21
144.730300
0
LINE
8
Layer 1
10
17.195019
20
144.730300
11
16.284664
21
144.782900
0
LINE
8
Layer 1
10
16.284664
20
144.782900
11
15.343646
21
144.856200
0
LINE
8
Layer 1
10
15.343646
20
144.856200
11
14.636186
21
144.923600
0
LINE
8
Layer 1
10
17.362500
20
148.731000
11
17.119501
21
148.424440
0
LINE
8
Layer 1
10
17.119501
20
148.424440
11
16.602698
21
147.752260
0
LINE
8
Layer 1
10
16.602698
20
147.752260
11
16.080449
21
147.044130
0
LINE
8
Layer 1
10
16.080449
20
147.044130
11
15.553992
21
146.299580
0
LINE
8
Layer 1
10
15.553992
20
146.299580
11
15.024582
21
145.518160
0
LINE
8
Layer 1
10
15.024582
20
145.518160
11
14.636190
21
144.923020
0
LINE
8
Layer 1
10
17.362500
20
148.731000
11
18.040456
21
149.698912
0
LINE
8
Layer 1
10
18.040456
20
149.698912
11
18.583176
21
150.732508
0
LINE
8
Layer 1
10
18.583176
20
150.732508
11
19.253489
21
152.941589
0
LINE
8
Layer 1
10
19.253489
20
152.941589
11
19.354587
21
155.247913
0
LINE
8
Layer 1
10
19.354587
20
155.247913
11
19.185790
21
156.403063
0
LINE
8
Layer 1
10
19.185790
20
156.403063
11
18.867620
21
157.541150
0
LINE
8
Layer 1
10
18.867620
20
157.541150
11
18.406788
21
158.629321
0
LINE
8
Layer 1
10
18.406788
20
158.629321
11
17.818534
21
159.637700
0
LINE
8
Layer 1
10
17.818534
20
159.637700
11
16.301524
21
161.377829
0
LINE
8
Layer 1
10
16.301524
20
161.377829
11
14.400114
21
162.687028
0
LINE
8
Layer 1
10
14.400114
20
162.687028
11
13.331361
21
163.156745
0
LINE
8
Layer 1
10
13.331361
20
163.156745
11
12.197830
21
163.490790
0
LINE
8
Layer 1
10
12.197800
20
163.491000
11
11.816682
21
163.579200
0
LINE
8
Layer 1
10
11.816682
20
163.579200
11
10.993535
21
163.782500
0
LINE
8
Layer 1
10
10.993535
20
163.782500
11
10.143714
21
164.010520
0
LINE
8
Layer 1
10
10.143714
20
164.010520
11
9.267893
21
164.264400
0
LINE
8
Layer 1
10
9.267893
20
164.264400
11
8.366777
21
164.545250
0
LINE
8
Layer 1
10
8.366777
20
164.545250
11
7.692058
21
164.768400
0
LINE
8
Layer 1
10
11.197400
20
167.874000
11
10.892278
21
167.629200
0
LINE
8
Layer 1
10
10.892278
20
167.629200
11
10.238861
21
167.088880
0
LINE
8
Layer 1
10
10.238861
20
167.088880
11
9.572130
21
166.514720
0
LINE
8
Layer 1
10
9.572130
20
166.514720
11
8.893196
21
165.905980
0
LINE
8
Layer 1
10
8.893196
20
165.905980
11
8.203176
21
165.261960
0
LINE
8
Layer 1
10
8.203176
20
165.261960
11
7.692093
21
164.768160
0
LINE
8
Layer 1
10
11.197400
20
167.874000
11
12.073743
21
168.666785
0
LINE
8
Layer 1
10
12.073743
20
168.666785
11
12.832856
21
169.553701
0
LINE
8
Layer 1
10
12.832856
20
169.553701
11
13.977932
21
171.558241
0
LINE
8
Layer 1
10
13.977932
20
171.558241
11
14.589702
21
173.784251
0
LINE
8
Layer 1
10
14.589702
20
173.784251
11
14.682183
21
174.948004
0
LINE
8
Layer 1
10
14.682183
20
174.948004
11
14.625240
21
176.128360
0
LINE
8
Layer 1
10
14.625240
20
176.128360
11
14.418103
21
177.291794
0
LINE
8
Layer 1
10
14.418103
20
177.291794
11
14.068983
21
178.405790
0
LINE
8
Layer 1
10
14.068983
20
178.405790
11
12.977222
21
180.439856
0
LINE
8
Layer 1
10
12.977222
20
180.439856
11
11.414807
21
182.139335
0
LINE
8
Layer 1
10
11.414807
20
182.139335
11
10.477370
21
182.835096
0
LINE
8
Layer 1
10
10.477370
20
182.835096
11
9.446590
21
183.413000
0
LINE
8
Layer 1
10
9.446540
20
183.413000
11
9.094597
21
183.583760
0
LINE
8
Layer 1
10
9.094597
20
183.583760
11
8.337329
21
183.965140
0
LINE
8
Layer 1
10
8.337329
20
183.965140
11
7.559552
21
184.376550
0
LINE
8
Layer 1
10
7.559552
20
184.376550
11
6.762180
21
184.818940
0
LINE
8
Layer 1
10
6.762180
20
184.818940
11
5.946154
21
185.293280
0
LINE
8
Layer 1
10
5.946154
20
185.293280
11
5.338005
21
185.660970
0
LINE
8
Layer 1
10
9.446540
20
187.909000
11
9.094593
21
187.738230
0
LINE
8
Layer 1
10
9.094593
20
187.738230
11
8.337325
21
187.356860
0
LINE
8
Layer 1
10
8.337325
20
187.356860
11
7.559548
21
186.945450
0
LINE
8
Layer 1
10
7.559548
20
186.945450
11
6.762180
21
186.503060
0
LINE
8
Layer 1
10
6.762180
20
186.503060
11
5.946150
21
186.028720
0
LINE
8
Layer 1
10
5.946150
20
186.028720
11
5.337997
21
185.661040
0
LINE
8
Layer 1
10
9.446540
20
187.909000
11
10.477320
21
188.486904
0
LINE
8
Layer 1
10
10.477320
20
188.486904
11
11.414757
21
189.182665
0
LINE
8
Layer 1
10
11.414757
20
189.182665
11
12.977172
21
190.882142
0
LINE
8
Layer 1
10
12.977172
20
190.882142
11
14.068937
21
192.916206
0
LINE
8
Layer 1
10
14.068937
20
192.916206
11
14.418059
21
194.030200
0
LINE
8
Layer 1
10
14.418059
20
194.030200
11
14.625200
21
195.193630
0
LINE
8
Layer 1
10
14.625200
20
195.193630
11
14.682144
21
196.373986
0
LINE
8
Layer 1
10
14.682144
20
196.373986
11
14.589665
21
197.537739
0
LINE
8
Layer 1
10
14.589665
20
197.537739
11
13.977897
21
199.763749
0
LINE
8
Layer 1
10
13.977897
20
199.763749
11
12.832823
21
201.768289
0
LINE
8
Layer 1
10
12.832823
20
201.768289
11
12.073711
21
202.655205
0
LINE
8
Layer 1
10
12.073711
20
202.655205
11
11.197370
21
203.447990
0
LINE
8
Layer 1
10
11.197400
20
203.448000
11
10.892278
21
203.692801
0
LINE
8
Layer 1
10
10.892278
20
203.692801
11
10.238861
21
204.233124
0
LINE
8
Layer 1
10
10.238861
20
204.233124
11
9.572130
21
204.807284
0
LINE
8
Layer 1
10
9.572130
20
204.807284
11
8.893196
21
205.416022
0
LINE
8
Layer 1
10
8.893196
20
205.416022
11
8.203177
21
206.060046
0
LINE
8
Layer 1
10
8.203177
20
206.060046
11
7.692093
21
206.553843
0
LINE
8
Layer 1
10
12.197800
20
207.831000
11
11.816678
21
207.742830
0
LINE
8
Layer 1
10
11.816678
20
207.742830
11
10.993531
21
207.539521
0
LINE
8
Layer 1
10
10.993531
20
207.539521
11
10.143710
21
207.311505
0
LINE
8
Layer 1
10
10.143710
20
207.311505
11
9.267889
21
207.057630
0
LINE
8
Layer 1
10
9.267889
20
207.057630
11
8.366773
21
206.776775
0
LINE
8
Layer 1
10
8.366773
20
206.776775
11
7.692054
21
206.553631
0
LINE
8
Layer 1
10
12.197800
20
207.831000
11
13.331334
21
208.165045
0
LINE
8
Layer 1
10
13.331334
20
208.165045
11
14.400090
21
208.634762
0
LINE
8
Layer 1
10
14.400090
20
208.634762
11
16.301502
21
209.943960
0
LINE
8
Layer 1
10
16.301502
20
209.943960
11
17.818514
21
211.684086
0
LINE
8
Layer 1
10
17.818514
20
211.684086
11
18.406768
21
212.692462
0
LINE
8
Layer 1
10
18.406768
20
212.692462
11
18.867600
21
213.780630
0
LINE
8
Layer 1
10
18.867600
20
213.780630
11
19.185770
21
214.918721
0
LINE
8
Layer 1
10
19.185770
20
214.918721
11
19.354568
21
216.073873
0
LINE
8
Layer 1
10
19.354568
20
216.073873
11
19.253471
21
218.380201
0
LINE
8
Layer 1
10
19.253471
20
218.380201
11
18.583159
21
220.589286
0
LINE
8
Layer 1
10
18.583159
20
220.589286
11
18.040437
21
221.622885
0
LINE
8
Layer 1
10
18.040437
20
221.622885
11
17.362480
21
222.590800
0
LINE
8
Layer 1
10
17.362500
20
222.591000
11
17.119500
21
222.898000
0
LINE
8
Layer 1
10
17.119500
20
222.898000
11
16.602700
21
223.570000
0
LINE
8
Layer 1
10
16.602700
20
223.570000
11
16.080400
21
224.278000
0
LINE
8
Layer 1
10
16.080400
20
224.278000
11
15.554000
21
225.023000
0
LINE
8
Layer 1
10
15.554000
20
225.023000
11
15.024600
21
225.804000
0
LINE
8
Layer 1
10
15.024600
20
225.804000
11
14.636200
21
226.399000
0
LINE
8
Layer 1
10
19.313200
20
226.642000
11
18.922016
21
226.640900
0
LINE
8
Layer 1
10
18.922016
20
226.640900
11
18.074267
21
226.625840
0
LINE
8
Layer 1
10
18.074267
20
226.625840
11
17.195012
21
226.592640
0
LINE
8
Layer 1
10
17.195012
20
226.592640
11
16.284656
21
226.540020
0
LINE
8
Layer 1
10
16.284656
20
226.540020
11
15.343638
21
226.466720
0
LINE
8
Layer 1
10
15.343638
20
226.466720
11
14.636178
21
226.399310
0
LINE
8
Layer 1
10
19.313200
20
226.642000
11
20.492642
21
226.715423
0
LINE
8
Layer 1
10
20.492642
20
226.715423
11
21.639122
21
226.935538
0
LINE
8
Layer 1
10
21.639122
20
226.935538
11
23.784187
21
227.788807
0
LINE
8
Layer 1
10
23.784187
20
227.788807
11
25.650384
21
229.147746
0
LINE
8
Layer 1
10
25.650384
20
229.147746
11
26.448278
21
229.999946
0
LINE
8
Layer 1
10
26.448278
20
229.999946
11
27.139700
21
230.958290
0
LINE
8
Layer 1
10
27.139700
20
230.958290
11
27.703141
21
231.997046
0
LINE
8
Layer 1
10
27.703141
20
231.997046
11
28.124752
21
233.085676
0
LINE
8
Layer 1
10
28.124752
20
233.085676
11
28.539397
21
235.356677
0
LINE
8
Layer 1
10
28.539397
20
235.356677
11
28.377459
21
237.659535
0
LINE
8
Layer 1
10
28.377459
20
237.659535
11
28.078342
21
238.787986
0
LINE
8
Layer 1
10
28.078342
20
238.787986
11
27.632764
21
239.882490
0
LINE
8
Layer 1
10
27.632800
20
239.882000
11
27.464100
21
240.235000
0
LINE
8
Layer 1
10
27.464100
20
240.235000
11
27.109800
21
241.006000
0
LINE
8
Layer 1
10
27.109800
20
241.006000
11
26.758200
21
241.812000
0
LINE
8
Layer 1
10
26.758200
20
241.812000
11
26.410700
21
242.655000
0
LINE
8
Layer 1
10
26.410700
20
242.655000
11
26.068400
21
243.535000
0
LINE
8
Layer 1
10
26.068400
20
243.535000
11
25.822181
21
244.201647
0
LINE
8
Layer 1
10
30.435900
20
243.397000
11
30.054267
21
243.482920
0
LINE
8
Layer 1
10
30.054267
20
243.482920
11
29.224424
21
243.656896
0
LINE
8
Layer 1
10
29.224424
20
243.656896
11
28.359829
21
243.820184
0
LINE
8
Layer 1
10
28.359829
20
243.820184
11
27.460589
21
243.971457
0
LINE
8
Layer 1
10
27.460589
20
243.971457
11
26.526849
21
244.109394
0
LINE
8
Layer 1
10
26.526849
20
244.109394
11
25.822128
21
244.201094
0
LINE
8
Layer 1
10
30.435900
20
243.397000
11
31.602114
21
243.206142
0
LINE
8
Layer 1
10
31.602114
20
243.206142
11
32.768832
21
243.165627
0
LINE
8
Layer 1
10
32.768832
20
243.165627
11
35.049985
21
243.520180
0
LINE
8
Layer 1
10
35.049985
20
243.520180
11
37.171778
21
244.429771
0
LINE
8
Layer 1
10
37.171778
20
244.429771
11
38.139296
21
245.083052
0
LINE
8
Layer 1
10
38.139296
20
245.083052
11
39.026630
21
245.863510
0
LINE
8
Layer 1
10
39.026630
20
245.863510
11
39.807089
21
246.750844
0
LINE
8
Layer 1
10
39.807089
20
246.750844
11
40.460372
21
247.718362
0
LINE
8
Layer 1
10
40.460372
20
247.718362
11
41.369965
21
249.840155
0
LINE
8
Layer 1
10
41.369965
20
249.840155
11
41.724521
21
252.121308
0
LINE
8
Layer 1
10
41.724521
20
252.121308
11
41.684007
21
253.288026
0
LINE
8
Layer 1
10
41.684007
20
253.288026
11
41.493150
21
254.454240
0
LINE
8
Layer 1
10
41.493200
20
254.455000
11
41.407280
21
254.836634
0
LINE
8
Layer 1
10
41.407280
20
254.836634
11
41.233307
21
255.666476
0
LINE
8
Layer 1
10
41.233307
20
255.666476
11
41.070023
21
256.531070
0
LINE
8
Layer 1
10
41.070023
20
256.531070
11
40.918748
21
257.430310
0
LINE
8
Layer 1
10
40.918748
20
257.430310
11
40.780809
21
258.364050
0
LINE
8
Layer 1
10
40.780809
20
258.364050
11
40.689099
21
259.068771
0
LINE
8
Layer 1
10
45.008300
20
257.258000
11
44.655357
21
257.426690
0
LINE
8
Layer 1
10
44.655357
20
257.426690
11
43.885035
21
257.780964
0
LINE
8
Layer 1
10
43.885035
20
257.780964
11
43.078400
21
258.132000
0
LINE
8
Layer 1
10
43.078400
20
258.132000
11
42.235400
21
258.480000
0
LINE
8
Layer 1
10
42.235400
20
258.480000
11
41.355772
21
258.822257
0
LINE
8
Layer 1
10
41.355772
20
258.822257
11
40.689125
21
259.068479
0
LINE
8
Layer 1
10
45.008300
20
257.258000
11
46.102804
21
256.812420
0
LINE
8
Layer 1
10
46.102804
20
256.812420
11
47.231253
21
256.513301
0
LINE
8
Layer 1
10
47.231253
20
256.513301
11
49.534109
21
256.351359
0
LINE
8
Layer 1
10
49.534109
20
256.351359
11
51.805110
21
256.766001
0
LINE
8
Layer 1
10
51.805110
20
256.766001
11
52.893741
21
257.187611
0
LINE
8
Layer 1
10
52.893741
20
257.187611
11
53.932500
21
257.751053
0
LINE
8
Layer 1
10
53.932500
20
257.751053
11
54.890842
21
258.442471
0
LINE
8
Layer 1
10
54.890842
20
258.442471
11
55.743038
21
259.240362
0
LINE
8
Layer 1
10
55.743038
20
259.240362
11
57.101969
21
261.106553
0
LINE
8
Layer 1
10
57.101969
20
261.106553
11
57.955240
21
263.251617
0
LINE
8
Layer 1
10
57.955240
20
263.251617
11
58.175362
21
264.398098
0
LINE
8
Layer 1
10
58.175362
20
264.398098
11
58.248800
21
265.577543
0
LINE
8
Layer 1
10
58.248800
20
265.577000
11
58.249900
21
265.968185
0
LINE
8
Layer 1
10
58.249900
20
265.968185
11
58.264950
21
266.815934
0
LINE
8
Layer 1
10
58.264950
20
266.815934
11
58.298150
21
267.695185
0
LINE
8
Layer 1
10
58.298150
20
267.695185
11
58.350770
21
268.605541
0
LINE
8
Layer 1
10
58.350770
20
268.605541
11
58.424070
21
269.546562
0
LINE
8
Layer 1
10
58.424070
20
269.546562
11
58.491480
21
270.254023
0
LINE
8
Layer 1
10
62.299500
20
267.528000
11
61.992900
21
267.771000
0
LINE
8
Layer 1
10
61.992900
20
267.771000
11
61.320700
21
268.288000
0
LINE
8
Layer 1
10
61.320700
20
268.288000
11
60.612600
21
268.810000
0
LINE
8
Layer 1
10
60.612600
20
268.810000
11
59.868100
21
269.337000
0
LINE
8
Layer 1
10
59.868100
20
269.337000
11
59.086600
21
269.866000
0
LINE
8
Layer 1
10
59.086600
20
269.866000
11
58.491500
21
270.254000
0
LINE
8
Layer 1
10
62.299500
20
267.528000
11
63.267412
21
266.850045
0
LINE
8
Layer 1
10
63.267412
20
266.850045
11
64.301008
21
266.307325
0
LINE
8
Layer 1
10
64.301008
20
266.307325
11
66.510090
21
265.637016
0
LINE
8
Layer 1
10
66.510090
20
265.637016
11
68.816417
21
265.535922
0
LINE
8
Layer 1
10
68.816417
20
265.535922
11
69.971569
21
265.704720
0
LINE
8
Layer 1
10
69.971569
20
265.704720
11
71.109660
21
266.022890
0
LINE
8
Layer 1
10
71.109660
20
266.022890
11
72.197827
21
266.483722
0
LINE
8
Layer 1
10
72.197827
20
266.483722
11
73.206203
21
267.071976
0
LINE
8
Layer 1
10
73.206203
20
267.071976
11
74.946326
21
268.588986
0
LINE
8
Layer 1
10
74.946326
20
268.588986
11
76.255524
21
270.490396
0
LINE
8
Layer 1
10
76.255524
20
270.490396
11
76.725243
21
271.559149
0
LINE
8
Layer 1
10
76.725243
20
271.559149
11
77.059290
21
272.692680
0
LINE
8
Layer 1
10
77.059300
20
272.693000
11
77.147500
21
273.074118
0
LINE
8
Layer 1
10
77.147500
20
273.074118
11
77.350800
21
273.897266
0
LINE
8
Layer 1
10
77.350800
20
273.897266
11
77.578819
21
274.747087
0
LINE
8
Layer 1
10
77.578819
20
274.747087
11
77.832688
21
275.622908
0
LINE
8
Layer 1
10
77.832688
20
275.622908
11
78.113538
21
276.524024
0
LINE
8
Layer 1
10
78.113538
20
276.524024
11
78.336697
21
277.198747
0
LINE
8
Layer 1
10
81.442500
20
273.693000
11
81.197710
21
273.998117
0
LINE
8
Layer 1
10
81.197710
20
273.998117
11
80.657392
21
274.651539
0
LINE
8
Layer 1
10
80.657392
20
274.651539
11
80.083244
21
275.318266
0
LINE
8
Layer 1
10
80.083244
20
275.318266
11
79.474495
21
275.997204
0
LINE
8
Layer 1
10
79.474495
20
275.997204
11
78.830477
21
276.687223
0
LINE
8
Layer 1
10
78.830477
20
276.687223
11
78.336679
21
277.198310
0
LINE
8
Layer 1
10
81.442500
20
273.693000
11
82.235285
21
272.816654
0
LINE
8
Layer 1
10
82.235285
20
272.816654
11
83.122200
21
272.057536
0
LINE
8
Layer 1
10
83.122200
20
272.057536
11
85.126739
21
270.912454
0
LINE
8
Layer 1
10
85.126739
20
270.912454
11
87.352751
21
270.300679
0
LINE
8
Layer 1
10
87.352751
20
270.300679
11
88.516507
21
270.208197
0
LINE
8
Layer 1
10
88.516507
20
270.208197
11
89.696870
21
270.265140
0
LINE
8
Layer 1
10
89.696870
20
270.265140
11
90.860307
21
270.472279
0
LINE
8
Layer 1
10
90.860307
20
270.472279
11
91.974305
21
270.821400
0
LINE
8
Layer 1
10
91.974305
20
270.821400
11
94.008376
21
271.913166
0
LINE
8
Layer 1
10
94.008376
20
271.913166
11
95.707859
21
273.475587
0
LINE
8
Layer 1
10
95.707859
20
273.475587
11
96.403622
21
274.413026
0
LINE
8
Layer 1
10
96.403622
20
274.413026
11
96.981530
21
275.443810
0
LINE
8
Layer 1
10
96.981500
20
275.444000
11
97.152260
21
275.795947
0
LINE
8
Layer 1
10
97.152260
20
275.795947
11
97.533628
21
276.553216
0
LINE
8
Layer 1
10
97.533628
20
276.553216
11
97.945027
21
277.330992
0
LINE
8
Layer 1
10
97.945027
20
277.330992
11
98.387436
21
278.128360
0
LINE
8
Layer 1
10
98.387436
20
278.128360
11
98.861794
21
278.944391
0
LINE
8
Layer 1
10
98.861794
20
278.944391
11
99.229483
21
279.552539
0
LINE
8
Layer 1
10
101.477000
20
275.444000
11
102.054904
21
274.413216
0
LINE
8
Layer 1
10
102.054904
20
274.413216
11
102.750665
21
273.475775
0
LINE
8
Layer 1
10
102.750665
20
273.475775
11
104.450144
21
271.913350
0
LINE
8
Layer 1
10
104.450144
20
271.913350
11
106.484210
21
270.821580
0
LINE
8
Layer 1
10
106.484210
20
270.821580
11
107.598206
21
270.472458
0
LINE
8
Layer 1
10
107.598206
20
270.472458
11
108.761640
21
270.265320
0
LINE
8
Layer 1
10
108.761640
20
270.265320
11
109.941998
21
270.208376
0
LINE
8
Layer 1
10
109.941998
20
270.208376
11
111.105754
21
270.300857
0
LINE
8
Layer 1
10
111.105754
20
270.300857
11
113.331771
21
270.912628
0
LINE
8
Layer 1
10
113.331771
20
270.912628
11
115.336316
21
272.057708
0
LINE
8
Layer 1
10
115.336316
20
272.057708
11
116.223230
21
272.816824
0
LINE
8
Layer 1
10
116.223230
20
272.816824
11
117.016010
21
273.693170
0
LINE
8
Layer 1
10
117.016000
20
273.693000
11
117.260800
21
273.998121
0
LINE
8
Layer 1
10
117.260800
20
273.998121
11
117.801150
21
274.651539
0
LINE
8
Layer 1
10
117.801150
20
274.651539
11
118.375290
21
275.318266
0
LINE
8
Layer 1
10
118.375290
20
275.318266
11
118.984030
21
275.997203
0
LINE
8
Layer 1
10
118.984030
20
275.997203
11
119.628050
21
276.687223
0
LINE
8
Layer 1
10
119.628050
20
276.687223
11
120.121840
21
277.198306
0
LINE
8
Layer 1
10
121.400000
20
272.693000
11
121.311800
21
273.074122
0
LINE
8
Layer 1
10
121.311800
20
273.074122
11
121.108500
21
273.897270
0
LINE
8
Layer 1
10
121.108500
20
273.897270
11
120.880480
21
274.747091
0
LINE
8
Layer 1
10
120.880480
20
274.747091
11
120.626600
21
275.622912
0
LINE
8
Layer 1
10
120.626600
20
275.622912
11
120.345750
21
276.524028
0
LINE
8
Layer 1
10
120.345750
20
276.524028
11
120.122600
21
277.198750
0
LINE
8
Layer 1
10
121.400000
20
272.693000
11
121.734045
21
271.559469
0
LINE
8
Layer 1
10
121.734045
20
271.559469
11
122.203763
21
270.490716
0
LINE
8
Layer 1
10
122.203763
20
270.490716
11
123.512964
21
268.589306
0
LINE
8
Layer 1
10
123.512964
20
268.589306
11
125.253090
21
267.072296
0
LINE
8
Layer 1
10
125.253090
20
267.072296
11
126.261465
21
266.484042
0
LINE
8
Layer 1
10
126.261465
20
266.484042
11
127.349630
21
266.023210
0
LINE
8
Layer 1
10
127.349630
20
266.023210
11
128.487721
21
265.705040
0
LINE
8
Layer 1
10
128.487721
20
265.705040
11
129.642873
21
265.536241
0
LINE
8
Layer 1
10
129.642873
20
265.536241
11
131.949199
21
265.637333
0
LINE
8
Layer 1
10
131.949199
20
265.637333
11
134.158278
21
266.307639
0
LINE
8
Layer 1
10
134.158278
20
266.307639
11
135.191872
21
266.850357
0
LINE
8
Layer 1
10
135.191872
20
266.850357
11
136.159780
21
267.528310
0
LINE
8
Layer 1
10
136.159000
20
267.528000
11
136.465570
21
267.770999
0
LINE
8
Layer 1
10
136.465570
20
267.770999
11
137.137740
21
268.287802
0
LINE
8
Layer 1
10
137.137740
20
268.287802
11
137.845870
21
268.810051
0
LINE
8
Layer 1
10
137.845870
20
268.810051
11
138.590400
21
269.336509
0
LINE
8
Layer 1
10
138.590400
20
269.336509
11
139.371810
21
269.865918
0
LINE
8
Layer 1
10
139.371810
20
269.865918
11
139.966970
21
270.254310
0
LINE
8
Layer 1
10
140.210000
20
265.577000
11
140.210000
21
265.968185
0
LINE
8
Layer 1
10
140.210000
20
265.968185
11
140.194900
21
266.815937
0
LINE
8
Layer 1
10
140.194900
20
266.815937
11
140.161700
21
267.695189
0
LINE
8
Layer 1
10
140.161700
20
267.695189
11
140.109100
21
268.605544
0
LINE
8
Layer 1
10
140.109100
20
268.605544
11
140.035800
21
269.546562
0
LINE
8
Layer 1
10
140.035800
20
269.546562
11
139.968400
21
270.254022
0
LINE
8
Layer 1
10
140.210000
20
265.577000
11
140.283361
21
264.397600
0
LINE
8
Layer 1
10
140.283361
20
264.397600
11
140.503437
21
263.251149
0
LINE
8
Layer 1
10
140.503437
20
263.251149
11
141.356681
21
261.106112
0
LINE
8
Layer 1
10
141.356681
20
261.106112
11
142.715630
21
259.239914
0
LINE
8
Layer 1
10
142.715630
20
259.239914
11
143.567836
21
258.442013
0
LINE
8
Layer 1
10
143.567836
20
258.442013
11
144.526180
21
257.750580
0
LINE
8
Layer 1
10
144.526180
20
257.750580
11
145.564923
21
257.187124
0
LINE
8
Layer 1
10
145.564923
20
257.187124
11
146.653544
21
256.765497
0
LINE
8
Layer 1
10
146.653544
20
256.765497
11
148.924546
21
256.350825
0
LINE
8
Layer 1
10
148.924546
20
256.350825
11
151.227441
21
256.512746
0
LINE
8
Layer 1
10
151.227441
20
256.512746
11
152.355927
21
256.811860
0
LINE
8
Layer 1
10
152.355927
20
256.811860
11
153.450480
21
257.257441
0
LINE
8
Layer 1
10
153.451000
20
257.258000
11
153.803960
21
257.426691
0
LINE
8
Layer 1
10
153.803960
20
257.426691
11
154.574300
21
257.780963
0
LINE
8
Layer 1
10
154.574300
20
257.780963
11
155.380870
21
258.132545
0
LINE
8
Layer 1
10
155.380870
20
258.132545
11
156.223880
21
258.480124
0
LINE
8
Layer 1
10
156.223880
20
258.480124
11
157.103510
21
258.822378
0
LINE
8
Layer 1
10
157.103510
20
258.822378
11
157.770180
21
259.068597
0
LINE
8
Layer 1
10
156.966000
20
254.455000
11
157.051900
21
254.836634
0
LINE
8
Layer 1
10
157.051900
20
254.836634
11
157.225860
21
255.666478
0
LINE
8
Layer 1
10
157.225860
20
255.666478
11
157.389160
21
256.531072
0
LINE
8
Layer 1
10
157.389160
20
256.531072
11
157.540420
21
257.430312
0
LINE
8
Layer 1
10
157.540420
20
257.430312
11
157.678380
21
258.364052
0
LINE
8
Layer 1
10
157.678380
20
258.364052
11
157.770080
21
259.068772
0
LINE
8
Layer 1
10
156.966000
20
254.455000
11
156.775143
21
253.288786
0
LINE
8
Layer 1
10
156.775143
20
253.288786
11
156.734628
21
252.122068
0
LINE
8
Layer 1
10
156.734628
20
252.122068
11
157.089180
21
249.840915
0
LINE
8
Layer 1
10
157.089180
20
249.840915
11
157.998770
21
247.719122
0
LINE
8
Layer 1
10
157.998770
20
247.719122
11
158.652051
21
246.751604
0
LINE
8
Layer 1
10
158.652051
20
246.751604
11
159.432510
21
245.864270
0
LINE
8
Layer 1
10
159.432510
20
245.864270
11
160.319850
21
245.083811
0
LINE
8
Layer 1
10
160.319850
20
245.083811
11
161.287372
21
244.430528
0
LINE
8
Layer 1
10
161.287372
20
244.430528
11
163.409168
21
243.520935
0
LINE
8
Layer 1
10
163.409168
20
243.520935
11
165.690320
21
243.166379
0
LINE
8
Layer 1
10
165.690320
20
243.166379
11
166.857036
21
243.206893
0
LINE
8
Layer 1
10
166.857036
20
243.206893
11
168.023250
21
243.397750
0
LINE
8
Layer 1
10
168.023000
20
243.397000
11
168.404640
21
243.482920
0
LINE
8
Layer 1
10
168.404640
20
243.482920
11
169.234460
21
243.656897
0
LINE
8
Layer 1
10
169.234460
20
243.656897
11
170.099070
21
243.820180
0
LINE
8
Layer 1
10
170.099070
20
243.820180
11
170.998320
21
243.971454
0
LINE
8
Layer 1
10
170.998320
20
243.971454
11
171.932050
21
244.109388
0
LINE
8
Layer 1
10
171.932050
20
244.109388
11
172.636780
21
244.201098
0
LINE
8
Layer 1
10
170.826000
20
239.882000
11
170.994700
21
240.234946
0
LINE
8
Layer 1
10
170.994700
20
240.234946
11
171.348980
21
241.005270
0
LINE
8
Layer 1
10
171.348980
20
241.005270
11
171.700540
21
241.811852
0
LINE
8
Layer 1
10
171.700540
20
241.811852
11
172.048130
21
242.654885
0
LINE
8
Layer 1
10
172.048130
20
242.654885
11
172.390370
21
243.534519
0
LINE
8
Layer 1
10
172.390370
20
243.534519
11
172.636580
21
244.201164
0
LINE
8
Layer 1
10
170.826000
20
239.882000
11
170.380417
21
238.787495
0
LINE
8
Layer 1
10
170.380417
20
238.787495
11
170.081297
21
237.659045
0
LINE
8
Layer 1
10
170.081297
20
237.659045
11
169.919356
21
235.356186
0
LINE
8
Layer 1
10
169.919356
20
235.356186
11
170.334002
21
233.085182
0
LINE
8
Layer 1
10
170.334002
20
233.085182
11
170.755616
21
231.996549
0
LINE
8
Layer 1
10
170.755616
20
231.996549
11
171.319060
21
230.957790
0
LINE
8
Layer 1
10
171.319060
20
230.957790
11
172.010479
21
229.999445
0
LINE
8
Layer 1
10
172.010479
20
229.999445
11
172.808370
21
229.147246
0
LINE
8
Layer 1
10
172.808370
20
229.147246
11
174.674565
21
227.788315
0
LINE
8
Layer 1
10
174.674565
20
227.788315
11
176.819632
21
226.935049
0
LINE
8
Layer 1
10
176.819632
20
226.935049
11
177.966114
21
226.714931
0
LINE
8
Layer 1
10
177.966114
20
226.714931
11
179.145560
21
226.641500
0
LINE
8
Layer 1
10
179.146000
20
226.642000
11
179.537180
21
226.640900
0
LINE
8
Layer 1
10
179.537180
20
226.640900
11
180.384930
21
226.625840
0
LINE
8
Layer 1
10
180.384930
20
226.625840
11
181.264170
21
226.592640
0
LINE
8
Layer 1
10
181.264170
20
226.592640
11
182.174510
21
226.540020
0
LINE
8
Layer 1
10
182.174510
20
226.540020
11
183.115570
21
226.466720
0
LINE
8
Layer 1
10
183.115570
20
226.466720
11
183.823010
21
226.399310
0
LINE
8
Layer 1
10
181.096000
20
222.591000
11
181.339020
21
222.897558
0
LINE
8
Layer 1
10
181.339020
20
222.897558
11
181.855800
21
223.569733
0
LINE
8
Layer 1
10
181.855800
20
223.569733
11
182.378060
21
224.277859
0
LINE
8
Layer 1
10
182.378060
20
224.277859
11
182.904540
21
225.022413
0
LINE
8
Layer 1
10
182.904540
20
225.022413
11
183.433940
21
225.803831
0
LINE
8
Layer 1
10
183.433940
20
225.803831
11
183.822320
21
226.398975
0
LINE
8
Layer 1
10
181.096000
20
222.591000
11
180.418038
21
221.623088
0
LINE
8
Layer 1
10
180.418038
20
221.623088
11
179.875314
21
220.589490
0
LINE
8
Layer 1
10
179.875314
20
220.589490
11
179.204999
21
218.380405
0
LINE
8
Layer 1
10
179.204999
20
218.380405
11
179.103902
21
216.074075
0
LINE
8
Layer 1
10
179.103902
20
216.074075
11
179.272700
21
214.918921
0
LINE
8
Layer 1
10
179.272700
20
214.918921
11
179.590870
21
213.780830
0
LINE
8
Layer 1
10
179.590870
20
213.780830
11
180.051702
21
212.692659
0
LINE
8
Layer 1
10
180.051702
20
212.692659
11
180.639956
21
211.684280
0
LINE
8
Layer 1
10
180.639956
20
211.684280
11
182.156968
21
209.944151
0
LINE
8
Layer 1
10
182.156968
20
209.944151
11
184.058380
21
208.634952
0
LINE
8
Layer 1
10
184.058380
20
208.634952
11
185.127136
21
208.165235
0
LINE
8
Layer 1
10
185.127136
20
208.165235
11
186.260670
21
207.831190
0
LINE
8
Layer 1
10
186.261000
20
207.831000
11
186.642130
21
207.742830
0
LINE
8
Layer 1
10
186.642130
20
207.742830
11
187.465280
21
207.539522
0
LINE
8
Layer 1
10
187.465280
20
207.539522
11
188.315090
21
207.311501
0
LINE
8
Layer 1
10
188.315090
20
207.311501
11
189.190900
21
207.057628
0
LINE
8
Layer 1
10
189.190900
20
207.057628
11
190.092020
21
206.776767
0
LINE
8
Layer 1
10
190.092020
20
206.776767
11
190.766770
21
206.553624
0
LINE
8
Layer 1
10
187.261000
20
203.448000
11
187.566110
21
203.692801
0
LINE
8
Layer 1
10
187.566110
20
203.692801
11
188.219560
21
204.233122
0
LINE
8
Layer 1
10
188.219560
20
204.233122
11
188.886280
21
204.807286
0
LINE
8
Layer 1
10
188.886280
20
204.807286
11
189.565200
21
205.416021
0
LINE
8
Layer 1
10
189.565200
20
205.416021
11
190.255240
21
206.060044
0
LINE
8
Layer 1
10
190.255240
20
206.060044
11
190.766330
21
206.553840
0
LINE
8
Layer 1
10
187.261000
20
203.448000
11
186.384654
21
202.655215
0
LINE
8
Layer 1
10
186.384654
20
202.655215
11
185.625538
21
201.768299
0
LINE
8
Layer 1
10
185.625538
20
201.768299
11
184.480459
21
199.763759
0
LINE
8
Layer 1
10
184.480459
20
199.763759
11
183.868688
21
197.537749
0
LINE
8
Layer 1
10
183.868688
20
197.537749
11
183.776207
21
196.373996
0
LINE
8
Layer 1
10
183.776207
20
196.373996
11
183.833150
21
195.193640
0
LINE
8
Layer 1
10
183.833150
20
195.193640
11
184.040293
21
194.030206
0
LINE
8
Layer 1
10
184.040293
20
194.030206
11
184.389417
21
192.916210
0
LINE
8
Layer 1
10
184.389417
20
192.916210
11
185.481181
21
190.882144
0
LINE
8
Layer 1
10
185.481181
20
190.882144
11
187.043595
21
189.182665
0
LINE
8
Layer 1
10
187.043595
20
189.182665
11
187.981030
21
188.486904
0
LINE
8
Layer 1
10
187.981030
20
188.486904
11
189.011810
21
187.909000
0
LINE
8
Layer 1
10
189.012000
20
187.909000
11
189.363950
21
187.738230
0
LINE
8
Layer 1
10
189.363950
20
187.738230
11
190.121210
21
187.356860
0
LINE
8
Layer 1
10
190.121210
20
187.356860
11
190.898980
21
186.945450
0
LINE
8
Layer 1
10
190.898980
20
186.945450
11
191.696360
21
186.503050
0
LINE
8
Layer 1
10
191.696360
20
186.503050
11
192.512370
21
186.028720
0
LINE
8
Layer 1
10
192.512370
20
186.028720
11
193.120540
21
185.661030
0
LINE
8
Layer 1
10
189.012000
20
183.413000
11
189.363950
21
183.583770
0
LINE
8
Layer 1
10
189.363950
20
183.583770
11
190.121210
21
183.965140
0
LINE
8
Layer 1
10
190.121210
20
183.965140
11
190.898980
21
184.376550
0
LINE
8
Layer 1
10
190.898980
20
184.376550
11
191.696360
21
184.818940
0
LINE
8
Layer 1
10
191.696360
20
184.818940
11
192.512370
21
185.293270
0
LINE
8
Layer 1
10
192.512370
20
185.293270
11
193.120540
21
185.660960
0
LINE
8
Layer 1
10
189.012000
20
183.413000
11
187.981219
21
182.835096
0
LINE
8
Layer 1
10
187.981219
20
182.835096
11
187.043782
21
182.139336
0
LINE
8
Layer 1
10
187.043782
20
182.139336
11
185.481364
21
180.439861
0
LINE
8
Layer 1
10
185.481364
20
180.439861
11
184.389599
21
178.405798
0
LINE
8
Layer 1
10
184.389599
20
178.405798
11
184.040478
21
177.291803
0
LINE
8
Layer 1
10
184.040478
20
177.291803
11
183.833340
21
176.128370
0
LINE
8
Layer 1
10
183.833340
20
176.128370
11
183.776393
21
174.948014
0
LINE
8
Layer 1
10
183.776393
20
174.948014
11
183.868872
21
173.784261
0
LINE
8
Layer 1
10
183.868872
20
173.784261
11
184.480637
21
171.558251
0
LINE
8
Layer 1
10
184.480637
20
171.558251
11
185.625710
21
169.553711
0
LINE
8
Layer 1
10
185.625710
20
169.553711
11
186.384821
21
168.666795
0
LINE
8
Layer 1
10
186.384821
20
168.666795
11
187.261160
21
167.874010
0
LINE
8
Layer 1
10
187.261000
20
167.874000
11
187.566150
21
167.629200
0
LINE
8
Layer 1
10
187.566150
20
167.629200
11
188.219580
21
167.088870
0
LINE
8
Layer 1
10
188.219580
20
167.088870
11
188.886280
21
166.514710
0
LINE
8
Layer 1
10
188.886280
20
166.514710
11
189.565240
21
165.905970
0
LINE
8
Layer 1
10
189.565240
20
165.905970
11
190.255240
21
165.261950
0
LINE
8
Layer 1
10
190.255240
20
165.261950
11
190.766330
21
164.768160
0
LINE
8
Layer 1
10
186.261000
20
163.491000
11
186.642130
21
163.579200
0
LINE
8
Layer 1
10
186.642130
20
163.579200
11
187.465270
21
163.782500
0
LINE
8
Layer 1
10
187.465270
20
163.782500
11
188.315090
21
164.010520
0
LINE
8
Layer 1
10
188.315090
20
164.010520
11
189.190910
21
164.264390
0
LINE
8
Layer 1
10
189.190910
20
164.264390
11
190.092030
21
164.545250
0
LINE
8
Layer 1
10
190.092030
20
164.545250
11
190.766770
21
164.768390
0
LINE
8
Layer 1
10
186.261000
20
163.491000
11
185.127472
21
163.156953
0
LINE
8
Layer 1
10
185.127472
20
163.156953
11
184.058720
21
162.687234
0
LINE
8
Layer 1
10
184.058720
20
162.687234
11
182.157310
21
161.378035
0
LINE
8
Layer 1
10
182.157310
20
161.378035
11
180.640298
21
159.637909
0
LINE
8
Layer 1
10
180.640298
20
159.637909
11
180.052043
21
158.629531
0
LINE
8
Layer 1
10
180.052043
20
158.629531
11
179.591210
21
157.541360
0
LINE
8
Layer 1
10
179.591210
20
157.541360
11
179.273037
21
156.403270
0
LINE
8
Layer 1
10
179.273037
20
156.403270
11
179.104238
21
155.248118
0
LINE
8
Layer 1
10
179.104238
20
155.248118
11
179.205332
21
152.941794
0
LINE
8
Layer 1
10
179.205332
20
152.941794
11
179.875644
21
150.732712
0
LINE
8
Layer 1
10
179.875644
20
150.732712
11
180.418364
21
149.699115
0
LINE
8
Layer 1
10
180.418364
20
149.699115
11
181.096320
21
148.731200
0
LINE
8
Layer 1
10
181.096000
20
148.731000
11
181.338990
21
148.424450
0
LINE
8
Layer 1
10
181.338990
20
148.424450
11
181.855800
21
147.752270
0
LINE
8
Layer 1
10
181.855800
20
147.752270
11
182.378060
21
147.044140
0
LINE
8
Layer 1
10
182.378060
20
147.044140
11
182.904500
21
146.299590
0
LINE
8
Layer 1
10
182.904500
20
146.299590
11
183.433910
21
145.518180
0
LINE
8
Layer 1
10
183.433910
20
145.518180
11
183.822320
21
144.923030
0
LINE
8
Layer 1
10
179.146000
20
144.680000
11
179.537190
21
144.681000
0
LINE
8
Layer 1
10
179.537190
20
144.681000
11
180.384940
21
144.696000
0
LINE
8
Layer 1
10
180.384940
20
144.696000
11
181.264200
21
144.729200
0
LINE
8
Layer 1
10
181.264200
20
144.729200
11
182.174540
21
144.781800
0
LINE
8
Layer 1
10
182.174540
20
144.781800
11
183.115550
21
144.855100
0
LINE
8
Layer 1
10
183.115550
20
144.855100
11
183.823030
21
144.922500
0
LINE
8
Layer 1
10
179.146000
20
144.680000
11
177.966558
21
144.606634
0
LINE
8
Layer 1
10
177.966558
20
144.606634
11
176.820080
21
144.386547
0
LINE
8
Layer 1
10
176.820080
20
144.386547
11
174.675020
21
143.533267
0
LINE
8
Layer 1
10
174.675020
20
143.533267
11
172.808833
21
142.174282
0
LINE
8
Layer 1
10
172.808833
20
142.174282
11
172.010945
21
141.322062
0
LINE
8
Layer 1
10
172.010945
20
141.322062
11
171.319530
21
140.363710
0
LINE
8
Layer 1
10
171.319530
20
140.363710
11
170.756086
21
139.324954
0
LINE
8
Layer 1
10
170.756086
20
139.324954
11
170.334472
21
138.236326
0
LINE
8
Layer 1
10
170.334472
20
138.236326
11
169.919824
21
135.965328
0
LINE
8
Layer 1
10
169.919824
20
135.965328
11
170.081759
21
133.662473
0
LINE
8
Layer 1
10
170.081759
20
133.662473
11
170.380874
21
132.534024
0
LINE
8
Layer 1
10
170.380874
20
132.534024
11
170.826450
21
131.439520
0
LINE
8
Layer 1
10
101.477000
20
275.444000
11
101.306240
21
275.795943
0
LINE
8
Layer 1
10
101.306240
20
275.795943
11
100.924880
21
276.553212
0
LINE
8
Layer 1
10
100.924880
20
276.553212
11
100.513470
21
277.330989
0
LINE
8
Layer 1
10
100.513470
20
277.330989
11
100.071060
21
278.128357
0
LINE
8
Layer 1
10
100.071060
20
278.128357
11
99.596741
21
278.944387
0
LINE
8
Layer 1
10
99.596741
20
278.944387
11
99.229052
21
279.552535
0
LINE
8
Layer 1
10
313.867000
20
203.829000
11
312.758244
21
205.414141
0
LINE
8
Layer 1
10
312.758244
20
205.414141
11
311.287565
21
206.616801
0
LINE
8
Layer 1
10
311.287565
20
206.616801
11
309.547838
21
207.380106
0
LINE
8
Layer 1
10
309.547838
20
207.380106
11
307.631940
21
207.647180
0
LINE
8
Layer 1
10
307.632000
20
207.647000
11
306.198000
21
207.647000
0
LINE
8
Layer 1
10
306.198000
20
207.647000
11
304.992462
21
207.499565
0
LINE
8
Layer 1
10
304.992462
20
207.499565
11
303.873264
21
207.073692
0
LINE
8
Layer 1
10
303.873264
20
207.073692
11
302.887346
21
206.394031
0
LINE
8
Layer 1
10
302.887346
20
206.394031
11
302.081650
21
205.485230
0
LINE
8
Layer 1
10
302.081650
20
205.485230
11
301.518708
21
204.409055
0
LINE
8
Layer 1
10
301.518708
20
204.409055
11
301.234007
21
203.245904
0
LINE
8
Layer 1
10
301.234007
20
203.245904
11
301.233898
21
202.048415
0
LINE
8
Layer 1
10
301.233898
20
202.048415
11
301.524730
21
200.869230
0
LINE
8
Layer 1
10
301.525000
20
200.870000
11
302.709802
21
198.193287
0
LINE
8
Layer 1
10
302.709802
20
198.193287
11
304.159076
21
195.678365
0
LINE
8
Layer 1
10
304.159076
20
195.678365
11
305.855707
21
193.342346
0
LINE
8
Layer 1
10
305.855707
20
193.342346
11
307.782580
21
191.202346
0
LINE
8
Layer 1
10
307.782580
20
191.202346
11
309.922581
21
189.275478
0
LINE
8
Layer 1
10
309.922581
20
189.275478
11
312.258594
21
187.578855
0
LINE
8
Layer 1
10
312.258594
20
187.578855
11
314.773505
21
186.129591
0
LINE
8
Layer 1
10
314.773505
20
186.129591
11
317.450200
21
184.944800
0
LINE
8
Layer 1
10
317.450000
20
184.944000
11
318.629186
21
184.653162
0
LINE
8
Layer 1
10
318.629186
20
184.653162
11
319.826675
21
184.653269
0
LINE
8
Layer 1
10
319.826675
20
184.653269
11
320.989829
21
184.937969
0
LINE
8
Layer 1
10
320.989829
20
184.937969
11
322.066010
21
185.500910
0
LINE
8
Layer 1
10
322.066010
20
185.500910
11
322.974807
21
186.306613
0
LINE
8
Layer 1
10
322.974807
20
186.306613
11
323.654469
21
187.292536
0
LINE
8
Layer 1
10
323.654469
20
187.292536
11
324.080344
21
188.411736
0
LINE
8
Layer 1
10
324.080344
20
188.411736
11
324.227780
21
189.617270
0
LINE
8
Layer 1
10
324.228000
20
191.052000
11
324.228000
21
189.618000
0
LINE
8
Layer 1
10
324.228000
20
191.051000
11
323.960925
21
192.966907
0
LINE
8
Layer 1
10
323.960925
20
192.966907
11
323.197616
21
194.706642
0
LINE
8
Layer 1
10
323.197616
20
194.706642
11
321.994952
21
196.177327
0
LINE
8
Layer 1
10
321.994952
20
196.177327
11
320.409810
21
197.286080
0
LINE
8
Layer 1
10
313.867000
20
203.829000
11
315.099531
21
201.820861
0
LINE
8
Layer 1
10
315.099531
20
201.820861
11
316.621251
21
200.040605
0
LINE
8
Layer 1
10
316.621251
20
200.040605
11
318.401514
21
198.518882
0
LINE
8
Layer 1
10
318.401514
20
198.518882
11
320.409670
21
197.286340
0
LINE
8
Layer 1
10
349.294000
20
210.647000
11
349.211054
21
211.055223
0
LINE
8
Layer 1
10
349.211054
20
211.055223
11
348.985935
21
211.388486
0
LINE
8
Layer 1
10
348.985935
20
211.388486
11
348.652351
21
211.613129
0
LINE
8
Layer 1
10
348.652351
20
211.613129
11
348.244010
21
211.695490
0
LINE
8
Layer 1
10
348.244010
20
211.695490
11
347.835668
21
211.613146
0
LINE
8
Layer 1
10
347.835668
20
211.613146
11
347.502079
21
211.388509
0
LINE
8
Layer 1
10
347.502079
20
211.388509
11
347.276953
21
211.055240
0
LINE
8
Layer 1
10
347.276953
20
211.055240
11
347.194000
21
210.647000
0
LINE
8
Layer 1
10
347.194000
20
210.647000
11
347.276946
21
210.238773
0
LINE
8
Layer 1
10
347.276946
20
210.238773
11
347.502065
21
209.905510
0
LINE
8
Layer 1
10
347.502065
20
209.905510
11
347.835649
21
209.680870
0
LINE
8
Layer 1
10
347.835649
20
209.680870
11
348.243990
21
209.598510
0
LINE
8
Layer 1
10
348.243990
20
209.598510
11
348.652334
21
209.680853
0
LINE
8
Layer 1
10
348.652334
20
209.680853
11
348.985925
21
209.905487
0
LINE
8
Layer 1
10
348.985925
20
209.905487
11
349.211051
21
210.238756
0
LINE
8
Layer 1
10
349.211051
20
210.238756
11
349.294000
21
210.647000
0
LINE
8
Layer 1
10
349.294000
20
210.647000
11
349.294000
21
210.647000
0
LINE
8
Layer 1
10
328.278000
20
189.631000
11
328.195060
21
190.039227
0
LINE
8
Layer 1
10
328.195060
20
190.039227
11
327.969944
21
190.372490
0
LINE
8
Layer 1
10
327.969944
20
190.372490
11
327.636360
21
190.597130
0
LINE
8
Layer 1
10
327.636360
20
190.597130
11
327.228020
21
190.679490
0
LINE
8
Layer 1
10
327.228020
20
190.679490
11
326.819676
21
190.597147
0
LINE
8
Layer 1
10
326.819676
20
190.597147
11
326.486085
21
190.372512
0
LINE
8
Layer 1
10
326.486085
20
190.372512
11
326.260959
21
190.039244
0
LINE
8
Layer 1
10
326.260959
20
190.039244
11
326.178010
21
189.631000
0
LINE
8
Layer 1
10
326.178010
20
189.631000
11
326.260956
21
189.222777
0
LINE
8
Layer 1
10
326.260956
20
189.222777
11
326.486075
21
188.889514
0
LINE
8
Layer 1
10
326.486075
20
188.889514
11
326.819659
21
188.664871
0
LINE
8
Layer 1
10
326.819659
20
188.664871
11
327.228000
21
188.582510
0
LINE
8
Layer 1
10
327.228000
20
188.582510
11
327.636342
21
188.664853
0
LINE
8
Layer 1
10
327.636342
20
188.664853
11
327.969930
21
188.889488
0
LINE
8
Layer 1
10
327.969930
20
188.889488
11
328.195053
21
189.222756
0
LINE
8
Layer 1
10
328.195053
20
189.222756
11
328.278000
21
189.631000
0
LINE
8
Layer 1
10
328.278000
20
189.631000
11
328.278000
21
189.631000
0
LINE
8
Layer 1
10
307.262000
20
210.647000
11
307.179060
21
211.055223
0
LINE
8
Layer 1
10
307.179060
20
211.055223
11
306.953943
21
211.388486
0
LINE
8
Layer 1
10
306.953943
20
211.388486
11
306.620356
21
211.613129
0
LINE
8
Layer 1
10
306.620356
20
211.613129
11
306.212010
21
211.695490
0
LINE
8
Layer 1
10
306.212010
20
211.695490
11
305.803672
21
211.613146
0
LINE
8
Layer 1
10
305.803672
20
211.613146
11
305.470082
21
211.388509
0
LINE
8
Layer 1
10
305.470082
20
211.388509
11
305.244954
21
211.055240
0
LINE
8
Layer 1
10
305.244954
20
211.055240
11
305.162000
21
210.647000
0
LINE
8
Layer 1
10
305.162000
20
210.647000
11
305.244946
21
210.238773
0
LINE
8
Layer 1
10
305.244946
20
210.238773
11
305.470066
21
209.905510
0
LINE
8
Layer 1
10
305.470066
20
209.905510
11
305.803654
21
209.680870
0
LINE
8
Layer 1
10
305.803654
20
209.680870
11
306.212000
21
209.598510
0
LINE
8
Layer 1
10
306.212000
20
209.598510
11
306.620342
21
209.680853
0
LINE
8
Layer 1
10
306.620342
20
209.680853
11
306.953930
21
209.905487
0
LINE
8
Layer 1
10
306.953930
20
209.905487
11
307.179053
21
210.238756
0
LINE
8
Layer 1
10
307.179053
20
210.238756
11
307.262000
21
210.647000
0
LINE
8
Layer 1
10
307.262000
20
210.647000
11
307.262000
21
210.647000
0
LINE
8
Layer 1
10
328.278000
20
231.664000
11
328.195060
21
232.072223
0
LINE
8
Layer 1
10
328.195060
20
232.072223
11
327.969944
21
232.405489
0
LINE
8
Layer 1
10
327.969944
20
232.405489
11
327.636360
21
232.630137
0
LINE
8
Layer 1
10
327.636360
20
232.630137
11
327.228020
21
232.712510
0
LINE
8
Layer 1
10
327.228020
20
232.712510
11
326.819676
21
232.630149
0
LINE
8
Layer 1
10
326.819676
20
232.630149
11
326.486085
21
232.405504
0
LINE
8
Layer 1
10
326.486085
20
232.405504
11
326.260959
21
232.072235
0
LINE
8
Layer 1
10
326.260959
20
232.072235
11
326.178010
21
231.664000
0
LINE
8
Layer 1
10
326.178010
20
231.664000
11
326.260956
21
231.255772
0
LINE
8
Layer 1
10
326.260956
20
231.255772
11
326.486075
21
230.922507
0
LINE
8
Layer 1
10
326.486075
20
230.922507
11
326.819659
21
230.697861
0
LINE
8
Layer 1
10
326.819659
20
230.697861
11
327.228000
21
230.615490
0
LINE
8
Layer 1
10
327.228000
20
230.615490
11
327.636342
21
230.697851
0
LINE
8
Layer 1
10
327.636342
20
230.697851
11
327.969930
21
230.922496
0
LINE
8
Layer 1
10
327.969930
20
230.922496
11
328.195053
21
231.255765
0
LINE
8
Layer 1
10
328.195053
20
231.255765
11
328.278000
21
231.664000
0
LINE
8
Layer 1
10
328.278000
20
231.664000
11
328.278000
21
231.664000
0
LINE
8
Layer 1
10
328.278000
20
242.147000
11
328.195060
21
242.555223
0
LINE
8
Layer 1
10
328.195060
20
242.555223
11
327.969944
21
242.888489
0
LINE
8
Layer 1
10
327.969944
20
242.888489
11
327.636360
21
243.113137
0
LINE
8
Layer 1
10
327.636360
20
243.113137
11
327.228020
21
243.195510
0
LINE
8
Layer 1
10
327.228020
20
243.195510
11
326.819676
21
243.113149
0
LINE
8
Layer 1
10
326.819676
20
243.113149
11
326.486085
21
242.888504
0
LINE
8
Layer 1
10
326.486085
20
242.888504
11
326.260959
21
242.555235
0
LINE
8
Layer 1
10
326.260959
20
242.555235
11
326.178010
21
242.147000
0
LINE
8
Layer 1
10
326.178010
20
242.147000
11
326.260956
21
241.738772
0
LINE
8
Layer 1
10
326.260956
20
241.738772
11
326.486075
21
241.405507
0
LINE
8
Layer 1
10
326.486075
20
241.405507
11
326.819659
21
241.180861
0
LINE
8
Layer 1
10
326.819659
20
241.180861
11
327.228000
21
241.098490
0
LINE
8
Layer 1
10
327.228000
20
241.098490
11
327.636342
21
241.180851
0
LINE
8
Layer 1
10
327.636342
20
241.180851
11
327.969930
21
241.405496
0
LINE
8
Layer 1
10
327.969930
20
241.405496
11
328.195053
21
241.738765
0
LINE
8
Layer 1
10
328.195053
20
241.738765
11
328.278000
21
242.147000
0
LINE
8
Layer 1
10
328.278000
20
242.147000
11
328.278000
21
242.147000
0
LINE
8
Layer 1
10
320.410000
20
224.008000
11
321.995147
21
225.116753
0
LINE
8
Layer 1
10
321.995147
20
225.116753
11
323.197810
21
226.587438
0
LINE
8
Layer 1
10
323.197810
20
226.587438
11
323.961116
21
228.327173
0
LINE
8
Layer 1
10
323.961116
20
228.327173
11
324.228190
21
230.243080
0
LINE
8
Layer 1
10
324.228000
20
230.243000
11
324.228000
21
231.677000
0
LINE
8
Layer 1
10
324.228000
20
231.677000
11
324.080564
21
232.882542
0
LINE
8
Layer 1
10
324.080564
20
232.882542
11
323.654689
21
234.001741
0
LINE
8
Layer 1
10
323.654689
20
234.001741
11
322.975027
21
234.987660
0
LINE
8
Layer 1
10
322.975027
20
234.987660
11
322.066230
21
235.793360
0
LINE
8
Layer 1
10
322.066230
20
235.793360
11
320.990045
21
236.356302
0
LINE
8
Layer 1
10
320.990045
20
236.356302
11
319.826891
21
236.641003
0
LINE
8
Layer 1
10
319.826891
20
236.641003
11
318.629404
21
236.641112
0
LINE
8
Layer 1
10
318.629404
20
236.641112
11
317.450220
21
236.350280
0
LINE
8
Layer 1
10
317.450000
20
236.350000
11
314.773290
21
235.165194
0
LINE
8
Layer 1
10
314.773290
20
235.165194
11
312.258369
21
233.715917
0
LINE
8
Layer 1
10
312.258369
20
233.715917
11
309.922351
21
232.019281
0
LINE
8
Layer 1
10
309.922351
20
232.019281
11
307.782350
21
230.092400
0
LINE
8
Layer 1
10
307.782350
20
230.092400
11
305.855480
21
227.952388
0
LINE
8
Layer 1
10
305.855480
20
227.952388
11
304.158856
21
225.616358
0
LINE
8
Layer 1
10
304.158856
20
225.616358
11
302.709591
21
223.101424
0
LINE
8
Layer 1
10
302.709591
20
223.101424
11
301.524800
21
220.424700
0
LINE
8
Layer 1
10
301.525000
20
220.425000
11
301.234168
21
219.245815
0
LINE
8
Layer 1
10
301.234168
20
219.245815
11
301.234277
21
218.048326
0
LINE
8
Layer 1
10
301.234277
20
218.048326
11
301.518978
21
216.885175
0
LINE
8
Layer 1
10
301.518978
20
216.885175
11
302.081920
21
215.809000
0
LINE
8
Layer 1
10
302.081920
20
215.809000
11
302.887617
21
214.900199
0
LINE
8
Layer 1
10
302.887617
20
214.900199
11
303.873539
21
214.220538
0
LINE
8
Layer 1
10
303.873539
20
214.220538
11
304.992741
21
213.794665
0
LINE
8
Layer 1
10
304.992741
20
213.794665
11
306.198280
21
213.647230
0
LINE
8
Layer 1
10
307.632000
20
213.648000
11
306.198000
21
213.648000
0
LINE
8
Layer 1
10
307.632000
20
213.647000
11
309.547900
21
213.914073
0
LINE
8
Layer 1
10
309.547900
20
213.914073
11
311.287630
21
214.677375
0
LINE
8
Layer 1
10
311.287630
20
214.677375
11
312.758313
21
215.880035
0
LINE
8
Layer 1
10
312.758313
20
215.880035
11
313.867070
21
217.465180
0
LINE
8
Layer 1
10
320.410000
20
224.008000
11
318.401844
21
222.775458
0
LINE
8
Layer 1
10
318.401844
20
222.775458
11
316.621581
21
221.253735
0
LINE
8
Layer 1
10
316.621581
20
221.253735
11
315.099861
21
219.473479
0
LINE
8
Layer 1
10
315.099861
20
219.473479
11
313.867330
21
217.465340
0
LINE
8
Layer 1
10
330.228000
20
230.243000
11
330.495075
21
228.327093
0
LINE
8
Layer 1
10
330.495075
20
228.327093
11
331.258384
21
226.587357
0
LINE
8
Layer 1
10
331.258384
20
226.587357
11
332.461048
21
225.116673
0
LINE
8
Layer 1
10
332.461048
20
225.116673
11
334.046190
21
224.007920
0
LINE
8
Layer 1
10
340.589000
20
217.466000
11
339.356473
21
219.474139
0
LINE
8
Layer 1
10
339.356473
20
219.474139
11
337.834752
21
221.254395
0
LINE
8
Layer 1
10
337.834752
20
221.254395
11
336.054488
21
222.776118
0
LINE
8
Layer 1
10
336.054488
20
222.776118
11
334.046330
21
224.008660
0
LINE
8
Layer 1
10
340.589000
20
217.466000
11
341.697757
21
215.880855
0
LINE
8
Layer 1
10
341.697757
20
215.880855
11
343.168440
21
214.678195
0
LINE
8
Layer 1
10
343.168440
20
214.678195
11
344.908170
21
213.914892
0
LINE
8
Layer 1
10
344.908170
20
213.914892
11
346.824070
21
213.647820
0
LINE
8
Layer 1
10
348.258000
20
213.648000
11
346.824000
21
213.648000
0
LINE
8
Layer 1
10
348.258000
20
213.647000
11
349.463539
21
213.794435
0
LINE
8
Layer 1
10
349.463539
20
213.794435
11
350.582741
21
214.220307
0
LINE
8
Layer 1
10
350.582741
20
214.220307
11
351.568663
21
214.899969
0
LINE
8
Layer 1
10
351.568663
20
214.899969
11
352.374360
21
215.808770
0
LINE
8
Layer 1
10
352.374360
20
215.808770
11
352.937302
21
216.884945
0
LINE
8
Layer 1
10
352.937302
20
216.884945
11
353.222002
21
218.048096
0
LINE
8
Layer 1
10
353.222002
20
218.048096
11
353.222112
21
219.245585
0
LINE
8
Layer 1
10
353.222112
20
219.245585
11
352.931280
21
220.424770
0
LINE
8
Layer 1
10
352.931000
20
220.425000
11
351.746198
21
223.101707
0
LINE
8
Layer 1
10
351.746198
20
223.101707
11
350.296925
21
225.616629
0
LINE
8
Layer 1
10
350.296925
20
225.616629
11
348.600296
21
227.952650
0
LINE
8
Layer 1
10
348.600296
20
227.952650
11
346.673424
21
230.092659
0
LINE
8
Layer 1
10
346.673424
20
230.092659
11
344.533424
21
232.019541
0
LINE
8
Layer 1
10
344.533424
20
232.019541
11
342.197410
21
233.716185
0
LINE
8
Layer 1
10
342.197410
20
233.716185
11
339.682497
21
235.165475
0
LINE
8
Layer 1
10
339.682497
20
235.165475
11
337.005800
21
236.350300
0
LINE
8
Layer 1
10
337.006000
20
236.350000
11
335.826814
21
236.640832
0
LINE
8
Layer 1
10
335.826814
20
236.640832
11
334.629325
21
236.640722
0
LINE
8
Layer 1
10
334.629325
20
236.640722
11
333.466171
21
236.356022
0
LINE
8
Layer 1
10
333.466171
20
236.356022
11
332.389990
21
235.793080
0
LINE
8
Layer 1
10
332.389990
20
235.793080
11
331.481193
21
234.987380
0
LINE
8
Layer 1
10
331.481193
20
234.987380
11
330.801531
21
234.001461
0
LINE
8
Layer 1
10
330.801531
20
234.001461
11
330.375656
21
232.882262
0
LINE
8
Layer 1
10
330.375656
20
232.882262
11
330.228220
21
231.676720
0
LINE
8
Layer 1
10
330.228000
20
231.677000
11
330.228000
21
230.243000
0
LINE
8
Layer 1
10
331.203000
20
210.647000
11
331.121614
21
211.447574
0
LINE
8
Layer 1
10
331.121614
20
211.447574
11
330.889597
21
212.193159
0
LINE
8
Layer 1
10
330.889597
20
212.193159
11
330.037508
21
213.455560
0
LINE
8
Layer 1
10
330.037508
20
213.455560
11
328.774415
21
214.306586
0
LINE
8
Layer 1
10
328.774415
20
214.306586
11
328.028642
21
214.537953
0
LINE
8
Layer 1
10
328.028642
20
214.537953
11
327.228000
21
214.618620
0
LINE
8
Layer 1
10
327.228000
20
214.618620
11
326.427352
21
214.537953
0
LINE
8
Layer 1
10
326.427352
20
214.537953
11
325.681566
21
214.306586
0
LINE
8
Layer 1
10
325.681566
20
214.306586
11
324.418440
21
213.455560
0
LINE
8
Layer 1
10
324.418440
20
213.455560
11
323.566344
21
212.193159
0
LINE
8
Layer 1
10
323.566344
20
212.193159
11
323.334346
21
211.447574
0
LINE
8
Layer 1
10
323.334346
20
211.447574
11
323.253000
21
210.647000
0
LINE
8
Layer 1
10
323.253000
20
210.647000
11
323.334386
21
209.846426
0
LINE
8
Layer 1
10
323.334386
20
209.846426
11
323.566403
21
209.100841
0
LINE
8
Layer 1
10
323.566403
20
209.100841
11
324.418492
21
207.838440
0
LINE
8
Layer 1
10
324.418492
20
207.838440
11
325.681585
21
206.987414
0
LINE
8
Layer 1
10
325.681585
20
206.987414
11
326.427358
21
206.756047
0
LINE
8
Layer 1
10
326.427358
20
206.756047
11
327.228000
21
206.675380
0
LINE
8
Layer 1
10
327.228000
20
206.675380
11
328.028649
21
206.756047
0
LINE
8
Layer 1
10
328.028649
20
206.756047
11
328.774436
21
206.987414
0
LINE
8
Layer 1
10
328.774436
20
206.987414
11
330.037564
21
207.838440
0
LINE
8
Layer 1
10
330.037564
20
207.838440
11
330.889660
21
209.100841
0
LINE
8
Layer 1
10
330.889660
20
209.100841
11
331.121657
21
209.846426
0
LINE
8
Layer 1
10
331.121657
20
209.846426
11
331.203000
21
210.647000
0
LINE
8
Layer 1
10
331.203000
20
210.647000
11
331.203000
21
210.647000
0
LINE
8
Layer 1
10
355.558000
20
226.397000
11
355.475053
21
226.805223
0
LINE
8
Layer 1
10
355.475053
20
226.805223
11
355.249931
21
227.138489
0
LINE
8
Layer 1
10
355.249931
20
227.138489
11
354.916346
21
227.363137
0
LINE
8
Layer 1
10
354.916346
20
227.363137
11
354.508010
21
227.445510
0
LINE
8
Layer 1
10
354.508010
20
227.445510
11
354.099662
21
227.363149
0
LINE
8
Layer 1
10
354.099662
20
227.363149
11
353.766071
21
227.138504
0
LINE
8
Layer 1
10
353.766071
20
227.138504
11
353.540947
21
226.805235
0
LINE
8
Layer 1
10
353.540947
20
226.805235
11
353.458000
21
226.397000
0
LINE
8
Layer 1
10
353.458000
20
226.397000
11
353.540940
21
225.988773
0
LINE
8
Layer 1
10
353.540940
20
225.988773
11
353.766056
21
225.655510
0
LINE
8
Layer 1
10
353.766056
20
225.655510
11
354.099640
21
225.430870
0
LINE
8
Layer 1
10
354.099640
20
225.430870
11
354.507980
21
225.348510
0
LINE
8
Layer 1
10
354.507980
20
225.348510
11
354.916324
21
225.430853
0
LINE
8
Layer 1
10
354.916324
20
225.430853
11
355.249916
21
225.655487
0
LINE
8
Layer 1
10
355.249916
20
225.655487
11
355.475045
21
225.988756
0
LINE
8
Layer 1
10
355.475045
20
225.988756
11
355.558000
21
226.397000
0
LINE
8
Layer 1
10
355.558000
20
226.397000
11
355.558000
21
226.397000
0
LINE
8
Layer 1
10
355.558000
20
194.897000
11
355.475053
21
195.305223
0
LINE
8
Layer 1
10
355.475053
20
195.305223
11
355.249931
21
195.638486
0
LINE
8
Layer 1
10
355.249931
20
195.638486
11
354.916346
21
195.863129
0
LINE
8
Layer 1
10
354.916346
20
195.863129
11
354.508010
21
195.945490
0
LINE
8
Layer 1
10
354.508010
20
195.945490
11
354.099662
21
195.863146
0
LINE
8
Layer 1
10
354.099662
20
195.863146
11
353.766071
21
195.638509
0
LINE
8
Layer 1
10
353.766071
20
195.638509
11
353.540947
21
195.305240
0
LINE
8
Layer 1
10
353.540947
20
195.305240
11
353.458000
21
194.897000
0
LINE
8
Layer 1
10
353.458000
20
194.897000
11
353.540940
21
194.488773
0
LINE
8
Layer 1
10
353.540940
20
194.488773
11
353.766056
21
194.155510
0
LINE
8
Layer 1
10
353.766056
20
194.155510
11
354.099640
21
193.930870
0
LINE
8
Layer 1
10
354.099640
20
193.930870
11
354.507980
21
193.848510
0
LINE
8
Layer 1
10
354.507980
20
193.848510
11
354.916324
21
193.930853
0
LINE
8
Layer 1
10
354.916324
20
193.930853
11
355.249916
21
194.155487
0
LINE
8
Layer 1
10
355.249916
20
194.155487
11
355.475045
21
194.488756
0
LINE
8
Layer 1
10
355.475045
20
194.488756
11
355.558000
21
194.897000
0
LINE
8
Layer 1
10
355.558000
20
194.897000
11
355.558000
21
194.897000
0
LINE
8
Layer 1
10
328.278000
20
179.147000
11
328.195060
21
179.555223
0
LINE
8
Layer 1
10
328.195060
20
179.555223
11
327.969944
21
179.888486
0
LINE
8
Layer 1
10
327.969944
20
179.888486
11
327.636360
21
180.113129
0
LINE
8
Layer 1
10
327.636360
20
180.113129
11
327.228020
21
180.195490
0
LINE
8
Layer 1
10
327.228020
20
180.195490
11
326.819676
21
180.113146
0
LINE
8
Layer 1
10
326.819676
20
180.113146
11
326.486085
21
179.888509
0
LINE
8
Layer 1
10
326.486085
20
179.888509
11
326.260959
21
179.555240
0
LINE
8
Layer 1
10
326.260959
20
179.555240
11
326.178010
21
179.147000
0
LINE
8
Layer 1
10
326.178010
20
179.147000
11
326.260956
21
178.738773
0
LINE
8
Layer 1
10
326.260956
20
178.738773
11
326.486075
21
178.405510
0
LINE
8
Layer 1
10
326.486075
20
178.405510
11
326.819659
21
178.180870
0
LINE
8
Layer 1
10
326.819659
20
178.180870
11
327.228000
21
178.098510
0
LINE
8
Layer 1
10
327.228000
20
178.098510
11
327.636342
21
178.180853
0
LINE
8
Layer 1
10
327.636342
20
178.180853
11
327.969930
21
178.405487
0
LINE
8
Layer 1
10
327.969930
20
178.405487
11
328.195053
21
178.738756
0
LINE
8
Layer 1
10
328.195053
20
178.738756
11
328.278000
21
179.147000
0
LINE
8
Layer 1
10
328.278000
20
179.147000
11
328.278000
21
179.147000
0
LINE
8
Layer 1
10
300.998000
20
194.897000
11
300.915060
21
195.305223
0
LINE
8
Layer 1
10
300.915060
20
195.305223
11
300.689944
21
195.638486
0
LINE
8
Layer 1
10
300.689944
20
195.638486
11
300.356360
21
195.863129
0
LINE
8
Layer 1
10
300.356360
20
195.863129
11
299.948020
21
195.945490
0
LINE
8
Layer 1
10
299.948020
20
195.945490
11
299.539676
21
195.863146
0
LINE
8
Layer 1
10
299.539676
20
195.863146
11
299.206085
21
195.638509
0
LINE
8
Layer 1
10
299.206085
20
195.638509
11
298.980959
21
195.305240
0
LINE
8
Layer 1
10
298.980959
20
195.305240
11
298.898010
21
194.897000
0
LINE
8
Layer 1
10
298.898010
20
194.897000
11
298.980956
21
194.488773
0
LINE
8
Layer 1
10
298.980956
20
194.488773
11
299.206075
21
194.155510
0
LINE
8
Layer 1
10
299.206075
20
194.155510
11
299.539659
21
193.930870
0
LINE
8
Layer 1
10
299.539659
20
193.930870
11
299.948000
21
193.848510
0
LINE
8
Layer 1
10
299.948000
20
193.848510
11
300.356342
21
193.930853
0
LINE
8
Layer 1
10
300.356342
20
193.930853
11
300.689930
21
194.155487
0
LINE
8
Layer 1
10
300.689930
20
194.155487
11
300.915053
21
194.488756
0
LINE
8
Layer 1
10
300.915053
20
194.488756
11
300.998000
21
194.897000
0
LINE
8
Layer 1
10
300.998000
20
194.897000
11
300.998000
21
194.897000
0
LINE
8
Layer 1
10
300.998000
20
226.397000
11
300.915060
21
226.805223
0
LINE
8
Layer 1
10
300.915060
20
226.805223
11
300.689944
21
227.138489
0
LINE
8
Layer 1
10
300.689944
20
227.138489
11
300.356360
21
227.363137
0
LINE
8
Layer 1
10
300.356360
20
227.363137
11
299.948020
21
227.445510
0
LINE
8
Layer 1
10
299.948020
20
227.445510
11
299.539676
21
227.363149
0
LINE
8
Layer 1
10
299.539676
20
227.363149
11
299.206085
21
227.138504
0
LINE
8
Layer 1
10
299.206085
20
227.138504
11
298.980959
21
226.805235
0
LINE
8
Layer 1
10
298.980959
20
226.805235
11
298.898010
21
226.397000
0
LINE
8
Layer 1
10
298.898010
20
226.397000
11
298.980956
21
225.988773
0
LINE
8
Layer 1
10
298.980956
20
225.988773
11
299.206075
21
225.655510
0
LINE
8
Layer 1
10
299.206075
20
225.655510
11
299.539659
21
225.430870
0
LINE
8
Layer 1
10
299.539659
20
225.430870
11
299.948000
21
225.348510
0
LINE
8
Layer 1
10
299.948000
20
225.348510
11
300.356342
21
225.430853
0
LINE
8
Layer 1
10
300.356342
20
225.430853
11
300.689930
21
225.655487
0
LINE
8
Layer 1
10
300.689930
20
225.655487
11
300.915053
21
225.988756
0
LINE
8
Layer 1
10
300.915053
20
225.988756
11
300.998000
21
226.397000
0
LINE
8
Layer 1
10
300.998000
20
226.397000
11
300.998000
21
226.397000
0
LINE
8
Layer 1
10
328.278000
20
221.647000
11
328.195060
21
222.055223
0
LINE
8
Layer 1
10
328.195060
20
222.055223
11
327.969944
21
222.388486
0
LINE
8
Layer 1
10
327.969944
20
222.388486
11
327.636360
21
222.613129
0
LINE
8
Layer 1
10
327.636360
20
222.613129
11
327.228020
21
222.695490
0
LINE
8
Layer 1
10
327.228020
20
222.695490
11
326.819676
21
222.613146
0
LINE
8
Layer 1
10
326.819676
20
222.613146
11
326.486085
21
222.388509
0
LINE
8
Layer 1
10
326.486085
20
222.388509
11
326.260959
21
222.055240
0
LINE
8
Layer 1
10
326.260959
20
222.055240
11
326.178010
21
221.647000
0
LINE
8
Layer 1
10
326.178010
20
221.647000
11
326.260956
21
221.238773
0
LINE
8
Layer 1
10
326.260956
20
221.238773
11
326.486075
21
220.905510
0
LINE
8
Layer 1
10
326.486075
20
220.905510
11
326.819659
21
220.680870
0
LINE
8
Layer 1
10
326.819659
20
220.680870
11
327.228000
21
220.598510
0
LINE
8
Layer 1
10
327.228000
20
220.598510
11
327.636342
21
220.680853
0
LINE
8
Layer 1
10
327.636342
20
220.680853
11
327.969930
21
220.905487
0
LINE
8
Layer 1
10
327.969930
20
220.905487
11
328.195053
21
221.238756
0
LINE
8
Layer 1
10
328.195053
20
221.238756
11
328.278000
21
221.647000
0
LINE
8
Layer 1
10
328.278000
20
221.647000
11
328.278000
21
221.647000
0
LINE
8
Layer 1
10
337.804000
20
205.147000
11
337.721008
21
205.555174
0
LINE
8
Layer 1
10
337.721008
20
205.555174
11
337.495878
21
205.888389
0
LINE
8
Layer 1
10
337.495878
20
205.888389
11
337.162308
21
206.112994
0
LINE
8
Layer 1
10
337.162308
20
206.112994
11
336.754000
21
206.195340
0
LINE
8
Layer 1
10
336.754000
20
206.195340
11
336.345696
21
206.112994
0
LINE
8
Layer 1
10
336.345696
20
206.112994
11
336.012126
21
205.888389
0
LINE
8
Layer 1
10
336.012126
20
205.888389
11
335.786994
21
205.555174
0
LINE
8
Layer 1
10
335.786994
20
205.555174
11
335.704000
21
205.147000
0
LINE
8
Layer 1
10
335.704000
20
205.147000
11
335.786994
21
204.738822
0
LINE
8
Layer 1
10
335.786994
20
204.738822
11
336.012126
21
204.405607
0
LINE
8
Layer 1
10
336.012126
20
204.405607
11
336.345696
21
204.181005
0
LINE
8
Layer 1
10
336.345696
20
204.181005
11
336.754000
21
204.098660
0
LINE
8
Layer 1
10
336.754000
20
204.098660
11
337.162308
21
204.181005
0
LINE
8
Layer 1
10
337.162308
20
204.181005
11
337.495877
21
204.405607
0
LINE
8
Layer 1
10
337.495877
20
204.405607
11
337.721008
21
204.738822
0
LINE
8
Layer 1
10
337.721008
20
204.738822
11
337.804000
21
205.147000
0
LINE
8
Layer 1
10
337.804000
20
205.147000
11
337.804000
21
205.147000
0
LINE
8
Layer 1
10
318.752000
20
205.147000
11
318.669008
21
205.555174
0
LINE
8
Layer 1
10
318.669008
20
205.555174
11
318.443877
21
205.888389
0
LINE
8
Layer 1
10
318.443877
20
205.888389
11
318.110308
21
206.112994
0
LINE
8
Layer 1
10
318.110308
20
206.112994
11
317.702000
21
206.195340
0
LINE
8
Layer 1
10
317.702000
20
206.195340
11
317.293696
21
206.112994
0
LINE
8
Layer 1
10
317.293696
20
206.112994
11
316.960126
21
205.888389
0
LINE
8
Layer 1
10
316.960126
20
205.888389
11
316.734994
21
205.555174
0
LINE
8
Layer 1
10
316.734994
20
205.555174
11
316.652000
21
205.147000
0
LINE
8
Layer 1
10
316.652000
20
205.147000
11
316.734994
21
204.738822
0
LINE
8
Layer 1
10
316.734994
20
204.738822
11
316.960126
21
204.405607
0
LINE
8
Layer 1
10
316.960126
20
204.405607
11
317.293696
21
204.181005
0
LINE
8
Layer 1
10
317.293696
20
204.181005
11
317.702000
21
204.098660
0
LINE
8
Layer 1
10
317.702000
20
204.098660
11
318.110308
21
204.181005
0
LINE
8
Layer 1
10
318.110308
20
204.181005
11
318.443877
21
204.405607
0
LINE
8
Layer 1
10
318.443877
20
204.405607
11
318.669008
21
204.738822
0
LINE
8
Layer 1
10
318.669008
20
204.738822
11
318.752000
21
205.147000
0
LINE
8
Layer 1
10
318.752000
20
205.147000
11
318.752000
21
205.147000
0
LINE
8
Layer 1
10
334.046000
20
197.287000
11
332.460984
21
196.178047
0
LINE
8
Layer 1
10
332.460984
20
196.178047
11
331.258375
21
194.707125
0
LINE
8
Layer 1
10
331.258375
20
194.707125
11
330.495078
21
192.967141
0
LINE
8
Layer 1
10
330.495078
20
192.967141
11
330.228000
21
191.051000
0
LINE
8
Layer 1
10
330.228000
20
191.052000
11
330.228000
21
189.618000
0
LINE
8
Layer 1
10
330.228000
20
189.618000
11
330.375436
21
188.412466
0
LINE
8
Layer 1
10
330.375436
20
188.412466
11
330.801311
21
187.293266
0
LINE
8
Layer 1
10
330.801311
20
187.293266
11
331.480973
21
186.307343
0
LINE
8
Layer 1
10
331.480973
20
186.307343
11
332.389770
21
185.501640
0
LINE
8
Layer 1
10
332.389770
20
185.501640
11
333.465955
21
184.938699
0
LINE
8
Layer 1
10
333.465955
20
184.938699
11
334.629109
21
184.653999
0
LINE
8
Layer 1
10
334.629109
20
184.653999
11
335.826596
21
184.653892
0
LINE
8
Layer 1
10
335.826596
20
184.653892
11
337.005780
21
184.944730
0
LINE
8
Layer 1
10
337.006000
20
184.944000
11
339.682710
21
186.128789
0
LINE
8
Layer 1
10
339.682710
20
186.128789
11
342.197631
21
187.578055
0
LINE
8
Layer 1
10
342.197631
20
187.578055
11
344.533649
21
189.274681
0
LINE
8
Layer 1
10
344.533649
20
189.274681
11
346.673650
21
191.201554
0
LINE
8
Layer 1
10
346.673650
20
191.201554
11
348.600520
21
193.341557
0
LINE
8
Layer 1
10
348.600520
20
193.341557
11
350.297144
21
195.677576
0
LINE
8
Layer 1
10
350.297144
20
195.677576
11
351.746409
21
198.192495
0
LINE
8
Layer 1
10
351.746409
20
198.192495
11
352.931200
21
200.869200
0
LINE
8
Layer 1
10
352.931000
20
200.870000
11
353.221832
21
202.049185
0
LINE
8
Layer 1
10
353.221832
20
202.049185
11
353.221722
21
203.246674
0
LINE
8
Layer 1
10
353.221722
20
203.246674
11
352.937022
21
204.409825
0
LINE
8
Layer 1
10
352.937022
20
204.409825
11
352.374080
21
205.486000
0
LINE
8
Layer 1
10
352.374080
20
205.486000
11
351.568383
21
206.394801
0
LINE
8
Layer 1
10
351.568383
20
206.394801
11
350.582461
21
207.074462
0
LINE
8
Layer 1
10
350.582461
20
207.074462
11
349.463259
21
207.500335
0
LINE
8
Layer 1
10
349.463259
20
207.500335
11
348.257720
21
207.647770
0
LINE
8
Layer 1
10
348.258000
20
207.647000
11
346.824000
21
207.647000
0
LINE
8
Layer 1
10
346.824000
20
207.647000
11
344.908100
21
207.379926
0
LINE
8
Layer 1
10
344.908100
20
207.379926
11
343.168371
21
206.616621
0
LINE
8
Layer 1
10
343.168371
20
206.616621
11
341.697691
21
205.413961
0
LINE
8
Layer 1
10
341.697691
20
205.413961
11
340.588940
21
203.828820
0
LINE
8
Layer 1
10
334.046000
20
197.287000
11
336.054158
21
198.519542
0
LINE
8
Layer 1
10
336.054158
20
198.519542
11
337.834423
21
200.041265
0
LINE
8
Layer 1
10
337.834423
20
200.041265
11
339.356143
21
201.821521
0
LINE
8
Layer 1
10
339.356143
20
201.821521
11
340.588670
21
203.829660
0
LINE
8
Layer 1
10
362.728000
20
210.647000
11
362.542988
21
214.275600
0
LINE
8
Layer 1
10
362.542988
20
214.275600
11
362.003589
21
217.799255
0
LINE
8
Layer 1
10
362.003589
20
217.799255
11
361.127635
21
221.200144
0
LINE
8
Layer 1
10
361.127635
20
221.200144
11
359.932956
21
224.460442
0
LINE
8
Layer 1
10
359.932956
20
224.460442
11
358.437385
21
227.562328
0
LINE
8
Layer 1
10
358.437385
20
227.562328
11
356.658752
21
230.487980
0
LINE
8
Layer 1
10
356.658752
20
230.487980
11
354.614888
21
233.219574
0
LINE
8
Layer 1
10
354.614888
20
233.219574
11
352.323625
21
235.739287
0
LINE
8
Layer 1
10
352.323625
20
235.739287
11
349.802794
21
238.029299
0
LINE
8
Layer 1
10
349.802794
20
238.029299
11
347.070227
21
240.071784
0
LINE
8
Layer 1
10
347.070227
20
240.071784
11
344.143754
21
241.848922
0
LINE
8
Layer 1
10
344.143754
20
241.848922
11
341.041206
21
243.342889
0
LINE
8
Layer 1
10
341.041206
20
243.342889
11
337.780416
21
244.535863
0
LINE
8
Layer 1
10
337.780416
20
244.535863
11
334.379214
21
245.410021
0
LINE
8
Layer 1
10
334.379214
20
245.410021
11
330.855432
21
245.947541
0
LINE
8
Layer 1
10
330.855432
20
245.947541
11
327.226900
21
246.130600
0
LINE
8
Layer 1
10
327.226900
20
246.130600
11
323.598375
21
245.947318
0
LINE
8
Layer 1
10
323.598375
20
245.947318
11
320.074615
21
245.409584
0
LINE
8
Layer 1
10
320.074615
20
245.409584
11
316.673450
21
244.535225
0
LINE
8
Layer 1
10
316.673450
20
244.535225
11
313.412712
21
243.342069
0
LINE
8
Layer 1
10
313.412712
20
243.342069
11
310.310234
21
241.847943
0
LINE
8
Layer 1
10
310.310234
20
241.847943
11
307.383848
21
240.070672
0
LINE
8
Layer 1
10
307.383848
20
240.070672
11
304.651384
21
238.028085
0
LINE
8
Layer 1
10
304.651384
20
238.028085
11
302.130675
21
235.738009
0
LINE
8
Layer 1
10
302.130675
20
235.738009
11
299.839553
21
233.218269
0
LINE
8
Layer 1
10
299.839553
20
233.218269
11
297.795849
21
230.486694
0
LINE
8
Layer 1
10
297.795849
20
230.486694
11
296.017396
21
227.561110
0
LINE
8
Layer 1
10
296.017396
20
227.561110
11
294.522025
21
224.459344
0
LINE
8
Layer 1
10
294.522025
20
224.459344
11
293.327568
21
221.199223
0
LINE
8
Layer 1
10
293.327568
20
221.199223
11
292.451857
21
217.798574
0
LINE
8
Layer 1
10
292.451857
20
217.798574
11
291.912724
21
214.275224
0
LINE
8
Layer 1
10
291.912724
20
214.275224
11
291.728000
21
210.647000
0
LINE
8
Layer 1
10
291.728000
20
210.647000
11
291.913012
21
207.018400
0
LINE
8
Layer 1
10
291.913012
20
207.018400
11
292.452411
21
203.494745
0
LINE
8
Layer 1
10
292.452411
20
203.494745
11
293.328365
21
200.093856
0
LINE
8
Layer 1
10
293.328365
20
200.093856
11
294.523044
21
196.833558
0
LINE
8
Layer 1
10
294.523044
20
196.833558
11
296.018615
21
193.731672
0
LINE
8
Layer 1
10
296.018615
20
193.731672
11
297.797248
21
190.806020
0
LINE
8
Layer 1
10
297.797248
20
190.806020
11
299.841112
21
188.074426
0
LINE
8
Layer 1
10
299.841112
20
188.074426
11
302.132375
21
185.554712
0
LINE
8
Layer 1
10
302.132375
20
185.554712
11
304.653206
21
183.264701
0
LINE
8
Layer 1
10
304.653206
20
183.264701
11
307.385773
21
181.222216
0
LINE
8
Layer 1
10
307.385773
20
181.222216
11
310.312246
21
179.445078
0
LINE
8
Layer 1
10
310.312246
20
179.445078
11
313.414794
21
177.951111
0
LINE
8
Layer 1
10
313.414794
20
177.951111
11
316.675584
21
176.758137
0
LINE
8
Layer 1
10
316.675584
20
176.758137
11
320.076786
21
175.883979
0
LINE
8
Layer 1
10
320.076786
20
175.883979
11
323.600568
21
175.346459
0
LINE
8
Layer 1
10
323.600568
20
175.346459
11
327.229100
21
175.163400
0
LINE
8
Layer 1
10
327.229100
20
175.163400
11
330.857625
21
175.346682
0
LINE
8
Layer 1
10
330.857625
20
175.346682
11
334.381385
21
175.884416
0
LINE
8
Layer 1
10
334.381385
20
175.884416
11
337.782550
21
176.758775
0
LINE
8
Layer 1
10
337.782550
20
176.758775
11
341.043288
21
177.951931
0
LINE
8
Layer 1
10
341.043288
20
177.951931
11
344.145766
21
179.446057
0
LINE
8
Layer 1
10
344.145766
20
179.446057
11
347.072152
21
181.223328
0
LINE
8
Layer 1
10
347.072152
20
181.223328
11
349.804616
21
183.265915
0
LINE
8
Layer 1
10
349.804616
20
183.265915
11
352.325325
21
185.555991
0
LINE
8
Layer 1
10
352.325325
20
185.555991
11
354.616447
21
188.075731
0
LINE
8
Layer 1
10
354.616447
20
188.075731
11
356.660151
21
190.807306
0
LINE
8
Layer 1
10
356.660151
20
190.807306
11
358.438604
21
193.732890
0
LINE
8
Layer 1
10
358.438604
20
193.732890
11
359.933975
21
196.834656
0
LINE
8
Layer 1
10
359.933975
20
196.834656
11
361.128432
21
200.094777
0
LINE
8
Layer 1
10
361.128432
20
200.094777
11
362.004143
21
203.495426
0
LINE
8
Layer 1
10
362.004143
20
203.495426
11
362.543276
21
207.018776
0
LINE
8
Layer 1
10
362.543276
20
207.018776
11
362.728000
21
210.647000
0
LINE
8
Layer 1
10
362.728000
20
210.647000
11
362.728000
21
210.647000
0
LINE
8
Layer 1
10
415.476000
20
204.388000
11
414.367244
21
205.973141
0
LINE
8
Layer 1
10
414.367244
20
205.973141
11
412.896565
21
207.175801
0
LINE
8
Layer 1
10
412.896565
20
207.175801
11
411.156838
21
207.939106
0
LINE
8
Layer 1
10
411.156838
20
207.939106
11
409.240940
21
208.206180
0
LINE
8
Layer 1
10
409.241000
20
208.206000
11
407.807000
21
208.206000
0
LINE
8
Layer 1
10
407.807000
20
208.206000
11
406.601462
21
208.058565
0
LINE
8
Layer 1
10
406.601462
20
208.058565
11
405.482263
21
207.632692
0
LINE
8
Layer 1
10
405.482263
20
207.632692
11
404.496342
21
206.953031
0
LINE
8
Layer 1
10
404.496342
20
206.953031
11
403.690640
21
206.044230
0
LINE
8
Layer 1
10
403.690640
20
206.044230
11
403.127704
21
204.968055
0
LINE
8
Layer 1
10
403.127704
20
204.968055
11
402.843006
21
203.804904
0
LINE
8
Layer 1
10
402.843006
20
203.804904
11
402.842898
21
202.607415
0
LINE
8
Layer 1
10
402.842898
20
202.607415
11
403.133730
21
201.428230
0
LINE
8
Layer 1
10
403.134000
20
201.429000
11
404.318802
21
198.752287
0
LINE
8
Layer 1
10
404.318802
20
198.752287
11
405.768076
21
196.237365
0
LINE
8
Layer 1
10
405.768076
20
196.237365
11
407.464707
21
193.901346
0
LINE
8
Layer 1
10
407.464707
20
193.901346
11
409.391580
21
191.761346
0
LINE
8
Layer 1
10
409.391580
20
191.761346
11
411.531581
21
189.834478
0
LINE
8
Layer 1
10
411.531581
20
189.834478
11
413.867594
21
188.137855
0
LINE
8
Layer 1
10
413.867594
20
188.137855
11
416.382505
21
186.688591
0
LINE
8
Layer 1
10
416.382505
20
186.688591
11
419.059200
21
185.503800
0
LINE
8
Layer 1
10
419.059000
20
185.503000
11
420.238186
21
185.212162
0
LINE
8
Layer 1
10
420.238186
20
185.212162
11
421.435675
21
185.212269
0
LINE
8
Layer 1
10
421.435675
20
185.212269
11
422.598829
21
185.496969
0
LINE
8
Layer 1
10
422.598829
20
185.496969
11
423.675010
21
186.059910
0
LINE
8
Layer 1
10
423.675010
20
186.059910
11
424.583807
21
186.865613
0
LINE
8
Layer 1
10
424.583807
20
186.865613
11
425.263469
21
187.851536
0
LINE
8
Layer 1
10
425.263469
20
187.851536
11
425.689344
21
188.970736
0
LINE
8
Layer 1
10
425.689344
20
188.970736
11
425.836780
21
190.176270
0
LINE
8
Layer 1
10
425.837000
20
191.611000
11
425.837000
21
190.177000
0
LINE
8
Layer 1
10
425.837000
20
191.610000
11
425.569925
21
193.525907
0
LINE
8
Layer 1
10
425.569925
20
193.525907
11
424.806616
21
195.265643
0
LINE
8
Layer 1
10
424.806616
20
195.265643
11
423.603952
21
196.736327
0
LINE
8
Layer 1
10
423.603952
20
196.736327
11
422.018810
21
197.845080
0
LINE
8
Layer 1
10
415.476000
20
204.388000
11
416.708531
21
202.379861
0
LINE
8
Layer 1
10
416.708531
20
202.379861
11
418.230251
21
200.599605
0
LINE
8
Layer 1
10
418.230251
20
200.599605
11
420.010514
21
199.077882
0
LINE
8
Layer 1
10
420.010514
20
199.077882
11
422.018670
21
197.845340
0
LINE
8
Layer 1
10
450.903000
20
211.206000
11
450.820054
21
211.614223
0
LINE
8
Layer 1
10
450.820054
20
211.614223
11
450.594935
21
211.947486
0
LINE
8
Layer 1
10
450.594935
20
211.947486
11
450.261351
21
212.172129
0
LINE
8
Layer 1
10
450.261351
20
212.172129
11
449.853010
21
212.254490
0
LINE
8
Layer 1
10
449.853010
20
212.254490
11
449.444668
21
212.172146
0
LINE
8
Layer 1
10
449.444668
20
212.172146
11
449.111079
21
211.947509
0
LINE
8
Layer 1
10
449.111079
20
211.947509
11
448.885953
21
211.614240
0
LINE
8
Layer 1
10
448.885953
20
211.614240
11
448.803000
21
211.206000
0
LINE
8
Layer 1
10
448.803000
20
211.206000
11
448.885946
21
210.797773
0
LINE
8
Layer 1
10
448.885946
20
210.797773
11
449.111065
21
210.464510
0
LINE
8
Layer 1
10
449.111065
20
210.464510
11
449.444649
21
210.239870
0
LINE
8
Layer 1
10
449.444649
20
210.239870
11
449.852990
21
210.157510
0
LINE
8
Layer 1
10
449.852990
20
210.157510
11
450.261334
21
210.239853
0
LINE
8
Layer 1
10
450.261334
20
210.239853
11
450.594925
21
210.464488
0
LINE
8
Layer 1
10
450.594925
20
210.464488
11
450.820051
21
210.797756
0
LINE
8
Layer 1
10
450.820051
20
210.797756
11
450.903000
21
211.206000
0
LINE
8
Layer 1
10
450.903000
20
211.206000
11
450.903000
21
211.206000
0
LINE
8
Layer 1
10
429.887000
20
190.190000
11
429.804060
21
190.598227
0
LINE
8
Layer 1
10
429.804060
20
190.598227
11
429.578944
21
190.931490
0
LINE
8
Layer 1
10
429.578944
20
190.931490
11
429.245360
21
191.156130
0
LINE
8
Layer 1
10
429.245360
20
191.156130
11
428.837020
21
191.238490
0
LINE
8
Layer 1
10
428.837020
20
191.238490
11
428.428676
21
191.156147
0
LINE
8
Layer 1
10
428.428676
20
191.156147
11
428.095085
21
190.931512
0
LINE
8
Layer 1
10
428.095085
20
190.931512
11
427.869959
21
190.598244
0
LINE
8
Layer 1
10
427.869959
20
190.598244
11
427.787010
21
190.190000
0
LINE
8
Layer 1
10
427.787010
20
190.190000
11
427.869956
21
189.781777
0
LINE
8
Layer 1
10
427.869956
20
189.781777
11
428.095075
21
189.448514
0
LINE
8
Layer 1
10
428.095075
20
189.448514
11
428.428659
21
189.223871
0
LINE
8
Layer 1
10
428.428659
20
189.223871
11
428.837000
21
189.141510
0
LINE
8
Layer 1
10
428.837000
20
189.141510
11
429.245342
21
189.223853
0
LINE
8
Layer 1
10
429.245342
20
189.223853
11
429.578930
21
189.448487
0
LINE
8
Layer 1
10
429.578930
20
189.448487
11
429.804053
21
189.781756
0
LINE
8
Layer 1
10
429.804053
20
189.781756
11
429.887000
21
190.190000
0
LINE
8
Layer 1
10
429.887000
20
190.190000
11
429.887000
21
190.190000
0
LINE
8
Layer 1
10
408.871000
20
211.206000
11
408.788060
21
211.614223
0
LINE
8
Layer 1
10
408.788060
20
211.614223
11
408.562943
21
211.947486
0
LINE
8
Layer 1
10
408.562943
20
211.947486
11
408.229356
21
212.172129
0
LINE
8
Layer 1
10
408.229356
20
212.172129
11
407.821010
21
212.254490
0
LINE
8
Layer 1
10
407.821010
20
212.254490
11
407.412668
21
212.172146
0
LINE
8
Layer 1
10
407.412668
20
212.172146
11
407.079079
21
211.947509
0
LINE
8
Layer 1
10
407.079079
20
211.947509
11
406.853953
21
211.614240
0
LINE
8
Layer 1
10
406.853953
20
211.614240
11
406.771000
21
211.206000
0
LINE
8
Layer 1
10
406.771000
20
211.206000
11
406.853946
21
210.797773
0
LINE
8
Layer 1
10
406.853946
20
210.797773
11
407.079066
21
210.464510
0
LINE
8
Layer 1
10
407.079066
20
210.464510
11
407.412654
21
210.239870
0
LINE
8
Layer 1
10
407.412654
20
210.239870
11
407.821000
21
210.157510
0
LINE
8
Layer 1
10
407.821000
20
210.157510
11
408.229342
21
210.239853
0
LINE
8
Layer 1
10
408.229342
20
210.239853
11
408.562930
21
210.464488
0
LINE
8
Layer 1
10
408.562930
20
210.464488
11
408.788053
21
210.797756
0
LINE
8
Layer 1
10
408.788053
20
210.797756
11
408.871000
21
211.206000
0
LINE
8
Layer 1
10
408.871000
20
211.206000
11
408.871000
21
211.206000
0
LINE
8
Layer 1
10
429.887000
20
232.223000
11
429.804060
21
232.631223
0
LINE
8
Layer 1
10
429.804060
20
232.631223
11
429.578944
21
232.964489
0
LINE
8
Layer 1
10
429.578944
20
232.964489
11
429.245360
21
233.189137
0
LINE
8
Layer 1
10
429.245360
20
233.189137
11
428.837020
21
233.271510
0
LINE
8
Layer 1
10
428.837020
20
233.271510
11
428.428676
21
233.189149
0
LINE
8
Layer 1
10
428.428676
20
233.189149
11
428.095085
21
232.964504
0
LINE
8
Layer 1
10
428.095085
20
232.964504
11
427.869959
21
232.631235
0
LINE
8
Layer 1
10
427.869959
20
232.631235
11
427.787010
21
232.223000
0
LINE
8
Layer 1
10
427.787010
20
232.223000
11
427.869956
21
231.814773
0
LINE
8
Layer 1
10
427.869956
20
231.814773
11
428.095075
21
231.481508
0
LINE
8
Layer 1
10
428.095075
20
231.481508
11
428.428659
21
231.256861
0
LINE
8
Layer 1
10
428.428659
20
231.256861
11
428.837000
21
231.174490
0
LINE
8
Layer 1
10
428.837000
20
231.174490
11
429.245342
21
231.256851
0
LINE
8
Layer 1
10
429.245342
20
231.256851
11
429.578930
21
231.481496
0
LINE
8
Layer 1
10
429.578930
20
231.481496
11
429.804053
21
231.814765
0
LINE
8
Layer 1
10
429.804053
20
231.814765
11
429.887000
21
232.223000
0
LINE
8
Layer 1
10
429.887000
20
232.223000
11
429.887000
21
232.223000
0
LINE
8
Layer 1
10
429.887000
20
242.706000
11
429.804060
21
243.114223
0
LINE
8
Layer 1
10
429.804060
20
243.114223
11
429.578944
21
243.447489
0
LINE
8
Layer 1
10
429.578944
20
243.447489
11
429.245360
21
243.672137
0
LINE
8
Layer 1
10
429.245360
20
243.672137
11
428.837020
21
243.754510
0
LINE
8
Layer 1
10
428.837020
20
243.754510
11
428.428676
21
243.672149
0
LINE
8
Layer 1
10
428.428676
20
243.672149
11
428.095085
21
243.447504
0
LINE
8
Layer 1
10
428.095085
20
243.447504
11
427.869959
21
243.114235
0
LINE
8
Layer 1
10
427.869959
20
243.114235
11
427.787010
21
242.706000
0
LINE
8
Layer 1
10
427.787010
20
242.706000
11
427.869956
21
242.297772
0
LINE
8
Layer 1
10
427.869956
20
242.297772
11
428.095075
21
241.964507
0
LINE
8
Layer 1
10
428.095075
20
241.964507
11
428.428659
21
241.739861
0
LINE
8
Layer 1
10
428.428659
20
241.739861
11
428.837000
21
241.657490
0
LINE
8
Layer 1
10
428.837000
20
241.657490
11
429.245342
21
241.739851
0
LINE
8
Layer 1
10
429.245342
20
241.739851
11
429.578930
21
241.964496
0
LINE
8
Layer 1
10
429.578930
20
241.964496
11
429.804053
21
242.297765
0
LINE
8
Layer 1
10
429.804053
20
242.297765
11
429.887000
21
242.706000
0
LINE
8
Layer 1
10
429.887000
20
242.706000
11
429.887000
21
242.706000
0
LINE
8
Layer 1
10
422.019000
20
224.567000
11
423.604147
21
225.675753
0
LINE
8
Layer 1
10
423.604147
20
225.675753
11
424.806810
21
227.146438
0
LINE
8
Layer 1
10
424.806810
20
227.146438
11
425.570116
21
228.886173
0
LINE
8
Layer 1
10
425.570116
20
228.886173
11
425.837190
21
230.802080
0
LINE
8
Layer 1
10
425.837000
20
230.802000
11
425.837000
21
232.236000
0
LINE
8
Layer 1
10
425.837000
20
232.236000
11
425.689563
21
233.441542
0
LINE
8
Layer 1
10
425.689563
20
233.441542
11
425.263687
21
234.560741
0
LINE
8
Layer 1
10
425.263687
20
234.560741
11
424.584023
21
235.546660
0
LINE
8
Layer 1
10
424.584023
20
235.546660
11
423.675220
21
236.352360
0
LINE
8
Layer 1
10
423.675220
20
236.352360
11
422.599041
21
236.915302
0
LINE
8
Layer 1
10
422.599041
20
236.915302
11
421.435890
21
237.200002
0
LINE
8
Layer 1
10
421.435890
20
237.200002
11
420.238404
21
237.200112
0
LINE
8
Layer 1
10
420.238404
20
237.200112
11
419.059220
21
236.909280
0
LINE
8
Layer 1
10
419.059000
20
236.909000
11
416.382290
21
235.724194
0
LINE
8
Layer 1
10
416.382290
20
235.724194
11
413.867369
21
234.274917
0
LINE
8
Layer 1
10
413.867369
20
234.274917
11
411.531351
21
232.578281
0
LINE
8
Layer 1
10
411.531351
20
232.578281
11
409.391350
21
230.651400
0
LINE
8
Layer 1
10
409.391350
20
230.651400
11
407.464480
21
228.511388
0
LINE
8
Layer 1
10
407.464480
20
228.511388
11
405.767856
21
226.175358
0
LINE
8
Layer 1
10
405.767856
20
226.175358
11
404.318591
21
223.660424
0
LINE
8
Layer 1
10
404.318591
20
223.660424
11
403.133800
21
220.983700
0
LINE
8
Layer 1
10
403.134000
20
220.984000
11
402.843168
21
219.804815
0
LINE
8
Layer 1
10
402.843168
20
219.804815
11
402.843276
21
218.607326
0
LINE
8
Layer 1
10
402.843276
20
218.607326
11
403.127974
21
217.444175
0
LINE
8
Layer 1
10
403.127974
20
217.444175
11
403.690910
21
216.368000
0
LINE
8
Layer 1
10
403.690910
20
216.368000
11
404.496613
21
215.459199
0
LINE
8
Layer 1
10
404.496613
20
215.459199
11
405.482538
21
214.779538
0
LINE
8
Layer 1
10
405.482538
20
214.779538
11
406.601741
21
214.353665
0
LINE
8
Layer 1
10
406.601741
20
214.353665
11
407.807280
21
214.206230
0
LINE
8
Layer 1
10
409.241000
20
214.207000
11
407.807000
21
214.207000
0
LINE
8
Layer 1
10
409.241000
20
214.206000
11
411.156900
21
214.473072
0
LINE
8
Layer 1
10
411.156900
20
214.473072
11
412.896630
21
215.236375
0
LINE
8
Layer 1
10
412.896630
20
215.236375
11
414.367313
21
216.439035
0
LINE
8
Layer 1
10
414.367313
20
216.439035
11
415.476070
21
218.024180
0
LINE
8
Layer 1
10
422.019000
20
224.567000
11
420.010844
21
223.334458
0
LINE
8
Layer 1
10
420.010844
20
223.334458
11
418.230581
21
221.812735
0
LINE
8
Layer 1
10
418.230581
20
221.812735
11
416.708861
21
220.032479
0
LINE
8
Layer 1
10
416.708861
20
220.032479
11
415.476330
21
218.024340
0
LINE
8
Layer 1
10
431.837000
20
230.802000
11
432.104075
21
228.886093
0
LINE
8
Layer 1
10
432.104075
20
228.886093
11
432.867384
21
227.146358
0
LINE
8
Layer 1
10
432.867384
20
227.146358
11
434.070048
21
225.675673
0
LINE
8
Layer 1
10
434.070048
20
225.675673
11
435.655190
21
224.566920
0
LINE
8
Layer 1
10
442.198000
20
218.025000
11
440.965473
21
220.033139
0
LINE
8
Layer 1
10
440.965473
20
220.033139
11
439.443753
21
221.813395
0
LINE
8
Layer 1
10
439.443753
20
221.813395
11
437.663488
21
223.335118
0
LINE
8
Layer 1
10
437.663488
20
223.335118
11
435.655330
21
224.567660
0
LINE
8
Layer 1
10
442.198000
20
218.025000
11
443.306757
21
216.439855
0
LINE
8
Layer 1
10
443.306757
20
216.439855
11
444.777440
21
215.237195
0
LINE
8
Layer 1
10
444.777440
20
215.237195
11
446.517170
21
214.473893
0
LINE
8
Layer 1
10
446.517170
20
214.473893
11
448.433070
21
214.206820
0
LINE
8
Layer 1
10
449.867000
20
214.207000
11
448.433000
21
214.207000
0
LINE
8
Layer 1
10
449.867000
20
214.206000
11
451.072539
21
214.353435
0
LINE
8
Layer 1
10
451.072539
20
214.353435
11
452.191741
21
214.779307
0
LINE
8
Layer 1
10
452.191741
20
214.779307
11
453.177663
21
215.458969
0
LINE
8
Layer 1
10
453.177663
20
215.458969
11
453.983360
21
216.367770
0
LINE
8
Layer 1
10
453.983360
20
216.367770
11
454.546302
21
217.443945
0
LINE
8
Layer 1
10
454.546302
20
217.443945
11
454.831003
21
218.607096
0
LINE
8
Layer 1
10
454.831003
20
218.607096
11
454.831112
21
219.804585
0
LINE
8
Layer 1
10
454.831112
20
219.804585
11
454.540280
21
220.983770
0
LINE
8
Layer 1
10
454.540000
20
220.984000
11
453.355198
21
223.660707
0
LINE
8
Layer 1
10
453.355198
20
223.660707
11
451.905925
21
226.175629
0
LINE
8
Layer 1
10
451.905925
20
226.175629
11
450.209296
21
228.511650
0
LINE
8
Layer 1
10
450.209296
20
228.511650
11
448.282424
21
230.651659
0
LINE
8
Layer 1
10
448.282424
20
230.651659
11
446.142424
21
232.578541
0
LINE
8
Layer 1
10
446.142424
20
232.578541
11
443.806410
21
234.275185
0
LINE
8
Layer 1
10
443.806410
20
234.275185
11
441.291497
21
235.724475
0
LINE
8
Layer 1
10
441.291497
20
235.724475
11
438.614800
21
236.909300
0
LINE
8
Layer 1
10
438.615000
20
236.909000
11
437.435814
21
237.199832
0
LINE
8
Layer 1
10
437.435814
20
237.199832
11
436.238325
21
237.199723
0
LINE
8
Layer 1
10
436.238325
20
237.199723
11
435.075171
21
236.915022
0
LINE
8
Layer 1
10
435.075171
20
236.915022
11
433.998990
21
236.352080
0
LINE
8
Layer 1
10
433.998990
20
236.352080
11
433.090193
21
235.546380
0
LINE
8
Layer 1
10
433.090193
20
235.546380
11
432.410531
21
234.560461
0
LINE
8
Layer 1
10
432.410531
20
234.560461
11
431.984656
21
233.441262
0
LINE
8
Layer 1
10
431.984656
20
233.441262
11
431.837220
21
232.235720
0
LINE
8
Layer 1
10
431.837000
20
232.236000
11
431.837000
21
230.802000
0
LINE
8
Layer 1
10
432.812000
20
211.206000
11
432.730614
21
212.006574
0
LINE
8
Layer 1
10
432.730614
20
212.006574
11
432.498597
21
212.752159
0
LINE
8
Layer 1
10
432.498597
20
212.752159
11
431.646508
21
214.014560
0
LINE
8
Layer 1
10
431.646508
20
214.014560
11
430.383415
21
214.865586
0
LINE
8
Layer 1
10
430.383415
20
214.865586
11
429.637642
21
215.096953
0
LINE
8
Layer 1
10
429.637642
20
215.096953
11
428.837000
21
215.177620
0
LINE
8
Layer 1
10
428.837000
20
215.177620
11
428.036352
21
215.096953
0
LINE
8
Layer 1
10
428.036352
20
215.096953
11
427.290566
21
214.865586
0
LINE
8
Layer 1
10
427.290566
20
214.865586
11
426.027440
21
214.014560
0
LINE
8
Layer 1
10
426.027440
20
214.014560
11
425.175344
21
212.752159
0
LINE
8
Layer 1
10
425.175344
20
212.752159
11
424.943346
21
212.006574
0
LINE
8
Layer 1
10
424.943346
20
212.006574
11
424.862000
21
211.206000
0
LINE
8
Layer 1
10
424.862000
20
211.206000
11
424.943386
21
210.405426
0
LINE
8
Layer 1
10
424.943386
20
210.405426
11
425.175403
21
209.659841
0
LINE
8
Layer 1
10
425.175403
20
209.659841
11
426.027492
21
208.397440
0
LINE
8
Layer 1
10
426.027492
20
208.397440
11
427.290585
21
207.546414
0
LINE
8
Layer 1
10
427.290585
20
207.546414
11
428.036358
21
207.315047
0
LINE
8
Layer 1
10
428.036358
20
207.315047
11
428.837000
21
207.234380
0
LINE
8
Layer 1
10
428.837000
20
207.234380
11
429.637649
21
207.315047
0
LINE
8
Layer 1
10
429.637649
20
207.315047
11
430.383436
21
207.546414
0
LINE
8
Layer 1
10
430.383436
20
207.546414
11
431.646564
21
208.397440
0
LINE
8
Layer 1
10
431.646564
20
208.397440
11
432.498660
21
209.659841
0
LINE
8
Layer 1
10
432.498660
20
209.659841
11
432.730657
21
210.405426
0
LINE
8
Layer 1
10
432.730657
20
210.405426
11
432.812000
21
211.206000
0
LINE
8
Layer 1
10
432.812000
20
211.206000
11
432.812000
21
211.206000
0
LINE
8
Layer 1
10
457.167000
20
226.956000
11
457.084053
21
227.364223
0
LINE
8
Layer 1
10
457.084053
20
227.364223
11
456.858931
21
227.697489
0
LINE
8
Layer 1
10
456.858931
20
227.697489
11
456.525346
21
227.922137
0
LINE
8
Layer 1
10
456.525346
20
227.922137
11
456.117010
21
228.004510
0
LINE
8
Layer 1
10
456.117010
20
228.004510
11
455.708662
21
227.922149
0
LINE
8
Layer 1
10
455.708662
20
227.922149
11
455.375071
21
227.697504
0
LINE
8
Layer 1
10
455.375071
20
227.697504
11
455.149947
21
227.364235
0
LINE
8
Layer 1
10
455.149947
20
227.364235
11
455.067000
21
226.956000
0
LINE
8
Layer 1
10
455.067000
20
226.956000
11
455.149940
21
226.547773
0
LINE
8
Layer 1
10
455.149940
20
226.547773
11
455.375056
21
226.214510
0
LINE
8
Layer 1
10
455.375056
20
226.214510
11
455.708640
21
225.989870
0
LINE
8
Layer 1
10
455.708640
20
225.989870
11
456.116980
21
225.907510
0
LINE
8
Layer 1
10
456.116980
20
225.907510
11
456.525324
21
225.989853
0
LINE
8
Layer 1
10
456.525324
20
225.989853
11
456.858916
21
226.214488
0
LINE
8
Layer 1
10
456.858916
20
226.214488
11
457.084045
21
226.547756
0
LINE
8
Layer 1
10
457.084045
20
226.547756
11
457.167000
21
226.956000
0
LINE
8
Layer 1
10
457.167000
20
226.956000
11
457.167000
21
226.956000
0
LINE
8
Layer 1
10
457.167000
20
195.456000
11
457.084053
21
195.864223
0
LINE
8
Layer 1
10
457.084053
20
195.864223
11
456.858931
21
196.197486
0
LINE
8
Layer 1
10
456.858931
20
196.197486
11
456.525346
21
196.422129
0
LINE
8
Layer 1
10
456.525346
20
196.422129
11
456.117010
21
196.504490
0
LINE
8
Layer 1
10
456.117010
20
196.504490
11
455.708662
21
196.422146
0
LINE
8
Layer 1
10
455.708662
20
196.422146
11
455.375071
21
196.197509
0
LINE
8
Layer 1
10
455.375071
20
196.197509
11
455.149947
21
195.864240
0
LINE
8
Layer 1
10
455.149947
20
195.864240
11
455.067000
21
195.456000
0
LINE
8
Layer 1
10
455.067000
20
195.456000
11
455.149940
21
195.047773
0
LINE
8
Layer 1
10
455.149940
20
195.047773
11
455.375056
21
194.714510
0
LINE
8
Layer 1
10
455.375056
20
194.714510
11
455.708640
21
194.489870
0
LINE
8
Layer 1
10
455.708640
20
194.489870
11
456.116980
21
194.407510
0
LINE
8
Layer 1
10
456.116980
20
194.407510
11
456.525324
21
194.489853
0
LINE
8
Layer 1
10
456.525324
20
194.489853
11
456.858916
21
194.714488
0
LINE
8
Layer 1
10
456.858916
20
194.714488
11
457.084045
21
195.047756
0
LINE
8
Layer 1
10
457.084045
20
195.047756
11
457.167000
21
195.456000
0
LINE
8
Layer 1
10
457.167000
20
195.456000
11
457.167000
21
195.456000
0
LINE
8
Layer 1
10
429.887000
20
179.706000
11
429.804060
21
180.114223
0
LINE
8
Layer 1
10
429.804060
20
180.114223
11
429.578944
21
180.447486
0
LINE
8
Layer 1
10
429.578944
20
180.447486
11
429.245360
21
180.672129
0
LINE
8
Layer 1
10
429.245360
20
180.672129
11
428.837020
21
180.754490
0
LINE
8
Layer 1
10
428.837020
20
180.754490
11
428.428676
21
180.672146
0
LINE
8
Layer 1
10
428.428676
20
180.672146
11
428.095085
21
180.447509
0
LINE
8
Layer 1
10
428.095085
20
180.447509
11
427.869959
21
180.114240
0
LINE
8
Layer 1
10
427.869959
20
180.114240
11
427.787010
21
179.706000
0
LINE
8
Layer 1
10
427.787010
20
179.706000
11
427.869956
21
179.297773
0
LINE
8
Layer 1
10
427.869956
20
179.297773
11
428.095075
21
178.964510
0
LINE
8
Layer 1
10
428.095075
20
178.964510
11
428.428659
21
178.739870
0
LINE
8
Layer 1
10
428.428659
20
178.739870
11
428.837000
21
178.657510
0
LINE
8
Layer 1
10
428.837000
20
178.657510
11
429.245342
21
178.739853
0
LINE
8
Layer 1
10
429.245342
20
178.739853
11
429.578930
21
178.964488
0
LINE
8
Layer 1
10
429.578930
20
178.964488
11
429.804053
21
179.297756
0
LINE
8
Layer 1
10
429.804053
20
179.297756
11
429.887000
21
179.706000
0
LINE
8
Layer 1
10
429.887000
20
179.706000
11
429.887000
21
179.706000
0
LINE
8
Layer 1
10
402.607000
20
195.456000
11
402.524060
21
195.864223
0
LINE
8
Layer 1
10
402.524060
20
195.864223
11
402.298944
21
196.197486
0
LINE
8
Layer 1
10
402.298944
20
196.197486
11
401.965360
21
196.422129
0
LINE
8
Layer 1
10
401.965360
20
196.422129
11
401.557020
21
196.504490
0
LINE
8
Layer 1
10
401.557020
20
196.504490
11
401.148676
21
196.422146
0
LINE
8
Layer 1
10
401.148676
20
196.422146
11
400.815084
21
196.197509
0
LINE
8
Layer 1
10
400.815084
20
196.197509
11
400.589955
21
195.864240
0
LINE
8
Layer 1
10
400.589955
20
195.864240
11
400.507000
21
195.456000
0
LINE
8
Layer 1
10
400.507000
20
195.456000
11
400.589950
21
195.047773
0
LINE
8
Layer 1
10
400.589950
20
195.047773
11
400.815070
21
194.714510
0
LINE
8
Layer 1
10
400.815070
20
194.714510
11
401.148655
21
194.489870
0
LINE
8
Layer 1
10
401.148655
20
194.489870
11
401.557000
21
194.407510
0
LINE
8
Layer 1
10
401.557000
20
194.407510
11
401.965342
21
194.489853
0
LINE
8
Layer 1
10
401.965342
20
194.489853
11
402.298930
21
194.714488
0
LINE
8
Layer 1
10
402.298930
20
194.714488
11
402.524053
21
195.047756
0
LINE
8
Layer 1
10
402.524053
20
195.047756
11
402.607000
21
195.456000
0
LINE
8
Layer 1
10
402.607000
20
195.456000
11
402.607000
21
195.456000
0
LINE
8
Layer 1
10
402.607000
20
226.956000
11
402.524060
21
227.364223
0
LINE
8
Layer 1
10
402.524060
20
227.364223
11
402.298944
21
227.697489
0
LINE
8
Layer 1
10
402.298944
20
227.697489
11
401.965360
21
227.922137
0
LINE
8
Layer 1
10
401.965360
20
227.922137
11
401.557020
21
228.004510
0
LINE
8
Layer 1
10
401.557020
20
228.004510
11
401.148676
21
227.922149
0
LINE
8
Layer 1
10
401.148676
20
227.922149
11
400.815084
21
227.697504
0
LINE
8
Layer 1
10
400.815084
20
227.697504
11
400.589955
21
227.364235
0
LINE
8
Layer 1
10
400.589955
20
227.364235
11
400.507000
21
226.956000
0
LINE
8
Layer 1
10
400.507000
20
226.956000
11
400.589950
21
226.547773
0
LINE
8
Layer 1
10
400.589950
20
226.547773
11
400.815070
21
226.214510
0
LINE
8
Layer 1
10
400.815070
20
226.214510
11
401.148655
21
225.989870
0
LINE
8
Layer 1
10
401.148655
20
225.989870
11
401.557000
21
225.907510
0
LINE
8
Layer 1
10
401.557000
20
225.907510
11
401.965342
21
225.989853
0
LINE
8
Layer 1
10
401.965342
20
225.989853
11
402.298930
21
226.214488
0
LINE
8
Layer 1
10
402.298930
20
226.214488
11
402.524053
21
226.547756
0
LINE
8
Layer 1
10
402.524053
20
226.547756
11
402.607000
21
226.956000
0
LINE
8
Layer 1
10
402.607000
20
226.956000
11
402.607000
21
226.956000
0
LINE
8
Layer 1
10
429.887000
20
222.206000
11
429.804060
21
222.614223
0
LINE
8
Layer 1
10
429.804060
20
222.614223
11
429.578944
21
222.947486
0
LINE
8
Layer 1
10
429.578944
20
222.947486
11
429.245360
21
223.172129
0
LINE
8
Layer 1
10
429.245360
20
223.172129
11
428.837020
21
223.254490
0
LINE
8
Layer 1
10
428.837020
20
223.254490
11
428.428676
21
223.172146
0
LINE
8
Layer 1
10
428.428676
20
223.172146
11
428.095085
21
222.947509
0
LINE
8
Layer 1
10
428.095085
20
222.947509
11
427.869959
21
222.614240
0
LINE
8
Layer 1
10
427.869959
20
222.614240
11
427.787010
21
222.206000
0
LINE
8
Layer 1
10
427.787010
20
222.206000
11
427.869956
21
221.797773
0
LINE
8
Layer 1
10
427.869956
20
221.797773
11
428.095075
21
221.464510
0
LINE
8
Layer 1
10
428.095075
20
221.464510
11
428.428659
21
221.239870
0
LINE
8
Layer 1
10
428.428659
20
221.239870
11
428.837000
21
221.157510
0
LINE
8
Layer 1
10
428.837000
20
221.157510
11
429.245342
21
221.239853
0
LINE
8
Layer 1
10
429.245342
20
221.239853
11
429.578930
21
221.464488
0
LINE
8
Layer 1
10
429.578930
20
221.464488
11
429.804053
21
221.797756
0
LINE
8
Layer 1
10
429.804053
20
221.797756
11
429.887000
21
222.206000
0
LINE
8
Layer 1
10
429.887000
20
222.206000
11
429.887000
21
222.206000
0
LINE
8
Layer 1
10
439.413000
20
205.706000
11
439.330008
21
206.114174
0
LINE
8
Layer 1
10
439.330008
20
206.114174
11
439.104878
21
206.447389
0
LINE
8
Layer 1
10
439.104878
20
206.447389
11
438.771308
21
206.671994
0
LINE
8
Layer 1
10
438.771308
20
206.671994
11
438.363000
21
206.754340
0
LINE
8
Layer 1
10
438.363000
20
206.754340
11
437.954696
21
206.671994
0
LINE
8
Layer 1
10
437.954696
20
206.671994
11
437.621126
21
206.447389
0
LINE
8
Layer 1
10
437.621126
20
206.447389
11
437.395994
21
206.114174
0
LINE
8
Layer 1
10
437.395994
20
206.114174
11
437.313000
21
205.706000
0
LINE
8
Layer 1
10
437.313000
20
205.706000
11
437.395994
21
205.297822
0
LINE
8
Layer 1
10
437.395994
20
205.297822
11
437.621126
21
204.964607
0
LINE
8
Layer 1
10
437.621126
20
204.964607
11
437.954696
21
204.740005
0
LINE
8
Layer 1
10
437.954696
20
204.740005
11
438.363000
21
204.657660
0
LINE
8
Layer 1
10
438.363000
20
204.657660
11
438.771308
21
204.740005
0
LINE
8
Layer 1
10
438.771308
20
204.740005
11
439.104877
21
204.964607
0
LINE
8
Layer 1
10
439.104877
20
204.964607
11
439.330008
21
205.297822
0
LINE
8
Layer 1
10
439.330008
20
205.297822
11
439.413000
21
205.706000
0
LINE
8
Layer 1
10
439.413000
20
205.706000
11
439.413000
21
205.706000
0
LINE
8
Layer 1
10
420.361000
20
205.706000
11
420.278008
21
206.114174
0
LINE
8
Layer 1
10
420.278008
20
206.114174
11
420.052878
21
206.447389
0
LINE
8
Layer 1
10
420.052878
20
206.447389
11
419.719308
21
206.671994
0
LINE
8
Layer 1
10
419.719308
20
206.671994
11
419.311000
21
206.754340
0
LINE
8
Layer 1
10
419.311000
20
206.754340
11
418.902696
21
206.671994
0
LINE
8
Layer 1
10
418.902696
20
206.671994
11
418.569126
21
206.447389
0
LINE
8
Layer 1
10
418.569126
20
206.447389
11
418.343994
21
206.114174
0
LINE
8
Layer 1
10
418.343994
20
206.114174
11
418.261000
21
205.706000
0
LINE
8
Layer 1
10
418.261000
20
205.706000
11
418.343994
21
205.297822
0
LINE
8
Layer 1
10
418.343994
20
205.297822
11
418.569126
21
204.964607
0
LINE
8
Layer 1
10
418.569126
20
204.964607
11
418.902696
21
204.740005
0
LINE
8
Layer 1
10
418.902696
20
204.740005
11
419.311000
21
204.657660
0
LINE
8
Layer 1
10
419.311000
20
204.657660
11
419.719308
21
204.740005
0
LINE
8
Layer 1
10
419.719308
20
204.740005
11
420.052877
21
204.964607
0
LINE
8
Layer 1
10
420.052877
20
204.964607
11
420.278008
21
205.297822
0
LINE
8
Layer 1
10
420.278008
20
205.297822
11
420.361000
21
205.706000
0
LINE
8
Layer 1
10
420.361000
20
205.706000
11
420.361000
21
205.706000
0
LINE
8
Layer 1
10
435.655000
20
197.846000
11
434.069853
21
196.737247
0
LINE
8
Layer 1
10
434.069853
20
196.737247
11
432.867190
21
195.266562
0
LINE
8
Layer 1
10
432.867190
20
195.266562
11
432.103884
21
193.526827
0
LINE
8
Layer 1
10
432.103884
20
193.526827
11
431.836810
21
191.610920
0
LINE
8
Layer 1
10
431.837000
20
191.611000
11
431.837000
21
190.177000
0
LINE
8
Layer 1
10
431.837000
20
190.177000
11
431.984436
21
188.971466
0
LINE
8
Layer 1
10
431.984436
20
188.971466
11
432.410311
21
187.852266
0
LINE
8
Layer 1
10
432.410311
20
187.852266
11
433.089973
21
186.866343
0
LINE
8
Layer 1
10
433.089973
20
186.866343
11
433.998770
21
186.060640
0
LINE
8
Layer 1
10
433.998770
20
186.060640
11
435.074955
21
185.497699
0
LINE
8
Layer 1
10
435.074955
20
185.497699
11
436.238109
21
185.212999
0
LINE
8
Layer 1
10
436.238109
20
185.212999
11
437.435596
21
185.212892
0
LINE
8
Layer 1
10
437.435596
20
185.212892
11
438.614780
21
185.503730
0
LINE
8
Layer 1
10
438.615000
20
185.503000
11
441.291710
21
186.687789
0
LINE
8
Layer 1
10
441.291710
20
186.687789
11
443.806631
21
188.137055
0
LINE
8
Layer 1
10
443.806631
20
188.137055
11
446.142649
21
189.833681
0
LINE
8
Layer 1
10
446.142649
20
189.833681
11
448.282650
21
191.760554
0
LINE
8
Layer 1
10
448.282650
20
191.760554
11
450.209520
21
193.900557
0
LINE
8
Layer 1
10
450.209520
20
193.900557
11
451.906144
21
196.236576
0
LINE
8
Layer 1
10
451.906144
20
196.236576
11
453.355409
21
198.751495
0
LINE
8
Layer 1
10
453.355409
20
198.751495
11
454.540200
21
201.428200
0
LINE
8
Layer 1
10
454.540000
20
201.429000
11
454.830832
21
202.608185
0
LINE
8
Layer 1
10
454.830832
20
202.608185
11
454.830723
21
203.805674
0
LINE
8
Layer 1
10
454.830723
20
203.805674
11
454.546022
21
204.968825
0
LINE
8
Layer 1
10
454.546022
20
204.968825
11
453.983080
21
206.045000
0
LINE
8
Layer 1
10
453.983080
20
206.045000
11
453.177383
21
206.953801
0
LINE
8
Layer 1
10
453.177383
20
206.953801
11
452.191461
21
207.633463
0
LINE
8
Layer 1
10
452.191461
20
207.633463
11
451.072259
21
208.059335
0
LINE
8
Layer 1
10
451.072259
20
208.059335
11
449.866720
21
208.206770
0
LINE
8
Layer 1
10
449.867000
20
208.206000
11
448.433000
21
208.206000
0
LINE
8
Layer 1
10
448.433000
20
208.206000
11
446.517100
21
207.938926
0
LINE
8
Layer 1
10
446.517100
20
207.938926
11
444.777371
21
207.175621
0
LINE
8
Layer 1
10
444.777371
20
207.175621
11
443.306691
21
205.972961
0
LINE
8
Layer 1
10
443.306691
20
205.972961
11
442.197940
21
204.387820
0
LINE
8
Layer 1
10
435.655000
20
197.846000
11
437.663158
21
199.078542
0
LINE
8
Layer 1
10
437.663158
20
199.078542
11
439.443422
21
200.600265
0
LINE
8
Layer 1
10
439.443422
20
200.600265
11
440.965143
21
202.380521
0
LINE
8
Layer 1
10
440.965143
20
202.380521
11
442.197670
21
204.388660
0
LINE
8
Layer 1
10
464.337000
20
211.206000
11
464.151988
21
214.834600
0
LINE
8
Layer 1
10
464.151988
20
214.834600
11
463.612589
21
218.358255
0
LINE
8
Layer 1
10
463.612589
20
218.358255
11
462.736635
21
221.759143
0
LINE
8
Layer 1
10
462.736635
20
221.759143
11
461.541956
21
225.019441
0
LINE
8
Layer 1
10
461.541956
20
225.019441
11
460.046385
21
228.121325
0
LINE
8
Layer 1
10
460.046385
20
228.121325
11
458.267752
21
231.046975
0
LINE
8
Layer 1
10
458.267752
20
231.046975
11
456.223888
21
233.778565
0
LINE
8
Layer 1
10
456.223888
20
233.778565
11
453.932625
21
236.298275
0
LINE
8
Layer 1
10
453.932625
20
236.298275
11
451.411794
21
238.588281
0
LINE
8
Layer 1
10
451.411794
20
238.588281
11
448.679227
21
240.630760
0
LINE
8
Layer 1
10
448.679227
20
240.630760
11
445.752754
21
242.407889
0
LINE
8
Layer 1
10
445.752754
20
242.407889
11
442.650206
21
243.901847
0
LINE
8
Layer 1
10
442.650206
20
243.901847
11
439.389416
21
245.094809
0
LINE
8
Layer 1
10
439.389416
20
245.094809
11
435.988214
21
245.968954
0
LINE
8
Layer 1
10
435.988214
20
245.968954
11
432.464432
21
246.506459
0
LINE
8
Layer 1
10
432.464432
20
246.506459
11
428.835900
21
246.689500
0
LINE
8
Layer 1
10
428.835900
20
246.689500
11
425.207375
21
246.506218
0
LINE
8
Layer 1
10
425.207375
20
246.506218
11
421.683615
21
245.968484
0
LINE
8
Layer 1
10
421.683615
20
245.968484
11
418.282450
21
245.094126
0
LINE
8
Layer 1
10
418.282450
20
245.094126
11
415.021712
21
243.900971
0
LINE
8
Layer 1
10
415.021712
20
243.900971
11
411.919234
21
242.406846
0
LINE
8
Layer 1
10
411.919234
20
242.406846
11
408.992848
21
240.629578
0
LINE
8
Layer 1
10
408.992848
20
240.629578
11
406.260384
21
238.586994
0
LINE
8
Layer 1
10
406.260384
20
238.586994
11
403.739675
21
236.296921
0
LINE
8
Layer 1
10
403.739675
20
236.296921
11
401.448553
21
233.777187
0
LINE
8
Layer 1
10
401.448553
20
233.777187
11
399.404849
21
231.045618
0
LINE
8
Layer 1
10
399.404849
20
231.045618
11
397.626396
21
228.120042
0
LINE
8
Layer 1
10
397.626396
20
228.120042
11
396.131025
21
225.018286
0
LINE
8
Layer 1
10
396.131025
20
225.018286
11
394.936568
21
221.758177
0
LINE
8
Layer 1
10
394.936568
20
221.758177
11
394.060857
21
218.357541
0
LINE
8
Layer 1
10
394.060857
20
218.357541
11
393.521724
21
214.834206
0
LINE
8
Layer 1
10
393.521724
20
214.834206
11
393.337000
21
211.206000
0
LINE
8
Layer 1
10
393.337000
20
211.206000
11
393.522012
21
207.577400
0
LINE
8
Layer 1
10
393.522012
20
207.577400
11
394.061411
21
204.053745
0
LINE
8
Layer 1
10
394.061411
20
204.053745
11
394.937365
21
200.652856
0
LINE
8
Layer 1
10
394.937365
20
200.652856
11
396.132044
21
197.392558
0
LINE
8
Layer 1
10
396.132044
20
197.392558
11
397.627615
21
194.290672
0
LINE
8
Layer 1
10
397.627615
20
194.290672
11
399.406248
21
191.365020
0
LINE
8
Layer 1
10
399.406248
20
191.365020
11
401.450112
21
188.633426
0
LINE
8
Layer 1
10
401.450112
20
188.633426
11
403.741375
21
186.113712
0
LINE
8
Layer 1
10
403.741375
20
186.113712
11
406.262206
21
183.823701
0
LINE
8
Layer 1
10
406.262206
20
183.823701
11
408.994773
21
181.781216
0
LINE
8
Layer 1
10
408.994773
20
181.781216
11
411.921246
21
180.004078
0
LINE
8
Layer 1
10
411.921246
20
180.004078
11
415.023794
21
178.510111
0
LINE
8
Layer 1
10
415.023794
20
178.510111
11
418.284584
21
177.317137
0
LINE
8
Layer 1
10
418.284584
20
177.317137
11
421.685786
21
176.442979
0
LINE
8
Layer 1
10
421.685786
20
176.442979
11
425.209568
21
175.905459
0
LINE
8
Layer 1
10
425.209568
20
175.905459
11
428.838100
21
175.722400
0
LINE
8
Layer 1
10
428.838100
20
175.722400
11
432.466625
21
175.905682
0
LINE
8
Layer 1
10
432.466625
20
175.905682
11
435.990385
21
176.443416
0
LINE
8
Layer 1
10
435.990385
20
176.443416
11
439.391550
21
177.317775
0
LINE
8
Layer 1
10
439.391550
20
177.317775
11
442.652288
21
178.510931
0
LINE
8
Layer 1
10
442.652288
20
178.510931
11
445.754766
21
180.005057
0
LINE
8
Layer 1
10
445.754766
20
180.005057
11
448.681152
21
181.782328
0
LINE
8
Layer 1
10
448.681152
20
181.782328
11
451.413616
21
183.824915
0
LINE
8
Layer 1
10
451.413616
20
183.824915
11
453.934325
21
186.114991
0
LINE
8
Layer 1
10
453.934325
20
186.114991
11
456.225447
21
188.634731
0
LINE
8
Layer 1
10
456.225447
20
188.634731
11
458.269151
21
191.366306
0
LINE
8
Layer 1
10
458.269151
20
191.366306
11
460.047604
21
194.291890
0
LINE
8
Layer 1
10
460.047604
20
194.291890
11
461.542975
21
197.393656
0
LINE
8
Layer 1
10
461.542975
20
197.393656
11
462.737432
21
200.653777
0
LINE
8
Layer 1
10
462.737432
20
200.653777
11
463.613143
21
204.054426
0
LINE
8
Layer 1
10
463.613143
20
204.054426
11
464.152276
21
207.577776
0
LINE
8
Layer 1
10
464.152276
20
207.577776
11
464.337000
21
211.206000
0
LINE
8
Layer 1
10
464.337000
20
211.206000
11
464.337000
21
211.206000
0
LINE
8
Layer 1
10
368.232000
20
155.363000
11
367.954915
21
157.701215
0
LINE
8
Layer 1
10
367.954915
20
157.701215
11
367.152781
21
159.881810
0
LINE
8
Layer 1
10
367.152781
20
159.881810
11
365.869276
21
161.818565
0
LINE
8
Layer 1
10
365.869276
20
161.818565
11
364.148080
21
163.425260
0
LINE
8
Layer 1
10
364.148080
20
163.425260
11
362.099030
21
164.585170
0
LINE
8
Layer 1
10
362.099030
20
164.585170
11
359.866429
21
165.228529
0
LINE
8
Layer 1
10
359.866429
20
165.228529
11
357.545634
21
165.339536
0
LINE
8
Layer 1
10
357.545634
20
165.339536
11
355.232000
21
164.902390
0
LINE
8
Layer 1
10
355.232000
20
164.902000
11
351.197239
21
163.496743
0
LINE
8
Layer 1
10
351.197239
20
163.496743
11
347.281388
21
161.859794
0
LINE
8
Layer 1
10
347.281388
20
161.859794
11
343.492503
21
159.999210
0
LINE
8
Layer 1
10
343.492503
20
159.999210
11
339.838641
21
157.923046
0
LINE
8
Layer 1
10
339.838641
20
157.923046
11
336.327856
21
155.639358
0
LINE
8
Layer 1
10
336.327856
20
155.639358
11
332.968204
21
153.156202
0
LINE
8
Layer 1
10
332.968204
20
153.156202
11
329.767742
21
150.481634
0
LINE
8
Layer 1
10
329.767742
20
150.481634
11
326.734525
21
147.623710
0
LINE
8
Layer 1
10
326.734525
20
147.623710
11
323.876609
21
144.590486
0
LINE
8
Layer 1
10
323.876609
20
144.590486
11
321.202049
21
141.390017
0
LINE
8
Layer 1
10
321.202049
20
141.390017
11
318.718901
21
138.030359
0
LINE
8
Layer 1
10
318.718901
20
138.030359
11
316.435222
21
134.519569
0
LINE
8
Layer 1
10
316.435222
20
134.519569
11
314.359066
21
130.865703
0
LINE
8
Layer 1
10
314.359066
20
130.865703
11
312.498490
21
127.076815
0
LINE
8
Layer 1
10
312.498490
20
127.076815
11
310.861550
21
123.160962
0
LINE
8
Layer 1
10
310.861550
20
123.160962
11
309.456300
21
119.126200
0
LINE
8
Layer 1
10
309.456000
20
119.126000
11
309.018857
21
116.812368
0
LINE
8
Layer 1
10
309.018857
20
116.812368
11
309.129861
21
114.491575
0
LINE
8
Layer 1
10
309.129861
20
114.491575
11
309.773218
21
112.258975
0
LINE
8
Layer 1
10
309.773218
20
112.258975
11
310.933130
21
110.209920
0
LINE
8
Layer 1
10
310.933130
20
110.209920
11
312.539826
21
108.488724
0
LINE
8
Layer 1
10
312.539826
20
108.488724
11
314.476584
21
107.205219
0
LINE
8
Layer 1
10
314.476584
20
107.205219
11
316.657179
21
106.403085
0
LINE
8
Layer 1
10
316.657179
20
106.403085
11
318.995390
21
106.126000
0
LINE
8
Layer 1
10
338.285000
20
106.126000
11
318.996000
21
106.126000
0
LINE
8
Layer 1
10
338.285000
20
106.126000
11
339.714299
21
106.228398
0
LINE
8
Layer 1
10
339.714299
20
106.228398
11
341.093450
21
106.528100
0
LINE
8
Layer 1
10
341.093450
20
106.528100
11
342.404682
21
107.013867
0
LINE
8
Layer 1
10
342.404682
20
107.013867
11
343.630225
21
107.674459
0
LINE
8
Layer 1
10
343.630225
20
107.674459
11
344.752307
21
108.498636
0
LINE
8
Layer 1
10
344.752307
20
108.498636
11
345.753158
21
109.475160
0
LINE
8
Layer 1
10
345.753158
20
109.475160
11
346.615006
21
110.592791
0
LINE
8
Layer 1
10
346.615006
20
110.592791
11
347.320080
21
111.840290
0
LINE
8
Layer 1
10
362.518000
20
127.038000
11
360.080598
21
125.750480
0
LINE
8
Layer 1
10
360.080598
20
125.750480
11
357.775505
21
124.266732
0
LINE
8
Layer 1
10
357.775505
20
124.266732
11
355.613374
21
122.597408
0
LINE
8
Layer 1
10
355.613374
20
122.597408
11
353.604857
21
120.753161
0
LINE
8
Layer 1
10
353.604857
20
120.753161
11
351.760609
21
118.744644
0
LINE
8
Layer 1
10
351.760609
20
118.744644
11
350.091281
21
116.582510
0
LINE
8
Layer 1
10
350.091281
20
116.582510
11
348.607527
21
114.277411
0
LINE
8
Layer 1
10
348.607527
20
114.277411
11
347.320000
21
111.840000
0
LINE
8
Layer 1
10
362.518000
20
127.038000
11
363.765499
21
127.743074
0
LINE
8
Layer 1
10
363.765499
20
127.743074
11
364.883130
21
128.604922
0
LINE
8
Layer 1
10
364.883130
20
128.604922
11
365.859654
21
129.605773
0
LINE
8
Layer 1
10
365.859654
20
129.605773
11
366.683831
21
130.727855
0
LINE
8
Layer 1
10
366.683831
20
130.727855
11
367.344423
21
131.953398
0
LINE
8
Layer 1
10
367.344423
20
131.953398
11
367.830190
21
133.264630
0
LINE
8
Layer 1
10
367.830190
20
133.264630
11
368.129892
21
134.643781
0
LINE
8
Layer 1
10
368.129892
20
134.643781
11
368.232290
21
136.073080
0
LINE
8
Layer 1
10
368.232000
20
136.074000
11
368.232000
21
155.362000
0
LINE
8
Layer 1
10
318.996000
20
90.126100
11
316.657789
21
89.849017
0
LINE
8
Layer 1
10
316.657789
20
89.849017
11
314.477194
21
89.046885
0
LINE
8
Layer 1
10
314.477194
20
89.046885
11
312.540436
21
87.763381
0
LINE
8
Layer 1
10
312.540436
20
87.763381
11
310.933740
21
86.042180
0
LINE
8
Layer 1
10
310.933740
20
86.042180
11
309.773828
21
83.993131
0
LINE
8
Layer 1
10
309.773828
20
83.993131
11
309.130471
21
81.760534
0
LINE
8
Layer 1
10
309.130471
20
81.760534
11
309.019467
21
79.439742
0
LINE
8
Layer 1
10
309.019467
20
79.439742
11
309.456610
21
77.126110
0
LINE
8
Layer 1
10
309.456000
20
77.126200
11
310.861257
21
73.091439
0
LINE
8
Layer 1
10
310.861257
20
73.091439
11
312.498206
21
69.175588
0
LINE
8
Layer 1
10
312.498206
20
69.175588
11
314.358790
21
65.386703
0
LINE
8
Layer 1
10
314.358790
20
65.386703
11
316.434953
21
61.732841
0
LINE
8
Layer 1
10
316.434953
20
61.732841
11
318.718639
21
58.222056
0
LINE
8
Layer 1
10
318.718639
20
58.222056
11
321.201793
21
54.862404
0
LINE
8
Layer 1
10
321.201793
20
54.862404
11
323.876358
21
51.661942
0
LINE
8
Layer 1
10
323.876358
20
51.661942
11
326.734278
21
48.628725
0
LINE
8
Layer 1
10
326.734278
20
48.628725
11
329.767497
21
45.770809
0
LINE
8
Layer 1
10
329.767497
20
45.770809
11
332.967959
21
43.096249
0
LINE
8
Layer 1
10
332.967959
20
43.096249
11
336.327608
21
40.613101
0
LINE
8
Layer 1
10
336.327608
20
40.613101
11
339.838388
21
38.329422
0
LINE
8
Layer 1
10
339.838388
20
38.329422
11
343.492244
21
36.253266
0
LINE
8
Layer 1
10
343.492244
20
36.253266
11
347.281118
21
34.392690
0
LINE
8
Layer 1
10
347.281118
20
34.392690
11
351.196956
21
32.755750
0
LINE
8
Layer 1
10
351.196956
20
32.755750
11
355.231700
21
31.350500
0
LINE
8
Layer 1
10
355.232000
20
31.350400
11
357.545634
21
30.913258
0
LINE
8
Layer 1
10
357.545634
20
30.913258
11
359.866429
21
31.024266
0
LINE
8
Layer 1
10
359.866429
20
31.024266
11
362.099030
21
31.667626
0
LINE
8
Layer 1
10
362.099030
20
31.667626
11
364.148080
21
32.827540
0
LINE
8
Layer 1
10
364.148080
20
32.827540
11
365.869276
21
34.434231
0
LINE
8
Layer 1
10
365.869276
20
34.434231
11
367.152781
21
36.370985
0
LINE
8
Layer 1
10
367.152781
20
36.370985
11
367.954915
21
38.551579
0
LINE
8
Layer 1
10
367.954915
20
38.551579
11
368.232000
21
40.889790
0
LINE
8
Layer 1
10
368.232000
20
60.178900
11
368.232000
21
40.889900
0
LINE
8
Layer 1
10
368.232000
20
60.178800
11
368.129602
21
61.608099
0
LINE
8
Layer 1
10
368.129602
20
61.608099
11
367.829900
21
62.987250
0
LINE
8
Layer 1
10
367.829900
20
62.987250
11
367.344133
21
64.298482
0
LINE
8
Layer 1
10
367.344133
20
64.298482
11
366.683541
21
65.524025
0
LINE
8
Layer 1
10
366.683541
20
65.524025
11
365.859364
21
66.646107
0
LINE
8
Layer 1
10
365.859364
20
66.646107
11
364.882840
21
67.646958
0
LINE
8
Layer 1
10
364.882840
20
67.646958
11
363.765209
21
68.508806
0
LINE
8
Layer 1
10
363.765209
20
68.508806
11
362.517710
21
69.213880
0
LINE
8
Layer 1
10
347.320000
20
84.411900
11
348.607523
21
81.974498
0
LINE
8
Layer 1
10
348.607523
20
81.974498
11
350.091274
21
79.669405
0
LINE
8
Layer 1
10
350.091274
20
79.669405
11
351.760599
21
77.507274
0
LINE
8
Layer 1
10
351.760599
20
77.507274
11
353.604846
21
75.498758
0
LINE
8
Layer 1
10
353.604846
20
75.498758
11
355.613363
21
73.654509
0
LINE
8
Layer 1
10
355.613363
20
73.654509
11
357.775495
21
71.985181
0
LINE
8
Layer 1
10
357.775495
20
71.985181
11
360.080592
21
70.501427
0
LINE
8
Layer 1
10
360.080592
20
70.501427
11
362.518000
21
69.213900
0
LINE
8
Layer 1
10
347.320000
20
84.411900
11
346.614929
21
85.659396
0
LINE
8
Layer 1
10
346.614929
20
85.659396
11
345.753084
21
86.777024
0
LINE
8
Layer 1
10
345.753084
20
86.777024
11
344.752235
21
87.753546
0
LINE
8
Layer 1
10
344.752235
20
87.753546
11
343.630154
21
88.577722
0
LINE
8
Layer 1
10
343.630154
20
88.577722
11
342.404612
21
89.238313
0
LINE
8
Layer 1
10
342.404612
20
89.238313
11
341.093380
21
89.724080
0
LINE
8
Layer 1
10
341.093380
20
89.724080
11
339.714229
21
90.023782
0
LINE
8
Layer 1
10
339.714229
20
90.023782
11
338.284930
21
90.126180
0
LINE
8
Layer 1
10
338.285000
20
90.126200
11
318.996000
21
90.126200
0
LINE
8
Layer 1
10
397.232000
20
164.902000
11
394.918361
21
165.339142
0
LINE
8
Layer 1
10
394.918361
20
165.339142
11
392.597564
21
165.228134
0
LINE
8
Layer 1
10
392.597564
20
165.228134
11
390.364965
21
164.584774
0
LINE
8
Layer 1
10
390.364965
20
164.584774
11
388.315920
21
163.424860
0
LINE
8
Layer 1
10
388.315920
20
163.424860
11
386.594719
21
161.818164
0
LINE
8
Layer 1
10
386.594719
20
161.818164
11
385.311215
21
159.881407
0
LINE
8
Layer 1
10
385.311215
20
159.881407
11
384.509083
21
157.700815
0
LINE
8
Layer 1
10
384.509083
20
157.700815
11
384.232000
21
155.362610
0
LINE
8
Layer 1
10
384.232000
20
136.074000
11
384.232000
21
155.362000
0
LINE
8
Layer 1
10
384.232000
20
136.073000
11
384.334398
21
134.643698
0
LINE
8
Layer 1
10
384.334398
20
134.643698
11
384.634100
21
133.264545
0
LINE
8
Layer 1
10
384.634100
20
133.264545
11
385.119867
21
131.953311
0
LINE
8
Layer 1
10
385.119867
20
131.953311
11
385.780458
21
130.727768
0
LINE
8
Layer 1
10
385.780458
20
130.727768
11
386.604634
21
129.605686
0
LINE
8
Layer 1
10
386.604634
20
129.605686
11
387.581156
21
128.604837
0
LINE
8
Layer 1
10
387.581156
20
128.604837
11
388.698784
21
127.742991
0
LINE
8
Layer 1
10
388.698784
20
127.742991
11
389.946280
21
127.037920
0
LINE
8
Layer 1
10
405.144000
20
111.840000
11
403.856480
21
114.277402
0
LINE
8
Layer 1
10
403.856480
20
114.277402
11
402.372732
21
116.582495
0
LINE
8
Layer 1
10
402.372732
20
116.582495
11
400.703408
21
118.744626
0
LINE
8
Layer 1
10
400.703408
20
118.744626
11
398.859161
21
120.753142
0
LINE
8
Layer 1
10
398.859161
20
120.753142
11
396.850644
21
122.597391
0
LINE
8
Layer 1
10
396.850644
20
122.597391
11
394.688510
21
124.266719
0
LINE
8
Layer 1
10
394.688510
20
124.266719
11
392.383411
21
125.750473
0
LINE
8
Layer 1
10
392.383411
20
125.750473
11
389.946000
21
127.038000
0
LINE
8
Layer 1
10
405.144000
20
111.840000
11
405.849074
21
110.592502
0
LINE
8
Layer 1
10
405.849074
20
110.592502
11
406.710922
21
109.474872
0
LINE
8
Layer 1
10
406.710922
20
109.474872
11
407.711772
21
108.498349
0
LINE
8
Layer 1
10
407.711772
20
108.498349
11
408.833854
21
107.674172
0
LINE
8
Layer 1
10
408.833854
20
107.674172
11
410.059395
21
107.013581
0
LINE
8
Layer 1
10
410.059395
20
107.013581
11
411.370626
21
106.527815
0
LINE
8
Layer 1
10
411.370626
20
106.527815
11
412.749775
21
106.228111
0
LINE
8
Layer 1
10
412.749775
20
106.228111
11
414.179070
21
106.125710
0
LINE
8
Layer 1
10
433.468000
20
106.126000
11
414.179000
21
106.126000
0
LINE
8
Layer 1
10
433.468000
20
106.126000
11
435.806212
21
106.403083
0
LINE
8
Layer 1
10
435.806212
20
106.403083
11
437.986810
21
107.205215
0
LINE
8
Layer 1
10
437.986810
20
107.205215
11
439.923568
21
108.488719
0
LINE
8
Layer 1
10
439.923568
20
108.488719
11
441.530260
21
110.209920
0
LINE
8
Layer 1
10
441.530260
20
110.209920
11
442.690174
21
112.258970
0
LINE
8
Layer 1
10
442.690174
20
112.258970
11
443.333534
21
114.491571
0
LINE
8
Layer 1
10
443.333534
20
114.491571
11
443.444542
21
116.812366
0
LINE
8
Layer 1
10
443.444542
20
116.812366
11
443.007400
21
119.126000
0
LINE
8
Layer 1
10
443.008000
20
119.126000
11
441.602744
21
123.160761
0
LINE
8
Layer 1
10
441.602744
20
123.160761
11
439.965797
21
127.076612
0
LINE
8
Layer 1
10
439.965797
20
127.076612
11
438.105213
21
130.865497
0
LINE
8
Layer 1
10
438.105213
20
130.865497
11
436.029050
21
134.519361
0
LINE
8
Layer 1
10
436.029050
20
134.519361
11
433.745362
21
138.030147
0
LINE
8
Layer 1
10
433.745362
20
138.030147
11
431.262206
21
141.389801
0
LINE
8
Layer 1
10
431.262206
20
141.389801
11
428.587638
21
144.590266
0
LINE
8
Layer 1
10
428.587638
20
144.590266
11
425.729714
21
147.623487
0
LINE
8
Layer 1
10
425.729714
20
147.623487
11
422.696489
21
150.481409
0
LINE
8
Layer 1
10
422.696489
20
150.481409
11
419.496019
21
153.155976
0
LINE
8
Layer 1
10
419.496019
20
153.155976
11
416.136361
21
155.639131
0
LINE
8
Layer 1
10
416.136361
20
155.639131
11
412.625571
21
157.922820
0
LINE
8
Layer 1
10
412.625571
20
157.922820
11
408.971703
21
159.998987
0
LINE
8
Layer 1
10
408.971703
20
159.998987
11
405.182815
21
161.859577
0
LINE
8
Layer 1
10
405.182815
20
161.859577
11
401.266962
21
163.496533
0
LINE
8
Layer 1
10
401.266962
20
163.496533
11
397.232200
21
164.901800
0
LINE
8
Layer 1
10
372.257000
20
98.126100
11
372.337995
21
97.325214
0
LINE
8
Layer 1
10
372.337995
20
97.325214
11
372.569766
21
96.579295
0
LINE
8
Layer 1
10
372.569766
20
96.579295
11
373.421731
21
95.316244
0
LINE
8
Layer 1
10
373.421731
20
95.316244
11
374.685080
21
94.464716
0
LINE
8
Layer 1
10
374.685080
20
94.464716
11
375.431082
21
94.233201
0
LINE
8
Layer 1
10
375.431082
20
94.233201
11
376.232000
21
94.152480
0
LINE
8
Layer 1
10
376.232000
20
94.152480
11
377.032914
21
94.233201
0
LINE
8
Layer 1
10
377.032914
20
94.233201
11
377.778914
21
94.464716
0
LINE
8
Layer 1
10
377.778914
20
94.464716
11
379.042261
21
95.316244
0
LINE
8
Layer 1
10
379.042261
20
95.316244
11
379.894228
21
96.579295
0
LINE
8
Layer 1
10
379.894228
20
96.579295
11
380.126002
21
97.325214
0
LINE
8
Layer 1
10
380.126002
20
97.325214
11
380.207000
21
98.126100
0
LINE
8
Layer 1
10
380.207000
20
98.126100
11
380.126002
21
98.926990
0
LINE
8
Layer 1
10
380.126002
20
98.926990
11
379.894228
21
99.672911
0
LINE
8
Layer 1
10
379.894228
20
99.672911
11
379.042261
21
100.935965
0
LINE
8
Layer 1
10
379.042261
20
100.935965
11
377.778914
21
101.787494
0
LINE
8
Layer 1
10
377.778914
20
101.787494
11
377.032914
21
102.019009
0
LINE
8
Layer 1
10
377.032914
20
102.019009
11
376.232000
21
102.099730
0
LINE
8
Layer 1
10
376.232000
20
102.099730
11
375.431082
21
102.019009
0
LINE
8
Layer 1
10
375.431082
20
102.019009
11
374.685080
21
101.787493
0
LINE
8
Layer 1
10
374.685080
20
101.787493
11
373.421731
21
100.935961
0
LINE
8
Layer 1
10
373.421731
20
100.935961
11
372.569766
21
99.672907
0
LINE
8
Layer 1
10
372.569766
20
99.672907
11
372.337995
21
98.926987
0
LINE
8
Layer 1
10
372.337995
20
98.926987
11
372.257000
21
98.126100
0
LINE
8
Layer 1
10
372.257000
20
98.126100
11
372.257000
21
98.126100
0
LINE
8
Layer 1
10
375.182000
20
147.626000
11
375.264514
21
147.217292
0
LINE
8
Layer 1
10
375.264514
20
147.217292
11
375.489537
21
146.883537
0
LINE
8
Layer 1
10
375.489537
20
146.883537
11
375.823292
21
146.658514
0
LINE
8
Layer 1
10
375.823292
20
146.658514
11
376.232000
21
146.576000
0
LINE
8
Layer 1
10
376.232000
20
146.576000
11
376.640702
21
146.658514
0
LINE
8
Layer 1
10
376.640702
20
146.658514
11
376.974455
21
146.883537
0
LINE
8
Layer 1
10
376.974455
20
146.883537
11
377.199480
21
147.217292
0
LINE
8
Layer 1
10
377.199480
20
147.217292
11
377.282000
21
147.626000
0
LINE
8
Layer 1
10
377.282000
20
147.626000
11
377.199480
21
148.034714
0
LINE
8
Layer 1
10
377.199480
20
148.034714
11
376.974455
21
148.368471
0
LINE
8
Layer 1
10
376.974455
20
148.368471
11
376.640702
21
148.593496
0
LINE
8
Layer 1
10
376.640702
20
148.593496
11
376.232000
21
148.676010
0
LINE
8
Layer 1
10
376.232000
20
148.676010
11
375.823292
21
148.593496
0
LINE
8
Layer 1
10
375.823292
20
148.593496
11
375.489537
21
148.368471
0
LINE
8
Layer 1
10
375.489537
20
148.368471
11
375.264514
21
148.034714
0
LINE
8
Layer 1
10
375.264514
20
148.034714
11
375.182000
21
147.626000
0
LINE
8
Layer 1
10
375.182000
20
147.626000
11
375.182000
21
147.626000
0
LINE
8
Layer 1
10
424.682000
20
98.126100
11
424.764946
21
97.717881
0
LINE
8
Layer 1
10
424.764946
20
97.717881
11
424.990065
21
97.384616
0
LINE
8
Layer 1
10
424.990065
20
97.384616
11
425.323649
21
97.159968
0
LINE
8
Layer 1
10
425.323649
20
97.159968
11
425.731990
21
97.077600
0
LINE
8
Layer 1
10
425.731990
20
97.077600
11
426.140332
21
97.159961
0
LINE
8
Layer 1
10
426.140332
20
97.159961
11
426.473921
21
97.384605
0
LINE
8
Layer 1
10
426.473921
20
97.384605
11
426.699047
21
97.717871
0
LINE
8
Layer 1
10
426.699047
20
97.717871
11
426.782000
21
98.126100
0
LINE
8
Layer 1
10
426.782000
20
98.126100
11
426.699054
21
98.534325
0
LINE
8
Layer 1
10
426.699054
20
98.534325
11
426.473935
21
98.867591
0
LINE
8
Layer 1
10
426.473935
20
98.867591
11
426.140351
21
99.092237
0
LINE
8
Layer 1
10
426.140351
20
99.092237
11
425.732010
21
99.174600
0
LINE
8
Layer 1
10
425.732010
20
99.174600
11
425.323666
21
99.092244
0
LINE
8
Layer 1
10
425.323666
20
99.092244
11
424.990075
21
98.867603
0
LINE
8
Layer 1
10
424.990075
20
98.867603
11
424.764949
21
98.534334
0
LINE
8
Layer 1
10
424.764949
20
98.534334
11
424.682000
21
98.126100
0
LINE
8
Layer 1
10
424.682000
20
98.126100
11
424.682000
21
98.126100
0
LINE
8
Layer 1
10
375.182000
20
48.626200
11
375.264514
21
48.217492
0
LINE
8
Layer 1
10
375.264514
20
48.217492
11
375.489537
21
47.883737
0
LINE
8
Layer 1
10
375.489537
20
47.883737
11
375.823292
21
47.658714
0
LINE
8
Layer 1
10
375.823292
20
47.658714
11
376.232000
21
47.576200
0
LINE
8
Layer 1
10
376.232000
20
47.576200
11
376.640702
21
47.658714
0
LINE
8
Layer 1
10
376.640702
20
47.658714
11
376.974455
21
47.883738
0
LINE
8
Layer 1
10
376.974455
20
47.883738
11
377.199480
21
48.217492
0
LINE
8
Layer 1
10
377.199480
20
48.217492
11
377.282000
21
48.626200
0
LINE
8
Layer 1
10
377.282000
20
48.626200
11
377.199480
21
49.034908
0
LINE
8
Layer 1
10
377.199480
20
49.034908
11
376.974455
21
49.368662
0
LINE
8
Layer 1
10
376.974455
20
49.368662
11
376.640702
21
49.593686
0
LINE
8
Layer 1
10
376.640702
20
49.593686
11
376.232000
21
49.676200
0
LINE
8
Layer 1
10
376.232000
20
49.676200
11
375.823292
21
49.593686
0
LINE
8
Layer 1
10
375.823292
20
49.593686
11
375.489537
21
49.368662
0
LINE
8
Layer 1
10
375.489537
20
49.368662
11
375.264514
21
49.034908
0
LINE
8
Layer 1
10
375.264514
20
49.034908
11
375.182000
21
48.626200
0
LINE
8
Layer 1
10
375.182000
20
48.626200
11
375.182000
21
48.626200
0
LINE
8
Layer 1
10
336.432000
20
31.009200
11
336.514660
21
30.600646
0
LINE
8
Layer 1
10
336.514660
20
30.600646
11
336.739717
21
30.267055
0
LINE
8
Layer 1
10
336.739717
20
30.267055
11
337.073416
21
30.042161
0
LINE
8
Layer 1
10
337.073416
20
30.042161
11
337.482000
21
29.959700
0
LINE
8
Layer 1
10
337.482000
20
29.959700
11
337.890584
21
30.042161
0
LINE
8
Layer 1
10
337.890584
20
30.042161
11
338.224283
21
30.267055
0
LINE
8
Layer 1
10
338.224283
20
30.267055
11
338.449340
21
30.600646
0
LINE
8
Layer 1
10
338.449340
20
30.600646
11
338.532000
21
31.009200
0
LINE
8
Layer 1
10
338.532000
20
31.009200
11
338.449340
21
31.417750
0
LINE
8
Layer 1
10
338.449340
20
31.417750
11
338.224283
21
31.751341
0
LINE
8
Layer 1
10
338.224283
20
31.751341
11
337.890584
21
31.976237
0
LINE
8
Layer 1
10
337.890584
20
31.976237
11
337.482000
21
32.058700
0
LINE
8
Layer 1
10
337.482000
20
32.058700
11
337.073416
21
31.976237
0
LINE
8
Layer 1
10
337.073416
20
31.976237
11
336.739717
21
31.751341
0
LINE
8
Layer 1
10
336.739717
20
31.751341
11
336.514660
21
31.417750
0
LINE
8
Layer 1
10
336.514660
20
31.417750
11
336.432000
21
31.009200
0
LINE
8
Layer 1
10
336.432000
20
31.009200
11
336.432000
21
31.009200
0
LINE
8
Layer 1
10
308.065000
20
59.376200
11
308.147665
21
58.967645
0
LINE
8
Layer 1
10
308.147665
20
58.967645
11
308.372721
21
58.634050
0
LINE
8
Layer 1
10
308.372721
20
58.634050
11
308.706417
21
58.409153
0
LINE
8
Layer 1
10
308.706417
20
58.409153
11
309.115000
21
58.326690
0
LINE
8
Layer 1
10
309.115000
20
58.326690
11
309.523584
21
58.409153
0
LINE
8
Layer 1
10
309.523584
20
58.409153
11
309.857282
21
58.634050
0
LINE
8
Layer 1
10
309.857282
20
58.634050
11
310.082340
21
58.967645
0
LINE
8
Layer 1
10
310.082340
20
58.967645
11
310.165000
21
59.376200
0
LINE
8
Layer 1
10
310.165000
20
59.376200
11
310.082275
21
59.784689
0
LINE
8
Layer 1
10
310.082275
20
59.784689
11
309.857198
21
60.118214
0
LINE
8
Layer 1
10
309.857198
20
60.118214
11
309.523517
21
60.343055
0
LINE
8
Layer 1
10
309.523517
20
60.343055
11
309.114980
21
60.425490
0
LINE
8
Layer 1
10
309.114980
20
60.425490
11
308.706443
21
60.343039
0
LINE
8
Layer 1
10
308.706443
20
60.343039
11
308.372771
21
60.118187
0
LINE
8
Layer 1
10
308.372771
20
60.118187
11
308.147709
21
59.784665
0
LINE
8
Layer 1
10
308.147709
20
59.784665
11
308.065000
21
59.376200
0
LINE
8
Layer 1
10
308.065000
20
59.376200
11
308.065000
21
59.376200
0
LINE
8
Layer 1
10
297.682000
20
98.126100
11
297.764772
21
97.717662
0
LINE
8
Layer 1
10
297.764772
20
97.717662
11
297.989859
21
97.384189
0
LINE
8
Layer 1
10
297.989859
20
97.384189
11
298.323521
21
97.159389
0
LINE
8
Layer 1
10
298.323521
20
97.159389
11
298.732020
21
97.076970
0
LINE
8
Layer 1
10
298.732020
20
97.076970
11
299.140515
21
97.159403
0
LINE
8
Layer 1
10
299.140515
20
97.159403
11
299.474169
21
97.384211
0
LINE
8
Layer 1
10
299.474169
20
97.384211
11
299.699243
21
97.717681
0
LINE
8
Layer 1
10
299.699243
20
97.717681
11
299.782000
21
98.126100
0
LINE
8
Layer 1
10
299.782000
20
98.126100
11
299.699228
21
98.534544
0
LINE
8
Layer 1
10
299.699228
20
98.534544
11
299.474141
21
98.868020
0
LINE
8
Layer 1
10
299.474141
20
98.868020
11
299.140479
21
99.092821
0
LINE
8
Layer 1
10
299.140479
20
99.092821
11
298.731980
21
99.175240
0
LINE
8
Layer 1
10
298.731980
20
99.175240
11
298.323485
21
99.092807
0
LINE
8
Layer 1
10
298.323485
20
99.092807
11
297.989831
21
98.867998
0
LINE
8
Layer 1
10
297.989831
20
98.867998
11
297.764757
21
98.534524
0
LINE
8
Layer 1
10
297.764757
20
98.534524
11
297.682000
21
98.126100
0
LINE
8
Layer 1
10
297.682000
20
98.126100
11
297.682000
21
98.126100
0
LINE
8
Layer 1
10
308.065000
20
136.876000
11
308.147665
21
136.467455
0
LINE
8
Layer 1
10
308.147665
20
136.467455
11
308.372721
21
136.133863
0
LINE
8
Layer 1
10
308.372721
20
136.133863
11
308.706417
21
135.908964
0
LINE
8
Layer 1
10
308.706417
20
135.908964
11
309.115000
21
135.826500
0
LINE
8
Layer 1
10
309.115000
20
135.826500
11
309.523584
21
135.908964
0
LINE
8
Layer 1
10
309.523584
20
135.908964
11
309.857282
21
136.133863
0
LINE
8
Layer 1
10
309.857282
20
136.133863
11
310.082340
21
136.467455
0
LINE
8
Layer 1
10
310.082340
20
136.467455
11
310.165000
21
136.876000
0
LINE
8
Layer 1
10
310.165000
20
136.876000
11
310.082275
21
137.284494
0
LINE
8
Layer 1
10
310.082275
20
137.284494
11
309.857198
21
137.618022
0
LINE
8
Layer 1
10
309.857198
20
137.618022
11
309.523517
21
137.842864
0
LINE
8
Layer 1
10
309.523517
20
137.842864
11
309.114980
21
137.925300
0
LINE
8
Layer 1
10
309.114980
20
137.925300
11
308.706443
21
137.842845
0
LINE
8
Layer 1
10
308.706443
20
137.842845
11
308.372771
21
137.617992
0
LINE
8
Layer 1
10
308.372771
20
137.617992
11
308.147709
21
137.284469
0
LINE
8
Layer 1
10
308.147709
20
137.284469
11
308.065000
21
136.876000
0
LINE
8
Layer 1
10
308.065000
20
136.876000
11
308.065000
21
136.876000
0
LINE
8
Layer 1
10
336.432000
20
165.243000
11
336.514660
21
164.834450
0
LINE
8
Layer 1
10
336.514660
20
164.834450
11
336.739717
21
164.500859
0
LINE
8
Layer 1
10
336.739717
20
164.500859
11
337.073416
21
164.275963
0
LINE
8
Layer 1
10
337.073416
20
164.275963
11
337.482000
21
164.193500
0
LINE
8
Layer 1
10
337.482000
20
164.193500
11
337.890584
21
164.275963
0
LINE
8
Layer 1
10
337.890584
20
164.275963
11
338.224283
21
164.500859
0
LINE
8
Layer 1
10
338.224283
20
164.500859
11
338.449340
21
164.834450
0
LINE
8
Layer 1
10
338.449340
20
164.834450
11
338.532000
21
165.243000
0
LINE
8
Layer 1
10
338.532000
20
165.243000
11
338.449340
21
165.651545
0
LINE
8
Layer 1
10
338.449340
20
165.651545
11
338.224283
21
165.985138
0
LINE
8
Layer 1
10
338.224283
20
165.985138
11
337.890584
21
166.210036
0
LINE
8
Layer 1
10
337.890584
20
166.210036
11
337.482000
21
166.292500
0
LINE
8
Layer 1
10
337.482000
20
166.292500
11
337.073416
21
166.210036
0
LINE
8
Layer 1
10
337.073416
20
166.210036
11
336.739717
21
165.985138
0
LINE
8
Layer 1
10
336.739717
20
165.985138
11
336.514660
21
165.651545
0
LINE
8
Layer 1
10
336.514660
20
165.651545
11
336.432000
21
165.243000
0
LINE
8
Layer 1
10
336.432000
20
165.243000
11
336.432000
21
165.243000
0
LINE
8
Layer 1
10
325.682000
20
98.126100
11
325.764915
21
97.717856
0
LINE
8
Layer 1
10
325.764915
20
97.717856
11
325.990027
21
97.384565
0
LINE
8
Layer 1
10
325.990027
20
97.384565
11
326.323624
21
97.159897
0
LINE
8
Layer 1
10
326.323624
20
97.159897
11
326.731990
21
97.077520
0
LINE
8
Layer 1
10
326.731990
20
97.077520
11
327.140352
21
97.159885
0
LINE
8
Layer 1
10
327.140352
20
97.159885
11
327.473951
21
97.384550
0
LINE
8
Layer 1
10
327.473951
20
97.384550
11
327.699072
21
97.717845
0
LINE
8
Layer 1
10
327.699072
20
97.717845
11
327.782000
21
98.126100
0
LINE
8
Layer 1
10
327.782000
20
98.126100
11
327.699081
21
98.534350
0
LINE
8
Layer 1
10
327.699081
20
98.534350
11
327.473969
21
98.867644
0
LINE
8
Layer 1
10
327.473969
20
98.867644
11
327.140375
21
99.092313
0
LINE
8
Layer 1
10
327.140375
20
99.092313
11
326.732010
21
99.174690
0
LINE
8
Layer 1
10
326.732010
20
99.174690
11
326.323644
21
99.092325
0
LINE
8
Layer 1
10
326.323644
20
99.092325
11
325.990045
21
98.867659
0
LINE
8
Layer 1
10
325.990045
20
98.867659
11
325.764926
21
98.534361
0
LINE
8
Layer 1
10
325.764926
20
98.534361
11
325.682000
21
98.126100
0
LINE
8
Layer 1
10
325.682000
20
98.126100
11
325.682000
21
98.126100
0
LINE
8
Layer 1
10
356.562000
20
108.876000
11
356.644946
21
108.467781
0
LINE
8
Layer 1
10
356.644946
20
108.467781
11
356.870065
21
108.134516
0
LINE
8
Layer 1
10
356.870065
20
108.134516
11
357.203649
21
107.909868
0
LINE
8
Layer 1
10
357.203649
20
107.909868
11
357.611990
21
107.827500
0
LINE
8
Layer 1
10
357.611990
20
107.827500
11
358.020332
21
107.909861
0
LINE
8
Layer 1
10
358.020332
20
107.909861
11
358.353921
21
108.134505
0
LINE
8
Layer 1
10
358.353921
20
108.134505
11
358.579047
21
108.467771
0
LINE
8
Layer 1
10
358.579047
20
108.467771
11
358.662000
21
108.876000
0
LINE
8
Layer 1
10
358.662000
20
108.876000
11
358.579059
21
109.284225
0
LINE
8
Layer 1
10
358.579059
20
109.284225
11
358.353939
21
109.617491
0
LINE
8
Layer 1
10
358.353939
20
109.617491
11
358.020352
21
109.842137
0
LINE
8
Layer 1
10
358.020352
20
109.842137
11
357.612010
21
109.924500
0
LINE
8
Layer 1
10
357.612010
20
109.924500
11
357.203668
21
109.842144
0
LINE
8
Layer 1
10
357.203668
20
109.842144
11
356.870079
21
109.617503
0
LINE
8
Layer 1
10
356.870079
20
109.617503
11
356.644953
21
109.284234
0
LINE
8
Layer 1
10
356.644953
20
109.284234
11
356.562000
21
108.876000
0
LINE
8
Layer 1
10
356.562000
20
108.876000
11
356.562000
21
108.876000
0
LINE
8
Layer 1
10
375.182000
20
119.626000
11
375.264514
21
119.217298
0
LINE
8
Layer 1
10
375.264514
20
119.217298
11
375.489537
21
118.883546
0
LINE
8
Layer 1
10
375.489537
20
118.883546
11
375.823292
21
118.658524
0
LINE
8
Layer 1
10
375.823292
20
118.658524
11
376.232000
21
118.576010
0
LINE
8
Layer 1
10
376.232000
20
118.576010
11
376.640702
21
118.658524
0
LINE
8
Layer 1
10
376.640702
20
118.658524
11
376.974455
21
118.883546
0
LINE
8
Layer 1
10
376.974455
20
118.883546
11
377.199480
21
119.217298
0
LINE
8
Layer 1
10
377.199480
20
119.217298
11
377.282000
21
119.626000
0
LINE
8
Layer 1
10
377.282000
20
119.626000
11
377.199480
21
120.034708
0
LINE
8
Layer 1
10
377.199480
20
120.034708
11
376.974455
21
120.368462
0
LINE
8
Layer 1
10
376.974455
20
120.368462
11
376.640702
21
120.593486
0
LINE
8
Layer 1
10
376.640702
20
120.593486
11
376.232000
21
120.676000
0
LINE
8
Layer 1
10
376.232000
20
120.676000
11
375.823292
21
120.593486
0
LINE
8
Layer 1
10
375.823292
20
120.593486
11
375.489537
21
120.368462
0
LINE
8
Layer 1
10
375.489537
20
120.368462
11
375.264514
21
120.034708
0
LINE
8
Layer 1
10
375.264514
20
120.034708
11
375.182000
21
119.626000
0
LINE
8
Layer 1
10
375.182000
20
119.626000
11
375.182000
21
119.626000
0
LINE
8
Layer 1
10
393.802000
20
108.876000
11
393.884940
21
108.467781
0
LINE
8
Layer 1
10
393.884940
20
108.467781
11
394.110056
21
108.134516
0
LINE
8
Layer 1
10
394.110056
20
108.134516
11
394.443640
21
107.909868
0
LINE
8
Layer 1
10
394.443640
20
107.909868
11
394.851980
21
107.827500
0
LINE
8
Layer 1
10
394.851980
20
107.827500
11
395.260324
21
107.909861
0
LINE
8
Layer 1
10
395.260324
20
107.909861
11
395.593915
21
108.134505
0
LINE
8
Layer 1
10
395.593915
20
108.134505
11
395.819041
21
108.467771
0
LINE
8
Layer 1
10
395.819041
20
108.467771
11
395.901990
21
108.876000
0
LINE
8
Layer 1
10
395.901990
20
108.876000
11
395.819044
21
109.284225
0
LINE
8
Layer 1
10
395.819044
20
109.284225
11
395.593925
21
109.617491
0
LINE
8
Layer 1
10
395.593925
20
109.617491
11
395.260341
21
109.842137
0
LINE
8
Layer 1
10
395.260341
20
109.842137
11
394.852000
21
109.924500
0
LINE
8
Layer 1
10
394.852000
20
109.924500
11
394.443658
21
109.842144
0
LINE
8
Layer 1
10
394.443658
20
109.842144
11
394.110070
21
109.617503
0
LINE
8
Layer 1
10
394.110070
20
109.617503
11
393.884947
21
109.284234
0
LINE
8
Layer 1
10
393.884947
20
109.284234
11
393.802000
21
108.876000
0
LINE
8
Layer 1
10
393.802000
20
108.876000
11
393.802000
21
108.876000
0
LINE
8
Layer 1
10
393.802000
20
87.376100
11
393.884940
21
86.967881
0
LINE
8
Layer 1
10
393.884940
20
86.967881
11
394.110056
21
86.634616
0
LINE
8
Layer 1
10
394.110056
20
86.634616
11
394.443640
21
86.409968
0
LINE
8
Layer 1
10
394.443640
20
86.409968
11
394.851980
21
86.327600
0
LINE
8
Layer 1
10
394.851980
20
86.327600
11
395.260324
21
86.409961
0
LINE
8
Layer 1
10
395.260324
20
86.409961
11
395.593915
21
86.634605
0
LINE
8
Layer 1
10
395.593915
20
86.634605
11
395.819041
21
86.967871
0
LINE
8
Layer 1
10
395.819041
20
86.967871
11
395.901990
21
87.376100
0
LINE
8
Layer 1
10
395.901990
20
87.376100
11
395.819044
21
87.784325
0
LINE
8
Layer 1
10
395.819044
20
87.784325
11
395.593925
21
88.117591
0
LINE
8
Layer 1
10
395.593925
20
88.117591
11
395.260341
21
88.342237
0
LINE
8
Layer 1
10
395.260341
20
88.342237
11
394.852000
21
88.424600
0
LINE
8
Layer 1
10
394.852000
20
88.424600
11
394.443658
21
88.342244
0
LINE
8
Layer 1
10
394.443658
20
88.342244
11
394.110070
21
88.117603
0
LINE
8
Layer 1
10
394.110070
20
88.117603
11
393.884947
21
87.784334
0
LINE
8
Layer 1
10
393.884947
20
87.784334
11
393.802000
21
87.376100
0
LINE
8
Layer 1
10
393.802000
20
87.376100
11
393.802000
21
87.376100
0
LINE
8
Layer 1
10
375.182000
20
76.626100
11
375.264514
21
76.217396
0
LINE
8
Layer 1
10
375.264514
20
76.217396
11
375.489537
21
75.883641
0
LINE
8
Layer 1
10
375.489537
20
75.883641
11
375.823292
21
75.658615
0
LINE
8
Layer 1
10
375.823292
20
75.658615
11
376.232000
21
75.576100
0
LINE
8
Layer 1
10
376.232000
20
75.576100
11
376.640702
21
75.658615
0
LINE
8
Layer 1
10
376.640702
20
75.658615
11
376.974455
21
75.883641
0
LINE
8
Layer 1
10
376.974455
20
75.883641
11
377.199480
21
76.217396
0
LINE
8
Layer 1
10
377.199480
20
76.217396
11
377.282000
21
76.626100
0
LINE
8
Layer 1
10
377.282000
20
76.626100
11
377.199480
21
77.034809
0
LINE
8
Layer 1
10
377.199480
20
77.034809
11
376.974455
21
77.368567
0
LINE
8
Layer 1
10
376.974455
20
77.368567
11
376.640702
21
77.593594
0
LINE
8
Layer 1
10
376.640702
20
77.593594
11
376.232000
21
77.676110
0
LINE
8
Layer 1
10
376.232000
20
77.676110
11
375.823292
21
77.593594
0
LINE
8
Layer 1
10
375.823292
20
77.593594
11
375.489537
21
77.368567
0
LINE
8
Layer 1
10
375.489537
20
77.368567
11
375.264514
21
77.034809
0
LINE
8
Layer 1
10
375.264514
20
77.034809
11
375.182000
21
76.626100
0
LINE
8
Layer 1
10
375.182000
20
76.626100
11
375.182000
21
76.626100
0
LINE
8
Layer 1
10
356.562000
20
87.376100
11
356.644946
21
86.967881
0
LINE
8
Layer 1
10
356.644946
20
86.967881
11
356.870065
21
86.634616
0
LINE
8
Layer 1
10
356.870065
20
86.634616
11
357.203649
21
86.409968
0
LINE
8
Layer 1
10
357.203649
20
86.409968
11
357.611990
21
86.327600
0
LINE
8
Layer 1
10
357.611990
20
86.327600
11
358.020332
21
86.409961
0
LINE
8
Layer 1
10
358.020332
20
86.409961
11
358.353921
21
86.634605
0
LINE
8
Layer 1
10
358.353921
20
86.634605
11
358.579047
21
86.967871
0
LINE
8
Layer 1
10
358.579047
20
86.967871
11
358.662000
21
87.376100
0
LINE
8
Layer 1
10
358.662000
20
87.376100
11
358.579059
21
87.784325
0
LINE
8
Layer 1
10
358.579059
20
87.784325
11
358.353939
21
88.117591
0
LINE
8
Layer 1
10
358.353939
20
88.117591
11
358.020352
21
88.342237
0
LINE
8
Layer 1
10
358.020352
20
88.342237
11
357.612010
21
88.424600
0
LINE
8
Layer 1
10
357.612010
20
88.424600
11
357.203668
21
88.342244
0
LINE
8
Layer 1
10
357.203668
20
88.342244
11
356.870079
21
88.117603
0
LINE
8
Layer 1
10
356.870079
20
88.117603
11
356.644953
21
87.784334
0
LINE
8
Layer 1
10
356.644953
20
87.784334
11
356.562000
21
87.376100
0
LINE
8
Layer 1
10
356.562000
20
87.376100
11
356.562000
21
87.376100
0
LINE
8
Layer 1
10
375.182000
20
20.626100
11
375.264514
21
20.217398
0
LINE
8
Layer 1
10
375.264514
20
20.217398
11
375.489537
21
19.883646
0
LINE
8
Layer 1
10
375.489537
20
19.883646
11
375.823292
21
19.658624
0
LINE
8
Layer 1
10
375.823292
20
19.658624
11
376.232000
21
19.576110
0
LINE
8
Layer 1
10
376.232000
20
19.576110
11
376.640702
21
19.658624
0
LINE
8
Layer 1
10
376.640702
20
19.658624
11
376.974455
21
19.883646
0
LINE
8
Layer 1
10
376.974455
20
19.883646
11
377.199480
21
20.217398
0
LINE
8
Layer 1
10
377.199480
20
20.217398
11
377.282000
21
20.626100
0
LINE
8
Layer 1
10
377.282000
20
20.626100
11
377.199480
21
21.034808
0
LINE
8
Layer 1
10
377.199480
20
21.034808
11
376.974455
21
21.368563
0
LINE
8
Layer 1
10
376.974455
20
21.368563
11
376.640702
21
21.593586
0
LINE
8
Layer 1
10
376.640702
20
21.593586
11
376.232000
21
21.676100
0
LINE
8
Layer 1
10
376.232000
20
21.676100
11
375.823292
21
21.593586
0
LINE
8
Layer 1
10
375.823292
20
21.593586
11
375.489537
21
21.368563
0
LINE
8
Layer 1
10
375.489537
20
21.368563
11
375.264514
21
21.034808
0
LINE
8
Layer 1
10
375.264514
20
21.034808
11
375.182000
21
20.626100
0
LINE
8
Layer 1
10
375.182000
20
20.626100
11
375.182000
21
20.626100
0
LINE
8
Layer 1
10
413.932000
20
31.009200
11
414.014946
21
30.600975
0
LINE
8
Layer 1
10
414.014946
20
30.600975
11
414.240065
21
30.267709
0
LINE
8
Layer 1
10
414.240065
20
30.267709
11
414.573649
21
30.043063
0
LINE
8
Layer 1
10
414.573649
20
30.043063
11
414.981990
21
29.960700
0
LINE
8
Layer 1
10
414.981990
20
29.960700
11
415.390332
21
30.043056
0
LINE
8
Layer 1
10
415.390332
20
30.043056
11
415.723921
21
30.267697
0
LINE
8
Layer 1
10
415.723921
20
30.267697
11
415.949047
21
30.600966
0
LINE
8
Layer 1
10
415.949047
20
30.600966
11
416.032000
21
31.009200
0
LINE
8
Layer 1
10
416.032000
20
31.009200
11
415.949054
21
31.417419
0
LINE
8
Layer 1
10
415.949054
20
31.417419
11
415.723935
21
31.750684
0
LINE
8
Layer 1
10
415.723935
20
31.750684
11
415.390351
21
31.975332
0
LINE
8
Layer 1
10
415.390351
20
31.975332
11
414.982010
21
32.057700
0
LINE
8
Layer 1
10
414.982010
20
32.057700
11
414.573666
21
31.975339
0
LINE
8
Layer 1
10
414.573666
20
31.975339
11
414.240075
21
31.750695
0
LINE
8
Layer 1
10
414.240075
20
31.750695
11
414.014949
21
31.417429
0
LINE
8
Layer 1
10
414.014949
20
31.417429
11
413.932000
21
31.009200
0
LINE
8
Layer 1
10
413.932000
20
31.009200
11
413.932000
21
31.009200
0
LINE
8
Layer 1
10
442.299000
20
59.376200
11
442.381946
21
58.967975
0
LINE
8
Layer 1
10
442.381946
20
58.967975
11
442.607065
21
58.634709
0
LINE
8
Layer 1
10
442.607065
20
58.634709
11
442.940649
21
58.410063
0
LINE
8
Layer 1
10
442.940649
20
58.410063
11
443.348990
21
58.327700
0
LINE
8
Layer 1
10
443.348990
20
58.327700
11
443.757334
21
58.410056
0
LINE
8
Layer 1
10
443.757334
20
58.410056
11
444.090925
21
58.634698
0
LINE
8
Layer 1
10
444.090925
20
58.634698
11
444.316051
21
58.967966
0
LINE
8
Layer 1
10
444.316051
20
58.967966
11
444.399000
21
59.376200
0
LINE
8
Layer 1
10
444.399000
20
59.376200
11
444.316056
21
59.784419
0
LINE
8
Layer 1
10
444.316056
20
59.784419
11
444.090939
21
60.117683
0
LINE
8
Layer 1
10
444.090939
20
60.117683
11
443.757355
21
60.342327
0
LINE
8
Layer 1
10
443.757355
20
60.342327
11
443.349010
21
60.424690
0
LINE
8
Layer 1
10
443.349010
20
60.424690
11
442.940668
21
60.342335
0
LINE
8
Layer 1
10
442.940668
20
60.342335
11
442.607079
21
60.117694
0
LINE
8
Layer 1
10
442.607079
20
60.117694
11
442.381953
21
59.784429
0
LINE
8
Layer 1
10
442.381953
20
59.784429
11
442.299000
21
59.376200
0
LINE
8
Layer 1
10
442.299000
20
59.376200
11
442.299000
21
59.376200
0
LINE
8
Layer 1
10
452.682000
20
98.126100
11
452.764515
21
97.717398
0
LINE
8
Layer 1
10
452.764515
20
97.717398
11
452.989541
21
97.383646
0
LINE
8
Layer 1
10
452.989541
20
97.383646
11
453.323296
21
97.158624
0
LINE
8
Layer 1
10
453.323296
20
97.158624
11
453.732000
21
97.076110
0
LINE
8
Layer 1
10
453.732000
20
97.076110
11
454.140709
21
97.158624
0
LINE
8
Layer 1
10
454.140709
20
97.158624
11
454.474468
21
97.383646
0
LINE
8
Layer 1
10
454.474468
20
97.383646
11
454.699494
21
97.717398
0
LINE
8
Layer 1
10
454.699494
20
97.717398
11
454.782010
21
98.126100
0
LINE
8
Layer 1
10
454.782010
20
98.126100
11
454.699494
21
98.534808
0
LINE
8
Layer 1
10
454.699494
20
98.534808
11
454.474468
21
98.868562
0
LINE
8
Layer 1
10
454.474468
20
98.868562
11
454.140709
21
99.093586
0
LINE
8
Layer 1
10
454.140709
20
99.093586
11
453.732000
21
99.176100
0
LINE
8
Layer 1
10
453.732000
20
99.176100
11
453.323296
21
99.093586
0
LINE
8
Layer 1
10
453.323296
20
99.093586
11
452.989541
21
98.868562
0
LINE
8
Layer 1
10
452.989541
20
98.868562
11
452.764515
21
98.534808
0
LINE
8
Layer 1
10
452.764515
20
98.534808
11
452.682000
21
98.126100
0
LINE
8
Layer 1
10
452.682000
20
98.126100
11
452.682000
21
98.126100
0
LINE
8
Layer 1
10
442.299000
20
136.876000
11
442.381946
21
136.467781
0
LINE
8
Layer 1
10
442.381946
20
136.467781
11
442.607065
21
136.134516
0
LINE
8
Layer 1
10
442.607065
20
136.134516
11
442.940649
21
135.909868
0
LINE
8
Layer 1
10
442.940649
20
135.909868
11
443.348990
21
135.827500
0
LINE
8
Layer 1
10
443.348990
20
135.827500
11
443.757334
21
135.909861
0
LINE
8
Layer 1
10
443.757334
20
135.909861
11
444.090925
21
136.134505
0
LINE
8
Layer 1
10
444.090925
20
136.134505
11
444.316051
21
136.467771
0
LINE
8
Layer 1
10
444.316051
20
136.467771
11
444.399000
21
136.876000
0
LINE
8
Layer 1
10
444.399000
20
136.876000
11
444.316056
21
137.284220
0
LINE
8
Layer 1
10
444.316056
20
137.284220
11
444.090939
21
137.617487
0
LINE
8
Layer 1
10
444.090939
20
137.617487
11
443.757355
21
137.842136
0
LINE
8
Layer 1
10
443.757355
20
137.842136
11
443.349010
21
137.924500
0
LINE
8
Layer 1
10
443.349010
20
137.924500
11
442.940668
21
137.842140
0
LINE
8
Layer 1
10
442.940668
20
137.842140
11
442.607079
21
137.617499
0
LINE
8
Layer 1
10
442.607079
20
137.617499
11
442.381953
21
137.284233
0
LINE
8
Layer 1
10
442.381953
20
137.284233
11
442.299000
21
136.876000
0
LINE
8
Layer 1
10
442.299000
20
136.876000
11
442.299000
21
136.876000
0
LINE
8
Layer 1
10
413.932000
20
165.243000
11
414.014946
21
164.834781
0
LINE
8
Layer 1
10
414.014946
20
164.834781
11
414.240065
21
164.501516
0
LINE
8
Layer 1
10
414.240065
20
164.501516
11
414.573649
21
164.276868
0
LINE
8
Layer 1
10
414.573649
20
164.276868
11
414.981990
21
164.194500
0
LINE
8
Layer 1
10
414.981990
20
164.194500
11
415.390332
21
164.276861
0
LINE
8
Layer 1
10
415.390332
20
164.276861
11
415.723921
21
164.501505
0
LINE
8
Layer 1
10
415.723921
20
164.501505
11
415.949047
21
164.834771
0
LINE
8
Layer 1
10
415.949047
20
164.834771
11
416.032000
21
165.243000
0
LINE
8
Layer 1
10
416.032000
20
165.243000
11
415.949054
21
165.651219
0
LINE
8
Layer 1
10
415.949054
20
165.651219
11
415.723935
21
165.984484
0
LINE
8
Layer 1
10
415.723935
20
165.984484
11
415.390351
21
166.209132
0
LINE
8
Layer 1
10
415.390351
20
166.209132
11
414.982010
21
166.291500
0
LINE
8
Layer 1
10
414.982010
20
166.291500
11
414.573666
21
166.209139
0
LINE
8
Layer 1
10
414.573666
20
166.209139
11
414.240075
21
165.984495
0
LINE
8
Layer 1
10
414.240075
20
165.984495
11
414.014949
21
165.651229
0
LINE
8
Layer 1
10
414.014949
20
165.651229
11
413.932000
21
165.243000
0
LINE
8
Layer 1
10
413.932000
20
165.243000
11
413.932000
21
165.243000
0
LINE
8
Layer 1
10
375.182000
20
175.626000
11
375.264514
21
175.217292
0
LINE
8
Layer 1
10
375.264514
20
175.217292
11
375.489537
21
174.883537
0
LINE
8
Layer 1
10
375.489537
20
174.883537
11
375.823292
21
174.658514
0
LINE
8
Layer 1
10
375.823292
20
174.658514
11
376.232000
21
174.576000
0
LINE
8
Layer 1
10
376.232000
20
174.576000
11
376.640702
21
174.658514
0
LINE
8
Layer 1
10
376.640702
20
174.658514
11
376.974455
21
174.883537
0
LINE
8
Layer 1
10
376.974455
20
174.883537
11
377.199480
21
175.217292
0
LINE
8
Layer 1
10
377.199480
20
175.217292
11
377.282000
21
175.626000
0
LINE
8
Layer 1
10
377.282000
20
175.626000
11
377.199480
21
176.034708
0
LINE
8
Layer 1
10
377.199480
20
176.034708
11
376.974455
21
176.368463
0
LINE
8
Layer 1
10
376.974455
20
176.368463
11
376.640702
21
176.593486
0
LINE
8
Layer 1
10
376.640702
20
176.593486
11
376.232000
21
176.676000
0
LINE
8
Layer 1
10
376.232000
20
176.676000
11
375.823292
21
176.593486
0
LINE
8
Layer 1
10
375.823292
20
176.593486
11
375.489537
21
176.368463
0
LINE
8
Layer 1
10
375.489537
20
176.368463
11
375.264514
21
176.034708
0
LINE
8
Layer 1
10
375.264514
20
176.034708
11
375.182000
21
175.626000
0
LINE
8
Layer 1
10
375.182000
20
175.626000
11
375.182000
21
175.626000
0
LINE
8
Layer 1
10
291.032000
20
98.126100
11
291.142862
21
93.741716
0
LINE
8
Layer 1
10
291.142862
20
93.741716
11
291.471879
21
89.414888
0
LINE
8
Layer 1
10
291.471879
20
89.414888
11
292.013697
21
85.150971
0
LINE
8
Layer 1
10
292.013697
20
85.150971
11
292.762962
21
80.955317
0
LINE
8
Layer 1
10
292.762962
20
80.955317
11
293.714322
21
76.833279
0
LINE
8
Layer 1
10
293.714322
20
76.833279
11
294.862424
21
72.790212
0
LINE
8
Layer 1
10
294.862424
20
72.790212
11
296.201913
21
68.831467
0
LINE
8
Layer 1
10
296.201913
20
68.831467
11
297.727437
21
64.962398
0
LINE
8
Layer 1
10
297.727437
20
64.962398
11
299.433643
21
61.188360
0
LINE
8
Layer 1
10
299.433643
20
61.188360
11
301.315176
21
57.514703
0
LINE
8
Layer 1
10
301.315176
20
57.514703
11
303.366685
21
53.946783
0
LINE
8
Layer 1
10
303.366685
20
53.946783
11
305.582816
21
50.489953
0
LINE
8
Layer 1
10
305.582816
20
50.489953
11
307.958215
21
47.149564
0
LINE
8
Layer 1
10
307.958215
20
47.149564
11
310.487530
21
43.930972
0
LINE
8
Layer 1
10
310.487530
20
43.930972
11
313.165406
21
40.839529
0
LINE
8
Layer 1
10
313.165406
20
40.839529
11
315.986491
21
37.880587
0
LINE
8
Layer 1
10
315.986491
20
37.880587
11
318.945432
21
35.059502
0
LINE
8
Layer 1
10
318.945432
20
35.059502
11
322.036875
21
32.381625
0
LINE
8
Layer 1
10
322.036875
20
32.381625
11
325.255467
21
29.852311
0
LINE
8
Layer 1
10
325.255467
20
29.852311
11
328.595855
21
27.476912
0
LINE
8
Layer 1
10
328.595855
20
27.476912
11
332.052686
21
25.260781
0
LINE
8
Layer 1
10
332.052686
20
25.260781
11
335.620605
21
23.209272
0
LINE
8
Layer 1
10
335.620605
20
23.209272
11
339.294261
21
21.327738
0
LINE
8
Layer 1
10
339.294261
20
21.327738
11
343.068300
21
19.621533
0
LINE
8
Layer 1
10
343.068300
20
19.621533
11
346.937368
21
18.096009
0
LINE
8
Layer 1
10
346.937368
20
18.096009
11
350.896113
21
16.756520
0
LINE
8
Layer 1
10
350.896113
20
16.756520
11
354.939180
21
15.608419
0
LINE
8
Layer 1
10
354.939180
20
15.608419
11
359.061217
21
14.657060
0
LINE
8
Layer 1
10
359.061217
20
14.657060
11
363.256871
21
13.907795
0
LINE
8
Layer 1
10
363.256871
20
13.907795
11
367.520789
21
13.365978
0
LINE
8
Layer 1
10
367.520789
20
13.365978
11
371.847616
21
13.036962
0
LINE
8
Layer 1
10
371.847616
20
13.036962
11
376.232000
21
12.926100
0
LINE
8
Layer 1
10
376.232000
20
12.926100
11
380.616384
21
13.036962
0
LINE
8
Layer 1
10
380.616384
20
13.036962
11
384.943212
21
13.365978
0
LINE
8
Layer 1
10
384.943212
20
13.365978
11
389.207129
21
13.907795
0
LINE
8
Layer 1
10
389.207129
20
13.907795
11
393.402783
21
14.657060
0
LINE
8
Layer 1
10
393.402783
20
14.657060
11
397.524821
21
15.608419
0
LINE
8
Layer 1
10
397.524821
20
15.608419
11
401.567888
21
16.756520
0
LINE
8
Layer 1
10
401.567888
20
16.756520
11
405.526633
21
18.096009
0
LINE
8
Layer 1
10
405.526633
20
18.096009
11
409.395702
21
19.621533
0
LINE
8
Layer 1
10
409.395702
20
19.621533
11
413.169740
21
21.327738
0
LINE
8
Layer 1
10
413.169740
20
21.327738
11
416.843397
21
23.209272
0
LINE
8
Layer 1
10
416.843397
20
23.209272
11
420.411317
21
25.260781
0
LINE
8
Layer 1
10
420.411317
20
25.260781
11
423.868147
21
27.476912
0
LINE
8
Layer 1
10
423.868147
20
27.476912
11
427.208536
21
29.852311
0
LINE
8
Layer 1
10
427.208536
20
29.852311
11
430.427128
21
32.381625
0
LINE
8
Layer 1
10
430.427128
20
32.381625
11
433.518571
21
35.059502
0
LINE
8
Layer 1
10
433.518571
20
35.059502
11
436.477512
21
37.880587
0
LINE
8
Layer 1
10
436.477512
20
37.880587
11
439.298598
21
40.839529
0
LINE
8
Layer 1
10
439.298598
20
40.839529
11
441.976475
21
43.930972
0
LINE
8
Layer 1
10
441.976475
20
43.930972
11
444.505789
21
47.149564
0
LINE
8
Layer 1
10
444.505789
20
47.149564
11
446.881188
21
50.489953
0
LINE
8
Layer 1
10
446.881188
20
50.489953
11
449.097319
21
53.946783
0
LINE
8
Layer 1
10
449.097319
20
53.946783
11
451.148828
21
57.514703
0
LINE
8
Layer 1
10
451.148828
20
57.514703
11
453.030362
21
61.188360
0
LINE
8
Layer 1
10
453.030362
20
61.188360
11
454.736567
21
64.962398
0
LINE
8
Layer 1
10
454.736567
20
64.962398
11
456.262091
21
68.831467
0
LINE
8
Layer 1
10
456.262091
20
68.831467
11
457.601580
21
72.790212
0
LINE
8
Layer 1
10
457.601580
20
72.790212
11
458.749681
21
76.833279
0
LINE
8
Layer 1
10
458.749681
20
76.833279
11
459.701040
21
80.955317
0
LINE
8
Layer 1
10
459.701040
20
80.955317
11
460.450305
21
85.150971
0
LINE
8
Layer 1
10
460.450305
20
85.150971
11
460.992122
21
89.414888
0
LINE
8
Layer 1
10
460.992122
20
89.414888
11
461.321138
21
93.741716
0
LINE
8
Layer 1
10
461.321138
20
93.741716
11
461.432000
21
98.126100
0
LINE
8
Layer 1
10
461.432000
20
98.126100
11
461.321138
21
102.510484
0
LINE
8
Layer 1
10
461.321138
20
102.510484
11
460.992122
21
106.837312
0
LINE
8
Layer 1
10
460.992122
20
106.837312
11
460.450305
21
111.101229
0
LINE
8
Layer 1
10
460.450305
20
111.101229
11
459.701040
21
115.296883
0
LINE
8
Layer 1
10
459.701040
20
115.296883
11
458.749681
21
119.418921
0
LINE
8
Layer 1
10
458.749681
20
119.418921
11
457.601580
21
123.461988
0
LINE
8
Layer 1
10
457.601580
20
123.461988
11
456.262091
21
127.420733
0
LINE
8
Layer 1
10
456.262091
20
127.420733
11
454.736567
21
131.289802
0
LINE
8
Layer 1
10
454.736567
20
131.289802
11
453.030362
21
135.063840
0
LINE
8
Layer 1
10
453.030362
20
135.063840
11
451.148828
21
138.737497
0
LINE
8
Layer 1
10
451.148828
20
138.737497
11
449.097319
21
142.305417
0
LINE
8
Layer 1
10
449.097319
20
142.305417
11
446.881188
21
145.762247
0
LINE
8
Layer 1
10
446.881188
20
145.762247
11
444.505789
21
149.102636
0
LINE
8
Layer 1
10
444.505789
20
149.102636
11
441.976475
21
152.321228
0
LINE
8
Layer 1
10
441.976475
20
152.321228
11
439.298598
21
155.412671
0
LINE
8
Layer 1
10
439.298598
20
155.412671
11
436.477512
21
158.371612
0
LINE
8
Layer 1
10
436.477512
20
158.371612
11
433.518571
21
161.192698
0
LINE
8
Layer 1
10
433.518571
20
161.192698
11
430.427128
21
163.870575
0
LINE
8
Layer 1
10
430.427128
20
163.870575
11
427.208536
21
166.399889
0
LINE
8
Layer 1
10
427.208536
20
166.399889
11
423.868147
21
168.775288
0
LINE
8
Layer 1
10
423.868147
20
168.775288
11
420.411317
21
170.991419
0
LINE
8
Layer 1
10
420.411317
20
170.991419
11
416.843397
21
173.042928
0
LINE
8
Layer 1
10
416.843397
20
173.042928
11
413.169740
21
174.924462
0
LINE
8
Layer 1
10
413.169740
20
174.924462
11
409.395702
21
176.630667
0
LINE
8
Layer 1
10
409.395702
20
176.630667
11
405.526633
21
178.156191
0
LINE
8
Layer 1
10
405.526633
20
178.156191
11
401.567888
21
179.495680
0
LINE
8
Layer 1
10
401.567888
20
179.495680
11
397.524821
21
180.643781
0
LINE
8
Layer 1
10
397.524821
20
180.643781
11
393.402783
21
181.595140
0
LINE
8
Layer 1
10
393.402783
20
181.595140
11
389.207129
21
182.344405
0
LINE
8
Layer 1
10
389.207129
20
182.344405
11
384.943212
21
182.886222
0
LINE
8
Layer 1
10
384.943212
20
182.886222
11
380.616384
21
183.215238
0
LINE
8
Layer 1
10
380.616384
20
183.215238
11
376.232000
21
183.326100
0
LINE
8
Layer 1
10
376.232000
20
183.326100
11
371.847616
21
183.215238
0
LINE
8
Layer 1
10
371.847616
20
183.215238
11
367.520788
21
182.886221
0
LINE
8
Layer 1
10
367.520788
20
182.886221
11
363.256871
21
182.344403
0
LINE
8
Layer 1
10
363.256871
20
182.344403
11
359.061217
21
181.595138
0
LINE
8
Layer 1
10
359.061217
20
181.595138
11
354.939179
21
180.643778
0
LINE
8
Layer 1
10
354.939179
20
180.643778
11
350.896112
21
179.495676
0
LINE
8
Layer 1
10
350.896112
20
179.495676
11
346.937367
21
178.156187
0
LINE
8
Layer 1
10
346.937367
20
178.156187
11
343.068298
21
176.630663
0
LINE
8
Layer 1
10
343.068298
20
176.630663
11
339.294260
21
174.924457
0
LINE
8
Layer 1
10
339.294260
20
174.924457
11
335.620603
21
173.042924
0
LINE
8
Layer 1
10
335.620603
20
173.042924
11
332.052683
21
170.991415
0
LINE
8
Layer 1
10
332.052683
20
170.991415
11
328.595853
21
168.775284
0
LINE
8
Layer 1
10
328.595853
20
168.775284
11
325.255464
21
166.399885
0
LINE
8
Layer 1
10
325.255464
20
166.399885
11
322.036872
21
163.870570
0
LINE
8
Layer 1
10
322.036872
20
163.870570
11
318.945429
21
161.192694
0
LINE
8
Layer 1
10
318.945429
20
161.192694
11
315.986487
21
158.371609
0
LINE
8
Layer 1
10
315.986487
20
158.371609
11
313.165402
21
155.412668
0
LINE
8
Layer 1
10
313.165402
20
155.412668
11
310.487525
21
152.321225
0
LINE
8
Layer 1
10
310.487525
20
152.321225
11
307.958211
21
149.102633
0
LINE
8
Layer 1
10
307.958211
20
149.102633
11
305.582812
21
145.762245
0
LINE
8
Layer 1
10
305.582812
20
145.762245
11
303.366681
21
142.305414
0
LINE
8
Layer 1
10
303.366681
20
142.305414
11
301.315172
21
138.737495
0
LINE
8
Layer 1
10
301.315172
20
138.737495
11
299.433638
21
135.063839
0
LINE
8
Layer 1
10
299.433638
20
135.063839
11
297.727433
21
131.289800
0
LINE
8
Layer 1
10
297.727433
20
131.289800
11
296.201909
21
127.420732
0
LINE
8
Layer 1
10
296.201909
20
127.420732
11
294.862420
21
123.461987
0
LINE
8
Layer 1
10
294.862420
20
123.461987
11
293.714319
21
119.418920
0
LINE
8
Layer 1
10
293.714319
20
119.418920
11
292.762960
21
115.296883
0
LINE
8
Layer 1
10
292.762960
20
115.296883
11
292.013695
21
111.101229
0
LINE
8
Layer 1
10
292.013695
20
111.101229
11
291.471878
21
106.837311
0
LINE
8
Layer 1
10
291.471878
20
106.837311
11
291.142862
21
102.510484
0
LINE
8
Layer 1
10
291.142862
20
102.510484
11
291.032000
21
98.126100
0
LINE
8
Layer 1
10
291.032000
20
98.126100
11
291.032000
21
98.126100
0
LINE
8
Layer 1
10
433.468000
20
90.126000
11
435.806211
21
89.848917
0
LINE
8
Layer 1
10
435.806211
20
89.848917
11
437.986806
21
89.046785
0
LINE
8
Layer 1
10
437.986806
20
89.046785
11
439.923564
21
87.763281
0
LINE
8
Layer 1
10
439.923564
20
87.763281
11
441.530260
21
86.042080
0
LINE
8
Layer 1
10
441.530260
20
86.042080
11
442.690168
21
83.993031
0
LINE
8
Layer 1
10
442.690168
20
83.993031
11
443.333525
21
81.760434
0
LINE
8
Layer 1
10
443.333525
20
81.760434
11
443.444532
21
79.439642
0
LINE
8
Layer 1
10
443.444532
20
79.439642
11
443.007390
21
77.126010
0
LINE
8
Layer 1
10
443.008000
20
77.126000
11
441.602741
21
73.091239
0
LINE
8
Layer 1
10
441.602741
20
73.091239
11
439.965791
21
69.175388
0
LINE
8
Layer 1
10
439.965791
20
69.175388
11
438.105206
21
65.386503
0
LINE
8
Layer 1
10
438.105206
20
65.386503
11
436.029041
21
61.732641
0
LINE
8
Layer 1
10
436.029041
20
61.732641
11
433.745353
21
58.221856
0
LINE
8
Layer 1
10
433.745353
20
58.221856
11
431.262198
21
54.862204
0
LINE
8
Layer 1
10
431.262198
20
54.862204
11
428.587630
21
51.661742
0
LINE
8
Layer 1
10
428.587630
20
51.661742
11
425.729706
21
48.628525
0
LINE
8
Layer 1
10
425.729706
20
48.628525
11
422.696482
21
45.770609
0
LINE
8
Layer 1
10
422.696482
20
45.770609
11
419.496014
21
43.096049
0
LINE
8
Layer 1
10
419.496014
20
43.096049
11
416.136357
21
40.612901
0
LINE
8
Layer 1
10
416.136357
20
40.612901
11
412.625568
21
38.329222
0
LINE
8
Layer 1
10
412.625568
20
38.329222
11
408.971702
21
36.253066
0
LINE
8
Layer 1
10
408.971702
20
36.253066
11
405.182814
21
34.392490
0
LINE
8
Layer 1
10
405.182814
20
34.392490
11
401.266962
21
32.755550
0
LINE
8
Layer 1
10
401.266962
20
32.755550
11
397.232200
21
31.350300
0
LINE
8
Layer 1
10
397.232000
20
31.350300
11
394.918368
21
30.913158
0
LINE
8
Layer 1
10
394.918368
20
30.913158
11
392.597576
21
31.024165
0
LINE
8
Layer 1
10
392.597576
20
31.024165
11
390.364979
21
31.667522
0
LINE
8
Layer 1
10
390.364979
20
31.667522
11
388.315930
21
32.827430
0
LINE
8
Layer 1
10
388.315930
20
32.827430
11
386.594729
21
34.434126
0
LINE
8
Layer 1
10
386.594729
20
34.434126
11
385.311225
21
36.370884
0
LINE
8
Layer 1
10
385.311225
20
36.370884
11
384.509093
21
38.551479
0
LINE
8
Layer 1
10
384.509093
20
38.551479
11
384.232010
21
40.889690
0
LINE
8
Layer 1
10
384.232000
20
60.178700
11
384.232000
21
40.889800
0
LINE
8
Layer 1
10
384.232000
20
60.178700
11
384.334398
21
61.607999
0
LINE
8
Layer 1
10
384.334398
20
61.607999
11
384.634100
21
62.987150
0
LINE
8
Layer 1
10
384.634100
20
62.987150
11
385.119867
21
64.298382
0
LINE
8
Layer 1
10
385.119867
20
64.298382
11
385.780459
21
65.523925
0
LINE
8
Layer 1
10
385.780459
20
65.523925
11
386.604636
21
66.646007
0
LINE
8
Layer 1
10
386.604636
20
66.646007
11
387.581160
21
67.646858
0
LINE
8
Layer 1
10
387.581160
20
67.646858
11
388.698791
21
68.508706
0
LINE
8
Layer 1
10
388.698791
20
68.508706
11
389.946290
21
69.213780
0
LINE
8
Layer 1
10
405.144000
20
84.411700
11
403.856474
21
81.974298
0
LINE
8
Layer 1
10
403.856474
20
81.974298
11
402.372722
21
79.669205
0
LINE
8
Layer 1
10
402.372722
20
79.669205
11
400.703396
21
77.507074
0
LINE
8
Layer 1
10
400.703396
20
77.507074
11
398.859150
21
75.498558
0
LINE
8
Layer 1
10
398.859150
20
75.498558
11
396.850635
21
73.654309
0
LINE
8
Layer 1
10
396.850635
20
73.654309
11
394.688503
21
71.984981
0
LINE
8
Layer 1
10
394.688503
20
71.984981
11
392.383407
21
70.501227
0
LINE
8
Layer 1
10
392.383407
20
70.501227
11
389.946000
21
69.213700
0
LINE
8
Layer 1
10
405.144000
20
84.411700
11
405.849071
21
85.659196
0
LINE
8
Layer 1
10
405.849071
20
85.659196
11
406.710916
21
86.776824
0
LINE
8
Layer 1
10
406.710916
20
86.776824
11
407.711765
21
87.753346
0
LINE
8
Layer 1
10
407.711765
20
87.753346
11
408.833846
21
88.577522
0
LINE
8
Layer 1
10
408.833846
20
88.577522
11
410.059388
21
89.238113
0
LINE
8
Layer 1
10
410.059388
20
89.238113
11
411.370620
21
89.723880
0
LINE
8
Layer 1
10
411.370620
20
89.723880
11
412.749771
21
90.023582
0
LINE
8
Layer 1
10
412.749771
20
90.023582
11
414.179070
21
90.125980
0
LINE
8
Layer 1
10
414.179000
20
90.126100
11
433.468000
21
90.126100
0
LINE
8
Layer 1
10
361.431000
20
210.647000
11
361.252851
21
214.142961
0
LINE
8
Layer 1
10
361.252851
20
214.142961
11
360.733235
21
217.537820
0
LINE
8
Layer 1
10
360.733235
20
217.537820
11
359.889335
21
220.814405
0
LINE
8
Layer 1
10
359.889335
20
220.814405
11
358.738333
21
223.955544
0
LINE
8
Layer 1
10
358.738333
20
223.955544
11
357.297412
21
226.944065
0
LINE
8
Layer 1
10
357.297412
20
226.944065
11
355.583754
21
229.762796
0
LINE
8
Layer 1
10
355.583754
20
229.762796
11
353.614544
21
232.394565
0
LINE
8
Layer 1
10
353.614544
20
232.394565
11
351.406963
21
234.822200
0
LINE
8
Layer 1
10
351.406963
20
234.822200
11
348.978193
21
237.028529
0
LINE
8
Layer 1
10
348.978193
20
237.028529
11
346.345419
21
238.996379
0
LINE
8
Layer 1
10
346.345419
20
238.996379
11
343.525822
21
240.708579
0
LINE
8
Layer 1
10
343.525822
20
240.708579
11
340.536586
21
242.147956
0
LINE
8
Layer 1
10
340.536586
20
242.147956
11
337.394893
21
243.297339
0
LINE
8
Layer 1
10
337.394893
20
243.297339
11
334.117926
21
244.139555
0
LINE
8
Layer 1
10
334.117926
20
244.139555
11
330.722867
21
244.657433
0
LINE
8
Layer 1
10
330.722867
20
244.657433
11
327.226900
21
244.833800
0
LINE
8
Layer 1
10
327.226900
20
244.833800
11
323.730948
21
244.657211
0
LINE
8
Layer 1
10
323.730948
20
244.657211
11
320.335932
21
244.139121
0
LINE
8
Layer 1
10
320.335932
20
244.139121
11
317.059033
21
243.296705
0
LINE
8
Layer 1
10
317.059033
20
243.296705
11
313.917431
21
242.147141
0
LINE
8
Layer 1
10
313.917431
20
242.147141
11
310.928307
21
240.707604
0
LINE
8
Layer 1
10
310.928307
20
240.707604
11
308.108840
21
238.995271
0
LINE
8
Layer 1
10
308.108840
20
238.995271
11
305.476211
21
237.027320
0
LINE
8
Layer 1
10
305.476211
20
237.027320
11
303.047600
21
234.820925
0
LINE
8
Layer 1
10
303.047600
20
234.820925
11
300.840188
21
232.393264
0
LINE
8
Layer 1
10
300.840188
20
232.393264
11
298.871154
21
229.761513
0
LINE
8
Layer 1
10
298.871154
20
229.761513
11
297.157679
21
226.942848
0
LINE
8
Layer 1
10
297.157679
20
226.942848
11
295.716944
21
223.954447
0
LINE
8
Layer 1
10
295.716944
20
223.954447
11
294.566128
21
220.813485
0
LINE
8
Layer 1
10
294.566128
20
220.813485
11
293.722412
21
217.537139
0
LINE
8
Layer 1
10
293.722412
20
217.537139
11
293.202976
21
214.142585
0
LINE
8
Layer 1
10
293.202976
20
214.142585
11
293.025000
21
210.647000
0
LINE
8
Layer 1
10
293.025000
20
210.647000
11
293.203149
21
207.151039
0
LINE
8
Layer 1
10
293.203149
20
207.151039
11
293.722764
21
203.756180
0
LINE
8
Layer 1
10
293.722764
20
203.756180
11
294.566664
21
200.479595
0
LINE
8
Layer 1
10
294.566664
20
200.479595
11
295.717666
21
197.338456
0
LINE
8
Layer 1
10
295.717666
20
197.338456
11
297.158585
21
194.349935
0
LINE
8
Layer 1
10
297.158585
20
194.349935
11
298.872240
21
191.531204
0
LINE
8
Layer 1
10
298.872240
20
191.531204
11
300.841448
21
188.899435
0
LINE
8
Layer 1
10
300.841448
20
188.899435
11
303.049025
21
186.471800
0
LINE
8
Layer 1
10
303.049025
20
186.471800
11
305.477789
21
184.265471
0
LINE
8
Layer 1
10
305.477789
20
184.265471
11
308.110557
21
182.297621
0
LINE
8
Layer 1
10
308.110557
20
182.297621
11
310.930145
21
180.585421
0
LINE
8
Layer 1
10
310.930145
20
180.585421
11
313.919372
21
179.146044
0
LINE
8
Layer 1
10
313.919372
20
179.146044
11
317.061054
21
177.996661
0
LINE
8
Layer 1
10
317.061054
20
177.996661
11
320.338007
21
177.154445
0
LINE
8
Layer 1
10
320.338007
20
177.154445
11
323.733051
21
176.636567
0
LINE
8
Layer 1
10
323.733051
20
176.636567
11
327.229000
21
176.460200
0
LINE
8
Layer 1
10
327.229000
20
176.460200
11
330.724953
21
176.636786
0
LINE
8
Layer 1
10
330.724953
20
176.636786
11
334.119972
21
177.154874
0
LINE
8
Layer 1
10
334.119972
20
177.154874
11
337.396875
21
177.997288
0
LINE
8
Layer 1
10
337.396875
20
177.997288
11
340.538483
21
179.146851
0
LINE
8
Layer 1
10
340.538483
20
179.146851
11
343.527613
21
180.586387
0
LINE
8
Layer 1
10
343.527613
20
180.586387
11
346.347087
21
182.298720
0
LINE
8
Layer 1
10
346.347087
20
182.298720
11
348.979721
21
184.266672
0
LINE
8
Layer 1
10
348.979721
20
184.266672
11
351.408338
21
186.473068
0
LINE
8
Layer 1
10
351.408338
20
186.473068
11
353.615754
21
188.900730
0
LINE
8
Layer 1
10
353.615754
20
188.900730
11
355.584790
21
191.532482
0
LINE
8
Layer 1
10
355.584790
20
191.532482
11
357.298265
21
194.351148
0
LINE
8
Layer 1
10
357.298265
20
194.351148
11
358.738998
21
197.339550
0
LINE
8
Layer 1
10
358.738998
20
197.339550
11
359.889809
21
200.480513
0
LINE
8
Layer 1
10
359.889809
20
200.480513
11
360.733517
21
203.756861
0
LINE
8
Layer 1
10
360.733517
20
203.756861
11
361.252941
21
207.151415
0
LINE
8
Layer 1
10
361.252941
20
207.151415
11
361.430900
21
210.647000
0
LINE
8
Layer 1
10
361.430900
20
210.647000
11
361.431000
21
210.647000
0
LINE
8
Layer 1
10
356.530610
20
210.647000
11
356.378291
21
213.642181
0
LINE
8
Layer 1
10
356.378291
20
213.642181
11
355.933399
21
216.550787
0
LINE
8
Layer 1
10
355.933399
20
216.550787
11
355.210654
21
219.358102
0
LINE
8
Layer 1
10
355.210654
20
219.358102
11
354.224776
21
222.049406
0
LINE
8
Layer 1
10
354.224776
20
222.049406
11
352.990484
21
224.609983
0
LINE
8
Layer 1
10
352.990484
20
224.609983
11
351.522500
21
227.025116
0
LINE
8
Layer 1
10
351.522500
20
227.025116
11
349.835544
21
229.280085
0
LINE
8
Layer 1
10
349.835544
20
229.280085
11
347.944335
21
231.360175
0
LINE
8
Layer 1
10
347.944335
20
231.360175
11
345.863594
21
233.250667
0
LINE
8
Layer 1
10
345.863594
20
233.250667
11
343.608042
21
234.936844
0
LINE
8
Layer 1
10
343.608042
20
234.936844
11
341.192397
21
236.403988
0
LINE
8
Layer 1
10
341.192397
20
236.403988
11
338.631382
21
237.637381
0
LINE
8
Layer 1
10
338.631382
20
237.637381
11
335.939715
21
238.622307
0
LINE
8
Layer 1
10
335.939715
20
238.622307
11
333.132117
21
239.344047
0
LINE
8
Layer 1
10
333.132117
20
239.344047
11
330.223309
21
239.787884
0
LINE
8
Layer 1
10
330.223309
20
239.787884
11
327.228010
21
239.939100
0
LINE
8
Layer 1
10
327.228010
20
239.939100
11
324.232707
21
239.787884
0
LINE
8
Layer 1
10
324.232707
20
239.787884
11
321.323886
21
239.344047
0
LINE
8
Layer 1
10
321.323886
20
239.344047
11
318.516271
21
238.622307
0
LINE
8
Layer 1
10
318.516271
20
238.622307
11
315.824582
21
237.637381
0
LINE
8
Layer 1
10
315.824582
20
237.637381
11
313.263542
21
236.403988
0
LINE
8
Layer 1
10
313.263542
20
236.403988
11
310.847873
21
234.936844
0
LINE
8
Layer 1
10
310.847873
20
234.936844
11
308.592297
21
233.250667
0
LINE
8
Layer 1
10
308.592297
20
233.250667
11
306.511535
21
231.360175
0
LINE
8
Layer 1
10
306.511535
20
231.360175
11
304.620310
21
229.280085
0
LINE
8
Layer 1
10
304.620310
20
229.280085
11
302.933344
21
227.025116
0
LINE
8
Layer 1
10
302.933344
20
227.025116
11
301.465358
21
224.609983
0
LINE
8
Layer 1
10
301.465358
20
224.609983
11
300.231076
21
222.049406
0
LINE
8
Layer 1
10
300.231076
20
222.049406
11
299.245217
21
219.358102
0
LINE
8
Layer 1
10
299.245217
20
219.358102
11
298.522506
21
216.550787
0
LINE
8
Layer 1
10
298.522506
20
216.550787
11
298.077663
21
213.642181
0
LINE
8
Layer 1
10
298.077663
20
213.642181
11
297.925410
21
210.647000
0
LINE
8
Layer 1
10
297.925410
20
210.647000
11
298.077729
21
207.651819
0
LINE
8
Layer 1
10
298.077729
20
207.651819
11
298.522621
21
204.743212
0
LINE
8
Layer 1
10
298.522621
20
204.743212
11
299.245366
21
201.935898
0
LINE
8
Layer 1
10
299.245366
20
201.935898
11
300.231244
21
199.244594
0
LINE
8
Layer 1
10
300.231244
20
199.244594
11
301.465536
21
196.684017
0
LINE
8
Layer 1
10
301.465536
20
196.684017
11
302.933520
21
194.268884
0
LINE
8
Layer 1
10
302.933520
20
194.268884
11
304.620476
21
192.013915
0
LINE
8
Layer 1
10
304.620476
20
192.013915
11
306.511685
21
189.933825
0
LINE
8
Layer 1
10
306.511685
20
189.933825
11
308.592426
21
188.043333
0
LINE
8
Layer 1
10
308.592426
20
188.043333
11
310.847978
21
186.357156
0
LINE
8
Layer 1
10
310.847978
20
186.357156
11
313.263623
21
184.890012
0
LINE
8
Layer 1
10
313.263623
20
184.890012
11
315.824638
21
183.656619
0
LINE
8
Layer 1
10
315.824638
20
183.656619
11
318.516305
21
182.671693
0
LINE
8
Layer 1
10
318.516305
20
182.671693
11
321.323903
21
181.949953
0
LINE
8
Layer 1
10
321.323903
20
181.949953
11
324.232711
21
181.506116
0
LINE
8
Layer 1
10
324.232711
20
181.506116
11
327.228010
21
181.354900
0
LINE
8
Layer 1
10
327.228010
20
181.354900
11
330.223314
21
181.506116
0
LINE
8
Layer 1
10
330.223314
20
181.506116
11
333.132138
21
181.949953
0
LINE
8
Layer 1
10
333.132138
20
181.949953
11
335.939758
21
182.671693
0
LINE
8
Layer 1
10
335.939758
20
182.671693
11
338.631452
21
183.656619
0
LINE
8
Layer 1
10
338.631452
20
183.656619
11
341.192498
21
184.890012
0
LINE
8
Layer 1
10
341.192498
20
184.890012
11
343.608173
21
186.357156
0
LINE
8
Layer 1
10
343.608173
20
186.357156
11
345.863756
21
188.043333
0
LINE
8
Layer 1
10
345.863756
20
188.043333
11
347.944522
21
189.933825
0
LINE
8
Layer 1
10
347.944522
20
189.933825
11
349.835751
21
192.013915
0
LINE
8
Layer 1
10
349.835751
20
192.013915
11
351.522720
21
194.268884
0
LINE
8
Layer 1
10
351.522720
20
194.268884
11
352.990706
21
196.684017
0
LINE
8
Layer 1
10
352.990706
20
196.684017
11
354.224987
21
199.244594
0
LINE
8
Layer 1
10
354.224987
20
199.244594
11
355.210840
21
201.935898
0
LINE
8
Layer 1
10
355.210840
20
201.935898
11
355.933543
21
204.743212
0
LINE
8
Layer 1
10
355.933543
20
204.743212
11
356.378374
21
207.651819
0
LINE
8
Layer 1
10
356.378374
20
207.651819
11
356.530610
21
210.647000
0
LINE
8
Layer 1
10
356.530610
20
210.647000
11
356.530610
21
210.647000
0
LINE
8
Layer 1
10
463.040000
20
211.206000
11
462.861851
21
214.701961
0
LINE
8
Layer 1
10
462.861851
20
214.701961
11
462.342235
21
218.096820
0
LINE
8
Layer 1
10
462.342235
20
218.096820
11
461.498335
21
221.373405
0
LINE
8
Layer 1
10
461.498335
20
221.373405
11
460.347333
21
224.514544
0
LINE
8
Layer 1
10
460.347333
20
224.514544
11
458.906412
21
227.503065
0
LINE
8
Layer 1
10
458.906412
20
227.503065
11
457.192754
21
230.321796
0
LINE
8
Layer 1
10
457.192754
20
230.321796
11
455.223544
21
232.953565
0
LINE
8
Layer 1
10
455.223544
20
232.953565
11
453.015963
21
235.381200
0
LINE
8
Layer 1
10
453.015963
20
235.381200
11
450.587193
21
237.587529
0
LINE
8
Layer 1
10
450.587193
20
237.587529
11
447.954419
21
239.555379
0
LINE
8
Layer 1
10
447.954419
20
239.555379
11
445.134822
21
241.267579
0
LINE
8
Layer 1
10
445.134822
20
241.267579
11
442.145586
21
242.706956
0
LINE
8
Layer 1
10
442.145586
20
242.706956
11
439.003893
21
243.856339
0
LINE
8
Layer 1
10
439.003893
20
243.856339
11
435.726926
21
244.698555
0
LINE
8
Layer 1
10
435.726926
20
244.698555
11
432.331867
21
245.216433
0
LINE
8
Layer 1
10
432.331867
20
245.216433
11
428.835900
21
245.392800
0
LINE
8
Layer 1
10
428.835900
20
245.392800
11
425.339948
21
245.216211
0
LINE
8
Layer 1
10
425.339948
20
245.216211
11
421.944932
21
244.698121
0
LINE
8
Layer 1
10
421.944932
20
244.698121
11
418.668033
21
243.855705
0
LINE
8
Layer 1
10
418.668033
20
243.855705
11
415.526431
21
242.706141
0
LINE
8
Layer 1
10
415.526431
20
242.706141
11
412.537307
21
241.266604
0
LINE
8
Layer 1
10
412.537307
20
241.266604
11
409.717840
21
239.554271
0
LINE
8
Layer 1
10
409.717840
20
239.554271
11
407.085211
21
237.586320
0
LINE
8
Layer 1
10
407.085211
20
237.586320
11
404.656600
21
235.379925
0
LINE
8
Layer 1
10
404.656600
20
235.379925
11
402.449188
21
232.952264
0
LINE
8
Layer 1
10
402.449188
20
232.952264
11
400.480154
21
230.320513
0
LINE
8
Layer 1
10
400.480154
20
230.320513
11
398.766679
21
227.501848
0
LINE
8
Layer 1
10
398.766679
20
227.501848
11
397.325944
21
224.513447
0
LINE
8
Layer 1
10
397.325944
20
224.513447
11
396.175128
21
221.372485
0
LINE
8
Layer 1
10
396.175128
20
221.372485
11
395.331412
21
218.096139
0
LINE
8
Layer 1
10
395.331412
20
218.096139
11
394.811976
21
214.701585
0
LINE
8
Layer 1
10
394.811976
20
214.701585
11
394.634000
21
211.206000
0
LINE
8
Layer 1
10
394.634000
20
211.206000
11
394.812149
21
207.710039
0
LINE
8
Layer 1
10
394.812149
20
207.710039
11
395.331764
21
204.315180
0
LINE
8
Layer 1
10
395.331764
20
204.315180
11
396.175664
21
201.038595
0
LINE
8
Layer 1
10
396.175664
20
201.038595
11
397.326666
21
197.897456
0
LINE
8
Layer 1
10
397.326666
20
197.897456
11
398.767585
21
194.908935
0
LINE
8
Layer 1
10
398.767585
20
194.908935
11
400.481240
21
192.090204
0
LINE
8
Layer 1
10
400.481240
20
192.090204
11
402.450448
21
189.458435
0
LINE
8
Layer 1
10
402.450448
20
189.458435
11
404.658025
21
187.030800
0
LINE
8
Layer 1
10
404.658025
20
187.030800
11
407.086789
21
184.824471
0
LINE
8
Layer 1
10
407.086789
20
184.824471
11
409.719557
21
182.856621
0
LINE
8
Layer 1
10
409.719557
20
182.856621
11
412.539145
21
181.144421
0
LINE
8
Layer 1
10
412.539145
20
181.144421
11
415.528372
21
179.705044
0
LINE
8
Layer 1
10
415.528372
20
179.705044
11
418.670054
21
178.555661
0
LINE
8
Layer 1
10
418.670054
20
178.555661
11
421.947007
21
177.713445
0
LINE
8
Layer 1
10
421.947007
20
177.713445
11
425.342051
21
177.195567
0
LINE
8
Layer 1
10
425.342051
20
177.195567
11
428.838000
21
177.019200
0
LINE
8
Layer 1
10
428.838000
20
177.019200
11
432.333953
21
177.195784
0
LINE
8
Layer 1
10
432.333953
20
177.195784
11
435.728972
21
177.713869
0
LINE
8
Layer 1
10
435.728972
20
177.713869
11
439.005875
21
178.556279
0
LINE
8
Layer 1
10
439.005875
20
178.556279
11
442.147483
21
179.705837
0
LINE
8
Layer 1
10
442.147483
20
179.705837
11
445.136613
21
181.145367
0
LINE
8
Layer 1
10
445.136613
20
181.145367
11
447.956087
21
182.857693
0
LINE
8
Layer 1
10
447.956087
20
182.857693
11
450.588721
21
184.825640
0
LINE
8
Layer 1
10
450.588721
20
184.825640
11
453.017338
21
187.032030
0
LINE
8
Layer 1
10
453.017338
20
187.032030
11
455.224754
21
189.459688
0
LINE
8
Layer 1
10
455.224754
20
189.459688
11
457.193790
21
192.091438
0
LINE
8
Layer 1
10
457.193790
20
192.091438
11
458.907265
21
194.910103
0
LINE
8
Layer 1
10
458.907265
20
194.910103
11
460.347998
21
197.898508
0
LINE
8
Layer 1
10
460.347998
20
197.898508
11
461.498809
21
201.039476
0
LINE
8
Layer 1
10
461.498809
20
201.039476
11
462.342517
21
204.315832
0
LINE
8
Layer 1
10
462.342517
20
204.315832
11
462.861941
21
207.710398
0
LINE
8
Layer 1
10
462.861941
20
207.710398
11
463.039900
21
211.206000
0
LINE
8
Layer 1
10
463.039900
20
211.206000
11
463.040000
21
211.206000
0
LINE
8
Layer 1
10
458.139610
20
211.206000
11
457.987291
21
214.201181
0
LINE
8
Layer 1
10
457.987291
20
214.201181
11
457.542399
21
217.109787
0
LINE
8
Layer 1
10
457.542399
20
217.109787
11
456.819654
21
219.917102
0
LINE
8
Layer 1
10
456.819654
20
219.917102
11
455.833776
21
222.608406
0
LINE
8
Layer 1
10
455.833776
20
222.608406
11
454.599484
21
225.168983
0
LINE
8
Layer 1
10
454.599484
20
225.168983
11
453.131500
21
227.584116
0
LINE
8
Layer 1
10
453.131500
20
227.584116
11
451.444544
21
229.839085
0
LINE
8
Layer 1
10
451.444544
20
229.839085
11
449.553335
21
231.919175
0
LINE
8
Layer 1
10
449.553335
20
231.919175
11
447.472594
21
233.809667
0
LINE
8
Layer 1
10
447.472594
20
233.809667
11
445.217042
21
235.495844
0
LINE
8
Layer 1
10
445.217042
20
235.495844
11
442.801397
21
236.962988
0
LINE
8
Layer 1
10
442.801397
20
236.962988
11
440.240382
21
238.196381
0
LINE
8
Layer 1
10
440.240382
20
238.196381
11
437.548715
21
239.181307
0
LINE
8
Layer 1
10
437.548715
20
239.181307
11
434.741117
21
239.903047
0
LINE
8
Layer 1
10
434.741117
20
239.903047
11
431.832309
21
240.346884
0
LINE
8
Layer 1
10
431.832309
20
240.346884
11
428.837010
21
240.498100
0
LINE
8
Layer 1
10
428.837010
20
240.498100
11
425.841707
21
240.346884
0
LINE
8
Layer 1
10
425.841707
20
240.346884
11
422.932886
21
239.903047
0
LINE
8
Layer 1
10
422.932886
20
239.903047
11
420.125271
21
239.181307
0
LINE
8
Layer 1
10
420.125271
20
239.181307
11
417.433582
21
238.196381
0
LINE
8
Layer 1
10
417.433582
20
238.196381
11
414.872542
21
236.962988
0
LINE
8
Layer 1
10
414.872542
20
236.962988
11
412.456873
21
235.495844
0
LINE
8
Layer 1
10
412.456873
20
235.495844
11
410.201297
21
233.809667
0
LINE
8
Layer 1
10
410.201297
20
233.809667
11
408.120535
21
231.919175
0
LINE
8
Layer 1
10
408.120535
20
231.919175
11
406.229310
21
229.839085
0
LINE
8
Layer 1
10
406.229310
20
229.839085
11
404.542344
21
227.584116
0
LINE
8
Layer 1
10
404.542344
20
227.584116
11
403.074358
21
225.168983
0
LINE
8
Layer 1
10
403.074358
20
225.168983
11
401.840076
21
222.608406
0
LINE
8
Layer 1
10
401.840076
20
222.608406
11
400.854217
21
219.917102
0
LINE
8
Layer 1
10
400.854217
20
219.917102
11
400.131506
21
217.109787
0
LINE
8
Layer 1
10
400.131506
20
217.109787
11
399.686663
21
214.201181
0
LINE
8
Layer 1
10
399.686663
20
214.201181
11
399.534410
21
211.206000
0
LINE
8
Layer 1
10
399.534410
20
211.206000
11
399.686729
21
208.210819
0
LINE
8
Layer 1
10
399.686729
20
208.210819
11
400.131621
21
205.302212
0
LINE
8
Layer 1
10
400.131621
20
205.302212
11
400.854366
21
202.494898
0
LINE
8
Layer 1
10
400.854366
20
202.494898
11
401.840244
21
199.803594
0
LINE
8
Layer 1
10
401.840244
20
199.803594
11
403.074536
21
197.243017
0
LINE
8
Layer 1
10
403.074536
20
197.243017
11
404.542520
21
194.827884
0
LINE
8
Layer 1
10
404.542520
20
194.827884
11
406.229476
21
192.572915
0
LINE
8
Layer 1
10
406.229476
20
192.572915
11
408.120685
21
190.492825
0
LINE
8
Layer 1
10
408.120685
20
190.492825
11
410.201426
21
188.602333
0
LINE
8
Layer 1
10
410.201426
20
188.602333
11
412.456978
21
186.916156
0
LINE
8
Layer 1
10
412.456978
20
186.916156
11
414.872623
21
185.449012
0
LINE
8
Layer 1
10
414.872623
20
185.449012
11
417.433638
21
184.215619
0
LINE
8
Layer 1
10
417.433638
20
184.215619
11
420.125305
21
183.230693
0
LINE
8
Layer 1
10
420.125305
20
183.230693
11
422.932903
21
182.508953
0
LINE
8
Layer 1
10
422.932903
20
182.508953
11
425.841711
21
182.065116
0
LINE
8
Layer 1
10
425.841711
20
182.065116
11
428.837010
21
181.913900
0
LINE
8
Layer 1
10
428.837010
20
181.913900
11
431.832314
21
182.065116
0
LINE
8
Layer 1
10
431.832314
20
182.065116
11
434.741138
21
182.508953
0
LINE
8
Layer 1
10
434.741138
20
182.508953
11
437.548758
21
183.230693
0
LINE
8
Layer 1
10
437.548758
20
183.230693
11
440.240452
21
184.215619
0
LINE
8
Layer 1
10
440.240452
20
184.215619
11
442.801498
21
185.449012
0
LINE
8
Layer 1
10
442.801498
20
185.449012
11
445.217173
21
186.916156
0
LINE
8
Layer 1
10
445.217173
20
186.916156
11
447.472756
21
188.602333
0
LINE
8
Layer 1
10
447.472756
20
188.602333
11
449.553522
21
190.492825
0
LINE
8
Layer 1
10
449.553522
20
190.492825
11
451.444751
21
192.572915
0
LINE
8
Layer 1
10
451.444751
20
192.572915
11
453.131720
21
194.827884
0
LINE
8
Layer 1
10
453.131720
20
194.827884
11
454.599706
21
197.243017
0
LINE
8
Layer 1
10
454.599706
20
197.243017
11
455.833987
21
199.803594
0
LINE
8
Layer 1
10
455.833987
20
199.803594
11
456.819840
21
202.494898
0
LINE
8
Layer 1
10
456.819840
20
202.494898
11
457.542543
21
205.302212
0
LINE
8
Layer 1
10
457.542543
20
205.302212
11
457.987374
21
208.210819
0
LINE
8
Layer 1
10
457.987374
20
208.210819
11
458.139610
21
211.206000
0
LINE
8
Layer 1
10
458.139610
20
211.206000
11
458.139610
21
211.206000
0
LINE
8
Layer 1
10
294.209000
20
98.126200
11
294.317712
21
93.907028
0
LINE
8
Layer 1
10
294.317712
20
93.907028
11
294.636271
21
89.743299
0
LINE
8
Layer 1
10
294.636271
20
89.743299
11
295.159528
21
85.640161
0
LINE
8
Layer 1
10
295.159528
20
85.640161
11
295.882332
21
81.602761
0
LINE
8
Layer 1
10
295.882332
20
81.602761
11
296.799535
21
77.636248
0
LINE
8
Layer 1
10
296.799535
20
77.636248
11
297.905985
21
73.745768
0
LINE
8
Layer 1
10
297.905985
20
73.745768
11
299.196535
21
69.936470
0
LINE
8
Layer 1
10
299.196535
20
69.936470
11
300.666033
21
66.213502
0
LINE
8
Layer 1
10
300.666033
20
66.213502
11
302.309330
21
62.582009
0
LINE
8
Layer 1
10
302.309330
20
62.582009
11
304.121277
21
59.047142
0
LINE
8
Layer 1
10
304.121277
20
59.047142
11
306.096724
21
55.614046
0
LINE
8
Layer 1
10
306.096724
20
55.614046
11
308.230520
21
52.287869
0
LINE
8
Layer 1
10
308.230520
20
52.287869
11
310.517517
21
49.073760
0
LINE
8
Layer 1
10
310.517517
20
49.073760
11
312.952565
21
45.976866
0
LINE
8
Layer 1
10
312.952565
20
45.976866
11
315.530513
21
43.002334
0
LINE
8
Layer 1
10
315.530513
20
43.002334
11
318.246213
21
40.155312
0
LINE
8
Layer 1
10
318.246213
20
40.155312
11
321.094514
21
37.440949
0
LINE
8
Layer 1
10
321.094514
20
37.440949
11
324.070266
21
34.864390
0
LINE
8
Layer 1
10
324.070266
20
34.864390
11
327.168321
21
32.430784
0
LINE
8
Layer 1
10
327.168321
20
32.430784
11
330.383528
21
30.145279
0
LINE
8
Layer 1
10
330.383528
20
30.145279
11
333.710738
21
28.013022
0
LINE
8
Layer 1
10
333.710738
20
28.013022
11
337.144801
21
26.039161
0
LINE
8
Layer 1
10
337.144801
20
26.039161
11
340.680567
21
24.228844
0
LINE
8
Layer 1
10
340.680567
20
24.228844
11
344.312886
21
22.587217
0
LINE
8
Layer 1
10
344.312886
20
22.587217
11
348.036609
21
21.119429
0
LINE
8
Layer 1
10
348.036609
20
21.119429
11
351.846586
21
19.830628
0
LINE
8
Layer 1
10
351.846586
20
19.830628
11
355.737668
21
18.725961
0
LINE
8
Layer 1
10
355.737668
20
18.725961
11
359.704704
21
17.810575
0
LINE
8
Layer 1
10
359.704704
20
17.810575
11
363.742545
21
17.089618
0
LINE
8
Layer 1
10
363.742545
20
17.089618
11
367.846041
21
16.568238
0
LINE
8
Layer 1
10
367.846041
20
16.568238
11
372.010043
21
16.251583
0
LINE
8
Layer 1
10
372.010043
20
16.251583
11
376.229400
21
16.144800
0
LINE
8
Layer 1
10
376.229400
20
16.144800
11
380.448764
21
16.251358
0
LINE
8
Layer 1
10
380.448764
20
16.251358
11
384.612784
21
16.567788
0
LINE
8
Layer 1
10
384.612784
20
16.567788
11
388.716312
21
17.088944
0
LINE
8
Layer 1
10
388.716312
20
17.088944
11
392.754196
21
17.809680
0
LINE
8
Layer 1
10
392.754196
20
17.809680
11
396.721287
21
18.724850
0
LINE
8
Layer 1
10
396.721287
20
18.724850
11
400.612435
21
19.829308
0
LINE
8
Layer 1
10
400.612435
20
19.829308
11
404.422489
21
21.117906
0
LINE
8
Layer 1
10
404.422489
20
21.117906
11
408.146300
21
22.585500
0
LINE
8
Layer 1
10
408.146300
20
22.585500
11
411.778718
21
24.226942
0
LINE
8
Layer 1
10
411.778718
20
24.226942
11
415.314592
21
26.037088
0
LINE
8
Layer 1
10
415.314592
20
26.037088
11
418.748773
21
28.010789
0
LINE
8
Layer 1
10
418.748773
20
28.010789
11
422.076110
21
30.142901
0
LINE
8
Layer 1
10
422.076110
20
30.142901
11
425.291454
21
32.428276
0
LINE
8
Layer 1
10
425.291454
20
32.428276
11
428.389655
21
34.861770
0
LINE
8
Layer 1
10
428.389655
20
34.861770
11
431.365562
21
37.438235
0
LINE
8
Layer 1
10
431.365562
20
37.438235
11
434.214025
21
40.152525
0
LINE
8
Layer 1
10
434.214025
20
40.152525
11
436.929895
21
42.999494
0
LINE
8
Layer 1
10
436.929895
20
42.999494
11
439.508021
21
45.973997
0
LINE
8
Layer 1
10
439.508021
20
45.973997
11
441.943254
21
49.070885
0
LINE
8
Layer 1
10
441.943254
20
49.070885
11
444.230443
21
52.285015
0
LINE
8
Layer 1
10
444.230443
20
52.285015
11
446.364438
21
55.611238
0
LINE
8
Layer 1
10
446.364438
20
55.611238
11
448.340090
21
59.044410
0
LINE
8
Layer 1
10
448.340090
20
59.044410
11
450.152248
21
62.579383
0
LINE
8
Layer 1
10
450.152248
20
62.579383
11
451.795763
21
66.211013
0
LINE
8
Layer 1
10
451.795763
20
66.211013
11
453.265483
21
69.934151
0
LINE
8
Layer 1
10
453.265483
20
69.934151
11
454.556260
21
73.743652
0
LINE
8
Layer 1
10
454.556260
20
73.743652
11
455.662943
21
77.634371
0
LINE
8
Layer 1
10
455.662943
20
77.634371
11
456.580382
21
81.601160
0
LINE
8
Layer 1
10
456.580382
20
81.601160
11
457.303427
21
85.638874
0
LINE
8
Layer 1
10
457.303427
20
85.638874
11
457.826929
21
89.742366
0
LINE
8
Layer 1
10
457.826929
20
89.742366
11
458.145736
21
93.906490
0
LINE
8
Layer 1
10
458.145736
20
93.906490
11
458.254700
21
98.126100
0
LINE
8
Layer 1
10
458.254700
20
98.126100
11
458.145974
21
102.346112
0
LINE
8
Layer 1
10
458.145974
20
102.346112
11
457.827375
21
106.510634
0
LINE
8
Layer 1
10
457.827375
20
106.510634
11
457.304053
21
110.614520
0
LINE
8
Layer 1
10
457.304053
20
110.614520
11
456.581160
21
114.652623
0
LINE
8
Layer 1
10
456.581160
20
114.652623
11
455.663845
21
118.619794
0
LINE
8
Layer 1
10
455.663845
20
118.619794
11
454.557260
21
122.510888
0
LINE
8
Layer 1
10
454.557260
20
122.510888
11
453.266557
21
126.320756
0
LINE
8
Layer 1
10
453.266557
20
126.320756
11
451.796884
21
130.044252
0
LINE
8
Layer 1
10
451.796884
20
130.044252
11
450.153395
21
133.676227
0
LINE
8
Layer 1
10
450.153395
20
133.676227
11
448.341238
21
137.211536
0
LINE
8
Layer 1
10
448.341238
20
137.211536
11
446.365566
21
140.645031
0
LINE
8
Layer 1
10
446.365566
20
140.645031
11
444.231529
21
143.971564
0
LINE
8
Layer 1
10
444.231529
20
143.971564
11
441.944278
21
147.185988
0
LINE
8
Layer 1
10
441.944278
20
147.185988
11
439.508964
21
150.283157
0
LINE
8
Layer 1
10
439.508964
20
150.283157
11
436.930738
21
153.257922
0
LINE
8
Layer 1
10
436.930738
20
153.257922
11
434.214750
21
156.105138
0
LINE
8
Layer 1
10
434.214750
20
156.105138
11
431.366152
21
158.819655
0
LINE
8
Layer 1
10
431.366152
20
158.819655
11
428.390094
21
161.396328
0
LINE
8
Layer 1
10
428.390094
20
161.396328
11
425.291727
21
163.830009
0
LINE
8
Layer 1
10
425.291727
20
163.830009
11
422.076202
21
166.115550
0
LINE
8
Layer 1
10
422.076202
20
166.115550
11
418.748670
21
168.247805
0
LINE
8
Layer 1
10
418.748670
20
168.247805
11
415.314282
21
170.221627
0
LINE
8
Layer 1
10
415.314282
20
170.221627
11
411.778189
21
172.031867
0
LINE
8
Layer 1
10
411.778189
20
172.031867
11
408.145541
21
173.673380
0
LINE
8
Layer 1
10
408.145541
20
173.673380
11
404.421489
21
175.141017
0
LINE
8
Layer 1
10
404.421489
20
175.141017
11
400.611185
21
176.429631
0
LINE
8
Layer 1
10
400.611185
20
176.429631
11
396.719779
21
177.534076
0
LINE
8
Layer 1
10
396.719779
20
177.534076
11
392.752421
21
178.449204
0
LINE
8
Layer 1
10
392.752421
20
178.449204
11
388.714264
21
179.169867
0
LINE
8
Layer 1
10
388.714264
20
179.169867
11
384.610458
21
179.690919
0
LINE
8
Layer 1
10
384.610458
20
179.690919
11
380.446153
21
180.007213
0
LINE
8
Layer 1
10
380.446153
20
180.007213
11
376.226500
21
180.113600
0
LINE
8
Layer 1
10
376.226500
20
180.113600
11
372.006870
21
180.006654
0
LINE
8
Layer 1
10
372.006870
20
180.006654
11
367.842614
21
179.689813
0
LINE
8
Layer 1
10
367.842614
20
179.689813
11
363.738882
21
179.168226
0
LINE
8
Layer 1
10
363.738882
20
179.168226
11
359.700825
21
178.447042
0
LINE
8
Layer 1
10
359.700825
20
178.447042
11
355.733592
21
177.531413
0
LINE
8
Layer 1
10
355.733592
20
177.531413
11
351.842334
21
176.426487
0
LINE
8
Layer 1
10
351.842334
20
176.426487
11
348.032201
21
175.137415
0
LINE
8
Layer 1
10
348.032201
20
175.137415
11
344.308344
21
173.669345
0
LINE
8
Layer 1
10
344.308344
20
173.669345
11
340.675912
21
172.027429
0
LINE
8
Layer 1
10
340.675912
20
172.027429
11
337.140056
21
170.216816
0
LINE
8
Layer 1
10
337.140056
20
170.216816
11
333.705926
21
168.242655
0
LINE
8
Layer 1
10
333.705926
20
168.242655
11
330.378672
21
166.110097
0
LINE
8
Layer 1
10
330.378672
20
166.110097
11
327.163445
21
163.824292
0
LINE
8
Layer 1
10
327.163445
20
163.824292
11
324.065394
21
161.390388
0
LINE
8
Layer 1
10
324.065394
20
161.390388
11
321.089671
21
158.813537
0
LINE
8
Layer 1
10
321.089671
20
158.813537
11
318.241425
21
156.098888
0
LINE
8
Layer 1
10
318.241425
20
156.098888
11
315.525807
21
153.251590
0
LINE
8
Layer 1
10
315.525807
20
153.251590
11
312.947966
21
150.276793
0
LINE
8
Layer 1
10
312.947966
20
150.276793
11
310.513053
21
147.179648
0
LINE
8
Layer 1
10
310.513053
20
147.179648
11
308.226219
21
143.965304
0
LINE
8
Layer 1
10
308.226219
20
143.965304
11
306.092613
21
140.638911
0
LINE
8
Layer 1
10
306.092613
20
140.638911
11
304.117386
21
137.205619
0
LINE
8
Layer 1
10
304.117386
20
137.205619
11
302.305688
21
133.670577
0
LINE
8
Layer 1
10
302.305688
20
133.670577
11
300.662669
21
130.038936
0
LINE
8
Layer 1
10
300.662669
20
130.038936
11
299.193479
21
126.315845
0
LINE
8
Layer 1
10
299.193479
20
126.315845
11
297.903270
21
122.506454
0
LINE
8
Layer 1
10
297.903270
20
122.506454
11
296.797190
21
118.615913
0
LINE
8
Layer 1
10
296.797190
20
118.615913
11
295.880391
21
114.649372
0
LINE
8
Layer 1
10
295.880391
20
114.649372
11
295.158022
21
110.611980
0
LINE
8
Layer 1
10
295.158022
20
110.611980
11
294.635233
21
106.508887
0
LINE
8
Layer 1
10
294.635233
20
106.508887
11
294.317176
21
102.345244
0
LINE
8
Layer 1
10
294.317176
20
102.345244
11
294.209000
21
98.126200
0
LINE
8
Layer 1
10
294.209000
20
98.126200
11
294.209000
21
98.126200
0
LINE
8
Layer 1
10
302.584820
20
98.126190
11
302.680649
21
94.336326
0
LINE
8
Layer 1
10
302.680649
20
94.336326
11
302.965051
21
90.596215
0
LINE
8
Layer 1
10
302.965051
20
90.596215
11
303.433399
21
86.910482
0
LINE
8
Layer 1
10
303.433399
20
86.910482
11
304.081066
21
83.283755
0
LINE
8
Layer 1
10
304.081066
20
83.283755
11
304.903423
21
79.720662
0
LINE
8
Layer 1
10
304.903423
20
79.720662
11
305.895845
21
76.225831
0
LINE
8
Layer 1
10
305.895845
20
76.225831
11
307.053702
21
72.803887
0
LINE
8
Layer 1
10
307.053702
20
72.803887
11
308.372368
21
69.459460
0
LINE
8
Layer 1
10
308.372368
20
69.459460
11
309.847216
21
66.197176
0
LINE
8
Layer 1
10
309.847216
20
66.197176
11
311.473618
21
63.021663
0
LINE
8
Layer 1
10
311.473618
20
63.021663
11
313.246947
21
59.937548
0
LINE
8
Layer 1
10
313.246947
20
59.937548
11
315.162575
21
56.949459
0
LINE
8
Layer 1
10
315.162575
20
56.949459
11
317.215875
21
54.062022
0
LINE
8
Layer 1
10
317.215875
20
54.062022
11
319.402219
21
51.279865
0
LINE
8
Layer 1
10
319.402219
20
51.279865
11
321.716981
21
48.607616
0
LINE
8
Layer 1
10
321.716981
20
48.607616
11
324.155532
21
46.049902
0
LINE
8
Layer 1
10
324.155532
20
46.049902
11
326.713246
21
43.611351
0
LINE
8
Layer 1
10
326.713246
20
43.611351
11
329.385495
21
41.296589
0
LINE
8
Layer 1
10
329.385495
20
41.296589
11
332.167652
21
39.110245
0
LINE
8
Layer 1
10
332.167652
20
39.110245
11
335.055089
21
37.056945
0
LINE
8
Layer 1
10
335.055089
20
37.056945
11
338.043178
21
35.141317
0
LINE
8
Layer 1
10
338.043178
20
35.141317
11
341.127293
21
33.367988
0
LINE
8
Layer 1
10
341.127293
20
33.367988
11
344.302806
21
31.741586
0
LINE
8
Layer 1
10
344.302806
20
31.741586
11
347.565090
21
30.266738
0
LINE
8
Layer 1
10
347.565090
20
30.266738
11
350.909517
21
28.948072
0
LINE
8
Layer 1
10
350.909517
20
28.948072
11
354.331461
21
27.790215
0
LINE
8
Layer 1
10
354.331461
20
27.790215
11
357.826292
21
26.797793
0
LINE
8
Layer 1
10
357.826292
20
26.797793
11
361.389385
21
25.975436
0
LINE
8
Layer 1
10
361.389385
20
25.975436
11
365.016112
21
25.327769
0
LINE
8
Layer 1
10
365.016112
20
25.327769
11
368.701845
21
24.859421
0
LINE
8
Layer 1
10
368.701845
20
24.859421
11
372.441956
21
24.575019
0
LINE
8
Layer 1
10
372.441956
20
24.575019
11
376.231820
21
24.479190
0
LINE
8
Layer 1
10
376.231820
20
24.479190
11
380.021684
21
24.575019
0
LINE
8
Layer 1
10
380.021684
20
24.575019
11
383.761795
21
24.859421
0
LINE
8
Layer 1
10
383.761795
20
24.859421
11
387.447528
21
25.327769
0
LINE
8
Layer 1
10
387.447528
20
25.327769
11
391.074255
21
25.975436
0
LINE
8
Layer 1
10
391.074255
20
25.975436
11
394.637348
21
26.797793
0
LINE
8
Layer 1
10
394.637348
20
26.797793
11
398.132179
21
27.790215
0
LINE
8
Layer 1
10
398.132179
20
27.790215
11
401.554123
21
28.948072
0
LINE
8
Layer 1
10
401.554123
20
28.948072
11
404.898550
21
30.266738
0
LINE
8
Layer 1
10
404.898550
20
30.266738
11
408.160834
21
31.741586
0
LINE
8
Layer 1
10
408.160834
20
31.741586
11
411.336347
21
33.367988
0
LINE
8
Layer 1
10
411.336347
20
33.367988
11
414.420462
21
35.141317
0
LINE
8
Layer 1
10
414.420462
20
35.141317
11
417.408551
21
37.056945
0
LINE
8
Layer 1
10
417.408551
20
37.056945
11
420.295988
21
39.110245
0
LINE
8
Layer 1
10
420.295988
20
39.110245
11
423.078145
21
41.296589
0
LINE
8
Layer 1
10
423.078145
20
41.296589
11
425.750394
21
43.611351
0
LINE
8
Layer 1
10
425.750394
20
43.611351
11
428.308107
21
46.049902
0
LINE
8
Layer 1
10
428.308107
20
46.049902
11
430.746659
21
48.607616
0
LINE
8
Layer 1
10
430.746659
20
48.607616
11
433.061421
21
51.279865
0
LINE
8
Layer 1
10
433.061421
20
51.279865
11
435.247765
21
54.062022
0
LINE
8
Layer 1
10
435.247765
20
54.062022
11
437.301065
21
56.949459
0
LINE
8
Layer 1
10
437.301065
20
56.949459
11
439.216693
21
59.937548
0
LINE
8
Layer 1
10
439.216693
20
59.937548
11
440.990022
21
63.021663
0
LINE
8
Layer 1
10
440.990022
20
63.021663
11
442.616424
21
66.197176
0
LINE
8
Layer 1
10
442.616424
20
66.197176
11
444.091272
21
69.459460
0
LINE
8
Layer 1
10
444.091272
20
69.459460
11
445.409938
21
72.803887
0
LINE
8
Layer 1
10
445.409938
20
72.803887
11
446.567795
21
76.225831
0
LINE
8
Layer 1
10
446.567795
20
76.225831
11
447.560217
21
79.720662
0
LINE
8
Layer 1
10
447.560217
20
79.720662
11
448.382574
21
83.283755
0
LINE
8
Layer 1
10
448.382574
20
83.283755
11
449.030241
21
86.910482
0
LINE
8
Layer 1
10
449.030241
20
86.910482
11
449.498589
21
90.596215
0
LINE
8
Layer 1
10
449.498589
20
90.596215
11
449.782991
21
94.336326
0
LINE
8
Layer 1
10
449.782991
20
94.336326
11
449.878820
21
98.126190
0
LINE
8
Layer 1
10
449.878820
20
98.126190
11
449.782994
21
101.916054
0
LINE
8
Layer 1
10
449.782994
20
101.916054
11
449.498594
21
105.656165
0
LINE
8
Layer 1
10
449.498594
20
105.656165
11
449.030248
21
109.341898
0
LINE
8
Layer 1
10
449.030248
20
109.341898
11
448.382583
21
112.968625
0
LINE
8
Layer 1
10
448.382583
20
112.968625
11
447.560227
21
116.531718
0
LINE
8
Layer 1
10
447.560227
20
116.531718
11
446.567807
21
120.026549
0
LINE
8
Layer 1
10
446.567807
20
120.026549
11
445.409950
21
123.448493
0
LINE
8
Layer 1
10
445.409950
20
123.448493
11
444.091284
21
126.792920
0
LINE
8
Layer 1
10
444.091284
20
126.792920
11
442.616437
21
130.055204
0
LINE
8
Layer 1
10
442.616437
20
130.055204
11
440.990035
21
133.230717
0
LINE
8
Layer 1
10
440.990035
20
133.230717
11
439.216706
21
136.314832
0
LINE
8
Layer 1
10
439.216706
20
136.314832
11
437.301078
21
139.302921
0
LINE
8
Layer 1
10
437.301078
20
139.302921
11
435.247778
21
142.190358
0
LINE
8
Layer 1
10
435.247778
20
142.190358
11
433.061433
21
144.972515
0
LINE
8
Layer 1
10
433.061433
20
144.972515
11
430.746671
21
147.644764
0
LINE
8
Layer 1
10
430.746671
20
147.644764
11
428.308119
21
150.202477
0
LINE
8
Layer 1
10
428.308119
20
150.202477
11
425.750404
21
152.641029
0
LINE
8
Layer 1
10
425.750404
20
152.641029
11
423.078154
21
154.955791
0
LINE
8
Layer 1
10
423.078154
20
154.955791
11
420.295997
21
157.142135
0
LINE
8
Layer 1
10
420.295997
20
157.142135
11
417.408559
21
159.195435
0
LINE
8
Layer 1
10
417.408559
20
159.195435
11
414.420469
21
161.111063
0
LINE
8
Layer 1
10
414.420469
20
161.111063
11
411.336353
21
162.884392
0
LINE
8
Layer 1
10
411.336353
20
162.884392
11
408.160839
21
164.510794
0
LINE
8
Layer 1
10
408.160839
20
164.510794
11
404.898554
21
165.985642
0
LINE
8
Layer 1
10
404.898554
20
165.985642
11
401.554126
21
167.304308
0
LINE
8
Layer 1
10
401.554126
20
167.304308
11
398.132182
21
168.462165
0
LINE
8
Layer 1
10
398.132182
20
168.462165
11
394.637350
21
169.454587
0
LINE
8
Layer 1
10
394.637350
20
169.454587
11
391.074256
21
170.276944
0
LINE
8
Layer 1
10
391.074256
20
170.276944
11
387.447529
21
170.924611
0
LINE
8
Layer 1
10
387.447529
20
170.924611
11
383.761796
21
171.392959
0
LINE
8
Layer 1
10
383.761796
20
171.392959
11
380.021684
21
171.677361
0
LINE
8
Layer 1
10
380.021684
20
171.677361
11
376.231820
21
171.773190
0
LINE
8
Layer 1
10
376.231820
20
171.773190
11
372.441956
21
171.677363
0
LINE
8
Layer 1
10
372.441956
20
171.677363
11
368.701845
21
171.392962
0
LINE
8
Layer 1
10
368.701845
20
171.392962
11
365.016112
21
170.924615
0
LINE
8
Layer 1
10
365.016112
20
170.924615
11
361.389385
21
170.276950
0
LINE
8
Layer 1
10
361.389385
20
170.276950
11
357.826292
21
169.454593
0
LINE
8
Layer 1
10
357.826292
20
169.454593
11
354.331460
21
168.462173
0
LINE
8
Layer 1
10
354.331460
20
168.462173
11
350.909516
21
167.304316
0
LINE
8
Layer 1
10
350.909516
20
167.304316
11
347.565089
21
165.985650
0
LINE
8
Layer 1
10
347.565089
20
165.985650
11
344.302804
21
164.510802
0
LINE
8
Layer 1
10
344.302804
20
164.510802
11
341.127290
21
162.884401
0
LINE
8
Layer 1
10
341.127290
20
162.884401
11
338.043174
21
161.111072
0
LINE
8
Layer 1
10
338.043174
20
161.111072
11
335.055083
21
159.195444
0
LINE
8
Layer 1
10
335.055083
20
159.195444
11
332.167645
21
157.142144
0
LINE
8
Layer 1
10
332.167645
20
157.142144
11
329.385487
21
154.955799
0
LINE
8
Layer 1
10
329.385487
20
154.955799
11
326.713236
21
152.641037
0
LINE
8
Layer 1
10
326.713236
20
152.641037
11
324.155520
21
150.202485
0
LINE
8
Layer 1
10
324.155520
20
150.202485
11
321.716966
21
147.644771
0
LINE
8
Layer 1
10
321.716966
20
147.644771
11
319.402202
21
144.972521
0
LINE
8
Layer 1
10
319.402202
20
144.972521
11
317.215854
21
142.190364
0
LINE
8
Layer 1
10
317.215854
20
142.190364
11
315.162550
21
139.302927
0
LINE
8
Layer 1
10
315.162550
20
139.302927
11
313.246919
21
136.314836
0
LINE
8
Layer 1
10
313.246919
20
136.314836
11
311.473586
21
133.230721
0
LINE
8
Layer 1
10
311.473586
20
133.230721
11
309.847179
21
130.055207
0
LINE
8
Layer 1
10
309.847179
20
130.055207
11
308.372326
21
126.792922
0
LINE
8
Layer 1
10
308.372326
20
126.792922
11
307.053654
21
123.448495
0
LINE
8
Layer 1
10
307.053654
20
123.448495
11
305.895791
21
120.026551
0
LINE
8
Layer 1
10
305.895791
20
120.026551
11
304.903363
21
116.531719
0
LINE
8
Layer 1
10
304.903363
20
116.531719
11
304.080999
21
112.968626
0
LINE
8
Layer 1
10
304.080999
20
112.968626
11
303.433325
21
109.341899
0
LINE
8
Layer 1
10
303.433325
20
109.341899
11
302.964969
21
105.656166
0
LINE
8
Layer 1
10
302.964969
20
105.656166
11
302.680558
21
101.916054
0
LINE
8
Layer 1
10
302.680558
20
101.916054
11
302.584720
21
98.126190
0
LINE
8
Layer 1
10
302.584720
20
98.126190
11
302.584820
21
98.126190
 0 
ENDSEC
 0 
EOF