999
"DXF R12 Output" (www.mydxf.blogspot.com)
 0 
SECTION
 2 
HEADER
 9 
$ACADVER
 1 
AC1009
 9 
$EXTMIN
 10 
 0 
 20 
 0 
 9 
$EXTMAX
 10 
 8.5 
 20 
 11 
 0 
ENDSEC
 0 
SECTION
 2 
ENTITIES
0
LINE
8
Layer 1
10
195.736000
20
586.166000
11
194.557282
21
586.597056
0
LINE
8
Layer 1
10
194.557282
20
586.597056
11
193.348260
21
586.874617
0
LINE
8
Layer 1
10
193.348260
20
586.874617
11
192.123167
21
586.999859
0
LINE
8
Layer 1
10
192.123167
20
586.999859
11
190.896234
21
586.973959
0
LINE
8
Layer 1
10
190.896234
20
586.973959
11
189.681694
21
586.798094
0
LINE
8
Layer 1
10
189.681694
20
586.798094
11
188.493780
21
586.473441
0
LINE
8
Layer 1
10
188.493780
20
586.473441
11
187.346725
21
586.001177
0
LINE
8
Layer 1
10
187.346725
20
586.001177
11
186.254760
21
585.382479
0
LINE
8
Layer 1
10
186.254760
20
585.382479
11
185.248738
21
584.632073
0
LINE
8
Layer 1
10
185.248738
20
584.632073
11
184.354574
21
583.772276
0
LINE
8
Layer 1
10
184.354574
20
583.772276
11
183.579077
21
582.815643
0
LINE
8
Layer 1
10
183.579077
20
582.815643
11
182.929052
21
581.774727
0
LINE
8
Layer 1
10
182.929052
20
581.774727
11
182.411308
21
580.662081
0
LINE
8
Layer 1
10
182.411308
20
580.662081
11
182.032652
21
579.490261
0
LINE
8
Layer 1
10
182.032652
20
579.490261
11
181.799890
21
578.271819
0
LINE
8
Layer 1
10
181.799890
20
578.271819
11
181.719830
21
577.019309
0
LINE
8
Layer 1
10
181.719830
20
577.019309
11
181.829761
21
575.550725
0
LINE
8
Layer 1
10
181.829761
20
575.550725
11
182.147495
21
574.136736
0
LINE
8
Layer 1
10
182.147495
20
574.136736
11
182.660570
21
572.796380
0
LINE
8
Layer 1
10
182.660570
20
572.796380
11
183.356521
21
571.548699
0
LINE
8
Layer 1
10
183.356521
20
571.548699
11
184.222886
21
570.412732
0
LINE
8
Layer 1
10
184.222886
20
570.412732
11
185.247201
21
569.407520
0
LINE
8
Layer 1
10
185.247201
20
569.407520
11
186.417004
21
568.552102
0
LINE
8
Layer 1
10
186.417004
20
568.552102
11
187.719830
21
567.865519
0
LINE
8
Layer 1
10
187.719830
20
567.865519
11
189.739991
21
566.884445
0
LINE
8
Layer 1
10
189.739991
20
566.884445
11
191.651022
21
565.756666
0
LINE
8
Layer 1
10
191.651022
20
565.756666
11
193.447744
21
564.491149
0
LINE
8
Layer 1
10
193.447744
20
564.491149
11
195.124982
21
563.096863
0
LINE
8
Layer 1
10
195.124982
20
563.096863
11
196.677555
21
561.582774
0
LINE
8
Layer 1
10
196.677555
20
561.582774
11
198.100288
21
559.957850
0
LINE
8
Layer 1
10
198.100288
20
559.957850
11
199.388001
21
558.231058
0
LINE
8
Layer 1
10
199.388001
20
558.231058
11
200.535517
21
556.411367
0
LINE
8
Layer 1
10
200.535517
20
556.411367
11
201.537659
21
554.507742
0
LINE
8
Layer 1
10
201.537659
20
554.507742
11
202.389249
21
552.529152
0
LINE
8
Layer 1
10
202.389249
20
552.529152
11
203.085108
21
550.484564
0
LINE
8
Layer 1
10
203.085108
20
550.484564
11
203.620060
21
548.382946
0
LINE
8
Layer 1
10
203.620060
20
548.382946
11
203.988925
21
546.233265
0
LINE
8
Layer 1
10
203.988925
20
546.233265
11
204.186527
21
544.044489
0
LINE
8
Layer 1
10
204.186527
20
544.044489
11
204.207688
21
541.825584
0
LINE
8
Layer 1
10
204.207688
20
541.825584
11
204.047230
21
539.585519
0
LINE
8
Layer 1
10
204.047230
20
539.585519
11
203.990403
21
538.113930
0
LINE
8
Layer 1
10
203.990403
20
538.113930
11
204.146291
21
536.673102
0
LINE
8
Layer 1
10
204.146291
20
536.673102
11
204.504644
21
535.283361
0
LINE
8
Layer 1
10
204.504644
20
535.283361
11
205.055212
21
533.965037
0
LINE
8
Layer 1
10
205.055212
20
533.965037
11
205.787747
21
532.738457
0
LINE
8
Layer 1
10
205.787747
20
532.738457
11
206.691998
21
531.623950
0
LINE
8
Layer 1
10
206.691998
20
531.623950
11
207.757716
21
530.641845
0
LINE
8
Layer 1
10
207.757716
20
530.641845
11
208.974650
21
529.812469
0
LINE
8
Layer 1
10
208.974650
20
529.812469
11
210.099381
21
529.255548
0
LINE
8
Layer 1
10
210.099381
20
529.255548
11
211.270960
21
528.847904
0
LINE
8
Layer 1
10
211.270960
20
528.847904
11
212.475111
21
528.589919
0
LINE
8
Layer 1
10
212.475111
20
528.589919
11
213.697559
21
528.481974
0
LINE
8
Layer 1
10
213.697559
20
528.481974
11
214.924028
21
528.524452
0
LINE
8
Layer 1
10
214.924028
20
528.524452
11
216.140243
21
528.717732
0
LINE
8
Layer 1
10
216.140243
20
528.717732
11
217.331929
21
529.062198
0
LINE
8
Layer 1
10
217.331929
20
529.062198
11
218.484810
21
529.558231
0
LINE
8
Layer 1
10
218.484810
20
529.558231
11
219.566608
21
530.194553
0
LINE
8
Layer 1
10
219.566608
20
530.194553
11
220.549133
21
530.951801
0
LINE
8
Layer 1
10
220.549133
20
530.951801
11
221.424250
21
531.818239
0
LINE
8
Layer 1
10
221.424250
20
531.818239
11
222.183824
21
532.782130
0
LINE
8
Layer 1
10
222.183824
20
532.782130
11
222.819720
21
533.831735
0
LINE
8
Layer 1
10
222.819720
20
533.831735
11
223.323805
21
534.955319
0
LINE
8
Layer 1
10
223.323805
20
534.955319
11
223.687943
21
536.141143
0
LINE
8
Layer 1
10
223.687943
20
536.141143
11
223.904000
21
537.377471
0
LINE
8
Layer 1
10
223.904000
20
537.377471
11
224.174284
21
541.240389
0
LINE
8
Layer 1
10
224.174284
20
541.240389
11
224.132360
21
545.066591
0
LINE
8
Layer 1
10
224.132360
20
545.066591
11
223.787108
21
548.840697
0
LINE
8
Layer 1
10
223.787108
20
548.840697
11
223.147407
21
552.547329
0
LINE
8
Layer 1
10
223.147407
20
552.547329
11
222.222135
21
556.171107
0
LINE
8
Layer 1
10
222.222135
20
556.171107
11
221.020172
21
559.696654
0
LINE
8
Layer 1
10
221.020172
20
559.696654
11
219.550397
21
563.108589
0
LINE
8
Layer 1
10
219.550397
20
563.108589
11
217.821689
21
566.391534
0
LINE
8
Layer 1
10
217.821689
20
566.391534
11
215.842926
21
569.530109
0
LINE
8
Layer 1
10
215.842926
20
569.530109
11
213.622988
21
572.508937
0
LINE
8
Layer 1
10
213.622988
20
572.508937
11
211.170753
21
575.312637
0
LINE
8
Layer 1
10
211.170753
20
575.312637
11
208.495101
21
577.925832
0
LINE
8
Layer 1
10
208.495101
20
577.925832
11
205.604911
21
580.333142
0
LINE
8
Layer 1
10
205.604911
20
580.333142
11
202.509062
21
582.519187
0
LINE
8
Layer 1
10
202.509062
20
582.519187
11
199.216431
21
584.468590
0
LINE
8
Layer 1
10
199.216431
20
584.468590
11
195.735900
21
586.165971
0
LINE
8
Layer 1
10
149.371000
20
539.597000
11
149.205776
21
541.838329
0
LINE
8
Layer 1
10
149.205776
20
541.838329
11
149.222993
21
544.058656
0
LINE
8
Layer 1
10
149.222993
20
544.058656
11
149.417435
21
546.248944
0
LINE
8
Layer 1
10
149.417435
20
546.248944
11
149.783885
21
548.400159
0
LINE
8
Layer 1
10
149.783885
20
548.400159
11
150.317127
21
550.503265
0
LINE
8
Layer 1
10
150.317127
20
550.503265
11
151.011944
21
552.549227
0
LINE
8
Layer 1
10
151.011944
20
552.549227
11
151.863120
21
554.529009
0
LINE
8
Layer 1
10
151.863120
20
554.529009
11
152.865437
21
556.433575
0
LINE
8
Layer 1
10
152.865437
20
556.433575
11
154.013680
21
558.253891
0
LINE
8
Layer 1
10
154.013680
20
558.253891
11
155.302632
21
559.980920
0
LINE
8
Layer 1
10
155.302632
20
559.980920
11
156.727076
21
561.605628
0
LINE
8
Layer 1
10
156.727076
20
561.605628
11
158.281796
21
563.118978
0
LINE
8
Layer 1
10
158.281796
20
563.118978
11
159.961575
21
564.511936
0
LINE
8
Layer 1
10
159.961575
20
564.511936
11
161.761196
21
565.775466
0
LINE
8
Layer 1
10
161.761196
20
565.775466
11
163.675443
21
566.900532
0
LINE
8
Layer 1
10
163.675443
20
566.900532
11
165.699100
21
567.878100
0
LINE
8
Layer 1
10
165.699100
20
567.878100
11
167.004282
21
568.562278
0
LINE
8
Layer 1
10
167.004282
20
568.562278
11
168.176647
21
569.415781
0
LINE
8
Layer 1
10
168.176647
20
569.415781
11
169.203656
21
570.419559
0
LINE
8
Layer 1
10
169.203656
20
570.419559
11
170.072769
21
571.554558
0
LINE
8
Layer 1
10
170.072769
20
571.554558
11
170.771448
21
572.801725
0
LINE
8
Layer 1
10
170.771448
20
572.801725
11
171.287154
21
574.142010
0
LINE
8
Layer 1
10
171.287154
20
574.142010
11
171.607347
21
575.556359
0
LINE
8
Layer 1
10
171.607347
20
575.556359
11
171.719490
21
577.025720
0
LINE
8
Layer 1
10
171.719490
20
577.025720
11
171.637590
21
578.277569
0
LINE
8
Layer 1
10
171.637590
20
578.277569
11
171.403181
21
579.495165
0
LINE
8
Layer 1
10
171.403181
20
579.495165
11
171.023074
21
580.665978
0
LINE
8
Layer 1
10
171.023074
20
580.665978
11
170.504081
21
581.777480
0
LINE
8
Layer 1
10
170.504081
20
581.777480
11
169.853014
21
582.817141
0
LINE
8
Layer 1
10
169.853014
20
582.817141
11
169.076684
21
583.772432
0
LINE
8
Layer 1
10
169.076684
20
583.772432
11
168.181902
21
584.630825
0
LINE
8
Layer 1
10
168.181902
20
584.630825
11
167.175480
21
585.379790
0
LINE
8
Layer 1
10
167.175480
20
585.379790
11
166.083330
21
585.997066
0
LINE
8
Layer 1
10
166.083330
20
585.997066
11
164.936283
21
586.467976
0
LINE
8
Layer 1
10
164.936283
20
586.467976
11
163.748554
21
586.791358
0
LINE
8
Layer 1
10
163.748554
20
586.791358
11
162.534359
21
586.966050
0
LINE
8
Layer 1
10
162.534359
20
586.966050
11
161.307912
21
586.990891
0
LINE
8
Layer 1
10
161.307912
20
586.990891
11
160.083428
21
586.864717
0
LINE
8
Layer 1
10
160.083428
20
586.864717
11
158.875122
21
586.586368
0
LINE
8
Layer 1
10
158.875122
20
586.586368
11
157.697210
21
586.154681
0
LINE
8
Layer 1
10
157.697210
20
586.154681
11
154.220045
21
584.456240
0
LINE
8
Layer 1
10
154.220045
20
584.456240
11
150.930554
21
582.506298
0
LINE
8
Layer 1
10
150.930554
20
582.506298
11
147.837591
21
580.320194
0
LINE
8
Layer 1
10
147.837591
20
580.320194
11
144.950012
21
577.913265
0
LINE
8
Layer 1
10
144.950012
20
577.913265
11
142.276670
21
575.300847
0
LINE
8
Layer 1
10
142.276670
20
575.300847
11
139.826422
21
572.498278
0
LINE
8
Layer 1
10
139.826422
20
572.498278
11
137.608121
21
569.520895
0
LINE
8
Layer 1
10
137.608121
20
569.520895
11
135.630622
21
566.384036
0
LINE
8
Layer 1
10
135.630622
20
566.384036
11
133.902782
21
563.103038
0
LINE
8
Layer 1
10
133.902782
20
563.103038
11
132.433453
21
559.693237
0
LINE
8
Layer 1
10
132.433453
20
559.693237
11
131.231492
21
556.169972
0
LINE
8
Layer 1
10
131.231492
20
556.169972
11
130.305752
21
552.548580
0
LINE
8
Layer 1
10
130.305752
20
552.548580
11
129.665089
21
548.844397
0
LINE
8
Layer 1
10
129.665089
20
548.844397
11
129.318358
21
545.072762
0
LINE
8
Layer 1
10
129.318358
20
545.072762
11
129.274413
21
541.249010
0
LINE
8
Layer 1
10
129.274413
20
541.249010
11
129.542110
21
537.388481
0
LINE
8
Layer 1
10
129.542110
20
537.388481
11
129.757209
21
536.152535
0
LINE
8
Layer 1
10
129.757209
20
536.152535
11
130.120302
21
534.966937
0
LINE
8
Layer 1
10
130.120302
20
534.966937
11
130.623274
21
533.843416
0
LINE
8
Layer 1
10
130.623274
20
533.843416
11
131.258011
21
532.793702
0
LINE
8
Layer 1
10
131.258011
20
532.793702
11
132.016400
21
531.829524
0
LINE
8
Layer 1
10
132.016400
20
531.829524
11
132.890325
21
530.962612
0
LINE
8
Layer 1
10
132.890325
20
530.962612
11
133.871673
21
530.204694
0
LINE
8
Layer 1
10
133.871673
20
530.204694
11
134.952330
21
529.567501
0
LINE
8
Layer 1
10
134.952330
20
529.567501
11
136.104161
21
529.070396
0
LINE
8
Layer 1
10
136.104161
20
529.070396
11
137.294943
21
528.724683
0
LINE
8
Layer 1
10
137.294943
20
528.724683
11
138.510419
21
528.529999
0
LINE
8
Layer 1
10
138.510419
20
528.529999
11
139.736330
21
528.485981
0
LINE
8
Layer 1
10
139.736330
20
528.485981
11
140.958418
21
528.592266
0
LINE
8
Layer 1
10
140.958418
20
528.592266
11
142.162424
21
528.848493
0
LINE
8
Layer 1
10
142.162424
20
528.848493
11
143.334091
21
529.254297
0
LINE
8
Layer 1
10
143.334091
20
529.254297
11
144.459160
21
529.809318
0
LINE
8
Layer 1
10
144.459160
20
529.809318
11
145.675583
21
530.641115
0
LINE
8
Layer 1
10
145.675583
20
530.641115
11
146.740343
21
531.625584
0
LINE
8
Layer 1
10
146.740343
20
531.625584
11
147.643208
21
532.742341
0
LINE
8
Layer 1
10
147.643208
20
532.742341
11
148.373947
21
533.970999
0
LINE
8
Layer 1
10
148.373947
20
533.970999
11
148.922331
21
535.291173
0
LINE
8
Layer 1
10
148.922331
20
535.291173
11
149.278128
21
536.682476
0
LINE
8
Layer 1
10
149.278128
20
536.682476
11
149.431108
21
538.124523
0
LINE
8
Layer 1
10
149.431108
20
538.124523
11
149.371040
21
539.596928
0
LINE
8
Layer 1
10
149.371040
20
539.596928
11
149.371000
21
539.597000
0
LINE
8
Layer 1
10
148.528000
20
504.440000
11
147.566367
21
505.246415
0
LINE
8
Layer 1
10
147.566367
20
505.246415
11
146.722627
21
506.155667
0
LINE
8
Layer 1
10
146.722627
20
506.155667
11
146.002860
21
507.154837
0
LINE
8
Layer 1
10
146.002860
20
507.154837
11
145.413148
21
508.231006
0
LINE
8
Layer 1
10
145.413148
20
508.231006
11
144.959571
21
509.371256
0
LINE
8
Layer 1
10
144.959571
20
509.371256
11
144.648210
21
510.562668
0
LINE
8
Layer 1
10
144.648210
20
510.562668
11
144.485146
21
511.792322
0
LINE
8
Layer 1
10
144.485146
20
511.792322
11
144.476460
21
513.047300
0
LINE
8
Layer 1
10
144.476460
20
513.047300
11
144.624784
21
514.293512
0
LINE
8
Layer 1
10
144.624784
20
514.293512
11
144.923708
21
515.497373
0
LINE
8
Layer 1
10
144.923708
20
515.497373
11
145.365751
21
516.646722
0
LINE
8
Layer 1
10
145.365751
20
516.646722
11
145.943431
21
517.729398
0
LINE
8
Layer 1
10
145.943431
20
517.729398
11
146.649269
21
518.733237
0
LINE
8
Layer 1
10
146.649269
20
518.733237
11
147.475782
21
519.646080
0
LINE
8
Layer 1
10
147.475782
20
519.646080
11
148.415489
21
520.455765
0
LINE
8
Layer 1
10
148.415489
20
520.455765
11
149.460910
21
521.150130
0
LINE
8
Layer 1
10
149.460910
20
521.150130
11
149.476510
21
521.159130
0
LINE
8
Layer 1
10
149.476510
20
521.159130
11
150.800718
21
521.799136
0
LINE
8
Layer 1
10
150.800718
20
521.799136
11
152.181742
21
522.232439
0
LINE
8
Layer 1
10
152.181742
20
522.232439
11
153.596933
21
522.460278
0
LINE
8
Layer 1
10
153.596933
20
522.460278
11
155.023648
21
522.483896
0
LINE
8
Layer 1
10
155.023648
20
522.483896
11
156.439238
21
522.304531
0
LINE
8
Layer 1
10
156.439238
20
522.304531
11
157.821060
21
521.923426
0
LINE
8
Layer 1
10
157.821060
20
521.923426
11
159.146466
21
521.341820
0
LINE
8
Layer 1
10
159.146466
20
521.341820
11
160.392810
21
520.560955
0
LINE
8
Layer 1
10
160.392810
20
520.560955
11
162.254034
21
519.307538
0
LINE
8
Layer 1
10
162.254034
20
519.307538
11
164.187106
21
518.221243
0
LINE
8
Layer 1
10
164.187106
20
518.221243
11
166.181762
21
517.302071
0
LINE
8
Layer 1
10
166.181762
20
517.302071
11
168.227737
21
516.550021
0
LINE
8
Layer 1
10
168.227737
20
516.550021
11
170.314768
21
515.965093
0
LINE
8
Layer 1
10
170.314768
20
515.965093
11
172.432591
21
515.547287
0
LINE
8
Layer 1
10
172.432591
20
515.547287
11
174.570941
21
515.296604
0
LINE
8
Layer 1
10
174.570941
20
515.296604
11
176.719556
21
515.213043
0
LINE
8
Layer 1
10
176.719556
20
515.213043
11
178.868171
21
515.296604
0
LINE
8
Layer 1
10
178.868171
20
515.296604
11
181.006522
21
515.547287
0
LINE
8
Layer 1
10
181.006522
20
515.547287
11
183.124346
21
515.965093
0
LINE
8
Layer 1
10
183.124346
20
515.965093
11
185.211377
21
516.550021
0
LINE
8
Layer 1
10
185.211377
20
516.550021
11
187.257354
21
517.302071
0
LINE
8
Layer 1
10
187.257354
20
517.302071
11
189.252010
21
518.221243
0
LINE
8
Layer 1
10
189.252010
20
518.221243
11
191.185084
21
519.307538
0
LINE
8
Layer 1
10
191.185084
20
519.307538
11
193.046310
21
520.560955
0
LINE
8
Layer 1
10
193.046310
20
520.560955
11
194.292661
21
521.341819
0
LINE
8
Layer 1
10
194.292661
20
521.341819
11
195.618070
21
521.923425
0
LINE
8
Layer 1
10
195.618070
20
521.923425
11
196.999893
21
522.304530
0
LINE
8
Layer 1
10
196.999893
20
522.304530
11
198.415484
21
522.483895
0
LINE
8
Layer 1
10
198.415484
20
522.483895
11
199.842196
21
522.460278
0
LINE
8
Layer 1
10
199.842196
20
522.460278
11
201.257385
21
522.232438
0
LINE
8
Layer 1
10
201.257385
20
522.232438
11
202.638405
21
521.799135
0
LINE
8
Layer 1
10
202.638405
20
521.799135
11
203.962610
21
521.159126
0
LINE
8
Layer 1
10
203.962610
20
521.159126
11
203.978210
21
521.150126
0
LINE
8
Layer 1
10
203.978210
20
521.150126
11
205.023631
21
520.455761
0
LINE
8
Layer 1
10
205.023631
20
520.455761
11
205.963338
21
519.646075
0
LINE
8
Layer 1
10
205.963338
20
519.646075
11
206.789851
21
518.733230
0
LINE
8
Layer 1
10
206.789851
20
518.733230
11
207.495689
21
517.729389
0
LINE
8
Layer 1
10
207.495689
20
517.729389
11
208.073369
21
516.646712
0
LINE
8
Layer 1
10
208.073369
20
516.646712
11
208.515412
21
515.497361
0
LINE
8
Layer 1
10
208.515412
20
515.497361
11
208.814336
21
514.293499
0
LINE
8
Layer 1
10
208.814336
20
514.293499
11
208.962660
21
513.047286
0
LINE
8
Layer 1
10
208.962660
20
513.047286
11
208.953974
21
511.792311
0
LINE
8
Layer 1
10
208.953974
20
511.792311
11
208.790910
21
510.562658
0
LINE
8
Layer 1
10
208.790910
20
510.562658
11
208.479549
21
509.371247
0
LINE
8
Layer 1
10
208.479549
20
509.371247
11
208.025973
21
508.230996
0
LINE
8
Layer 1
10
208.025973
20
508.230996
11
207.436260
21
507.154825
0
LINE
8
Layer 1
10
207.436260
20
507.154825
11
206.716493
21
506.155654
0
LINE
8
Layer 1
10
206.716493
20
506.155654
11
205.872753
21
505.246401
0
LINE
8
Layer 1
10
205.872753
20
505.246401
11
204.911120
21
504.439986
0
LINE
8
Layer 1
10
204.911120
20
504.439986
11
201.699495
21
502.268156
0
LINE
8
Layer 1
10
201.699495
20
502.268156
11
198.362942
21
500.385903
0
LINE
8
Layer 1
10
198.362942
20
500.385903
11
194.919308
21
498.793228
0
LINE
8
Layer 1
10
194.919308
20
498.793228
11
191.386440
21
497.490130
0
LINE
8
Layer 1
10
191.386440
20
497.490130
11
187.782185
21
496.476609
0
LINE
8
Layer 1
10
187.782185
20
496.476609
11
184.124388
21
495.752666
0
LINE
8
Layer 1
10
184.124388
20
495.752666
11
180.430897
21
495.318300
0
LINE
8
Layer 1
10
180.430897
20
495.318300
11
176.719558
21
495.173511
0
LINE
8
Layer 1
10
176.719558
20
495.173511
11
173.008217
21
495.318300
0
LINE
8
Layer 1
10
173.008217
20
495.318300
11
169.314723
21
495.752667
0
LINE
8
Layer 1
10
169.314723
20
495.752667
11
165.656920
21
496.476610
0
LINE
8
Layer 1
10
165.656920
20
496.476610
11
162.052656
21
497.490131
0
LINE
8
Layer 1
10
162.052656
20
497.490131
11
158.519777
21
498.793230
0
LINE
8
Layer 1
10
158.519777
20
498.793230
11
155.076131
21
500.385906
0
LINE
8
Layer 1
10
155.076131
20
500.385906
11
151.739563
21
502.268159
0
LINE
8
Layer 1
10
151.739563
20
502.268159
11
148.527920
21
504.439990
0
LINE
8
Layer 1
10
270.736000
20
667.166000
11
269.557282
21
667.597056
0
LINE
8
Layer 1
10
269.557282
20
667.597056
11
268.348260
21
667.874617
0
LINE
8
Layer 1
10
268.348260
20
667.874617
11
267.123167
21
667.999859
0
LINE
8
Layer 1
10
267.123167
20
667.999859
11
265.896234
21
667.973959
0
LINE
8
Layer 1
10
265.896234
20
667.973959
11
264.681694
21
667.798094
0
LINE
8
Layer 1
10
264.681694
20
667.798094
11
263.493780
21
667.473441
0
LINE
8
Layer 1
10
263.493780
20
667.473441
11
262.346725
21
667.001178
0
LINE
8
Layer 1
10
262.346725
20
667.001178
11
261.254760
21
666.382480
0
LINE
8
Layer 1
10
261.254760
20
666.382480
11
260.248738
21
665.632074
0
LINE
8
Layer 1
10
260.248738
20
665.632074
11
259.354574
21
664.772277
0
LINE
8
Layer 1
10
259.354574
20
664.772277
11
258.579077
21
663.815643
0
LINE
8
Layer 1
10
258.579077
20
663.815643
11
257.929052
21
662.774726
0
LINE
8
Layer 1
10
257.929052
20
662.774726
11
257.411308
21
661.662080
0
LINE
8
Layer 1
10
257.411308
20
661.662080
11
257.032652
21
660.490257
0
LINE
8
Layer 1
10
257.032652
20
660.490257
11
256.799890
21
659.271813
0
LINE
8
Layer 1
10
256.799890
20
659.271813
11
256.719830
21
658.019300
0
LINE
8
Layer 1
10
256.719830
20
658.019300
11
256.829761
21
656.550717
0
LINE
8
Layer 1
10
256.829761
20
656.550717
11
257.147495
21
655.136727
0
LINE
8
Layer 1
10
257.147495
20
655.136727
11
257.660570
21
653.796372
0
LINE
8
Layer 1
10
257.660570
20
653.796372
11
258.356521
21
652.548691
0
LINE
8
Layer 1
10
258.356521
20
652.548691
11
259.222886
21
651.412725
0
LINE
8
Layer 1
10
259.222886
20
651.412725
11
260.247201
21
650.407515
0
LINE
8
Layer 1
10
260.247201
20
650.407515
11
261.417004
21
649.552100
0
LINE
8
Layer 1
10
261.417004
20
649.552100
11
262.719830
21
648.865520
0
LINE
8
Layer 1
10
262.719830
20
648.865520
11
264.739991
21
647.884446
0
LINE
8
Layer 1
10
264.739991
20
647.884446
11
266.651022
21
646.756667
0
LINE
8
Layer 1
10
266.651022
20
646.756667
11
268.447744
21
645.491150
0
LINE
8
Layer 1
10
268.447744
20
645.491150
11
270.124982
21
644.096864
0
LINE
8
Layer 1
10
270.124982
20
644.096864
11
271.677555
21
642.582775
0
LINE
8
Layer 1
10
271.677555
20
642.582775
11
273.100288
21
640.957851
0
LINE
8
Layer 1
10
273.100288
20
640.957851
11
274.388001
21
639.231059
0
LINE
8
Layer 1
10
274.388001
20
639.231059
11
275.535518
21
637.411368
0
LINE
8
Layer 1
10
275.535518
20
637.411368
11
276.537659
21
635.507743
0
LINE
8
Layer 1
10
276.537659
20
635.507743
11
277.389249
21
633.529153
0
LINE
8
Layer 1
10
277.389249
20
633.529153
11
278.085108
21
631.484565
0
LINE
8
Layer 1
10
278.085108
20
631.484565
11
278.620060
21
629.382947
0
LINE
8
Layer 1
10
278.620060
20
629.382947
11
278.988925
21
627.233266
0
LINE
8
Layer 1
10
278.988925
20
627.233266
11
279.186527
21
625.044490
0
LINE
8
Layer 1
10
279.186527
20
625.044490
11
279.207688
21
622.825585
0
LINE
8
Layer 1
10
279.207688
20
622.825585
11
279.047230
21
620.585520
0
LINE
8
Layer 1
10
279.047230
20
620.585520
11
278.990403
21
619.113931
0
LINE
8
Layer 1
10
278.990403
20
619.113931
11
279.146291
21
617.673103
0
LINE
8
Layer 1
10
279.146291
20
617.673103
11
279.504644
21
616.283362
0
LINE
8
Layer 1
10
279.504644
20
616.283362
11
280.055213
21
614.965038
0
LINE
8
Layer 1
10
280.055213
20
614.965038
11
280.787747
21
613.738458
0
LINE
8
Layer 1
10
280.787747
20
613.738458
11
281.691998
21
612.623951
0
LINE
8
Layer 1
10
281.691998
20
612.623951
11
282.757716
21
611.641846
0
LINE
8
Layer 1
10
282.757716
20
611.641846
11
283.974650
21
610.812470
0
LINE
8
Layer 1
10
283.974650
20
610.812470
11
285.099381
21
610.255549
0
LINE
8
Layer 1
10
285.099381
20
610.255549
11
286.270960
21
609.847905
0
LINE
8
Layer 1
10
286.270960
20
609.847905
11
287.475111
21
609.589920
0
LINE
8
Layer 1
10
287.475111
20
609.589920
11
288.697559
21
609.481975
0
LINE
8
Layer 1
10
288.697559
20
609.481975
11
289.924028
21
609.524452
0
LINE
8
Layer 1
10
289.924028
20
609.524452
11
291.140243
21
609.717733
0
LINE
8
Layer 1
10
291.140243
20
609.717733
11
292.331929
21
610.062198
0
LINE
8
Layer 1
10
292.331929
20
610.062198
11
293.484810
21
610.558230
0
LINE
8
Layer 1
10
293.484810
20
610.558230
11
294.566608
21
611.194552
0
LINE
8
Layer 1
10
294.566608
20
611.194552
11
295.549133
21
611.951800
0
LINE
8
Layer 1
10
295.549133
20
611.951800
11
296.424250
21
612.818238
0
LINE
8
Layer 1
10
296.424250
20
612.818238
11
297.183824
21
613.782129
0
LINE
8
Layer 1
10
297.183824
20
613.782129
11
297.819720
21
614.831734
0
LINE
8
Layer 1
10
297.819720
20
614.831734
11
298.323805
21
615.955318
0
LINE
8
Layer 1
10
298.323805
20
615.955318
11
298.687943
21
617.141142
0
LINE
8
Layer 1
10
298.687943
20
617.141142
11
298.904000
21
618.377470
0
LINE
8
Layer 1
10
298.904000
20
618.377470
11
299.174284
21
622.240388
0
LINE
8
Layer 1
10
299.174284
20
622.240388
11
299.132360
21
626.066590
0
LINE
8
Layer 1
10
299.132360
20
626.066590
11
298.787108
21
629.840696
0
LINE
8
Layer 1
10
298.787108
20
629.840696
11
298.147407
21
633.547328
0
LINE
8
Layer 1
10
298.147407
20
633.547328
11
297.222135
21
637.171106
0
LINE
8
Layer 1
10
297.222135
20
637.171106
11
296.020172
21
640.696653
0
LINE
8
Layer 1
10
296.020172
20
640.696653
11
294.550397
21
644.108588
0
LINE
8
Layer 1
10
294.550397
20
644.108588
11
292.821689
21
647.391533
0
LINE
8
Layer 1
10
292.821689
20
647.391533
11
290.842926
21
650.530108
0
LINE
8
Layer 1
10
290.842926
20
650.530108
11
288.622988
21
653.508936
0
LINE
8
Layer 1
10
288.622988
20
653.508936
11
286.170753
21
656.312636
0
LINE
8
Layer 1
10
286.170753
20
656.312636
11
283.495101
21
658.925831
0
LINE
8
Layer 1
10
283.495101
20
658.925831
11
280.604911
21
661.333141
0
LINE
8
Layer 1
10
280.604911
20
661.333141
11
277.509062
21
663.519186
0
LINE
8
Layer 1
10
277.509062
20
663.519186
11
274.216431
21
665.468589
0
LINE
8
Layer 1
10
274.216431
20
665.468589
11
270.735900
21
667.165970
0
LINE
8
Layer 1
10
224.371000
20
620.597000
11
224.205776
21
622.838329
0
LINE
8
Layer 1
10
224.205776
20
622.838329
11
224.222993
21
625.058656
0
LINE
8
Layer 1
10
224.222993
20
625.058656
11
224.417435
21
627.248944
0
LINE
8
Layer 1
10
224.417435
20
627.248944
11
224.783885
21
629.400159
0
LINE
8
Layer 1
10
224.783885
20
629.400159
11
225.317127
21
631.503265
0
LINE
8
Layer 1
10
225.317127
20
631.503265
11
226.011944
21
633.549227
0
LINE
8
Layer 1
10
226.011944
20
633.549227
11
226.863120
21
635.529009
0
LINE
8
Layer 1
10
226.863120
20
635.529009
11
227.865437
21
637.433575
0
LINE
8
Layer 1
10
227.865437
20
637.433575
11
229.013680
21
639.253891
0
LINE
8
Layer 1
10
229.013680
20
639.253891
11
230.302632
21
640.980920
0
LINE
8
Layer 1
10
230.302632
20
640.980920
11
231.727076
21
642.605628
0
LINE
8
Layer 1
10
231.727076
20
642.605628
11
233.281796
21
644.118978
0
LINE
8
Layer 1
10
233.281796
20
644.118978
11
234.961575
21
645.511936
0
LINE
8
Layer 1
10
234.961575
20
645.511936
11
236.761196
21
646.775466
0
LINE
8
Layer 1
10
236.761196
20
646.775466
11
238.675443
21
647.900532
0
LINE
8
Layer 1
10
238.675443
20
647.900532
11
240.699100
21
648.878100
0
LINE
8
Layer 1
10
240.699100
20
648.878100
11
242.004282
21
649.562281
0
LINE
8
Layer 1
10
242.004282
20
649.562281
11
243.176647
21
650.415787
0
LINE
8
Layer 1
10
243.176647
20
650.415787
11
244.203656
21
651.419566
0
LINE
8
Layer 1
10
244.203656
20
651.419566
11
245.072769
21
652.554566
0
LINE
8
Layer 1
10
245.072769
20
652.554566
11
245.771448
21
653.801735
0
LINE
8
Layer 1
10
245.771448
20
653.801735
11
246.287154
21
655.142020
0
LINE
8
Layer 1
10
246.287154
20
655.142020
11
246.607347
21
656.556369
0
LINE
8
Layer 1
10
246.607347
20
656.556369
11
246.719490
21
658.025730
0
LINE
8
Layer 1
10
246.719490
20
658.025730
11
246.637590
21
659.277579
0
LINE
8
Layer 1
10
246.637590
20
659.277579
11
246.403181
21
660.495175
0
LINE
8
Layer 1
10
246.403181
20
660.495175
11
246.023074
21
661.665988
0
LINE
8
Layer 1
10
246.023074
20
661.665988
11
245.504081
21
662.777490
0
LINE
8
Layer 1
10
245.504081
20
662.777490
11
244.853014
21
663.817151
0
LINE
8
Layer 1
10
244.853014
20
663.817151
11
244.076684
21
664.772442
0
LINE
8
Layer 1
10
244.076684
20
664.772442
11
243.181902
21
665.630835
0
LINE
8
Layer 1
10
243.181902
20
665.630835
11
242.175480
21
666.379800
0
LINE
8
Layer 1
10
242.175480
20
666.379800
11
241.083330
21
666.997076
0
LINE
8
Layer 1
10
241.083330
20
666.997076
11
239.936283
21
667.467986
0
LINE
8
Layer 1
10
239.936283
20
667.467986
11
238.748554
21
667.791368
0
LINE
8
Layer 1
10
238.748554
20
667.791368
11
237.534359
21
667.966060
0
LINE
8
Layer 1
10
237.534359
20
667.966060
11
236.307912
21
667.990900
0
LINE
8
Layer 1
10
236.307912
20
667.990900
11
235.083428
21
667.864727
0
LINE
8
Layer 1
10
235.083428
20
667.864727
11
233.875122
21
667.586377
0
LINE
8
Layer 1
10
233.875122
20
667.586377
11
232.697210
21
667.154690
0
LINE
8
Layer 1
10
232.697210
20
667.154690
11
229.220045
21
665.456249
0
LINE
8
Layer 1
10
229.220045
20
665.456249
11
225.930554
21
663.506308
0
LINE
8
Layer 1
10
225.930554
20
663.506308
11
222.837591
21
661.320203
0
LINE
8
Layer 1
10
222.837591
20
661.320203
11
219.950012
21
658.913274
0
LINE
8
Layer 1
10
219.950012
20
658.913274
11
217.276670
21
656.300856
0
LINE
8
Layer 1
10
217.276670
20
656.300856
11
214.826422
21
653.498287
0
LINE
8
Layer 1
10
214.826422
20
653.498287
11
212.608121
21
650.520904
0
LINE
8
Layer 1
10
212.608121
20
650.520904
11
210.630622
21
647.384045
0
LINE
8
Layer 1
10
210.630622
20
647.384045
11
208.902782
21
644.103047
0
LINE
8
Layer 1
10
208.902782
20
644.103047
11
207.433453
21
640.693246
0
LINE
8
Layer 1
10
207.433453
20
640.693246
11
206.231492
21
637.169981
0
LINE
8
Layer 1
10
206.231492
20
637.169981
11
205.305752
21
633.548589
0
LINE
8
Layer 1
10
205.305752
20
633.548589
11
204.665089
21
629.844406
0
LINE
8
Layer 1
10
204.665089
20
629.844406
11
204.318358
21
626.072771
0
LINE
8
Layer 1
10
204.318358
20
626.072771
11
204.274413
21
622.249019
0
LINE
8
Layer 1
10
204.274413
20
622.249019
11
204.542110
21
618.388490
0
LINE
8
Layer 1
10
204.542110
20
618.388490
11
204.757209
21
617.152544
0
LINE
8
Layer 1
10
204.757209
20
617.152544
11
205.120302
21
615.966946
0
LINE
8
Layer 1
10
205.120302
20
615.966946
11
205.623274
21
614.843425
0
LINE
8
Layer 1
10
205.623274
20
614.843425
11
206.258011
21
613.793711
0
LINE
8
Layer 1
10
206.258011
20
613.793711
11
207.016400
21
612.829533
0
LINE
8
Layer 1
10
207.016400
20
612.829533
11
207.890325
21
611.962621
0
LINE
8
Layer 1
10
207.890325
20
611.962621
11
208.871673
21
611.204703
0
LINE
8
Layer 1
10
208.871673
20
611.204703
11
209.952330
21
610.567510
0
LINE
8
Layer 1
10
209.952330
20
610.567510
11
211.104161
21
610.070405
0
LINE
8
Layer 1
10
211.104161
20
610.070405
11
212.294943
21
609.724692
0
LINE
8
Layer 1
10
212.294943
20
609.724692
11
213.510419
21
609.530008
0
LINE
8
Layer 1
10
213.510419
20
609.530008
11
214.736330
21
609.485990
0
LINE
8
Layer 1
10
214.736330
20
609.485990
11
215.958418
21
609.592276
0
LINE
8
Layer 1
10
215.958418
20
609.592276
11
217.162424
21
609.848503
0
LINE
8
Layer 1
10
217.162424
20
609.848503
11
218.334091
21
610.254308
0
LINE
8
Layer 1
10
218.334091
20
610.254308
11
219.459160
21
610.809330
0
LINE
8
Layer 1
10
219.459160
20
610.809330
11
220.675583
21
611.641126
0
LINE
8
Layer 1
10
220.675583
20
611.641126
11
221.740343
21
612.625595
0
LINE
8
Layer 1
10
221.740343
20
612.625595
11
222.643208
21
613.742351
0
LINE
8
Layer 1
10
222.643208
20
613.742351
11
223.373947
21
614.971008
0
LINE
8
Layer 1
10
223.373947
20
614.971008
11
223.922331
21
616.291180
0
LINE
8
Layer 1
10
223.922331
20
616.291180
11
224.278128
21
617.682484
0
LINE
8
Layer 1
10
224.278128
20
617.682484
11
224.431108
21
619.124532
0
LINE
8
Layer 1
10
224.431108
20
619.124532
11
224.371040
21
620.596940
0
LINE
8
Layer 1
10
224.371040
20
620.596940
11
224.371000
21
620.597000
0
LINE
8
Layer 1
10
223.528000
20
585.440000
11
222.566367
21
586.246415
0
LINE
8
Layer 1
10
222.566367
20
586.246415
11
221.722627
21
587.155667
0
LINE
8
Layer 1
10
221.722627
20
587.155667
11
221.002860
21
588.154837
0
LINE
8
Layer 1
10
221.002860
20
588.154837
11
220.413148
21
589.231006
0
LINE
8
Layer 1
10
220.413148
20
589.231006
11
219.959571
21
590.371256
0
LINE
8
Layer 1
10
219.959571
20
590.371256
11
219.648210
21
591.562668
0
LINE
8
Layer 1
10
219.648210
20
591.562668
11
219.485146
21
592.792322
0
LINE
8
Layer 1
10
219.485146
20
592.792322
11
219.476460
21
594.047300
0
LINE
8
Layer 1
10
219.476460
20
594.047300
11
219.624784
21
595.293513
0
LINE
8
Layer 1
10
219.624784
20
595.293513
11
219.923708
21
596.497375
0
LINE
8
Layer 1
10
219.923708
20
596.497375
11
220.365751
21
597.646725
0
LINE
8
Layer 1
10
220.365751
20
597.646725
11
220.943431
21
598.729401
0
LINE
8
Layer 1
10
220.943431
20
598.729401
11
221.649269
21
599.733242
0
LINE
8
Layer 1
10
221.649269
20
599.733242
11
222.475782
21
600.646085
0
LINE
8
Layer 1
10
222.475782
20
600.646085
11
223.415489
21
601.455768
0
LINE
8
Layer 1
10
223.415489
20
601.455768
11
224.460910
21
602.150130
0
LINE
8
Layer 1
10
224.460910
20
602.150130
11
224.476510
21
602.159130
0
LINE
8
Layer 1
10
224.476510
20
602.159130
11
225.800718
21
602.799139
0
LINE
8
Layer 1
10
225.800718
20
602.799139
11
227.181742
21
603.232443
0
LINE
8
Layer 1
10
227.181742
20
603.232443
11
228.596933
21
603.460283
0
LINE
8
Layer 1
10
228.596933
20
603.460283
11
230.023648
21
603.483900
0
LINE
8
Layer 1
10
230.023648
20
603.483900
11
231.439238
21
603.304535
0
LINE
8
Layer 1
10
231.439238
20
603.304535
11
232.821060
21
602.923430
0
LINE
8
Layer 1
10
232.821060
20
602.923430
11
234.146466
21
602.341824
0
LINE
8
Layer 1
10
234.146466
20
602.341824
11
235.392810
21
601.560960
0
LINE
8
Layer 1
10
235.392810
20
601.560960
11
237.254034
21
600.307543
0
LINE
8
Layer 1
10
237.254034
20
600.307543
11
239.187106
21
599.221248
0
LINE
8
Layer 1
10
239.187106
20
599.221248
11
241.181762
21
598.302076
0
LINE
8
Layer 1
10
241.181762
20
598.302076
11
243.227737
21
597.550026
0
LINE
8
Layer 1
10
243.227737
20
597.550026
11
245.314768
21
596.965098
0
LINE
8
Layer 1
10
245.314768
20
596.965098
11
247.432591
21
596.547292
0
LINE
8
Layer 1
10
247.432591
20
596.547292
11
249.570941
21
596.296609
0
LINE
8
Layer 1
10
249.570941
20
596.296609
11
251.719556
21
596.213048
0
LINE
8
Layer 1
10
251.719556
20
596.213048
11
253.868171
21
596.296609
0
LINE
8
Layer 1
10
253.868171
20
596.296609
11
256.006522
21
596.547292
0
LINE
8
Layer 1
10
256.006522
20
596.547292
11
258.124346
21
596.965098
0
LINE
8
Layer 1
10
258.124346
20
596.965098
11
260.211377
21
597.550026
0
LINE
8
Layer 1
10
260.211377
20
597.550026
11
262.257354
21
598.302076
0
LINE
8
Layer 1
10
262.257354
20
598.302076
11
264.252010
21
599.221248
0
LINE
8
Layer 1
10
264.252010
20
599.221248
11
266.185084
21
600.307543
0
LINE
8
Layer 1
10
266.185084
20
600.307543
11
268.046310
21
601.560960
0
LINE
8
Layer 1
10
268.046310
20
601.560960
11
269.292661
21
602.341824
0
LINE
8
Layer 1
10
269.292661
20
602.341824
11
270.618070
21
602.923430
0
LINE
8
Layer 1
10
270.618070
20
602.923430
11
271.999893
21
603.304535
0
LINE
8
Layer 1
10
271.999893
20
603.304535
11
273.415484
21
603.483900
0
LINE
8
Layer 1
10
273.415484
20
603.483900
11
274.842196
21
603.460283
0
LINE
8
Layer 1
10
274.842196
20
603.460283
11
276.257385
21
603.232443
0
LINE
8
Layer 1
10
276.257385
20
603.232443
11
277.638405
21
602.799139
0
LINE
8
Layer 1
10
277.638405
20
602.799139
11
278.962610
21
602.159130
0
LINE
8
Layer 1
10
278.962610
20
602.159130
11
278.978210
21
602.150130
0
LINE
8
Layer 1
10
278.978210
20
602.150130
11
280.023631
21
601.455765
0
LINE
8
Layer 1
10
280.023631
20
601.455765
11
280.963338
21
600.646079
0
LINE
8
Layer 1
10
280.963338
20
600.646079
11
281.789851
21
599.733235
0
LINE
8
Layer 1
10
281.789851
20
599.733235
11
282.495689
21
598.729394
0
LINE
8
Layer 1
10
282.495689
20
598.729394
11
283.073369
21
597.646718
0
LINE
8
Layer 1
10
283.073369
20
597.646718
11
283.515412
21
596.497369
0
LINE
8
Layer 1
10
283.515412
20
596.497369
11
283.814336
21
595.293509
0
LINE
8
Layer 1
10
283.814336
20
595.293509
11
283.962660
21
594.047300
0
LINE
8
Layer 1
10
283.962660
20
594.047300
11
283.953974
21
592.792322
0
LINE
8
Layer 1
10
283.953974
20
592.792322
11
283.790910
21
591.562668
0
LINE
8
Layer 1
10
283.790910
20
591.562668
11
283.479549
21
590.371256
0
LINE
8
Layer 1
10
283.479549
20
590.371256
11
283.025972
21
589.231006
0
LINE
8
Layer 1
10
283.025972
20
589.231006
11
282.436260
21
588.154837
0
LINE
8
Layer 1
10
282.436260
20
588.154837
11
281.716493
21
587.155667
0
LINE
8
Layer 1
10
281.716493
20
587.155667
11
280.872753
21
586.246415
0
LINE
8
Layer 1
10
280.872753
20
586.246415
11
279.911120
21
585.440000
0
LINE
8
Layer 1
10
279.911120
20
585.440000
11
276.699495
21
583.268170
0
LINE
8
Layer 1
10
276.699495
20
583.268170
11
273.362942
21
581.385917
0
LINE
8
Layer 1
10
273.362942
20
581.385917
11
269.919308
21
579.793242
0
LINE
8
Layer 1
10
269.919308
20
579.793242
11
266.386440
21
578.490144
0
LINE
8
Layer 1
10
266.386440
20
578.490144
11
262.782185
21
577.476623
0
LINE
8
Layer 1
10
262.782185
20
577.476623
11
259.124388
21
576.752680
0
LINE
8
Layer 1
10
259.124388
20
576.752680
11
255.430897
21
576.318314
0
LINE
8
Layer 1
10
255.430897
20
576.318314
11
251.719557
21
576.173526
0
LINE
8
Layer 1
10
251.719557
20
576.173526
11
248.008217
21
576.318314
0
LINE
8
Layer 1
10
248.008217
20
576.318314
11
244.314723
21
576.752681
0
LINE
8
Layer 1
10
244.314723
20
576.752681
11
240.656920
21
577.476624
0
LINE
8
Layer 1
10
240.656920
20
577.476624
11
237.052656
21
578.490145
0
LINE
8
Layer 1
10
237.052656
20
578.490145
11
233.519777
21
579.793244
0
LINE
8
Layer 1
10
233.519777
20
579.793244
11
230.076131
21
581.385920
0
LINE
8
Layer 1
10
230.076131
20
581.385920
11
226.739563
21
583.268173
0
LINE
8
Layer 1
10
226.739563
20
583.268173
11
223.527920
21
585.440004
0
LINE
8
Layer 1
10
0.000030
20
485.848000
11
210.000000
21
485.848000
0
LINE
8
Layer 1
10
19.835600
20
499.446000
11
16.602163
21
502.449750
0
LINE
8
Layer 1
10
16.602163
20
502.449750
11
13.598300
21
505.683000
0
LINE
8
Layer 1
10
13.598300
20
505.683000
11
13.047100
21
506.461359
0
LINE
8
Layer 1
10
13.047100
20
506.461359
11
12.656400
21
507.322125
0
LINE
8
Layer 1
10
12.656400
20
507.322125
11
12.434600
21
508.240828
0
LINE
8
Layer 1
10
12.434600
20
508.240828
11
12.390100
21
509.193000
0
LINE
8
Layer 1
10
12.390100
20
509.193000
11
12.341594
21
511.229773
0
LINE
8
Layer 1
10
12.341594
20
511.229773
11
12.005339
21
513.207063
0
LINE
8
Layer 1
10
12.005339
20
513.207063
11
11.396724
21
515.098195
0
LINE
8
Layer 1
10
11.396724
20
515.098195
11
10.531143
21
516.876500
0
LINE
8
Layer 1
10
10.531143
20
516.876500
11
9.423985
21
518.515305
0
LINE
8
Layer 1
10
9.423985
20
518.515305
11
8.090642
21
519.987937
0
LINE
8
Layer 1
10
8.090642
20
519.987937
11
6.546507
21
521.267727
0
LINE
8
Layer 1
10
6.546507
20
521.267727
11
4.806970
21
522.328000
0
LINE
8
Layer 1
10
4.806970
20
522.328000
11
4.004311
21
522.842438
0
LINE
8
Layer 1
10
4.004311
20
522.842438
11
3.319532
21
523.493750
0
LINE
8
Layer 1
10
3.319532
20
523.493750
11
2.769556
21
524.262438
0
LINE
8
Layer 1
10
2.769556
20
524.262438
11
2.371300
21
525.129000
0
LINE
8
Layer 1
10
2.371310
20
525.129000
11
1.073023
21
529.347000
0
LINE
8
Layer 1
10
1.073023
20
529.347000
11
0.088315
21
533.649000
0
LINE
8
Layer 1
10
0.088315
20
533.649000
11
0.000005
21
534.598766
0
LINE
8
Layer 1
10
0.000005
20
534.598766
11
0.091964
21
535.539625
0
LINE
8
Layer 1
10
0.091964
20
535.539625
11
0.359268
21
536.446172
0
LINE
8
Layer 1
10
0.359268
20
536.446172
11
0.796994
21
537.293000
0
LINE
8
Layer 1
10
0.796994
20
537.293000
11
1.773309
21
539.081168
0
LINE
8
Layer 1
10
1.773309
20
539.081168
11
2.470677
21
540.961656
0
LINE
8
Layer 1
10
2.470677
20
540.961656
11
2.889098
21
542.903691
0
LINE
8
Layer 1
10
2.889098
20
542.903691
11
3.028571
21
544.876500
0
LINE
8
Layer 1
10
3.028571
20
544.876500
11
2.889098
21
546.849309
0
LINE
8
Layer 1
10
2.889098
20
546.849309
11
2.470678
21
548.791344
0
LINE
8
Layer 1
10
2.470678
20
548.791344
11
1.773311
21
550.671832
0
LINE
8
Layer 1
10
1.773311
20
550.671832
11
0.796997
21
552.460000
0
LINE
8
Layer 1
10
115.686000
20
525.129000
11
116.984250
21
529.347000
0
LINE
8
Layer 1
10
116.984250
20
529.347000
11
117.969000
21
533.649000
0
LINE
8
Layer 1
10
14.069700
20
540.521000
11
14.488777
21
538.626828
0
LINE
8
Layer 1
10
14.488777
20
538.626828
11
15.336488
21
536.912375
0
LINE
8
Layer 1
10
15.336488
20
536.912375
11
16.566680
21
535.448234
0
LINE
8
Layer 1
10
16.566680
20
535.448234
11
18.133200
21
534.305000
0
LINE
8
Layer 1
10
18.133200
20
534.305000
11
19.928820
21
533.571656
0
LINE
8
Layer 1
10
19.928820
20
533.571656
11
21.820862
21
533.293000
0
LINE
8
Layer 1
10
21.820862
20
533.293000
11
23.724998
21
533.471094
0
LINE
8
Layer 1
10
23.724998
20
533.471094
11
25.556900
21
534.108000
0
LINE
8
Layer 1
10
25.556900
20
534.108000
11
26.429195
21
534.784895
0
LINE
8
Layer 1
10
26.429195
20
534.784895
11
27.189858
21
535.563719
0
LINE
8
Layer 1
10
27.189858
20
535.563719
11
28.350812
21
537.372500
0
LINE
8
Layer 1
10
28.350812
20
537.372500
11
28.988811
21
539.425031
0
LINE
8
Layer 1
10
28.988811
20
539.425031
11
29.095779
21
540.508543
0
LINE
8
Layer 1
10
29.095779
20
540.508543
11
29.052900
21
541.612000
0
LINE
8
Layer 1
10
0.796994
20
552.460000
11
0.359268
21
553.306812
0
LINE
8
Layer 1
10
0.359268
20
553.306812
11
0.091963
21
554.213250
0
LINE
8
Layer 1
10
0.091963
20
554.213250
11
0.000004
21
555.153812
0
LINE
8
Layer 1
10
0.000004
20
555.153812
11
0.088314
21
556.103000
0
LINE
8
Layer 1
10
0.088314
20
556.103000
11
1.073024
21
560.405500
0
LINE
8
Layer 1
10
1.073024
20
560.405500
11
2.371300
21
564.624000
0
LINE
8
Layer 1
10
2.371300
20
564.624000
11
2.769556
21
565.490000
0
LINE
8
Layer 1
10
2.769556
20
565.490000
11
3.319532
21
566.258500
0
LINE
8
Layer 1
10
3.319532
20
566.258500
11
4.004311
21
566.910000
0
LINE
8
Layer 1
10
4.004311
20
566.910000
11
4.806970
21
567.425000
0
LINE
8
Layer 1
10
4.806970
20
567.425000
11
6.546507
21
568.485271
0
LINE
8
Layer 1
10
6.546507
20
568.485271
11
8.090642
21
569.765047
0
LINE
8
Layer 1
10
8.090642
20
569.765047
11
9.423985
21
571.237643
0
LINE
8
Layer 1
10
9.423985
20
571.237643
11
10.531143
21
572.876375
0
LINE
8
Layer 1
10
10.531143
20
572.876375
11
11.396724
21
574.654561
0
LINE
8
Layer 1
10
11.396724
20
574.654561
11
12.005339
21
576.545516
0
LINE
8
Layer 1
10
12.005339
20
576.545516
11
12.341594
21
578.522557
0
LINE
8
Layer 1
10
12.341594
20
578.522557
11
12.390100
21
580.559000
0
LINE
8
Layer 1
10
12.390100
20
580.559000
11
12.434600
21
581.511734
0
LINE
8
Layer 1
10
12.434600
20
581.511734
11
12.656400
21
582.430625
0
LINE
8
Layer 1
10
12.656400
20
582.430625
11
13.047100
21
583.291203
0
LINE
8
Layer 1
10
13.047100
20
583.291203
11
13.598300
21
584.069000
0
LINE
8
Layer 1
10
13.598300
20
584.069000
11
16.602163
21
587.302750
0
LINE
8
Layer 1
10
16.602163
20
587.302750
11
19.835600
21
590.307000
0
LINE
8
Layer 1
10
19.835600
20
590.307000
11
20.613692
21
590.858000
0
LINE
8
Layer 1
10
20.613692
20
590.858000
11
21.474312
21
591.248500
0
LINE
8
Layer 1
10
21.474312
20
591.248500
11
22.393077
21
591.470250
0
LINE
8
Layer 1
10
22.393077
20
591.470250
11
23.345600
21
591.515000
0
LINE
8
Layer 1
10
19.835600
20
499.446000
11
20.613692
21
498.894859
0
LINE
8
Layer 1
10
20.613692
20
498.894859
11
21.474312
21
498.504125
0
LINE
8
Layer 1
10
21.474312
20
498.504125
11
22.393077
21
498.282328
0
LINE
8
Layer 1
10
22.393077
20
498.282328
11
23.345600
21
498.238000
0
LINE
8
Layer 1
10
117.969000
20
533.649000
11
118.057203
21
534.598766
0
LINE
8
Layer 1
10
118.057203
20
534.598766
11
117.965125
21
535.539625
0
LINE
8
Layer 1
10
117.965125
20
535.539625
11
117.697734
21
536.446172
0
LINE
8
Layer 1
10
117.697734
20
536.446172
11
117.260000
21
537.293000
0
LINE
8
Layer 1
10
117.260000
20
537.293000
11
116.283828
21
539.081168
0
LINE
8
Layer 1
10
116.283828
20
539.081168
11
115.586562
21
540.961656
0
LINE
8
Layer 1
10
115.586562
20
540.961656
11
115.168203
21
542.903691
0
LINE
8
Layer 1
10
115.168203
20
542.903691
11
115.028750
21
544.876500
0
LINE
8
Layer 1
10
115.028750
20
544.876500
11
115.168203
21
546.849309
0
LINE
8
Layer 1
10
115.168203
20
546.849309
11
115.586562
21
548.791344
0
LINE
8
Layer 1
10
115.586562
20
548.791344
11
116.283828
21
550.671832
0
LINE
8
Layer 1
10
116.283828
20
550.671832
11
117.260000
21
552.460000
0
LINE
8
Layer 1
10
117.260000
20
552.460000
11
117.697734
21
553.306812
0
LINE
8
Layer 1
10
117.697734
20
553.306812
11
117.965125
21
554.213250
0
LINE
8
Layer 1
10
117.965125
20
554.213250
11
118.057203
21
555.153812
0
LINE
8
Layer 1
10
118.057203
20
555.153812
11
117.969000
21
556.103000
0
LINE
8
Layer 1
10
117.969000
20
556.103000
11
116.984250
21
560.405500
0
LINE
8
Layer 1
10
116.984250
20
560.405500
11
115.686000
21
564.624000
0
LINE
8
Layer 1
10
115.686000
20
564.624000
11
115.287375
21
565.490000
0
LINE
8
Layer 1
10
115.287375
20
565.490000
11
114.737250
21
566.258500
0
LINE
8
Layer 1
10
114.737250
20
566.258500
11
114.052500
21
566.910000
0
LINE
8
Layer 1
10
114.052500
20
566.910000
11
113.250000
21
567.425000
0
LINE
8
Layer 1
10
113.250000
20
567.425000
11
111.510646
21
568.485271
0
LINE
8
Layer 1
10
111.510646
20
568.485271
11
109.966609
21
569.765047
0
LINE
8
Layer 1
10
109.966609
20
569.765047
11
108.633299
21
571.237643
0
LINE
8
Layer 1
10
108.633299
20
571.237643
11
107.526125
21
572.876375
0
LINE
8
Layer 1
10
107.526125
20
572.876375
11
106.660498
21
574.654561
0
LINE
8
Layer 1
10
106.660498
20
574.654561
11
106.051828
21
576.545516
0
LINE
8
Layer 1
10
106.051828
20
576.545516
11
105.715525
21
578.522557
0
LINE
8
Layer 1
10
105.715525
20
578.522557
11
105.667000
21
580.559000
0
LINE
8
Layer 1
10
105.667000
20
580.559000
11
105.622672
21
581.511734
0
LINE
8
Layer 1
10
105.622672
20
581.511734
11
105.400875
21
582.430625
0
LINE
8
Layer 1
10
105.400875
20
582.430625
11
105.010141
21
583.291203
0
LINE
8
Layer 1
10
105.010141
20
583.291203
11
104.459000
21
584.069000
0
LINE
8
Layer 1
10
104.459000
20
584.069000
11
101.455200
21
587.302750
0
LINE
8
Layer 1
10
101.455200
20
587.302750
11
98.221600
21
590.307000
0
LINE
8
Layer 1
10
98.221600
20
590.307000
11
97.443508
21
590.858000
0
LINE
8
Layer 1
10
97.443508
20
590.858000
11
96.582887
21
591.248500
0
LINE
8
Layer 1
10
96.582887
20
591.248500
11
95.664123
21
591.470250
0
LINE
8
Layer 1
10
95.664123
20
591.470250
11
94.711600
21
591.515000
0
LINE
8
Layer 1
10
94.711600
20
591.515000
11
92.674947
21
591.563484
0
LINE
8
Layer 1
10
92.674947
20
591.563484
11
90.697786
21
591.899687
0
LINE
8
Layer 1
10
90.697786
20
591.899687
11
88.806779
21
592.508234
0
LINE
8
Layer 1
10
88.806779
20
592.508234
11
87.028588
21
593.373750
0
LINE
8
Layer 1
10
87.028588
20
593.373750
11
85.389872
21
594.480859
0
LINE
8
Layer 1
10
85.389872
20
594.480859
11
83.917295
21
595.814187
0
LINE
8
Layer 1
10
83.917295
20
595.814187
11
82.637517
21
597.358359
0
LINE
8
Layer 1
10
82.637517
20
597.358359
11
81.577200
21
599.098000
0
LINE
8
Layer 1
10
81.577200
20
599.098000
11
81.062377
21
599.900500
0
LINE
8
Layer 1
10
81.062377
20
599.900500
11
80.410912
21
600.585250
0
LINE
8
Layer 1
10
80.410912
20
600.585250
11
79.642242
21
601.135375
0
LINE
8
Layer 1
10
79.642242
20
601.135375
11
78.775800
21
601.534000
0
LINE
8
Layer 1
10
78.775800
20
601.534000
11
74.557700
21
602.832250
0
LINE
8
Layer 1
10
74.557700
20
602.832250
11
70.255600
21
603.817000
0
LINE
8
Layer 1
10
70.255600
20
603.817000
11
69.306117
21
603.905203
0
LINE
8
Layer 1
10
69.306117
20
603.905203
11
68.365438
21
603.813125
0
LINE
8
Layer 1
10
68.365438
20
603.813125
11
67.458864
21
603.545734
0
LINE
8
Layer 1
10
67.458864
20
603.545734
11
66.611700
21
603.108000
0
LINE
8
Layer 1
10
66.611700
20
603.108000
11
64.823665
21
602.131828
0
LINE
8
Layer 1
10
64.823665
20
602.131828
11
62.943280
21
601.434562
0
LINE
8
Layer 1
10
62.943280
20
601.434562
11
61.001327
21
601.016203
0
LINE
8
Layer 1
10
61.001327
20
601.016203
11
59.028588
21
600.876750
0
LINE
8
Layer 1
10
59.028588
20
600.876750
11
57.055844
21
601.016203
0
LINE
8
Layer 1
10
57.055844
20
601.016203
11
55.113877
21
601.434562
0
LINE
8
Layer 1
10
55.113877
20
601.434562
11
53.233468
21
602.131828
0
LINE
8
Layer 1
10
53.233468
20
602.131828
11
51.445400
21
603.108000
0
LINE
8
Layer 1
10
51.445400
20
603.108000
11
50.598237
21
603.545734
0
LINE
8
Layer 1
10
50.598237
20
603.545734
11
49.691675
21
603.813125
0
LINE
8
Layer 1
10
49.691675
20
603.813125
11
48.751025
21
603.905203
0
LINE
8
Layer 1
10
48.751025
20
603.905203
11
47.801600
21
603.817000
0
LINE
8
Layer 1
10
47.801600
20
603.817000
11
43.499413
21
602.832250
0
LINE
8
Layer 1
10
43.499413
20
602.832250
11
39.281300
21
601.534000
0
LINE
8
Layer 1
10
39.281300
20
601.534000
11
38.414902
21
601.135375
0
LINE
8
Layer 1
10
38.414902
20
601.135375
11
37.646237
21
600.585250
0
LINE
8
Layer 1
10
37.646237
20
600.585250
11
36.994780
21
599.900500
0
LINE
8
Layer 1
10
36.994780
20
599.900500
11
36.480000
21
599.098000
0
LINE
8
Layer 1
10
36.480000
20
599.098000
11
35.419654
21
597.358359
0
LINE
8
Layer 1
10
35.419654
20
597.358359
11
34.139863
21
595.814187
0
LINE
8
Layer 1
10
34.139863
20
595.814187
11
32.667284
21
594.480859
0
LINE
8
Layer 1
10
32.667284
20
594.480859
11
31.028575
21
593.373750
0
LINE
8
Layer 1
10
31.028575
20
593.373750
11
29.250395
21
592.508234
0
LINE
8
Layer 1
10
29.250395
20
592.508234
11
27.359400
21
591.899687
0
LINE
8
Layer 1
10
27.359400
20
591.899687
11
25.382249
21
591.563484
0
LINE
8
Layer 1
10
25.382249
20
591.563484
11
23.345600
21
591.515000
0
LINE
8
Layer 1
10
84.854900
20
521.158000
11
82.817228
21
521.832453
0
LINE
8
Layer 1
10
82.817228
20
521.832453
11
80.710125
21
521.943375
0
LINE
8
Layer 1
10
80.710125
20
521.943375
11
78.647234
21
521.499859
0
LINE
8
Layer 1
10
78.647234
20
521.499859
11
76.742200
21
520.511000
0
LINE
8
Layer 1
10
76.742200
20
520.511000
11
74.710042
21
519.196684
0
LINE
8
Layer 1
10
74.710042
20
519.196684
11
72.605064
21
518.057609
0
LINE
8
Layer 1
10
72.605064
20
518.057609
11
70.437671
21
517.093777
0
LINE
8
Layer 1
10
70.437671
20
517.093777
11
68.218264
21
516.305187
0
LINE
8
Layer 1
10
68.218264
20
516.305187
11
65.957247
21
515.691840
0
LINE
8
Layer 1
10
65.957247
20
515.691840
11
63.665022
21
515.253734
0
LINE
8
Layer 1
10
63.665022
20
515.253734
11
61.351993
21
514.990871
0
LINE
8
Layer 1
10
61.351993
20
514.990871
11
59.028562
21
514.903250
0
LINE
8
Layer 1
10
59.028562
20
514.903250
11
56.705133
21
514.990871
0
LINE
8
Layer 1
10
56.705133
20
514.990871
11
54.392107
21
515.253734
0
LINE
8
Layer 1
10
54.392107
20
515.253734
11
52.099889
21
515.691840
0
LINE
8
Layer 1
10
52.099889
20
515.691840
11
49.838880
21
516.305187
0
LINE
8
Layer 1
10
49.838880
20
516.305187
11
47.619484
21
517.093777
0
LINE
8
Layer 1
10
47.619484
20
517.093777
11
45.452103
21
518.057609
0
LINE
8
Layer 1
10
45.452103
20
518.057609
11
43.347141
21
519.196684
0
LINE
8
Layer 1
10
43.347141
20
519.196684
11
41.315000
21
520.511000
0
LINE
8
Layer 1
10
29.052900
20
541.612000
11
28.888914
21
544.038809
0
LINE
8
Layer 1
10
28.888914
20
544.038809
11
28.920178
21
546.442348
0
LINE
8
Layer 1
10
28.920178
20
546.442348
11
29.141158
21
548.813033
0
LINE
8
Layer 1
10
29.141158
20
548.813033
11
29.546322
21
551.141281
0
LINE
8
Layer 1
10
29.546322
20
551.141281
11
30.130134
21
553.417510
0
LINE
8
Layer 1
10
30.130134
20
553.417510
11
30.887061
21
555.632137
0
LINE
8
Layer 1
10
30.887061
20
555.632137
11
31.811570
21
557.775578
0
LINE
8
Layer 1
10
31.811570
20
557.775578
11
32.898125
21
559.838250
0
LINE
8
Layer 1
10
32.898125
20
559.838250
11
34.141194
21
561.810571
0
LINE
8
Layer 1
10
34.141194
20
561.810571
11
35.535242
21
563.682957
0
LINE
8
Layer 1
10
35.535242
20
563.682957
11
37.074735
21
565.445826
0
LINE
8
Layer 1
10
37.074735
20
565.445826
11
38.754141
21
567.089594
0
LINE
8
Layer 1
10
38.754141
20
567.089594
11
40.567924
21
568.604678
0
LINE
8
Layer 1
10
40.567924
20
568.604678
11
42.510550
21
569.981496
0
LINE
8
Layer 1
10
42.510550
20
569.981496
11
44.576487
21
571.210464
0
LINE
8
Layer 1
10
44.576487
20
571.210464
11
46.760200
21
572.282000
0
LINE
8
Layer 1
10
46.760200
20
572.282000
11
47.737147
21
572.796410
0
LINE
8
Layer 1
10
47.737147
20
572.796410
11
48.621920
21
573.430656
0
LINE
8
Layer 1
10
48.621920
20
573.430656
11
50.080337
21
575.009250
0
LINE
8
Layer 1
10
50.080337
20
575.009250
11
51.066236
21
576.918969
0
LINE
8
Layer 1
10
51.066236
20
576.918969
11
51.360361
21
577.967121
0
LINE
8
Layer 1
10
51.360361
20
577.967121
11
51.510400
21
579.061000
0
LINE
8
Layer 1
10
51.510400
20
579.061000
11
51.146273
21
580.965828
0
LINE
8
Layer 1
10
51.146273
20
580.965828
11
50.348487
21
582.703875
0
LINE
8
Layer 1
10
50.348487
20
582.703875
11
49.161133
21
584.203234
0
LINE
8
Layer 1
10
49.161133
20
584.203234
11
47.628300
21
585.392000
0
LINE
8
Layer 1
10
47.628300
20
585.392000
11
45.854656
21
586.176641
0
LINE
8
Layer 1
10
45.854656
20
586.176641
11
43.971475
21
586.509875
0
LINE
8
Layer 1
10
43.971475
20
586.509875
11
42.062981
21
586.386922
0
LINE
8
Layer 1
10
42.062981
20
586.386922
11
40.213400
21
585.803000
0
LINE
8
Layer 1
10
40.213400
20
585.803000
11
37.017325
21
584.192182
0
LINE
8
Layer 1
10
37.017325
20
584.192182
11
33.992862
21
582.355297
0
LINE
8
Layer 1
10
33.992862
20
582.355297
11
31.147869
21
580.305951
0
LINE
8
Layer 1
10
31.147869
20
580.305951
11
28.490203
21
578.057750
0
LINE
8
Layer 1
10
28.490203
20
578.057750
11
26.027721
21
575.624299
0
LINE
8
Layer 1
10
26.027721
20
575.624299
11
23.768280
21
573.019203
0
LINE
8
Layer 1
10
23.768280
20
573.019203
11
21.719737
21
570.256068
0
LINE
8
Layer 1
10
21.719737
20
570.256068
11
19.889950
21
567.348500
0
LINE
8
Layer 1
10
19.889950
20
567.348500
11
18.286775
21
564.310104
0
LINE
8
Layer 1
10
18.286775
20
564.310104
11
16.918070
21
561.154484
0
LINE
8
Layer 1
10
16.918070
20
561.154484
11
15.791691
21
557.895248
0
LINE
8
Layer 1
10
15.791691
20
557.895248
11
14.915497
21
554.546000
0
LINE
8
Layer 1
10
14.915497
20
554.546000
11
14.297343
21
551.120346
0
LINE
8
Layer 1
10
14.297343
20
551.120346
11
13.945088
21
547.631891
0
LINE
8
Layer 1
10
13.945088
20
547.631891
11
13.866588
21
544.094240
0
LINE
8
Layer 1
10
13.866588
20
544.094240
11
14.069700
21
540.521000
0
LINE
8
Layer 1
10
47.801600
20
485.936000
11
43.499413
21
486.920750
0
LINE
8
Layer 1
10
43.499413
20
486.920750
11
39.281300
21
488.219000
0
LINE
8
Layer 1
10
39.281300
20
488.219000
11
38.414902
21
488.617203
0
LINE
8
Layer 1
10
38.414902
20
488.617203
11
37.646237
21
489.167375
0
LINE
8
Layer 1
10
37.646237
20
489.167375
11
36.994780
21
489.852359
0
LINE
8
Layer 1
10
36.994780
20
489.852359
11
36.480000
21
490.655000
0
LINE
8
Layer 1
10
36.480000
20
490.655000
11
35.419654
21
492.394354
0
LINE
8
Layer 1
10
35.419654
20
492.394354
11
34.139863
21
493.938391
0
LINE
8
Layer 1
10
34.139863
20
493.938391
11
32.667284
21
495.271701
0
LINE
8
Layer 1
10
32.667284
20
495.271701
11
31.028575
21
496.378875
0
LINE
8
Layer 1
10
31.028575
20
496.378875
11
29.250395
21
497.244502
0
LINE
8
Layer 1
10
29.250395
20
497.244502
11
27.359400
21
497.853172
0
LINE
8
Layer 1
10
27.359400
20
497.853172
11
25.382249
21
498.189475
0
LINE
8
Layer 1
10
25.382249
20
498.189475
11
23.345600
21
498.238000
0
LINE
8
Layer 1
10
103.937000
20
540.598000
11
103.528011
21
538.699609
0
LINE
8
Layer 1
10
103.528011
20
538.699609
11
102.688587
21
536.978875
0
LINE
8
Layer 1
10
102.688587
20
536.978875
11
101.464545
21
535.506953
0
LINE
8
Layer 1
10
101.464545
20
535.506953
11
99.901700
21
534.355000
0
LINE
8
Layer 1
10
99.901700
20
534.355000
11
98.107395
21
533.612734
0
LINE
8
Layer 1
10
98.107395
20
533.612734
11
96.214512
21
533.325625
0
LINE
8
Layer 1
10
96.214512
20
533.325625
11
94.307623
21
533.496203
0
LINE
8
Layer 1
10
94.307623
20
533.496203
11
92.471300
21
534.127000
0
LINE
8
Layer 1
10
92.471300
20
534.127000
11
91.604862
21
534.804014
0
LINE
8
Layer 1
10
91.604862
20
534.804014
11
90.849405
21
535.581797
0
LINE
8
Layer 1
10
90.849405
20
535.581797
11
89.696513
21
537.385625
0
LINE
8
Layer 1
10
89.696513
20
537.385625
11
89.062789
21
539.430391
0
LINE
8
Layer 1
10
89.062789
20
539.430391
11
88.956292
21
540.509346
0
LINE
8
Layer 1
10
88.956292
20
540.509346
11
88.998400
21
541.608000
0
LINE
8
Layer 1
10
88.998400
20
541.608000
11
89.160491
21
544.034403
0
LINE
8
Layer 1
10
89.160491
20
544.034403
11
89.127656
21
546.437486
0
LINE
8
Layer 1
10
89.127656
20
546.437486
11
88.905413
21
548.807690
0
LINE
8
Layer 1
10
88.905413
20
548.807690
11
88.499280
21
551.135453
0
LINE
8
Layer 1
10
88.499280
20
551.135453
11
87.914775
21
553.411214
0
LINE
8
Layer 1
10
87.914775
20
553.411214
11
87.157417
21
555.625412
0
LINE
8
Layer 1
10
87.157417
20
555.625412
11
86.232723
21
557.768486
0
LINE
8
Layer 1
10
86.232723
20
557.768486
11
85.146212
21
559.830875
0
LINE
8
Layer 1
10
85.146212
20
559.830875
11
83.903403
21
561.803018
0
LINE
8
Layer 1
10
83.903403
20
561.803018
11
82.509813
21
563.675354
0
LINE
8
Layer 1
10
82.509813
20
563.675354
11
80.970961
21
565.438321
0
LINE
8
Layer 1
10
80.970961
20
565.438321
11
79.292364
21
567.082359
0
LINE
8
Layer 1
10
79.292364
20
567.082359
11
77.479541
21
568.597907
0
LINE
8
Layer 1
10
77.479541
20
568.597907
11
75.538011
21
569.975404
0
LINE
8
Layer 1
10
75.538011
20
569.975404
11
73.473291
21
571.205289
0
LINE
8
Layer 1
10
73.473291
20
571.205289
11
71.290900
21
572.278000
0
LINE
8
Layer 1
10
71.290900
20
572.278000
11
70.318316
21
572.791078
0
LINE
8
Layer 1
10
70.318316
20
572.791078
11
69.437123
21
573.422938
0
LINE
8
Layer 1
10
69.437123
20
573.422938
11
67.983163
21
574.994250
0
LINE
8
Layer 1
10
67.983163
20
574.994250
11
66.997520
21
576.894437
0
LINE
8
Layer 1
10
66.997520
20
576.894437
11
66.701726
21
577.937391
0
LINE
8
Layer 1
10
66.701726
20
577.937391
11
66.548700
21
579.026000
0
LINE
8
Layer 1
10
66.548700
20
579.026000
11
66.920383
21
580.931953
0
LINE
8
Layer 1
10
66.920383
20
580.931953
11
67.725988
21
582.668875
0
LINE
8
Layer 1
10
67.725988
20
582.668875
11
68.920973
21
584.164859
0
LINE
8
Layer 1
10
68.920973
20
584.164859
11
70.460800
21
585.348000
0
LINE
8
Layer 1
10
70.460800
20
585.348000
11
72.240191
21
586.124875
0
LINE
8
Layer 1
10
72.240191
20
586.124875
11
74.127075
21
586.448750
0
LINE
8
Layer 1
10
74.127075
20
586.448750
11
76.036947
21
586.315500
0
LINE
8
Layer 1
10
76.036947
20
586.315500
11
77.885300
21
585.721000
0
LINE
8
Layer 1
10
77.885300
20
585.721000
11
81.056170
21
584.101563
0
LINE
8
Layer 1
10
81.056170
20
584.101563
11
84.057186
21
582.259990
0
LINE
8
Layer 1
10
84.057186
20
582.259990
11
86.880670
21
580.209574
0
LINE
8
Layer 1
10
86.880670
20
580.209574
11
89.518944
21
577.963609
0
LINE
8
Layer 1
10
89.518944
20
577.963609
11
91.964329
21
575.535388
0
LINE
8
Layer 1
10
91.964329
20
575.535388
11
94.209148
21
572.938205
0
LINE
8
Layer 1
10
94.209148
20
572.938205
11
96.245723
21
570.185353
0
LINE
8
Layer 1
10
96.245723
20
570.185353
11
98.066375
21
567.290125
0
LINE
8
Layer 1
10
98.066375
20
567.290125
11
99.663426
21
564.265815
0
LINE
8
Layer 1
10
99.663426
20
564.265815
11
101.029198
21
561.125717
0
LINE
8
Layer 1
10
101.029198
20
561.125717
11
102.156014
21
557.883123
0
LINE
8
Layer 1
10
102.156014
20
557.883123
11
103.036194
21
554.551328
0
LINE
8
Layer 1
10
103.036194
20
554.551328
11
103.662061
21
551.143625
0
LINE
8
Layer 1
10
103.662061
20
551.143625
11
104.025936
21
547.673307
0
LINE
8
Layer 1
10
104.025936
20
547.673307
11
104.120142
21
544.153667
0
LINE
8
Layer 1
10
104.120142
20
544.153667
11
103.937000
21
540.598000
0
LINE
8
Layer 1
10
84.854900
20
521.158000
11
86.328466
21
519.877656
0
LINE
8
Layer 1
10
86.328466
20
519.877656
11
87.434700
21
518.302750
0
LINE
8
Layer 1
10
87.434700
20
518.302750
11
88.133009
21
516.509219
0
LINE
8
Layer 1
10
88.133009
20
516.509219
11
88.382800
21
514.573000
0
LINE
8
Layer 1
10
88.382800
20
514.573000
11
88.156389
21
512.634016
0
LINE
8
Layer 1
10
88.156389
20
512.634016
11
87.479763
21
510.832375
0
LINE
8
Layer 1
10
87.479763
20
510.832375
11
86.392605
21
509.244297
0
LINE
8
Layer 1
10
86.392605
20
509.244297
11
84.934600
21
507.946000
0
LINE
8
Layer 1
10
84.934600
20
507.946000
11
81.955282
21
506.050375
0
LINE
8
Layer 1
10
81.955282
20
506.050375
11
78.872390
21
504.407500
0
LINE
8
Layer 1
10
78.872390
20
504.407500
11
75.700722
21
503.017375
0
LINE
8
Layer 1
10
75.700722
20
503.017375
11
72.455073
21
501.880000
0
LINE
8
Layer 1
10
72.455073
20
501.880000
11
69.150240
21
500.995375
0
LINE
8
Layer 1
10
69.150240
20
500.995375
11
65.801017
21
500.363500
0
LINE
8
Layer 1
10
65.801017
20
500.363500
11
62.422201
21
499.984375
0
LINE
8
Layer 1
10
62.422201
20
499.984375
11
59.028588
21
499.858000
0
LINE
8
Layer 1
10
59.028588
20
499.858000
11
55.634973
21
499.984375
0
LINE
8
Layer 1
10
55.634973
20
499.984375
11
52.256154
21
500.363500
0
LINE
8
Layer 1
10
52.256154
20
500.363500
11
48.906925
21
500.995375
0
LINE
8
Layer 1
10
48.906925
20
500.995375
11
45.602083
21
501.880000
0
LINE
8
Layer 1
10
45.602083
20
501.880000
11
42.356423
21
503.017375
0
LINE
8
Layer 1
10
42.356423
20
503.017375
11
39.184742
21
504.407500
0
LINE
8
Layer 1
10
39.184742
20
504.407500
11
36.101836
21
506.050375
0
LINE
8
Layer 1
10
36.101836
20
506.050375
11
33.122500
21
507.946000
0
LINE
8
Layer 1
10
33.122500
20
507.946000
11
31.664497
21
509.244297
0
LINE
8
Layer 1
10
31.664497
20
509.244297
11
30.577350
21
510.832375
0
LINE
8
Layer 1
10
30.577350
20
510.832375
11
29.900753
21
512.634016
0
LINE
8
Layer 1
10
29.900753
20
512.634016
11
29.674400
21
514.573000
0
LINE
8
Layer 1
10
29.674400
20
514.573000
11
29.924148
21
516.509219
0
LINE
8
Layer 1
10
29.924148
20
516.509219
11
30.622462
21
518.302750
0
LINE
8
Layer 1
10
30.622462
20
518.302750
11
31.728720
21
519.877656
0
LINE
8
Layer 1
10
31.728720
20
519.877656
11
33.202300
21
521.158000
0
LINE
8
Layer 1
10
33.202300
20
521.158000
11
35.239972
21
521.832453
0
LINE
8
Layer 1
10
35.239972
20
521.832453
11
37.347075
21
521.943375
0
LINE
8
Layer 1
10
37.347075
20
521.943375
11
39.409966
21
521.499859
0
LINE
8
Layer 1
10
39.409966
20
521.499859
11
41.315000
21
520.511000
0
LINE
8
Layer 1
10
98.221600
20
499.446000
11
101.455200
21
502.449750
0
LINE
8
Layer 1
10
101.455200
20
502.449750
11
104.459000
21
505.683000
0
LINE
8
Layer 1
10
115.686000
20
525.129000
11
115.287375
21
524.262438
0
LINE
8
Layer 1
10
115.287375
20
524.262438
11
114.737250
21
523.493750
0
LINE
8
Layer 1
10
114.737250
20
523.493750
11
114.052500
21
522.842438
0
LINE
8
Layer 1
10
114.052500
20
522.842438
11
113.250000
21
522.328000
0
LINE
8
Layer 1
10
113.250000
20
522.328000
11
111.510646
21
521.267727
0
LINE
8
Layer 1
10
111.510646
20
521.267727
11
109.966609
21
519.987937
0
LINE
8
Layer 1
10
109.966609
20
519.987937
11
108.633299
21
518.515305
0
LINE
8
Layer 1
10
108.633299
20
518.515305
11
107.526125
21
516.876500
0
LINE
8
Layer 1
10
107.526125
20
516.876500
11
106.660498
21
515.098195
0
LINE
8
Layer 1
10
106.660498
20
515.098195
11
106.051828
21
513.207063
0
LINE
8
Layer 1
10
106.051828
20
513.207063
11
105.715525
21
511.229773
0
LINE
8
Layer 1
10
105.715525
20
511.229773
11
105.667000
21
509.193000
0
LINE
8
Layer 1
10
105.667000
20
509.193000
11
105.622672
21
508.240828
0
LINE
8
Layer 1
10
105.622672
20
508.240828
11
105.400875
21
507.322125
0
LINE
8
Layer 1
10
105.400875
20
507.322125
11
105.010141
21
506.461359
0
LINE
8
Layer 1
10
105.010141
20
506.461359
11
104.459000
21
505.683000
0
LINE
8
Layer 1
10
47.801600
20
485.936000
11
48.751025
21
485.847797
0
LINE
8
Layer 1
10
48.751025
20
485.847797
11
49.691675
21
485.939875
0
LINE
8
Layer 1
10
49.691675
20
485.939875
11
50.598237
21
486.207266
0
LINE
8
Layer 1
10
50.598237
20
486.207266
11
51.445400
21
486.645000
0
LINE
8
Layer 1
10
51.445400
20
486.645000
11
53.233439
21
487.621172
0
LINE
8
Layer 1
10
53.233439
20
487.621172
11
55.113834
21
488.318437
0
LINE
8
Layer 1
10
55.113834
20
488.318437
11
57.055800
21
488.736797
0
LINE
8
Layer 1
10
57.055800
20
488.736797
11
59.028550
21
488.876250
0
LINE
8
Layer 1
10
59.028550
20
488.876250
11
61.001300
21
488.736797
0
LINE
8
Layer 1
10
61.001300
20
488.736797
11
62.943266
21
488.318437
0
LINE
8
Layer 1
10
62.943266
20
488.318437
11
64.823661
21
487.621172
0
LINE
8
Layer 1
10
64.823661
20
487.621172
11
66.611700
21
486.645000
0
LINE
8
Layer 1
10
66.611700
20
486.645000
11
67.458864
21
486.207266
0
LINE
8
Layer 1
10
67.458864
20
486.207266
11
68.365438
21
485.939875
0
LINE
8
Layer 1
10
68.365438
20
485.939875
11
69.306117
21
485.847797
0
LINE
8
Layer 1
10
69.306117
20
485.847797
11
70.255600
21
485.936000
0
LINE
8
Layer 1
10
70.255600
20
485.936000
11
74.557700
21
486.920750
0
LINE
8
Layer 1
10
74.557700
20
486.920750
11
78.775800
21
488.219000
0
LINE
8
Layer 1
10
78.775800
20
488.219000
11
79.642242
21
488.617203
0
LINE
8
Layer 1
10
79.642242
20
488.617203
11
80.410912
21
489.167375
0
LINE
8
Layer 1
10
80.410912
20
489.167375
11
81.062377
21
489.852359
0
LINE
8
Layer 1
10
81.062377
20
489.852359
11
81.577200
21
490.655000
0
LINE
8
Layer 1
10
98.221600
20
499.446000
11
97.443508
21
498.894859
0
LINE
8
Layer 1
10
97.443508
20
498.894859
11
96.582887
21
498.504125
0
LINE
8
Layer 1
10
96.582887
20
498.504125
11
95.664123
21
498.282328
0
LINE
8
Layer 1
10
95.664123
20
498.282328
11
94.711600
21
498.238000
0
LINE
8
Layer 1
10
94.711600
20
498.238000
11
92.674947
21
498.189475
0
LINE
8
Layer 1
10
92.674947
20
498.189475
11
90.697786
21
497.853172
0
LINE
8
Layer 1
10
90.697786
20
497.853172
11
88.806779
21
497.244502
0
LINE
8
Layer 1
10
88.806779
20
497.244502
11
87.028588
21
496.378875
0
LINE
8
Layer 1
10
87.028588
20
496.378875
11
85.389872
21
495.271701
0
LINE
8
Layer 1
10
85.389872
20
495.271701
11
83.917295
21
493.938391
0
LINE
8
Layer 1
10
83.917295
20
493.938391
11
82.637517
21
492.394354
0
LINE
8
Layer 1
10
82.637517
20
492.394354
11
81.577200
21
490.655000
0
LINE
8
Layer 1
10
201.264000
20
542.661000
11
201.137280
21
540.151478
0
LINE
8
Layer 1
10
201.137280
20
540.151478
11
200.765345
21
537.714451
0
LINE
8
Layer 1
10
200.765345
20
537.714451
11
200.160533
21
535.362255
0
LINE
8
Layer 1
10
200.160533
20
535.362255
11
199.335181
21
533.107227
0
LINE
8
Layer 1
10
199.335181
20
533.107227
11
198.301627
21
530.961704
0
LINE
8
Layer 1
10
198.301627
20
530.961704
11
197.072208
21
528.938023
0
LINE
8
Layer 1
10
197.072208
20
528.938023
11
195.659261
21
527.048522
0
LINE
8
Layer 1
10
195.659261
20
527.048522
11
194.075125
21
525.305537
0
LINE
8
Layer 1
10
194.075125
20
525.305537
11
192.332136
21
523.721406
0
LINE
8
Layer 1
10
192.332136
20
523.721406
11
190.442633
21
522.308466
0
LINE
8
Layer 1
10
190.442633
20
522.308466
11
188.418952
21
521.079053
0
LINE
8
Layer 1
10
188.418952
20
521.079053
11
186.273431
21
520.045505
0
LINE
8
Layer 1
10
186.273431
20
520.045505
11
184.018408
21
519.220158
0
LINE
8
Layer 1
10
184.018408
20
519.220158
11
181.666220
21
518.615351
0
LINE
8
Layer 1
10
181.666220
20
518.615351
11
179.229205
21
518.243419
0
LINE
8
Layer 1
10
179.229205
20
518.243419
11
176.719700
21
518.116700
0
LINE
8
Layer 1
10
176.719700
20
518.116700
11
174.210178
21
518.243420
0
LINE
8
Layer 1
10
174.210178
20
518.243420
11
171.773151
21
518.615355
0
LINE
8
Layer 1
10
171.773151
20
518.615355
11
169.420955
21
519.220167
0
LINE
8
Layer 1
10
169.420955
20
519.220167
11
167.165927
21
520.045519
0
LINE
8
Layer 1
10
167.165927
20
520.045519
11
165.020404
21
521.079073
0
LINE
8
Layer 1
10
165.020404
20
521.079073
11
162.996723
21
522.308492
0
LINE
8
Layer 1
10
162.996723
20
522.308492
11
161.107222
21
523.721439
0
LINE
8
Layer 1
10
161.107222
20
523.721439
11
159.364238
21
525.305575
0
LINE
8
Layer 1
10
159.364238
20
525.305575
11
157.780106
21
527.048564
0
LINE
8
Layer 1
10
157.780106
20
527.048564
11
156.367166
21
528.938067
0
LINE
8
Layer 1
10
156.367166
20
528.938067
11
155.137753
21
530.961748
0
LINE
8
Layer 1
10
155.137753
20
530.961748
11
154.104205
21
533.107269
0
LINE
8
Layer 1
10
154.104205
20
533.107269
11
153.278858
21
535.362292
0
LINE
8
Layer 1
10
153.278858
20
535.362292
11
152.674051
21
537.714480
0
LINE
8
Layer 1
10
152.674051
20
537.714480
11
152.302119
21
540.151495
0
LINE
8
Layer 1
10
152.302119
20
540.151495
11
152.175400
21
542.661000
0
LINE
8
Layer 1
10
152.175400
20
542.661000
11
152.302120
21
545.170505
0
LINE
8
Layer 1
10
152.302120
20
545.170505
11
152.674055
21
547.607520
0
LINE
8
Layer 1
10
152.674055
20
547.607520
11
153.278867
21
549.959708
0
LINE
8
Layer 1
10
153.278867
20
549.959708
11
154.104219
21
552.214731
0
LINE
8
Layer 1
10
154.104219
20
552.214731
11
155.137773
21
554.360252
0
LINE
8
Layer 1
10
155.137773
20
554.360252
11
156.367192
21
556.383933
0
LINE
8
Layer 1
10
156.367192
20
556.383933
11
157.780139
21
558.273436
0
LINE
8
Layer 1
10
157.780139
20
558.273436
11
159.364275
21
560.016425
0
LINE
8
Layer 1
10
159.364275
20
560.016425
11
161.107264
21
561.600561
0
LINE
8
Layer 1
10
161.107264
20
561.600561
11
162.996767
21
563.013508
0
LINE
8
Layer 1
10
162.996767
20
563.013508
11
165.020448
21
564.242927
0
LINE
8
Layer 1
10
165.020448
20
564.242927
11
167.165969
21
565.276481
0
LINE
8
Layer 1
10
167.165969
20
565.276481
11
169.420992
21
566.101833
0
LINE
8
Layer 1
10
169.420992
20
566.101833
11
171.773180
21
566.706645
0
LINE
8
Layer 1
10
171.773180
20
566.706645
11
174.210195
21
567.078580
0
LINE
8
Layer 1
10
174.210195
20
567.078580
11
176.719700
21
567.205300
0
LINE
8
Layer 1
10
176.719700
20
567.205300
11
179.229222
21
567.078580
0
LINE
8
Layer 1
10
179.229222
20
567.078580
11
181.666249
21
566.706645
0
LINE
8
Layer 1
10
181.666249
20
566.706645
11
184.018445
21
566.101833
0
LINE
8
Layer 1
10
184.018445
20
566.101833
11
186.273473
21
565.276481
0
LINE
8
Layer 1
10
186.273473
20
565.276481
11
188.418996
21
564.242927
0
LINE
8
Layer 1
10
188.418996
20
564.242927
11
190.442677
21
563.013508
0
LINE
8
Layer 1
10
190.442677
20
563.013508
11
192.332178
21
561.600561
0
LINE
8
Layer 1
10
192.332178
20
561.600561
11
194.075163
21
560.016425
0
LINE
8
Layer 1
10
194.075163
20
560.016425
11
195.659294
21
558.273436
0
LINE
8
Layer 1
10
195.659294
20
558.273436
11
197.072234
21
556.383933
0
LINE
8
Layer 1
10
197.072234
20
556.383933
11
198.301647
21
554.360252
0
LINE
8
Layer 1
10
198.301647
20
554.360252
11
199.335195
21
552.214731
0
LINE
8
Layer 1
10
199.335195
20
552.214731
11
200.160542
21
549.959708
0
LINE
8
Layer 1
10
200.160542
20
549.959708
11
200.765349
21
547.607520
0
LINE
8
Layer 1
10
200.765349
20
547.607520
11
201.137281
21
545.170505
0
LINE
8
Layer 1
10
201.137281
20
545.170505
11
201.264000
21
542.661000
0
LINE
8
Layer 1
10
201.264000
20
542.661000
11
201.264000
21
542.661000
0
LINE
8
Layer 1
10
198.264000
20
542.661000
11
198.152769
21
540.458219
0
LINE
8
Layer 1
10
198.152769
20
540.458219
11
197.826296
21
538.319069
0
LINE
8
Layer 1
10
197.826296
20
538.319069
11
197.295410
21
536.254380
0
LINE
8
Layer 1
10
197.295410
20
536.254380
11
196.570941
21
534.274981
0
LINE
8
Layer 1
10
196.570941
20
534.274981
11
195.663718
21
532.391702
0
LINE
8
Layer 1
10
195.663718
20
532.391702
11
194.584570
21
530.615372
0
LINE
8
Layer 1
10
194.584570
20
530.615372
11
193.344327
21
528.956820
0
LINE
8
Layer 1
10
193.344327
20
528.956820
11
191.953818
21
527.426875
0
LINE
8
Layer 1
10
191.953818
20
527.426875
11
190.423872
21
526.036367
0
LINE
8
Layer 1
10
190.423872
20
526.036367
11
188.765319
21
524.796125
0
LINE
8
Layer 1
10
188.765319
20
524.796125
11
186.988989
21
523.716978
0
LINE
8
Layer 1
10
186.988989
20
523.716978
11
185.105710
21
522.809756
0
LINE
8
Layer 1
10
185.105710
20
522.809756
11
183.126313
21
522.085288
0
LINE
8
Layer 1
10
183.126313
20
522.085288
11
181.061626
21
521.554403
0
LINE
8
Layer 1
10
181.061626
20
521.554403
11
178.922478
21
521.227931
0
LINE
8
Layer 1
10
178.922478
20
521.227931
11
176.719700
21
521.116700
0
LINE
8
Layer 1
10
176.719700
20
521.116700
11
174.516919
21
521.227931
0
LINE
8
Layer 1
10
174.516919
20
521.227931
11
172.377769
21
521.554404
0
LINE
8
Layer 1
10
172.377769
20
521.554404
11
170.313080
21
522.085290
0
LINE
8
Layer 1
10
170.313080
20
522.085290
11
168.333681
21
522.809759
0
LINE
8
Layer 1
10
168.333681
20
522.809759
11
166.450402
21
523.716982
0
LINE
8
Layer 1
10
166.450402
20
523.716982
11
164.674072
21
524.796130
0
LINE
8
Layer 1
10
164.674072
20
524.796130
11
163.015520
21
526.036373
0
LINE
8
Layer 1
10
163.015520
20
526.036373
11
161.485575
21
527.426882
0
LINE
8
Layer 1
10
161.485575
20
527.426882
11
160.095067
21
528.956828
0
LINE
8
Layer 1
10
160.095067
20
528.956828
11
158.854825
21
530.615381
0
LINE
8
Layer 1
10
158.854825
20
530.615381
11
157.775678
21
532.391711
0
LINE
8
Layer 1
10
157.775678
20
532.391711
11
156.868456
21
534.274990
0
LINE
8
Layer 1
10
156.868456
20
534.274990
11
156.143988
21
536.254387
0
LINE
8
Layer 1
10
156.143988
20
536.254387
11
155.613103
21
538.319074
0
LINE
8
Layer 1
10
155.613103
20
538.319074
11
155.286631
21
540.458222
0
LINE
8
Layer 1
10
155.286631
20
540.458222
11
155.175400
21
542.661000
0
LINE
8
Layer 1
10
155.175400
20
542.661000
11
155.286631
21
544.863781
0
LINE
8
Layer 1
10
155.286631
20
544.863781
11
155.613104
21
547.002931
0
LINE
8
Layer 1
10
155.613104
20
547.002931
11
156.143990
21
549.067620
0
LINE
8
Layer 1
10
156.143990
20
549.067620
11
156.868459
21
551.047019
0
LINE
8
Layer 1
10
156.868459
20
551.047019
11
157.775682
21
552.930298
0
LINE
8
Layer 1
10
157.775682
20
552.930298
11
158.854830
21
554.706628
0
LINE
8
Layer 1
10
158.854830
20
554.706628
11
160.095073
21
556.365180
0
LINE
8
Layer 1
10
160.095073
20
556.365180
11
161.485583
21
557.895125
0
LINE
8
Layer 1
10
161.485583
20
557.895125
11
163.015528
21
559.285633
0
LINE
8
Layer 1
10
163.015528
20
559.285633
11
164.674081
21
560.525875
0
LINE
8
Layer 1
10
164.674081
20
560.525875
11
166.450411
21
561.605022
0
LINE
8
Layer 1
10
166.450411
20
561.605022
11
168.333690
21
562.512244
0
LINE
8
Layer 1
10
168.333690
20
562.512244
11
170.313087
21
563.236712
0
LINE
8
Layer 1
10
170.313087
20
563.236712
11
172.377774
21
563.767597
0
LINE
8
Layer 1
10
172.377774
20
563.767597
11
174.516922
21
564.094069
0
LINE
8
Layer 1
10
174.516922
20
564.094069
11
176.719700
21
564.205300
0
LINE
8
Layer 1
10
176.719700
20
564.205300
11
178.922481
21
564.094069
0
LINE
8
Layer 1
10
178.922481
20
564.094069
11
181.061631
21
563.767596
0
LINE
8
Layer 1
10
181.061631
20
563.767596
11
183.126320
21
563.236710
0
LINE
8
Layer 1
10
183.126320
20
563.236710
11
185.105719
21
562.512241
0
LINE
8
Layer 1
10
185.105719
20
562.512241
11
186.988998
21
561.605018
0
LINE
8
Layer 1
10
186.988998
20
561.605018
11
188.765328
21
560.525870
0
LINE
8
Layer 1
10
188.765328
20
560.525870
11
190.423880
21
559.285627
0
LINE
8
Layer 1
10
190.423880
20
559.285627
11
191.953825
21
557.895117
0
LINE
8
Layer 1
10
191.953825
20
557.895117
11
193.344333
21
556.365172
0
LINE
8
Layer 1
10
193.344333
20
556.365172
11
194.584575
21
554.706619
0
LINE
8
Layer 1
10
194.584575
20
554.706619
11
195.663722
21
552.930289
0
LINE
8
Layer 1
10
195.663722
20
552.930289
11
196.570944
21
551.047010
0
LINE
8
Layer 1
10
196.570944
20
551.047010
11
197.295412
21
549.067613
0
LINE
8
Layer 1
10
197.295412
20
549.067613
11
197.826297
21
547.002926
0
LINE
8
Layer 1
10
197.826297
20
547.002926
11
198.152769
21
544.863778
0
LINE
8
Layer 1
10
198.152769
20
544.863778
11
198.264000
21
542.661000
0
LINE
8
Layer 1
10
198.264000
20
542.661000
11
198.264000
21
542.661000
0
LINE
8
Layer 1
10
276.264000
20
623.661000
11
276.137280
21
621.151478
0
LINE
8
Layer 1
10
276.137280
20
621.151478
11
275.765345
21
618.714451
0
LINE
8
Layer 1
10
275.765345
20
618.714451
11
275.160533
21
616.362255
0
LINE
8
Layer 1
10
275.160533
20
616.362255
11
274.335181
21
614.107227
0
LINE
8
Layer 1
10
274.335181
20
614.107227
11
273.301627
21
611.961704
0
LINE
8
Layer 1
10
273.301627
20
611.961704
11
272.072208
21
609.938023
0
LINE
8
Layer 1
10
272.072208
20
609.938023
11
270.659261
21
608.048522
0
LINE
8
Layer 1
10
270.659261
20
608.048522
11
269.075125
21
606.305537
0
LINE
8
Layer 1
10
269.075125
20
606.305537
11
267.332136
21
604.721406
0
LINE
8
Layer 1
10
267.332136
20
604.721406
11
265.442633
21
603.308466
0
LINE
8
Layer 1
10
265.442633
20
603.308466
11
263.418952
21
602.079053
0
LINE
8
Layer 1
10
263.418952
20
602.079053
11
261.273431
21
601.045505
0
LINE
8
Layer 1
10
261.273431
20
601.045505
11
259.018408
21
600.220158
0
LINE
8
Layer 1
10
259.018408
20
600.220158
11
256.666220
21
599.615351
0
LINE
8
Layer 1
10
256.666220
20
599.615351
11
254.229205
21
599.243419
0
LINE
8
Layer 1
10
254.229205
20
599.243419
11
251.719700
21
599.116700
0
LINE
8
Layer 1
10
251.719700
20
599.116700
11
249.210178
21
599.243420
0
LINE
8
Layer 1
10
249.210178
20
599.243420
11
246.773151
21
599.615355
0
LINE
8
Layer 1
10
246.773151
20
599.615355
11
244.420955
21
600.220167
0
LINE
8
Layer 1
10
244.420955
20
600.220167
11
242.165927
21
601.045519
0
LINE
8
Layer 1
10
242.165927
20
601.045519
11
240.020404
21
602.079073
0
LINE
8
Layer 1
10
240.020404
20
602.079073
11
237.996723
21
603.308492
0
LINE
8
Layer 1
10
237.996723
20
603.308492
11
236.107222
21
604.721439
0
LINE
8
Layer 1
10
236.107222
20
604.721439
11
234.364238
21
606.305575
0
LINE
8
Layer 1
10
234.364238
20
606.305575
11
232.780106
21
608.048564
0
LINE
8
Layer 1
10
232.780106
20
608.048564
11
231.367166
21
609.938067
0
LINE
8
Layer 1
10
231.367166
20
609.938067
11
230.137753
21
611.961748
0
LINE
8
Layer 1
10
230.137753
20
611.961748
11
229.104205
21
614.107269
0
LINE
8
Layer 1
10
229.104205
20
614.107269
11
228.278858
21
616.362292
0
LINE
8
Layer 1
10
228.278858
20
616.362292
11
227.674051
21
618.714480
0
LINE
8
Layer 1
10
227.674051
20
618.714480
11
227.302119
21
621.151495
0
LINE
8
Layer 1
10
227.302119
20
621.151495
11
227.175400
21
623.661000
0
LINE
8
Layer 1
10
227.175400
20
623.661000
11
227.302120
21
626.170505
0
LINE
8
Layer 1
10
227.302120
20
626.170505
11
227.674055
21
628.607520
0
LINE
8
Layer 1
10
227.674055
20
628.607520
11
228.278867
21
630.959708
0
LINE
8
Layer 1
10
228.278867
20
630.959708
11
229.104219
21
633.214731
0
LINE
8
Layer 1
10
229.104219
20
633.214731
11
230.137773
21
635.360252
0
LINE
8
Layer 1
10
230.137773
20
635.360252
11
231.367192
21
637.383933
0
LINE
8
Layer 1
10
231.367192
20
637.383933
11
232.780139
21
639.273436
0
LINE
8
Layer 1
10
232.780139
20
639.273436
11
234.364275
21
641.016425
0
LINE
8
Layer 1
10
234.364275
20
641.016425
11
236.107264
21
642.600561
0
LINE
8
Layer 1
10
236.107264
20
642.600561
11
237.996767
21
644.013508
0
LINE
8
Layer 1
10
237.996767
20
644.013508
11
240.020448
21
645.242927
0
LINE
8
Layer 1
10
240.020448
20
645.242927
11
242.165969
21
646.276481
0
LINE
8
Layer 1
10
242.165969
20
646.276481
11
244.420992
21
647.101833
0
LINE
8
Layer 1
10
244.420992
20
647.101833
11
246.773180
21
647.706645
0
LINE
8
Layer 1
10
246.773180
20
647.706645
11
249.210195
21
648.078580
0
LINE
8
Layer 1
10
249.210195
20
648.078580
11
251.719700
21
648.205300
0
LINE
8
Layer 1
10
251.719700
20
648.205300
11
254.229205
21
648.078580
0
LINE
8
Layer 1
10
254.229205
20
648.078580
11
256.666220
21
647.706645
0
LINE
8
Layer 1
10
256.666220
20
647.706645
11
259.018408
21
647.101833
0
LINE
8
Layer 1
10
259.018408
20
647.101833
11
261.273431
21
646.276481
0
LINE
8
Layer 1
10
261.273431
20
646.276481
11
263.418952
21
645.242927
0
LINE
8
Layer 1
10
263.418952
20
645.242927
11
265.442633
21
644.013508
0
LINE
8
Layer 1
10
265.442633
20
644.013508
11
267.332136
21
642.600561
0
LINE
8
Layer 1
10
267.332136
20
642.600561
11
269.075125
21
641.016425
0
LINE
8
Layer 1
10
269.075125
20
641.016425
11
270.659261
21
639.273436
0
LINE
8
Layer 1
10
270.659261
20
639.273436
11
272.072208
21
637.383933
0
LINE
8
Layer 1
10
272.072208
20
637.383933
11
273.301627
21
635.360252
0
LINE
8
Layer 1
10
273.301627
20
635.360252
11
274.335181
21
633.214731
0
LINE
8
Layer 1
10
274.335181
20
633.214731
11
275.160533
21
630.959708
0
LINE
8
Layer 1
10
275.160533
20
630.959708
11
275.765345
21
628.607520
0
LINE
8
Layer 1
10
275.765345
20
628.607520
11
276.137280
21
626.170505
0
LINE
8
Layer 1
10
276.137280
20
626.170505
11
276.264000
21
623.661000
0
LINE
8
Layer 1
10
276.264000
20
623.661000
11
276.264000
21
623.661000
0
LINE
8
Layer 1
10
273.264000
20
623.661000
11
273.152769
21
621.458219
0
LINE
8
Layer 1
10
273.152769
20
621.458219
11
272.826296
21
619.319069
0
LINE
8
Layer 1
10
272.826296
20
619.319069
11
272.295410
21
617.254380
0
LINE
8
Layer 1
10
272.295410
20
617.254380
11
271.570941
21
615.274981
0
LINE
8
Layer 1
10
271.570941
20
615.274981
11
270.663718
21
613.391702
0
LINE
8
Layer 1
10
270.663718
20
613.391702
11
269.584570
21
611.615372
0
LINE
8
Layer 1
10
269.584570
20
611.615372
11
268.344327
21
609.956820
0
LINE
8
Layer 1
10
268.344327
20
609.956820
11
266.953818
21
608.426875
0
LINE
8
Layer 1
10
266.953818
20
608.426875
11
265.423872
21
607.036367
0
LINE
8
Layer 1
10
265.423872
20
607.036367
11
263.765319
21
605.796125
0
LINE
8
Layer 1
10
263.765319
20
605.796125
11
261.988989
21
604.716978
0
LINE
8
Layer 1
10
261.988989
20
604.716978
11
260.105710
21
603.809756
0
LINE
8
Layer 1
10
260.105710
20
603.809756
11
258.126313
21
603.085288
0
LINE
8
Layer 1
10
258.126313
20
603.085288
11
256.061626
21
602.554403
0
LINE
8
Layer 1
10
256.061626
20
602.554403
11
253.922478
21
602.227931
0
LINE
8
Layer 1
10
253.922478
20
602.227931
11
251.719700
21
602.116700
0
LINE
8
Layer 1
10
251.719700
20
602.116700
11
249.516919
21
602.227931
0
LINE
8
Layer 1
10
249.516919
20
602.227931
11
247.377769
21
602.554404
0
LINE
8
Layer 1
10
247.377769
20
602.554404
11
245.313080
21
603.085290
0
LINE
8
Layer 1
10
245.313080
20
603.085290
11
243.333681
21
603.809759
0
LINE
8
Layer 1
10
243.333681
20
603.809759
11
241.450402
21
604.716982
0
LINE
8
Layer 1
10
241.450402
20
604.716982
11
239.674072
21
605.796130
0
LINE
8
Layer 1
10
239.674072
20
605.796130
11
238.015520
21
607.036373
0
LINE
8
Layer 1
10
238.015520
20
607.036373
11
236.485575
21
608.426882
0
LINE
8
Layer 1
10
236.485575
20
608.426882
11
235.095067
21
609.956828
0
LINE
8
Layer 1
10
235.095067
20
609.956828
11
233.854825
21
611.615381
0
LINE
8
Layer 1
10
233.854825
20
611.615381
11
232.775678
21
613.391711
0
LINE
8
Layer 1
10
232.775678
20
613.391711
11
231.868456
21
615.274990
0
LINE
8
Layer 1
10
231.868456
20
615.274990
11
231.143988
21
617.254387
0
LINE
8
Layer 1
10
231.143988
20
617.254387
11
230.613103
21
619.319074
0
LINE
8
Layer 1
10
230.613103
20
619.319074
11
230.286631
21
621.458222
0
LINE
8
Layer 1
10
230.286631
20
621.458222
11
230.175400
21
623.661000
0
LINE
8
Layer 1
10
230.175400
20
623.661000
11
230.286631
21
625.863781
0
LINE
8
Layer 1
10
230.286631
20
625.863781
11
230.613104
21
628.002931
0
LINE
8
Layer 1
10
230.613104
20
628.002931
11
231.143990
21
630.067620
0
LINE
8
Layer 1
10
231.143990
20
630.067620
11
231.868459
21
632.047019
0
LINE
8
Layer 1
10
231.868459
20
632.047019
11
232.775682
21
633.930298
0
LINE
8
Layer 1
10
232.775682
20
633.930298
11
233.854830
21
635.706628
0
LINE
8
Layer 1
10
233.854830
20
635.706628
11
235.095073
21
637.365180
0
LINE
8
Layer 1
10
235.095073
20
637.365180
11
236.485583
21
638.895125
0
LINE
8
Layer 1
10
236.485583
20
638.895125
11
238.015528
21
640.285633
0
LINE
8
Layer 1
10
238.015528
20
640.285633
11
239.674081
21
641.525875
0
LINE
8
Layer 1
10
239.674081
20
641.525875
11
241.450411
21
642.605022
0
LINE
8
Layer 1
10
241.450411
20
642.605022
11
243.333690
21
643.512244
0
LINE
8
Layer 1
10
243.333690
20
643.512244
11
245.313087
21
644.236712
0
LINE
8
Layer 1
10
245.313087
20
644.236712
11
247.377774
21
644.767597
0
LINE
8
Layer 1
10
247.377774
20
644.767597
11
249.516922
21
645.094069
0
LINE
8
Layer 1
10
249.516922
20
645.094069
11
251.719700
21
645.205300
0
LINE
8
Layer 1
10
251.719700
20
645.205300
11
253.922481
21
645.094069
0
LINE
8
Layer 1
10
253.922481
20
645.094069
11
256.061631
21
644.767596
0
LINE
8
Layer 1
10
256.061631
20
644.767596
11
258.126320
21
644.236710
0
LINE
8
Layer 1
10
258.126320
20
644.236710
11
260.105719
21
643.512241
0
LINE
8
Layer 1
10
260.105719
20
643.512241
11
261.988998
21
642.605018
0
LINE
8
Layer 1
10
261.988998
20
642.605018
11
263.765328
21
641.525870
0
LINE
8
Layer 1
10
263.765328
20
641.525870
11
265.423880
21
640.285627
0
LINE
8
Layer 1
10
265.423880
20
640.285627
11
266.953825
21
638.895117
0
LINE
8
Layer 1
10
266.953825
20
638.895117
11
268.344333
21
637.365172
0
LINE
8
Layer 1
10
268.344333
20
637.365172
11
269.584575
21
635.706619
0
LINE
8
Layer 1
10
269.584575
20
635.706619
11
270.663722
21
633.930289
0
LINE
8
Layer 1
10
270.663722
20
633.930289
11
271.570944
21
632.047010
0
LINE
8
Layer 1
10
271.570944
20
632.047010
11
272.295412
21
630.067613
0
LINE
8
Layer 1
10
272.295412
20
630.067613
11
272.826297
21
628.002926
0
LINE
8
Layer 1
10
272.826297
20
628.002926
11
273.152769
21
625.863778
0
LINE
8
Layer 1
10
273.152769
20
625.863778
11
273.264000
21
623.661000
0
LINE
8
Layer 1
10
273.264000
20
623.661000
11
273.264000
21
623.661000
 0 
ENDSEC
 0 
EOF