999
"DXF R12 Output" (www.mydxf.blogspot.com)
 0 
SECTION
 2 
HEADER
 9 
$ACADVER
 1 
AC1009
 9 
$EXTMIN
 10 
 0 
 20 
 0 
 9 
$EXTMAX
 10 
 8.5 
 20 
 11 
 0 
ENDSEC
 0 
SECTION
 2 
ENTITIES
0
LINE
8
Layer 1
10
209.799000
20
-0.188490
11
223.505000
21
-0.188490
0
LINE
8
Layer 1
10
-23.279600
20
46.973500
11
-23.199220
21
-0.188400
0
LINE
8
Layer 1
10
4.212390
20
5.812260
11
4.212390
21
-0.188490
0
LINE
8
Layer 1
10
72.741300
20
5.812260
11
59.035600
21
5.812260
0
LINE
8
Layer 1
10
59.035600
20
5.812260
11
59.035600
21
-0.188490
0
LINE
8
Layer 1
10
100.153000
20
5.812260
11
100.153000
21
-0.188490
0
LINE
8
Layer 1
10
111.001000
20
96.311800
11
110.919734
21
97.117940
0
LINE
8
Layer 1
10
110.919734
20
97.117940
11
110.686660
21
97.868781
0
LINE
8
Layer 1
10
110.686660
20
97.868781
11
109.829428
21
99.140228
0
LINE
8
Layer 1
10
109.829428
20
99.140228
11
108.557981
21
99.997460
0
LINE
8
Layer 1
10
108.557981
20
99.997460
11
107.807140
21
100.230534
0
LINE
8
Layer 1
10
107.807140
20
100.230534
11
107.001000
21
100.311800
0
LINE
8
Layer 1
10
107.001000
20
100.311800
11
106.194860
21
100.230534
0
LINE
8
Layer 1
10
106.194860
20
100.230534
11
105.444019
21
99.997460
0
LINE
8
Layer 1
10
105.444019
20
99.997460
11
104.172573
21
99.140228
0
LINE
8
Layer 1
10
104.172573
20
99.140228
11
103.315340
21
97.868781
0
LINE
8
Layer 1
10
103.315340
20
97.868781
11
103.082266
21
97.117940
0
LINE
8
Layer 1
10
103.082266
20
97.117940
11
103.001000
21
96.311800
0
LINE
8
Layer 1
10
103.001000
20
96.311800
11
103.082266
21
95.505661
0
LINE
8
Layer 1
10
103.082266
20
95.505661
11
103.315340
21
94.754821
0
LINE
8
Layer 1
10
103.315340
20
94.754821
11
104.172573
21
93.483378
0
LINE
8
Layer 1
10
104.172573
20
93.483378
11
105.444019
21
92.626148
0
LINE
8
Layer 1
10
105.444019
20
92.626148
11
106.194860
21
92.393075
0
LINE
8
Layer 1
10
106.194860
20
92.393075
11
107.001000
21
92.311810
0
LINE
8
Layer 1
10
107.001000
20
92.311810
11
107.807140
21
92.393075
0
LINE
8
Layer 1
10
107.807140
20
92.393075
11
108.557981
21
92.626148
0
LINE
8
Layer 1
10
108.557981
20
92.626148
11
109.829428
21
93.483378
0
LINE
8
Layer 1
10
109.829428
20
93.483378
11
110.686660
21
94.754821
0
LINE
8
Layer 1
10
110.686660
20
94.754821
11
110.919734
21
95.505661
0
LINE
8
Layer 1
10
110.919734
20
95.505661
11
111.001000
21
96.311800
0
LINE
8
Layer 1
10
111.001000
20
96.311800
11
111.001000
21
96.311800
0
LINE
8
Layer 1
10
127.564000
20
5.812260
11
113.859000
21
5.812260
0
LINE
8
Layer 1
10
182.388000
20
5.812260
11
182.388000
21
-0.188490
0
LINE
8
Layer 1
10
86.447200
20
5.812260
11
86.447200
21
-0.188490
0
LINE
8
Layer 1
10
223.505000
20
5.812260
11
223.505000
21
-0.188490
0
LINE
8
Layer 1
10
168.682000
20
5.812260
11
168.682000
21
-0.188490
0
LINE
8
Layer 1
10
17.918100
20
-0.188490
11
31.624000
21
-0.188490
0
LINE
8
Layer 1
10
17.918100
20
5.812260
11
17.918100
21
-0.188490
0
LINE
8
Layer 1
10
107.751000
20
148.312000
11
107.531145
21
148.841994
0
LINE
8
Layer 1
10
107.531145
20
148.841994
11
107.001000
21
149.061480
0
LINE
8
Layer 1
10
107.001000
20
149.061480
11
106.470851
21
148.841994
0
LINE
8
Layer 1
10
106.470851
20
148.841994
11
106.251000
21
148.312000
0
LINE
8
Layer 1
10
106.251000
20
148.312000
11
106.470851
21
147.782010
0
LINE
8
Layer 1
10
106.470851
20
147.782010
11
107.001000
21
147.562520
0
LINE
8
Layer 1
10
107.001000
20
147.562520
11
107.531145
21
147.782010
0
LINE
8
Layer 1
10
107.531145
20
147.782010
11
107.751000
21
148.312000
0
LINE
8
Layer 1
10
107.751000
20
148.312000
11
107.751000
21
148.312000
0
LINE
8
Layer 1
10
141.270000
20
5.812260
11
141.270000
21
-0.188490
0
LINE
8
Layer 1
10
237.282000
20
46.973500
11
237.210600
21
5.812300
0
LINE
8
Layer 1
10
-9.493270
20
5.812260
11
-23.199200
21
5.812260
0
LINE
8
Layer 1
10
112.453000
20
133.840000
11
112.233250
21
134.370115
0
LINE
8
Layer 1
10
112.233250
20
134.370115
11
111.703030
21
134.589700
0
LINE
8
Layer 1
10
111.703030
20
134.589700
11
111.172791
21
134.370149
0
LINE
8
Layer 1
10
111.172791
20
134.370149
11
110.953000
21
133.840000
0
LINE
8
Layer 1
10
110.953000
20
133.840000
11
111.172750
21
133.309881
0
LINE
8
Layer 1
10
111.172750
20
133.309881
11
111.702970
21
133.090300
0
LINE
8
Layer 1
10
111.702970
20
133.090300
11
112.233205
21
133.309844
0
LINE
8
Layer 1
10
112.233205
20
133.309844
11
112.453000
21
133.840000
0
LINE
8
Layer 1
10
112.453000
20
133.840000
11
112.453000
21
133.840000
0
LINE
8
Layer 1
10
115.359000
20
142.784000
11
115.139254
21
143.314124
0
LINE
8
Layer 1
10
115.139254
20
143.314124
11
114.609030
21
143.533710
0
LINE
8
Layer 1
10
114.609030
20
143.533710
11
114.078796
21
143.314157
0
LINE
8
Layer 1
10
114.078796
20
143.314157
11
113.859010
21
142.784000
0
LINE
8
Layer 1
10
113.859010
20
142.784000
11
114.078755
21
142.253885
0
LINE
8
Layer 1
10
114.078755
20
142.253885
11
114.608970
21
142.034300
0
LINE
8
Layer 1
10
114.608970
20
142.034300
11
115.139209
21
142.253851
0
LINE
8
Layer 1
10
115.139209
20
142.253851
11
115.359000
21
142.784000
0
LINE
8
Layer 1
10
115.359000
20
142.784000
11
115.359000
21
142.784000
0
LINE
8
Layer 1
10
45.329700
20
-0.188490
11
59.035600
21
-0.188490
0
LINE
8
Layer 1
10
127.564000
20
5.812260
11
127.564000
21
-0.188490
0
LINE
8
Layer 1
10
154.976000
20
5.812260
11
141.270000
21
5.812260
0
LINE
8
Layer 1
10
103.048000
20
133.840000
11
102.828250
21
134.370115
0
LINE
8
Layer 1
10
102.828250
20
134.370115
11
102.298030
21
134.589700
0
LINE
8
Layer 1
10
102.298030
20
134.589700
11
101.767795
21
134.370149
0
LINE
8
Layer 1
10
101.767795
20
134.370149
11
101.548000
21
133.840000
0
LINE
8
Layer 1
10
101.548000
20
133.840000
11
101.767754
21
133.309881
0
LINE
8
Layer 1
10
101.767754
20
133.309881
11
102.297970
21
133.090300
0
LINE
8
Layer 1
10
102.297970
20
133.090300
11
102.828209
21
133.309844
0
LINE
8
Layer 1
10
102.828209
20
133.309844
11
103.048000
21
133.840000
0
LINE
8
Layer 1
10
103.048000
20
133.840000
11
103.048000
21
133.840000
0
LINE
8
Layer 1
10
64.250700
20
118.312000
11
64.109501
21
119.712667
0
LINE
8
Layer 1
10
64.109501
20
119.712667
11
63.704535
21
121.017253
0
LINE
8
Layer 1
10
63.704535
20
121.017253
11
63.063750
21
122.197809
0
LINE
8
Layer 1
10
63.063750
20
122.197809
11
62.215094
21
123.226389
0
LINE
8
Layer 1
10
62.215094
20
123.226389
11
61.186514
21
124.075045
0
LINE
8
Layer 1
10
61.186514
20
124.075045
11
60.005958
21
124.715830
0
LINE
8
Layer 1
10
60.005958
20
124.715830
11
58.701374
21
125.120798
0
LINE
8
Layer 1
10
58.701374
20
125.120798
11
57.300710
21
125.262000
0
LINE
8
Layer 1
10
57.300710
20
125.262000
11
55.900046
21
125.120798
0
LINE
8
Layer 1
10
55.900046
20
125.120798
11
54.595462
21
124.715830
0
LINE
8
Layer 1
10
54.595462
20
124.715830
11
53.414906
21
124.075045
0
LINE
8
Layer 1
10
53.414906
20
124.075045
11
52.386326
21
123.226389
0
LINE
8
Layer 1
10
52.386326
20
123.226389
11
51.537670
21
122.197809
0
LINE
8
Layer 1
10
51.537670
20
122.197809
11
50.896885
21
121.017253
0
LINE
8
Layer 1
10
50.896885
20
121.017253
11
50.491919
21
119.712667
0
LINE
8
Layer 1
10
50.491919
20
119.712667
11
50.350720
21
118.312000
0
LINE
8
Layer 1
10
50.350720
20
118.312000
11
50.491919
21
116.911336
0
LINE
8
Layer 1
10
50.491919
20
116.911336
11
50.896885
21
115.606752
0
LINE
8
Layer 1
10
50.896885
20
115.606752
11
51.537670
21
114.426196
0
LINE
8
Layer 1
10
51.537670
20
114.426196
11
52.386326
21
113.397615
0
LINE
8
Layer 1
10
52.386326
20
113.397615
11
53.414906
21
112.548958
0
LINE
8
Layer 1
10
53.414906
20
112.548958
11
54.595462
21
111.908171
0
LINE
8
Layer 1
10
54.595462
20
111.908171
11
55.900046
21
111.503203
0
LINE
8
Layer 1
10
55.900046
20
111.503203
11
57.300710
21
111.362000
0
LINE
8
Layer 1
10
57.300710
20
111.362000
11
58.701377
21
111.503203
0
LINE
8
Layer 1
10
58.701377
20
111.503203
11
60.005962
21
111.908171
0
LINE
8
Layer 1
10
60.005962
20
111.908171
11
61.186518
21
112.548958
0
LINE
8
Layer 1
10
61.186518
20
112.548958
11
62.215097
21
113.397615
0
LINE
8
Layer 1
10
62.215097
20
113.397615
11
63.063753
21
114.426196
0
LINE
8
Layer 1
10
63.063753
20
114.426196
11
63.704536
21
115.606752
0
LINE
8
Layer 1
10
63.704536
20
115.606752
11
64.109501
21
116.911336
0
LINE
8
Layer 1
10
64.109501
20
116.911336
11
64.250700
21
118.312000
0
LINE
8
Layer 1
10
64.250700
20
118.312000
11
64.250700
21
118.312000
0
LINE
8
Layer 1
10
-9.493270
20
5.812260
11
-9.493270
21
-0.188490
0
LINE
8
Layer 1
10
63.509000
20
156.830000
11
59.077220
21
155.180150
0
LINE
8
Layer 1
10
59.077220
20
155.180150
11
54.729730
21
153.381516
0
LINE
8
Layer 1
10
54.729730
20
153.381516
11
50.469197
21
151.437474
0
LINE
8
Layer 1
10
50.469197
20
151.437474
11
46.298286
21
149.351396
0
LINE
8
Layer 1
10
46.298286
20
149.351396
11
42.219662
21
147.126657
0
LINE
8
Layer 1
10
42.219662
20
147.126657
11
38.235991
21
144.766631
0
LINE
8
Layer 1
10
38.235991
20
144.766631
11
34.349937
21
142.274692
0
LINE
8
Layer 1
10
34.349937
20
142.274692
11
30.564166
21
139.654213
0
LINE
8
Layer 1
10
30.564166
20
139.654213
11
26.881343
21
136.908568
0
LINE
8
Layer 1
10
26.881343
20
136.908568
11
23.304134
21
134.041131
0
LINE
8
Layer 1
10
23.304134
20
134.041131
11
19.835204
21
131.055277
0
LINE
8
Layer 1
10
19.835204
20
131.055277
11
16.477218
21
127.954379
0
LINE
8
Layer 1
10
16.477218
20
127.954379
11
13.232842
21
124.741811
0
LINE
8
Layer 1
10
13.232842
20
124.741811
11
10.104741
21
121.420946
0
LINE
8
Layer 1
10
10.104741
20
121.420946
11
7.095580
21
117.995160
0
LINE
8
Layer 1
10
7.095580
20
117.995160
11
4.208025
21
114.467825
0
LINE
8
Layer 1
10
4.208025
20
114.467825
11
1.444741
21
110.842316
0
LINE
8
Layer 1
10
1.444741
20
110.842316
11
-1.191608
21
107.122006
0
LINE
8
Layer 1
10
-1.191608
20
107.122006
11
-3.698354
21
103.310270
0
LINE
8
Layer 1
10
-3.698354
20
103.310270
11
-6.072834
21
99.410480
0
LINE
8
Layer 1
10
-6.072834
20
99.410480
11
-8.312382
21
95.426013
0
LINE
8
Layer 1
10
-8.312382
20
95.426013
11
-10.414332
21
91.360240
0
LINE
8
Layer 1
10
-10.414332
20
91.360240
11
-12.376019
21
87.216536
0
LINE
8
Layer 1
10
-12.376019
20
87.216536
11
-14.194778
21
82.998275
0
LINE
8
Layer 1
10
-14.194778
20
82.998275
11
-15.867944
21
78.708831
0
LINE
8
Layer 1
10
-15.867944
20
78.708831
11
-17.392851
21
74.351577
0
LINE
8
Layer 1
10
-17.392851
20
74.351577
11
-18.766834
21
69.929889
0
LINE
8
Layer 1
10
-18.766834
20
69.929889
11
-19.987227
21
65.447138
0
LINE
8
Layer 1
10
-19.987227
20
65.447138
11
-21.051366
21
60.906700
0
LINE
8
Layer 1
10
-21.051366
20
60.906700
11
-21.956584
21
56.311949
0
LINE
8
Layer 1
10
-21.956584
20
56.311949
11
-22.700217
21
51.666257
0
LINE
8
Layer 1
10
-22.700217
20
51.666257
11
-23.279600
21
46.973000
0
LINE
8
Layer 1
10
114.408000
20
98.475000
11
114.188250
21
99.005115
0
LINE
8
Layer 1
10
114.188250
20
99.005115
11
113.658030
21
99.224700
0
LINE
8
Layer 1
10
113.658030
20
99.224700
11
113.127791
21
99.005149
0
LINE
8
Layer 1
10
113.127791
20
99.005149
11
112.908000
21
98.475000
0
LINE
8
Layer 1
10
112.908000
20
98.475000
11
113.127750
21
97.944876
0
LINE
8
Layer 1
10
113.127750
20
97.944876
11
113.657970
21
97.725290
0
LINE
8
Layer 1
10
113.657970
20
97.725290
11
114.188205
21
97.944842
0
LINE
8
Layer 1
10
114.188205
20
97.944842
11
114.408000
21
98.475000
0
LINE
8
Layer 1
10
114.408000
20
98.475000
11
114.408000
21
98.475000
0
LINE
8
Layer 1
10
209.799000
20
5.812260
11
209.799000
21
-0.188490
0
LINE
8
Layer 1
10
209.799000
20
5.812260
11
196.093000
21
5.812260
0
LINE
8
Layer 1
10
127.564000
20
-0.188490
11
141.270000
21
-0.188490
0
LINE
8
Layer 1
10
113.859000
20
5.812260
11
113.859000
21
-0.188490
0
LINE
8
Layer 1
10
45.329700
20
5.812260
11
31.624000
21
5.812260
0
LINE
8
Layer 1
10
163.651000
20
118.312000
11
163.509801
21
119.712667
0
LINE
8
Layer 1
10
163.509801
20
119.712667
11
163.104836
21
121.017253
0
LINE
8
Layer 1
10
163.104836
20
121.017253
11
162.464053
21
122.197808
0
LINE
8
Layer 1
10
162.464053
20
122.197808
11
161.615398
21
123.226388
0
LINE
8
Layer 1
10
161.615398
20
123.226388
11
160.586818
21
124.075043
0
LINE
8
Layer 1
10
160.586818
20
124.075043
11
159.406262
21
124.715826
0
LINE
8
Layer 1
10
159.406262
20
124.715826
11
158.101677
21
125.120791
0
LINE
8
Layer 1
10
158.101677
20
125.120791
11
156.701010
21
125.261990
0
LINE
8
Layer 1
10
156.701010
20
125.261990
11
155.300346
21
125.120791
0
LINE
8
Layer 1
10
155.300346
20
125.120791
11
153.995763
21
124.715826
0
LINE
8
Layer 1
10
153.995763
20
124.715826
11
152.815209
21
124.075043
0
LINE
8
Layer 1
10
152.815209
20
124.075043
11
151.786630
21
123.226388
0
LINE
8
Layer 1
10
151.786630
20
123.226388
11
150.937974
21
122.197808
0
LINE
8
Layer 1
10
150.937974
20
122.197808
11
150.297189
21
121.017253
0
LINE
8
Layer 1
10
150.297189
20
121.017253
11
149.892222
21
119.712667
0
LINE
8
Layer 1
10
149.892222
20
119.712667
11
149.751020
21
118.312000
0
LINE
8
Layer 1
10
149.751020
20
118.312000
11
149.892222
21
116.911336
0
LINE
8
Layer 1
10
149.892222
20
116.911336
11
150.297189
21
115.606752
0
LINE
8
Layer 1
10
150.297189
20
115.606752
11
150.937974
21
114.426196
0
LINE
8
Layer 1
10
150.937974
20
114.426196
11
151.786630
21
113.397616
0
LINE
8
Layer 1
10
151.786630
20
113.397616
11
152.815209
21
112.548960
0
LINE
8
Layer 1
10
152.815209
20
112.548960
11
153.995763
21
111.908175
0
LINE
8
Layer 1
10
153.995763
20
111.908175
11
155.300346
21
111.503209
0
LINE
8
Layer 1
10
155.300346
20
111.503209
11
156.701010
21
111.362010
0
LINE
8
Layer 1
10
156.701010
20
111.362010
11
158.101677
21
111.503209
0
LINE
8
Layer 1
10
158.101677
20
111.503209
11
159.406262
21
111.908175
0
LINE
8
Layer 1
10
159.406262
20
111.908175
11
160.586818
21
112.548960
0
LINE
8
Layer 1
10
160.586818
20
112.548960
11
161.615398
21
113.397616
0
LINE
8
Layer 1
10
161.615398
20
113.397616
11
162.464053
21
114.426196
0
LINE
8
Layer 1
10
162.464053
20
114.426196
11
163.104836
21
115.606752
0
LINE
8
Layer 1
10
163.104836
20
115.606752
11
163.509801
21
116.911336
0
LINE
8
Layer 1
10
163.509801
20
116.911336
11
163.651000
21
118.312000
0
LINE
8
Layer 1
10
163.651000
20
118.312000
11
163.651000
21
118.312000
0
LINE
8
Layer 1
10
72.741300
20
5.812260
11
72.741300
21
-0.188490
0
LINE
8
Layer 1
10
-23.199200
20
5.812260
11
-23.199200
21
-0.188490
0
LINE
8
Layer 1
10
45.329700
20
5.812260
11
45.329700
21
-0.188490
0
LINE
8
Layer 1
10
107.751000
20
103.312000
11
107.531145
21
103.841990
0
LINE
8
Layer 1
10
107.531145
20
103.841990
11
107.001000
21
104.061480
0
LINE
8
Layer 1
10
107.001000
20
104.061480
11
106.470851
21
103.841990
0
LINE
8
Layer 1
10
106.470851
20
103.841990
11
106.251000
21
103.312000
0
LINE
8
Layer 1
10
106.251000
20
103.312000
11
106.470851
21
102.782006
0
LINE
8
Layer 1
10
106.470851
20
102.782006
11
107.001000
21
102.562520
0
LINE
8
Layer 1
10
107.001000
20
102.562520
11
107.531145
21
102.782006
0
LINE
8
Layer 1
10
107.531145
20
102.782006
11
107.751000
21
103.312000
0
LINE
8
Layer 1
10
107.751000
20
103.312000
11
107.751000
21
103.312000
0
LINE
8
Layer 1
10
100.142000
20
142.784000
11
99.922247
21
143.314124
0
LINE
8
Layer 1
10
99.922247
20
143.314124
11
99.392032
21
143.533710
0
LINE
8
Layer 1
10
99.392032
20
143.533710
11
98.861793
21
143.314157
0
LINE
8
Layer 1
10
98.861793
20
143.314157
11
98.642002
21
142.784000
0
LINE
8
Layer 1
10
98.642002
20
142.784000
11
98.861752
21
142.253885
0
LINE
8
Layer 1
10
98.861752
20
142.253885
11
99.391972
21
142.034300
0
LINE
8
Layer 1
10
99.391972
20
142.034300
11
99.922206
21
142.253851
0
LINE
8
Layer 1
10
99.922206
20
142.253851
11
100.142000
21
142.784000
0
LINE
8
Layer 1
10
100.142000
20
142.784000
11
100.142000
21
142.784000
0
LINE
8
Layer 1
10
107.001000
20
293.312000
11
103.528620
21
290.023012
0
LINE
8
Layer 1
10
103.528620
20
290.023012
11
100.181283
21
286.635598
0
LINE
8
Layer 1
10
100.181283
20
286.635598
11
96.960119
21
283.153304
0
LINE
8
Layer 1
10
96.960119
20
283.153304
11
93.866257
21
279.579676
0
LINE
8
Layer 1
10
93.866257
20
279.579676
11
90.900827
21
275.918258
0
LINE
8
Layer 1
10
90.900827
20
275.918258
11
88.064958
21
272.172595
0
LINE
8
Layer 1
10
88.064958
20
272.172595
11
85.359780
21
268.346234
0
LINE
8
Layer 1
10
85.359780
20
268.346234
11
82.786423
21
264.442719
0
LINE
8
Layer 1
10
82.786423
20
264.442719
11
80.346017
21
260.465595
0
LINE
8
Layer 1
10
80.346017
20
260.465595
11
78.039690
21
256.418409
0
LINE
8
Layer 1
10
78.039690
20
256.418409
11
75.868572
21
252.304704
0
LINE
8
Layer 1
10
75.868572
20
252.304704
11
73.833794
21
248.128027
0
LINE
8
Layer 1
10
73.833794
20
248.128027
11
70.177773
21
239.599937
0
LINE
8
Layer 1
10
70.177773
20
239.599937
11
67.080663
21
230.862500
0
LINE
8
Layer 1
10
67.080663
20
230.862500
11
64.551500
21
221.944079
0
LINE
8
Layer 1
10
64.551500
20
221.944079
11
62.599323
21
212.873035
0
LINE
8
Layer 1
10
62.599323
20
212.873035
11
61.842428
21
208.289143
0
LINE
8
Layer 1
10
61.842428
20
208.289143
11
61.233168
21
203.677732
0
LINE
8
Layer 1
10
61.233168
20
203.677732
11
60.772672
21
199.042346
0
LINE
8
Layer 1
10
60.772672
20
199.042346
11
60.462070
21
194.386531
0
LINE
8
Layer 1
10
60.462070
20
194.386531
11
60.302493
21
189.713833
0
LINE
8
Layer 1
10
60.302493
20
189.713833
11
60.295068
21
185.027795
0
LINE
8
Layer 1
10
60.295068
20
185.027795
11
60.440927
21
180.331965
0
LINE
8
Layer 1
10
60.440927
20
180.331965
11
60.741198
21
175.629887
0
LINE
8
Layer 1
10
60.741198
20
175.629887
11
61.197011
21
170.925106
0
LINE
8
Layer 1
10
61.197011
20
170.925106
11
61.809496
21
166.221167
0
LINE
8
Layer 1
10
61.809496
20
166.221167
11
62.579783
21
161.521617
0
LINE
8
Layer 1
10
62.579783
20
161.521617
11
63.509000
21
156.830000
0
LINE
8
Layer 1
10
154.976000
20
5.812260
11
154.976000
21
-0.188490
0
LINE
8
Layer 1
10
182.388000
20
5.812260
11
168.682000
21
5.812260
0
LINE
8
Layer 1
10
111.001000
20
140.312000
11
110.919734
21
141.118140
0
LINE
8
Layer 1
10
110.919734
20
141.118140
11
110.686660
21
141.868981
0
LINE
8
Layer 1
10
110.686660
20
141.868981
11
109.829428
21
143.140427
0
LINE
8
Layer 1
10
109.829428
20
143.140427
11
108.557981
21
143.997660
0
LINE
8
Layer 1
10
108.557981
20
143.997660
11
107.807140
21
144.230734
0
LINE
8
Layer 1
10
107.807140
20
144.230734
11
107.001000
21
144.312000
0
LINE
8
Layer 1
10
107.001000
20
144.312000
11
106.194860
21
144.230734
0
LINE
8
Layer 1
10
106.194860
20
144.230734
11
105.444019
21
143.997660
0
LINE
8
Layer 1
10
105.444019
20
143.997660
11
104.172573
21
143.140427
0
LINE
8
Layer 1
10
104.172573
20
143.140427
11
103.315340
21
141.868981
0
LINE
8
Layer 1
10
103.315340
20
141.868981
11
103.082266
21
141.118140
0
LINE
8
Layer 1
10
103.082266
20
141.118140
11
103.001000
21
140.312000
0
LINE
8
Layer 1
10
103.001000
20
140.312000
11
103.082266
21
139.505861
0
LINE
8
Layer 1
10
103.082266
20
139.505861
11
103.315340
21
138.755021
0
LINE
8
Layer 1
10
103.315340
20
138.755021
11
104.172573
21
137.483578
0
LINE
8
Layer 1
10
104.172573
20
137.483578
11
105.444019
21
136.626348
0
LINE
8
Layer 1
10
105.444019
20
136.626348
11
106.194860
21
136.393275
0
LINE
8
Layer 1
10
106.194860
20
136.393275
11
107.001000
21
136.312010
0
LINE
8
Layer 1
10
107.001000
20
136.312010
11
107.807140
21
136.393275
0
LINE
8
Layer 1
10
107.807140
20
136.393275
11
108.557981
21
136.626348
0
LINE
8
Layer 1
10
108.557981
20
136.626348
11
109.829428
21
137.483578
0
LINE
8
Layer 1
10
109.829428
20
137.483578
11
110.686660
21
138.755021
0
LINE
8
Layer 1
10
110.686660
20
138.755021
11
110.919734
21
139.505861
0
LINE
8
Layer 1
10
110.919734
20
139.505861
11
111.001000
21
140.312000
0
LINE
8
Layer 1
10
111.001000
20
140.312000
11
111.001000
21
140.312000
0
LINE
8
Layer 1
10
154.976000
20
-0.188490
11
168.682000
21
-0.188490
0
LINE
8
Layer 1
10
103.636000
20
90.648700
11
103.416246
21
91.178824
0
LINE
8
Layer 1
10
103.416246
20
91.178824
11
102.886030
21
91.398410
0
LINE
8
Layer 1
10
102.886030
20
91.398410
11
102.355795
21
91.178857
0
LINE
8
Layer 1
10
102.355795
20
91.178857
11
102.136000
21
90.648700
0
LINE
8
Layer 1
10
102.136000
20
90.648700
11
102.355750
21
90.118585
0
LINE
8
Layer 1
10
102.355750
20
90.118585
11
102.885970
21
89.899000
0
LINE
8
Layer 1
10
102.885970
20
89.899000
11
103.416205
21
90.118551
0
LINE
8
Layer 1
10
103.416205
20
90.118551
11
103.636000
21
90.648700
0
LINE
8
Layer 1
10
103.636000
20
90.648700
11
103.636000
21
90.648700
0
LINE
8
Layer 1
10
237.281000
20
46.973100
11
236.701623
21
51.666393
0
LINE
8
Layer 1
10
236.701623
20
51.666393
11
235.957994
21
56.312118
0
LINE
8
Layer 1
10
235.957994
20
56.312118
11
235.052779
21
60.906900
0
LINE
8
Layer 1
10
235.052779
20
60.906900
11
233.988644
21
65.447365
0
LINE
8
Layer 1
10
233.988644
20
65.447365
11
232.768254
21
69.930141
0
LINE
8
Layer 1
10
232.768254
20
69.930141
11
231.394273
21
74.351852
0
LINE
8
Layer 1
10
231.394273
20
74.351852
11
229.869368
21
78.709125
0
LINE
8
Layer 1
10
229.869368
20
78.709125
11
228.196203
21
82.998586
0
LINE
8
Layer 1
10
228.196203
20
82.998586
11
226.377445
21
87.216861
0
LINE
8
Layer 1
10
226.377445
20
87.216861
11
224.415758
21
91.360577
0
LINE
8
Layer 1
10
224.415758
20
91.360577
11
222.313808
21
95.426360
0
LINE
8
Layer 1
10
222.313808
20
95.426360
11
220.074260
21
99.410835
0
LINE
8
Layer 1
10
220.074260
20
99.410835
11
217.699780
21
103.310630
0
LINE
8
Layer 1
10
217.699780
20
103.310630
11
215.193032
21
107.122369
0
LINE
8
Layer 1
10
215.193032
20
107.122369
11
212.556683
21
110.842680
0
LINE
8
Layer 1
10
212.556683
20
110.842680
11
209.793398
21
114.468188
0
LINE
8
Layer 1
10
209.793398
20
114.468188
11
206.905841
21
117.995519
0
LINE
8
Layer 1
10
206.905841
20
117.995519
11
203.896678
21
121.421300
0
LINE
8
Layer 1
10
203.896678
20
121.421300
11
200.768575
21
124.742157
0
LINE
8
Layer 1
10
200.768575
20
124.742157
11
197.524197
21
127.954716
0
LINE
8
Layer 1
10
197.524197
20
127.954716
11
194.166210
21
131.055603
0
LINE
8
Layer 1
10
194.166210
20
131.055603
11
190.697278
21
134.041445
0
LINE
8
Layer 1
10
190.697278
20
134.041445
11
187.120067
21
136.908867
0
LINE
8
Layer 1
10
187.120067
20
136.908867
11
183.437243
21
139.654495
0
LINE
8
Layer 1
10
183.437243
20
139.654495
11
179.651470
21
142.274957
0
LINE
8
Layer 1
10
179.651470
20
142.274957
11
175.765415
21
144.766877
0
LINE
8
Layer 1
10
175.765415
20
144.766877
11
171.781741
21
147.126882
0
LINE
8
Layer 1
10
171.781741
20
147.126882
11
167.703116
21
149.351599
0
LINE
8
Layer 1
10
167.703116
20
149.351599
11
163.532204
21
151.437653
0
LINE
8
Layer 1
10
163.532204
20
151.437653
11
159.271670
21
153.381670
0
LINE
8
Layer 1
10
159.271670
20
153.381670
11
154.924181
21
155.180277
0
LINE
8
Layer 1
10
154.924181
20
155.180277
11
150.492400
21
156.830100
0
LINE
8
Layer 1
10
196.093000
20
5.812260
11
196.093000
21
-0.188490
0
LINE
8
Layer 1
10
101.093000
20
98.475000
11
100.872892
21
99.004529
0
LINE
8
Layer 1
10
100.872892
20
99.004529
11
100.342990
21
99.223760
0
LINE
8
Layer 1
10
100.342990
20
99.223760
11
99.813103
21
99.004525
0
LINE
8
Layer 1
10
99.813103
20
99.004525
11
99.593002
21
98.475000
0
LINE
8
Layer 1
10
99.593002
20
98.475000
11
99.812755
21
97.944876
0
LINE
8
Layer 1
10
99.812755
20
97.944876
11
100.342970
21
97.725290
0
LINE
8
Layer 1
10
100.342970
20
97.725290
11
100.873205
21
97.944842
0
LINE
8
Layer 1
10
100.873205
20
97.944842
11
101.093000
21
98.475000
0
LINE
8
Layer 1
10
101.093000
20
98.475000
11
101.093000
21
98.475000
0
LINE
8
Layer 1
10
-9.493270
20
-0.188490
11
4.212390
21
-0.188490
0
LINE
8
Layer 1
10
182.388000
20
-0.188490
11
196.093000
21
-0.188490
0
LINE
8
Layer 1
10
100.153000
20
5.812260
11
86.447200
21
5.812260
0
LINE
8
Layer 1
10
17.918100
20
5.812260
11
4.212390
21
5.812260
0
LINE
8
Layer 1
10
31.624000
20
5.812260
11
31.624000
21
-0.188490
0
LINE
8
Layer 1
10
150.492000
20
156.830000
11
151.421280
21
161.521617
0
LINE
8
Layer 1
10
151.421280
20
161.521617
11
152.191624
21
166.221167
0
LINE
8
Layer 1
10
152.191624
20
166.221167
11
152.804161
21
170.925106
0
LINE
8
Layer 1
10
152.804161
20
170.925106
11
153.260021
21
175.629887
0
LINE
8
Layer 1
10
153.260021
20
175.629887
11
153.560335
21
180.331965
0
LINE
8
Layer 1
10
153.560335
20
180.331965
11
153.706233
21
185.027795
0
LINE
8
Layer 1
10
153.706233
20
185.027795
11
153.698843
21
189.713833
0
LINE
8
Layer 1
10
153.698843
20
189.713833
11
153.539297
21
194.386531
0
LINE
8
Layer 1
10
153.539297
20
194.386531
11
153.228724
21
199.042346
0
LINE
8
Layer 1
10
153.228724
20
199.042346
11
152.768254
21
203.677732
0
LINE
8
Layer 1
10
152.768254
20
203.677732
11
152.159017
21
208.289143
0
LINE
8
Layer 1
10
152.159017
20
208.289143
11
151.402143
21
212.873035
0
LINE
8
Layer 1
10
151.402143
20
212.873035
11
149.450003
21
221.944079
0
LINE
8
Layer 1
10
149.450003
20
221.944079
11
146.920875
21
230.862500
0
LINE
8
Layer 1
10
146.920875
20
230.862500
11
143.823798
21
239.599937
0
LINE
8
Layer 1
10
143.823798
20
239.599937
11
140.167811
21
248.128027
0
LINE
8
Layer 1
10
140.167811
20
248.128027
11
138.133051
21
252.304704
0
LINE
8
Layer 1
10
138.133051
20
252.304704
11
135.961953
21
256.418409
0
LINE
8
Layer 1
10
135.961953
20
256.418409
11
133.655648
21
260.465595
0
LINE
8
Layer 1
10
133.655648
20
260.465595
11
131.215266
21
264.442719
0
LINE
8
Layer 1
10
131.215266
20
264.442719
11
128.641935
21
268.346234
0
LINE
8
Layer 1
10
128.641935
20
268.346234
11
125.936787
21
272.172595
0
LINE
8
Layer 1
10
125.936787
20
272.172595
11
123.100951
21
275.918258
0
LINE
8
Layer 1
10
123.100951
20
275.918258
11
120.135557
21
279.579676
0
LINE
8
Layer 1
10
120.135557
20
279.579676
11
117.041735
21
283.153304
0
LINE
8
Layer 1
10
117.041735
20
283.153304
11
113.820615
21
286.635598
0
LINE
8
Layer 1
10
113.820615
20
286.635598
11
110.473326
21
290.023012
0
LINE
8
Layer 1
10
110.473326
20
290.023012
11
107.001000
21
293.312000
0
LINE
8
Layer 1
10
237.210000
20
5.812260
11
223.505000
21
5.812260
0
LINE
8
Layer 1
10
100.153000
20
-0.188490
11
113.859000
21
-0.188490
0
LINE
8
Layer 1
10
72.741300
20
-0.188490
11
86.447200
21
-0.188490
0
LINE
8
Layer 1
10
111.865000
20
90.648700
11
111.645251
21
91.178824
0
LINE
8
Layer 1
10
111.645251
20
91.178824
11
111.115040
21
91.398410
0
LINE
8
Layer 1
10
111.115040
20
91.398410
11
110.584796
21
91.178857
0
LINE
8
Layer 1
10
110.584796
20
91.178857
11
110.365000
21
90.648700
0
LINE
8
Layer 1
10
110.365000
20
90.648700
11
110.584754
21
90.118585
0
LINE
8
Layer 1
10
110.584754
20
90.118585
11
111.114970
21
89.899000
0
LINE
8
Layer 1
10
111.114970
20
89.899000
11
111.645209
21
90.118551
0
LINE
8
Layer 1
10
111.645209
20
90.118551
11
111.865000
21
90.648700
0
LINE
8
Layer 1
10
111.865000
20
90.648700
11
111.865000
21
90.648700
0
LINE
8
Layer 1
10
90.589100
20
135.603000
11
90.273403
21
135.497824
0
LINE
8
Layer 1
10
90.273403
20
135.497824
11
89.648368
21
134.988558
0
LINE
8
Layer 1
10
89.648368
20
134.988558
11
87.164510
21
132.588200
0
LINE
8
Layer 1
10
87.164510
20
132.588200
11
84.603710
21
129.822497
0
LINE
8
Layer 1
10
84.603710
20
129.822497
11
83.810175
21
128.662200
0
LINE
8
Layer 1
10
83.810175
20
128.662200
11
83.309585
21
127.553483
0
LINE
8
Layer 1
10
83.309585
20
127.553483
11
83.078217
21
126.423755
0
LINE
8
Layer 1
10
83.078217
20
126.423755
11
83.092348
21
125.200426
0
LINE
8
Layer 1
10
83.092348
20
125.200426
11
83.328253
21
123.810905
0
LINE
8
Layer 1
10
83.328253
20
123.810905
11
83.762210
21
122.182600
0
LINE
8
Layer 1
10
83.762210
20
122.182600
11
84.665520
21
119.134230
0
LINE
8
Layer 1
10
84.665520
20
119.134230
11
85.801810
21
122.502480
0
LINE
8
Layer 1
10
85.801810
20
122.502480
11
87.085881
21
125.882253
0
LINE
8
Layer 1
10
87.085881
20
125.882253
11
88.577410
21
129.278300
0
LINE
8
Layer 1
10
88.577410
20
129.278300
11
89.831174
21
132.206302
0
LINE
8
Layer 1
10
89.831174
20
132.206302
11
90.542620
21
134.460430
0
LINE
8
Layer 1
10
90.542620
20
134.460430
11
90.667858
21
135.255468
0
LINE
8
Layer 1
10
90.667858
20
135.255468
11
90.589620
21
135.602980
0
LINE
8
Layer 1
10
90.589620
20
135.602980
11
90.589100
21
135.603000
0
LINE
8
Layer 1
10
98.180400
20
249.895000
11
98.003700
21
249.873800
0
LINE
8
Layer 1
10
98.003700
20
249.873800
11
96.447045
21
248.393734
0
LINE
8
Layer 1
10
96.447045
20
248.393734
11
93.426195
21
245.113178
0
LINE
8
Layer 1
10
93.426195
20
245.113178
11
87.375900
21
238.034200
0
LINE
8
Layer 1
10
87.375900
20
238.034200
11
85.314484
21
235.097835
0
LINE
8
Layer 1
10
85.314484
20
235.097835
11
83.488800
21
232.074860
0
LINE
8
Layer 1
10
83.488800
20
232.074860
11
82.182808
21
229.778558
0
LINE
8
Layer 1
10
82.182808
20
229.778558
11
81.134370
21
228.264833
0
LINE
8
Layer 1
10
81.134370
20
228.264833
11
80.259594
21
227.431518
0
LINE
8
Layer 1
10
80.259594
20
227.431518
11
79.474590
21
227.176450
0
LINE
8
Layer 1
10
79.474590
20
227.176450
11
78.830788
21
227.507667
0
LINE
8
Layer 1
10
78.830788
20
227.507667
11
77.629877
21
228.409501
0
LINE
8
Layer 1
10
77.629877
20
228.409501
11
74.243390
21
231.374130
0
LINE
8
Layer 1
10
74.243390
20
231.374130
11
70.027015
21
234.982709
0
LINE
8
Layer 1
10
70.027015
20
234.982709
11
67.986168
21
236.463707
0
LINE
8
Layer 1
10
67.986168
20
236.463707
11
65.967390
21
237.744800
0
LINE
8
Layer 1
10
65.967390
20
237.744800
11
64.185590
21
232.639680
0
LINE
8
Layer 1
10
64.185590
20
232.639680
11
66.571361
21
230.890439
0
LINE
8
Layer 1
10
66.571361
20
230.890439
11
68.815451
21
228.862216
0
LINE
8
Layer 1
10
68.815451
20
228.862216
11
70.870426
21
226.616949
0
LINE
8
Layer 1
10
70.870426
20
226.616949
11
72.688852
21
224.216576
0
LINE
8
Layer 1
10
72.688852
20
224.216576
11
74.223296
21
221.723035
0
LINE
8
Layer 1
10
74.223296
20
221.723035
11
75.426323
21
219.198263
0
LINE
8
Layer 1
10
75.426323
20
219.198263
11
76.250499
21
216.704199
0
LINE
8
Layer 1
10
76.250499
20
216.704199
11
76.648390
21
214.302780
0
LINE
8
Layer 1
10
76.648390
20
214.302780
11
76.642591
21
211.823846
0
LINE
8
Layer 1
10
76.642591
20
211.823846
11
76.428007
21
211.124004
0
LINE
8
Layer 1
10
76.428007
20
211.124004
11
76.051500
21
210.655980
0
LINE
8
Layer 1
10
76.051500
20
210.655980
11
75.516820
21
210.375197
0
LINE
8
Layer 1
10
75.516820
20
210.375197
11
74.846716
21
210.289527
0
LINE
8
Layer 1
10
74.846716
20
210.289527
11
74.063631
21
210.390018
0
LINE
8
Layer 1
10
74.063631
20
210.390018
11
73.190009
21
210.667717
0
LINE
8
Layer 1
10
73.190009
20
210.667717
11
71.260922
21
211.718939
0
LINE
8
Layer 1
10
71.260922
20
211.718939
11
69.239000
21
213.371580
0
LINE
8
Layer 1
10
69.239000
20
213.371580
11
68.088820
21
214.564206
0
LINE
8
Layer 1
10
68.088820
20
214.564206
11
67.359896
21
215.600179
0
LINE
8
Layer 1
10
67.359896
20
215.600179
11
66.929624
21
216.706020
0
LINE
8
Layer 1
10
66.929624
20
216.706020
11
66.675400
21
218.108250
0
LINE
8
Layer 1
10
66.675400
20
218.108250
11
66.106900
21
222.253720
0
LINE
8
Layer 1
10
66.106900
20
222.253720
11
65.741288
21
223.097112
0
LINE
8
Layer 1
10
65.741288
20
223.097112
11
64.926694
21
224.319750
0
LINE
8
Layer 1
10
64.926694
20
224.319750
11
62.544290
21
227.247740
0
LINE
8
Layer 1
10
62.544290
20
227.247740
11
61.088590
21
221.733860
0
LINE
8
Layer 1
10
61.088590
20
221.733860
11
61.433290
21
221.139060
0
LINE
8
Layer 1
10
61.433290
20
221.139060
11
63.604180
21
217.460220
0
LINE
8
Layer 1
10
63.604180
20
217.460220
11
64.091244
21
216.515653
0
LINE
8
Layer 1
10
64.091244
20
216.515653
11
64.027516
21
216.317257
0
LINE
8
Layer 1
10
64.027516
20
216.317257
11
63.795576
21
216.294000
0
LINE
8
Layer 1
10
63.795576
20
216.294000
11
62.936938
21
216.750542
0
LINE
8
Layer 1
10
62.936938
20
216.750542
11
61.735090
21
217.840560
0
LINE
8
Layer 1
10
61.735090
20
217.840560
11
61.128705
21
218.648961
0
LINE
8
Layer 1
10
61.128705
20
218.648961
11
60.582680
21
219.655430
0
LINE
8
Layer 1
10
60.582680
20
219.655430
11
59.755380
21
215.768850
0
LINE
8
Layer 1
10
59.755380
20
215.768850
11
61.270514
21
214.914141
0
LINE
8
Layer 1
10
61.270514
20
214.914141
11
63.151490
21
214.256270
0
LINE
8
Layer 1
10
63.151490
20
214.256270
11
64.766154
21
213.608650
0
LINE
8
Layer 1
10
64.766154
20
213.608650
11
66.718928
21
212.498635
0
LINE
8
Layer 1
10
66.718928
20
212.498635
11
68.858995
21
211.048355
0
LINE
8
Layer 1
10
68.858995
20
211.048355
11
71.035540
21
209.379942
0
LINE
8
Layer 1
10
71.035540
20
209.379942
11
73.097748
21
207.615527
0
LINE
8
Layer 1
10
73.097748
20
207.615527
11
74.894802
21
205.877239
0
LINE
8
Layer 1
10
74.894802
20
205.877239
11
76.275888
21
204.287210
0
LINE
8
Layer 1
10
76.275888
20
204.287210
11
77.090190
21
202.967570
0
LINE
8
Layer 1
10
77.090190
20
202.967570
11
77.573490
21
201.084942
0
LINE
8
Layer 1
10
77.573490
20
201.084942
11
77.770806
21
198.829567
0
LINE
8
Layer 1
10
77.770806
20
198.829567
11
77.667615
21
196.854157
0
LINE
8
Layer 1
10
77.667615
20
196.854157
11
77.498789
21
196.175410
0
LINE
8
Layer 1
10
77.498789
20
196.175410
11
77.249390
21
195.811420
0
LINE
8
Layer 1
10
77.249390
20
195.811420
11
76.670560
21
195.890941
0
LINE
8
Layer 1
10
76.670560
20
195.890941
11
75.494927
21
196.355049
0
LINE
8
Layer 1
10
75.494927
20
196.355049
11
72.037290
21
198.132210
0
LINE
8
Layer 1
10
72.037290
20
198.132210
11
67.995184
21
200.311558
0
LINE
8
Layer 1
10
67.995184
20
200.311558
11
64.657731
21
201.808587
0
LINE
8
Layer 1
10
64.657731
20
201.808587
11
61.662333
21
202.763731
0
LINE
8
Layer 1
10
61.662333
20
202.763731
11
58.646390
21
203.317420
0
LINE
8
Layer 1
10
58.646390
20
203.317420
11
57.819090
21
203.405820
0
LINE
8
Layer 1
10
57.819090
20
203.405820
11
57.469690
21
200.068560
0
LINE
8
Layer 1
10
57.469690
20
200.068560
11
60.268500
21
199.237222
0
LINE
8
Layer 1
10
60.268500
20
199.237222
11
63.121044
21
198.170880
0
LINE
8
Layer 1
10
63.121044
20
198.170880
11
65.757960
21
196.972433
0
LINE
8
Layer 1
10
65.757960
20
196.972433
11
67.909890
21
195.744780
0
LINE
8
Layer 1
10
67.909890
20
195.744780
11
70.949263
21
193.422861
0
LINE
8
Layer 1
10
70.949263
20
193.422861
11
73.768919
21
190.578254
0
LINE
8
Layer 1
10
73.768919
20
190.578254
11
76.555910
21
186.996559
0
LINE
8
Layer 1
10
76.555910
20
186.996559
11
79.497290
21
182.463380
0
LINE
8
Layer 1
10
79.497290
20
182.463380
11
82.408517
21
177.954807
0
LINE
8
Layer 1
10
82.408517
20
177.954807
11
85.101952
21
174.538749
0
LINE
8
Layer 1
10
85.101952
20
174.538749
11
87.993782
21
171.752906
0
LINE
8
Layer 1
10
87.993782
20
171.752906
11
91.500190
21
169.134980
0
LINE
8
Layer 1
10
91.500190
20
169.134980
11
94.274431
21
167.095181
0
LINE
8
Layer 1
10
94.274431
20
167.095181
11
96.610616
21
165.013075
0
LINE
8
Layer 1
10
96.610616
20
165.013075
11
98.672716
21
162.725776
0
LINE
8
Layer 1
10
98.672716
20
162.725776
11
100.624700
21
160.070400
0
LINE
8
Layer 1
10
100.624700
20
160.070400
11
103.651400
21
156.054110
0
LINE
8
Layer 1
10
103.651400
20
156.054110
11
104.778701
21
155.047542
0
LINE
8
Layer 1
10
104.778701
20
155.047542
11
105.692110
21
154.628840
0
LINE
8
Layer 1
10
105.692110
20
154.628840
11
106.164350
21
154.848906
0
LINE
8
Layer 1
10
106.164350
20
154.848906
11
106.924063
21
155.435899
0
LINE
8
Layer 1
10
106.924063
20
155.435899
11
108.873860
21
157.271451
0
LINE
8
Layer 1
10
108.873860
20
157.271451
11
110.677407
21
159.257058
0
LINE
8
Layer 1
10
110.677407
20
159.257058
11
111.254307
21
160.031619
0
LINE
8
Layer 1
10
111.254307
20
160.031619
11
111.470610
21
160.514280
0
LINE
8
Layer 1
10
111.470610
20
160.514280
11
111.205635
21
160.716159
0
LINE
8
Layer 1
10
111.205635
20
160.716159
11
110.566710
21
160.577380
0
LINE
8
Layer 1
10
110.566710
20
160.577380
11
109.445547
21
160.193473
0
LINE
8
Layer 1
10
109.445547
20
160.193473
11
108.390905
21
160.023365
0
LINE
8
Layer 1
10
108.390905
20
160.023365
11
107.382607
21
160.075343
0
LINE
8
Layer 1
10
107.382607
20
160.075343
11
106.400474
21
160.357691
0
LINE
8
Layer 1
10
106.400474
20
160.357691
11
105.424327
21
160.878698
0
LINE
8
Layer 1
10
105.424327
20
160.878698
11
104.433988
21
161.646649
0
LINE
8
Layer 1
10
104.433988
20
161.646649
11
102.330020
21
163.956530
0
LINE
8
Layer 1
10
102.330020
20
163.956530
11
100.732647
21
166.322411
0
LINE
8
Layer 1
10
100.732647
20
166.322411
11
99.045020
21
169.409156
0
LINE
8
Layer 1
10
99.045020
20
169.409156
11
97.323184
21
173.073567
0
LINE
8
Layer 1
10
97.323184
20
173.073567
11
95.623179
21
177.172447
0
LINE
8
Layer 1
10
95.623179
20
177.172447
11
94.001048
21
181.562601
0
LINE
8
Layer 1
10
94.001048
20
181.562601
11
92.512833
21
186.100830
0
LINE
8
Layer 1
10
92.512833
20
186.100830
11
91.214576
21
190.643939
0
LINE
8
Layer 1
10
91.214576
20
190.643939
11
90.162320
21
195.048730
0
LINE
8
Layer 1
10
90.162320
20
195.048730
11
89.579194
21
198.171191
0
LINE
8
Layer 1
10
89.579194
20
198.171191
11
89.230582
21
201.225389
0
LINE
8
Layer 1
10
89.230582
20
201.225389
11
89.063887
21
204.883282
0
LINE
8
Layer 1
10
89.063887
20
204.883282
11
89.026510
21
209.816830
0
LINE
8
Layer 1
10
89.026510
20
209.816830
11
89.077575
21
214.924346
0
LINE
8
Layer 1
10
89.077575
20
214.924346
11
89.260434
21
218.410400
0
LINE
8
Layer 1
10
89.260434
20
218.410400
11
89.657828
21
221.163794
0
LINE
8
Layer 1
10
89.657828
20
221.163794
11
90.352500
21
224.073330
0
LINE
8
Layer 1
10
90.352500
20
224.073330
11
91.266477
21
227.143271
0
LINE
8
Layer 1
10
91.266477
20
227.143271
11
92.359583
21
230.166056
0
LINE
8
Layer 1
10
92.359583
20
230.166056
11
93.607704
21
233.096233
0
LINE
8
Layer 1
10
93.607704
20
233.096233
11
94.986729
21
235.888347
0
LINE
8
Layer 1
10
94.986729
20
235.888347
11
96.472543
21
238.496948
0
LINE
8
Layer 1
10
96.472543
20
238.496948
11
98.041035
21
240.876580
0
LINE
8
Layer 1
10
98.041035
20
240.876580
11
99.668092
21
242.981792
0
LINE
8
Layer 1
10
99.668092
20
242.981792
11
101.329600
21
244.767130
0
LINE
8
Layer 1
10
101.329600
20
244.767130
11
102.638229
21
246.210067
0
LINE
8
Layer 1
10
102.638229
20
246.210067
11
103.182690
21
247.171640
0
LINE
8
Layer 1
10
103.182690
20
247.171640
11
103.012179
21
247.461326
0
LINE
8
Layer 1
10
103.012179
20
247.461326
11
102.553418
21
247.848088
0
LINE
8
Layer 1
10
102.553418
20
247.848088
11
101.087775
21
248.747676
0
LINE
8
Layer 1
10
101.087775
20
248.747676
11
99.419017
21
249.540084
0
LINE
8
Layer 1
10
99.419017
20
249.540084
11
98.180400
21
249.894990
0
LINE
8
Layer 1
10
98.180400
20
249.894990
11
98.180400
21
249.895000
0
LINE
8
Layer 1
10
202.742000
20
127.142000
11
203.557430
21
125.245480
0
LINE
8
Layer 1
10
203.557430
20
125.245480
11
204.601749
21
121.968949
0
LINE
8
Layer 1
10
204.601749
20
121.968949
11
205.522700
21
117.786500
0
LINE
8
Layer 1
10
205.522700
20
117.786500
11
206.000040
21
113.998758
0
LINE
8
Layer 1
10
206.000040
20
113.998758
11
206.029216
21
110.679653
0
LINE
8
Layer 1
10
206.029216
20
110.679653
11
205.604360
21
107.735221
0
LINE
8
Layer 1
10
205.604360
20
107.735221
11
204.719600
21
105.071500
0
LINE
8
Layer 1
10
204.719600
20
105.071500
11
203.882136
21
103.630410
0
LINE
8
Layer 1
10
203.882136
20
103.630410
11
203.345031
21
103.100442
0
LINE
8
Layer 1
10
203.345031
20
103.100442
11
202.675845
21
102.670018
0
LINE
8
Layer 1
10
202.675845
20
102.670018
11
200.781729
21
102.025281
0
LINE
8
Layer 1
10
200.781729
20
102.025281
11
197.880790
21
101.531160
0
LINE
8
Layer 1
10
197.880790
20
101.531160
11
195.860030
21
101.056990
0
LINE
8
Layer 1
10
195.860030
20
101.056990
11
194.051807
21
100.222792
0
LINE
8
Layer 1
10
194.051807
20
100.222792
11
192.473658
21
99.052069
0
LINE
8
Layer 1
10
192.473658
20
99.052069
11
191.143121
21
97.568326
0
LINE
8
Layer 1
10
191.143121
20
97.568326
11
190.077732
21
95.795069
0
LINE
8
Layer 1
10
190.077732
20
95.795069
11
189.295028
21
93.755803
0
LINE
8
Layer 1
10
189.295028
20
93.755803
11
188.812545
21
91.474031
0
LINE
8
Layer 1
10
188.812545
20
91.474031
11
188.647820
21
88.973260
0
LINE
8
Layer 1
10
188.647820
20
88.973260
11
188.783333
21
87.083556
0
LINE
8
Layer 1
10
188.783333
20
87.083556
11
189.134630
21
85.366779
0
LINE
8
Layer 1
10
189.134630
20
85.366779
11
189.618850
21
84.119342
0
LINE
8
Layer 1
10
189.618850
20
84.119342
11
189.884911
21
83.764256
0
LINE
8
Layer 1
10
189.884911
20
83.764256
11
190.153130
21
83.637660
0
LINE
8
Layer 1
10
190.153130
20
83.637660
11
190.810130
21
84.190880
0
LINE
8
Layer 1
10
190.810130
20
84.190880
11
191.960690
21
85.520740
0
LINE
8
Layer 1
10
191.960690
20
85.520740
11
192.886023
21
86.474269
0
LINE
8
Layer 1
10
192.886023
20
86.474269
11
194.145338
21
87.426841
0
LINE
8
Layer 1
10
194.145338
20
87.426841
11
195.758251
21
88.391550
0
LINE
8
Layer 1
10
195.758251
20
88.391550
11
197.744380
21
89.381490
0
LINE
8
Layer 1
10
197.744380
20
89.381490
11
199.804777
21
90.382532
0
LINE
8
Layer 1
10
199.804777
20
90.382532
11
201.439173
21
91.351057
0
LINE
8
Layer 1
10
201.439173
20
91.351057
11
202.737912
21
92.427891
0
LINE
8
Layer 1
10
202.737912
20
92.427891
11
203.791339
21
93.753859
0
LINE
8
Layer 1
10
203.791339
20
93.753859
11
204.689798
21
95.469787
0
LINE
8
Layer 1
10
204.689798
20
95.469787
11
205.523635
21
97.716501
0
LINE
8
Layer 1
10
205.523635
20
97.716501
11
207.358820
21
104.365590
0
LINE
8
Layer 1
10
207.358820
20
104.365590
11
208.350758
21
108.917919
0
LINE
8
Layer 1
10
208.350758
20
108.917919
11
208.898365
21
113.081110
0
LINE
8
Layer 1
10
208.898365
20
113.081110
11
209.009254
21
116.973116
0
LINE
8
Layer 1
10
209.009254
20
116.973116
11
208.691040
21
120.711890
0
LINE
8
Layer 1
10
208.691040
20
120.711890
11
202.742000
21
127.142010
0
LINE
8
Layer 1
10
202.742000
20
127.142010
11
202.742000
21
127.142000
0
LINE
8
Layer 1
10
202.259820
20
100.440300
11
202.591235
21
100.323465
0
LINE
8
Layer 1
10
202.591235
20
100.323465
11
202.388529
21
99.995861
0
LINE
8
Layer 1
10
202.388529
20
99.995861
11
200.397880
21
98.753070
0
LINE
8
Layer 1
10
200.397880
20
98.753070
11
198.240436
21
97.396997
0
LINE
8
Layer 1
10
198.240436
20
97.396997
11
196.252500
21
95.833850
0
LINE
8
Layer 1
10
196.252500
20
95.833850
11
194.984522
21
94.816285
0
LINE
8
Layer 1
10
194.984522
20
94.816285
11
194.623642
21
94.649071
0
LINE
8
Layer 1
10
194.623642
20
94.649071
11
194.449877
21
94.699541
0
LINE
8
Layer 1
10
194.449877
20
94.699541
11
194.678819
21
95.423451
0
LINE
8
Layer 1
10
194.678819
20
95.423451
11
195.701600
21
96.927850
0
LINE
8
Layer 1
10
195.701600
20
96.927850
11
196.798244
21
98.183588
0
LINE
8
Layer 1
10
196.798244
20
98.183588
11
197.959560
21
99.102905
0
LINE
8
Layer 1
10
197.959560
20
99.102905
11
199.311444
21
99.765002
0
LINE
8
Layer 1
10
199.311444
20
99.765002
11
200.979790
21
100.249080
0
LINE
8
Layer 1
10
200.979790
20
100.249080
11
202.259820
21
100.440300
0
LINE
8
Layer 1
10
202.259820
20
100.440300
11
202.259820
21
100.440300
0
LINE
8
Layer 1
10
129.357000
20
12.016300
11
128.907763
21
11.919065
0
LINE
8
Layer 1
10
128.907763
20
11.919065
11
128.677026
21
11.234102
0
LINE
8
Layer 1
10
128.677026
20
11.234102
11
128.579810
21
6.867250
0
LINE
8
Layer 1
10
128.579810
20
6.867250
11
128.691305
21
3.553949
0
LINE
8
Layer 1
10
128.691305
20
3.553949
11
129.016606
21
0.624731
0
LINE
8
Layer 1
10
129.016606
20
0.624731
11
129.564434
21
-1.947402
0
LINE
8
Layer 1
10
129.564434
20
-1.947402
11
130.343510
21
-4.189450
0
LINE
8
Layer 1
10
130.343510
20
-4.189450
11
136.405000
21
-4.189470
0
LINE
8
Layer 1
10
136.405000
20
-4.189470
11
135.330789
21
-3.051685
0
LINE
8
Layer 1
10
135.330789
20
-3.051685
11
134.415338
21
-1.817792
0
LINE
8
Layer 1
10
134.415338
20
-1.817792
11
133.694492
21
-0.522142
0
LINE
8
Layer 1
10
133.694492
20
-0.522142
11
133.204100
21
0.800920
0
LINE
8
Layer 1
10
133.204100
20
0.800920
11
132.789309
21
3.645391
0
LINE
8
Layer 1
10
132.789309
20
3.645391
11
132.657410
21
7.325580
0
LINE
8
Layer 1
10
132.657410
20
7.325580
11
132.664233
21
9.579635
0
LINE
8
Layer 1
10
132.664233
20
9.579635
11
132.559746
21
10.875434
0
LINE
8
Layer 1
10
132.559746
20
10.875434
11
132.293764
21
11.466785
0
LINE
8
Layer 1
10
132.293764
20
11.466785
11
131.816100
21
11.607500
0
LINE
8
Layer 1
10
131.816100
20
11.607500
11
129.739720
21
11.926860
0
LINE
8
Layer 1
10
129.739720
20
11.926860
11
129.356810
21
12.016260
0
LINE
8
Layer 1
10
129.356810
20
12.016260
11
129.357000
21
12.016300
0
LINE
8
Layer 1
10
127.018000
20
18.226800
11
126.615172
21
18.095271
0
LINE
8
Layer 1
10
126.615172
20
18.095271
11
126.313000
21
17.820909
0
LINE
8
Layer 1
10
126.313000
20
17.820909
11
125.737000
21
16.807240
0
LINE
8
Layer 1
10
125.737000
20
16.807240
11
125.081292
21
15.355310
0
LINE
8
Layer 1
10
125.081292
20
15.355310
11
125.067916
21
14.867164
0
LINE
8
Layer 1
10
125.067916
20
14.867164
11
125.338911
21
14.475471
0
LINE
8
Layer 1
10
125.338911
20
14.475471
11
125.950317
21
14.133664
0
LINE
8
Layer 1
10
125.950317
20
14.133664
11
126.958172
21
13.795172
0
LINE
8
Layer 1
10
126.958172
20
13.795172
11
130.387390
21
12.941860
0
LINE
8
Layer 1
10
130.387390
20
12.941860
11
130.388000
21
12.942300
0
LINE
8
Layer 1
10
130.388000
20
12.942300
11
132.870519
21
12.808055
0
LINE
8
Layer 1
10
132.870519
20
12.808055
11
137.383910
21
12.830140
0
LINE
8
Layer 1
10
137.383910
20
12.830140
11
142.392551
21
13.131764
0
LINE
8
Layer 1
10
142.392551
20
13.131764
11
143.927097
21
13.428363
0
LINE
8
Layer 1
10
143.927097
20
13.428363
11
145.026910
21
13.850260
0
LINE
8
Layer 1
10
145.026910
20
13.850260
11
146.216220
21
14.544589
0
LINE
8
Layer 1
10
146.216220
20
14.544589
11
146.711030
21
14.970590
0
LINE
8
Layer 1
10
146.711030
20
14.970590
11
146.101406
21
15.447674
0
LINE
8
Layer 1
10
146.101406
20
15.447674
11
144.635740
21
16.264560
0
LINE
8
Layer 1
10
144.635740
20
16.264560
11
143.418529
21
16.799770
0
LINE
8
Layer 1
10
143.418529
20
16.799770
11
142.212288
21
17.074975
0
LINE
8
Layer 1
10
142.212288
20
17.074975
11
140.695624
21
17.128810
0
LINE
8
Layer 1
10
140.695624
20
17.128810
11
138.547150
21
16.999910
0
LINE
8
Layer 1
10
138.547150
20
16.999910
11
134.646218
21
16.944909
0
LINE
8
Layer 1
10
134.646218
20
16.944909
11
132.840441
21
17.145126
0
LINE
8
Layer 1
10
132.840441
20
17.145126
11
131.003450
21
17.505830
0
LINE
8
Layer 1
10
131.003450
20
17.505830
11
128.399645
21
18.097586
0
LINE
8
Layer 1
10
128.399645
20
18.097586
11
127.018640
21
18.226720
0
LINE
8
Layer 1
10
127.018640
20
18.226720
11
127.018000
21
18.226800
0
LINE
8
Layer 1
10
16.201900
20
14.685900
11
15.739203
21
14.427888
0
LINE
8
Layer 1
10
15.739203
20
14.427888
11
15.728391
21
13.744849
0
LINE
8
Layer 1
10
15.728391
20
13.744849
11
16.126009
21
12.585625
0
LINE
8
Layer 1
10
16.126009
20
12.585625
11
16.888600
21
10.899060
0
LINE
8
Layer 1
10
16.888600
20
10.899060
11
18.004440
21
8.911337
0
LINE
8
Layer 1
10
18.004440
20
8.911337
11
19.402911
21
7.061137
0
LINE
8
Layer 1
10
19.402911
20
7.061137
11
21.076667
21
5.353723
0
LINE
8
Layer 1
10
21.076667
20
5.353723
11
23.018362
21
3.794359
0
LINE
8
Layer 1
10
23.018362
20
3.794359
11
25.220650
21
2.388307
0
LINE
8
Layer 1
10
25.220650
20
2.388307
11
27.676183
21
1.140831
0
LINE
8
Layer 1
10
27.676183
20
1.140831
11
30.377615
21
0.057194
0
LINE
8
Layer 1
10
30.377615
20
0.057194
11
33.317600
21
-0.857340
0
LINE
8
Layer 1
10
33.317600
20
-0.857340
11
35.544817
21
-1.376197
0
LINE
8
Layer 1
10
35.544817
20
-1.376197
11
37.793095
21
-1.656230
0
LINE
8
Layer 1
10
37.793095
20
-1.656230
11
40.630851
21
-1.737835
0
LINE
8
Layer 1
10
40.630851
20
-1.737835
11
44.626500
21
-1.661410
0
LINE
8
Layer 1
10
44.626500
20
-1.661410
11
49.292628
21
-1.428524
0
LINE
8
Layer 1
10
49.292628
20
-1.428524
11
52.872291
21
-1.041426
0
LINE
8
Layer 1
10
52.872291
20
-1.041426
11
55.351984
21
-0.502200
0
LINE
8
Layer 1
10
55.351984
20
-0.502200
11
56.175121
21
-0.176190
0
LINE
8
Layer 1
10
56.175121
20
-0.176190
11
56.718200
21
0.187070
0
LINE
8
Layer 1
10
56.718200
20
0.187070
11
56.819322
21
0.476024
0
LINE
8
Layer 1
10
56.819322
20
0.476024
11
56.774626
21
0.959380
0
LINE
8
Layer 1
10
56.774626
20
0.959380
11
56.302310
21
2.239650
0
LINE
8
Layer 1
10
56.302310
20
2.239650
11
55.773758
21
3.163586
0
LINE
8
Layer 1
10
55.773758
20
3.163586
11
55.240323
21
3.604870
0
LINE
8
Layer 1
10
55.240323
20
3.604870
11
54.417105
21
3.669857
0
LINE
8
Layer 1
10
54.417105
20
3.669857
11
53.019210
21
3.464900
0
LINE
8
Layer 1
10
53.019210
20
3.464900
11
49.093111
21
3.171030
0
LINE
8
Layer 1
10
49.093111
20
3.171030
11
43.071520
21
3.048910
0
LINE
8
Layer 1
10
43.071520
20
3.048910
11
38.982468
21
3.088878
0
LINE
8
Layer 1
10
38.982468
20
3.088878
11
36.236807
21
3.260094
0
LINE
8
Layer 1
10
36.236807
20
3.260094
11
34.160353
21
3.639522
0
LINE
8
Layer 1
10
34.160353
20
3.639522
11
32.078920
21
4.304130
0
LINE
8
Layer 1
10
32.078920
20
4.304130
11
29.211595
21
5.654592
0
LINE
8
Layer 1
10
29.211595
20
5.654592
11
26.435770
21
7.505674
0
LINE
8
Layer 1
10
26.435770
20
7.505674
11
24.112795
21
9.579256
0
LINE
8
Layer 1
10
24.112795
20
9.579256
11
23.234048
21
10.612573
0
LINE
8
Layer 1
10
23.234048
20
10.612573
11
22.604020
21
11.597220
0
LINE
8
Layer 1
10
22.604020
20
11.597220
11
22.124233
21
12.291865
0
LINE
8
Layer 1
10
22.124233
20
12.291865
11
21.443604
21
12.895808
0
LINE
8
Layer 1
10
21.443604
20
12.895808
11
20.546208
21
13.420448
0
LINE
8
Layer 1
10
20.546208
20
13.420448
11
19.416120
21
13.877190
0
LINE
8
Layer 1
10
19.416120
20
13.877190
11
17.414858
21
14.506490
0
LINE
8
Layer 1
10
17.414858
20
14.506490
11
16.201920
21
14.685940
0
LINE
8
Layer 1
10
16.201920
20
14.685940
11
16.201900
21
14.685900
0
LINE
8
Layer 1
10
-4.228410
20
108.292000
11
-8.835910
21
101.021130
0
LINE
8
Layer 1
10
-8.835910
20
101.021130
11
-7.199871
21
100.244232
0
LINE
8
Layer 1
10
-7.199871
20
100.244232
11
-5.490400
21
99.611920
0
LINE
8
Layer 1
10
-5.490400
20
99.611920
11
-3.237709
21
98.986305
0
LINE
8
Layer 1
10
-3.237709
20
98.986305
11
-2.185700
21
98.841410
0
LINE
8
Layer 1
10
-2.185700
20
98.841410
11
-2.196689
21
99.375431
0
LINE
8
Layer 1
10
-2.196689
20
99.375431
11
-2.499803
21
100.382920
0
LINE
8
Layer 1
10
-2.499803
20
100.382920
11
-3.093591
21
102.665169
0
LINE
8
Layer 1
10
-3.093591
20
102.665169
11
-3.803103
21
106.264200
0
LINE
8
Layer 1
10
-3.803103
20
106.264200
11
-4.228396
21
108.292000
0
LINE
8
Layer 1
10
-4.228396
20
108.292000
11
-4.228410
21
108.292000
0
LINE
8
Layer 1
10
198.590000
20
131.180000
11
198.748140
21
127.166810
0
LINE
8
Layer 1
10
198.748140
20
127.166810
11
198.552238
21
123.553298
0
LINE
8
Layer 1
10
198.552238
20
123.553298
11
198.294201
21
122.066260
0
LINE
8
Layer 1
10
198.294201
20
122.066260
11
197.917743
21
120.759438
0
LINE
8
Layer 1
10
197.917743
20
120.759438
11
197.414088
21
119.608130
0
LINE
8
Layer 1
10
197.414088
20
119.608130
11
196.774465
21
118.587639
0
LINE
8
Layer 1
10
196.774465
20
118.587639
11
195.990100
21
117.673265
0
LINE
8
Layer 1
10
195.990100
20
117.673265
11
195.052220
21
116.840310
0
LINE
8
Layer 1
10
195.052220
20
116.840310
11
193.584686
21
115.896138
0
LINE
8
Layer 1
10
193.584686
20
115.896138
11
192.052820
21
115.420414
0
LINE
8
Layer 1
10
192.052820
20
115.420414
11
190.222207
21
115.376875
0
LINE
8
Layer 1
10
190.222207
20
115.376875
11
187.858430
21
115.729260
0
LINE
8
Layer 1
10
187.858430
20
115.729260
11
185.118094
21
116.049962
0
LINE
8
Layer 1
10
185.118094
20
116.049962
11
182.699126
21
115.863217
0
LINE
8
Layer 1
10
182.699126
20
115.863217
11
180.607533
21
115.174445
0
LINE
8
Layer 1
10
180.607533
20
115.174445
11
178.849326
21
113.989065
0
LINE
8
Layer 1
10
178.849326
20
113.989065
11
177.430513
21
112.312497
0
LINE
8
Layer 1
10
177.430513
20
112.312497
11
176.357104
21
110.150160
0
LINE
8
Layer 1
10
176.357104
20
110.150160
11
175.635106
21
107.507475
0
LINE
8
Layer 1
10
175.635106
20
107.507475
11
175.270530
21
104.389860
0
LINE
8
Layer 1
10
175.270530
20
104.389860
11
175.030240
21
100.009770
0
LINE
8
Layer 1
10
175.030240
20
100.009770
11
176.635340
21
101.359560
0
LINE
8
Layer 1
10
176.635340
20
101.359560
11
178.065439
21
102.352036
0
LINE
8
Layer 1
10
178.065439
20
102.352036
11
179.904778
21
103.267218
0
LINE
8
Layer 1
10
179.904778
20
103.267218
11
182.152945
21
104.104875
0
LINE
8
Layer 1
10
182.152945
20
104.104875
11
184.809530
21
104.864780
0
LINE
8
Layer 1
10
184.809530
20
104.864780
11
187.040541
21
105.657336
0
LINE
8
Layer 1
10
187.040541
20
105.657336
11
188.927170
21
106.819123
0
LINE
8
Layer 1
10
188.927170
20
106.819123
11
190.456687
21
108.340088
0
LINE
8
Layer 1
10
190.456687
20
108.340088
11
191.616360
21
110.210180
0
LINE
8
Layer 1
10
191.616360
20
110.210180
11
192.319571
21
111.434654
0
LINE
8
Layer 1
10
192.319571
20
111.434654
11
193.261686
21
112.645771
0
LINE
8
Layer 1
10
193.261686
20
112.645771
11
194.454303
21
113.856590
0
LINE
8
Layer 1
10
194.454303
20
113.856590
11
195.909020
21
115.080170
0
LINE
8
Layer 1
10
195.909020
20
115.080170
11
198.351302
21
117.183523
0
LINE
8
Layer 1
10
198.351302
20
117.183523
11
199.995515
21
119.200845
0
LINE
8
Layer 1
10
199.995515
20
119.200845
11
200.588016
21
120.287660
0
LINE
8
Layer 1
10
200.588016
20
120.287660
11
201.064605
21
121.485467
0
LINE
8
Layer 1
10
201.064605
20
121.485467
11
201.781520
21
124.390720
0
LINE
8
Layer 1
10
201.781520
20
124.390720
11
202.360860
21
127.528510
0
LINE
8
Layer 1
10
202.360860
20
127.528510
11
198.590050
21
131.179970
0
LINE
8
Layer 1
10
198.590050
20
131.179970
11
198.590000
21
131.180000
0
LINE
8
Layer 1
10
187.552400
20
113.679800
11
188.069675
21
113.583949
0
LINE
8
Layer 1
10
188.069675
20
113.583949
11
187.899735
21
113.263144
0
LINE
8
Layer 1
10
187.899735
20
113.263144
11
185.145910
21
111.649960
0
LINE
8
Layer 1
10
185.145910
20
111.649960
11
182.148968
21
109.947062
0
LINE
8
Layer 1
10
182.148968
20
109.947062
11
180.276890
21
108.683740
0
LINE
8
Layer 1
10
180.276890
20
108.683740
11
179.423038
21
108.000101
0
LINE
8
Layer 1
10
179.423038
20
108.000101
11
179.754980
21
108.770540
0
LINE
8
Layer 1
10
179.754980
20
108.770540
11
180.385707
21
109.759075
0
LINE
8
Layer 1
10
180.385707
20
109.759075
11
181.181318
21
110.682580
0
LINE
8
Layer 1
10
181.181318
20
110.682580
11
183.133966
21
112.250342
0
LINE
8
Layer 1
10
183.133966
20
112.250342
11
185.346476
21
113.305513
0
LINE
8
Layer 1
10
185.346476
20
113.305513
11
186.466914
21
113.588279
0
LINE
8
Layer 1
10
186.466914
20
113.588279
11
187.552400
21
113.679780
0
LINE
8
Layer 1
10
187.552400
20
113.679780
11
187.552400
21
113.679800
0
LINE
8
Layer 1
10
50.598200
20
28.682500
11
49.658383
21
28.576003
0
LINE
8
Layer 1
10
49.658383
20
28.576003
11
49.387452
21
28.430731
0
LINE
8
Layer 1
10
49.387452
20
28.430731
11
49.290290
21
28.223610
0
LINE
8
Layer 1
10
49.290290
20
28.223610
11
49.531763
21
27.646066
0
LINE
8
Layer 1
10
49.531763
20
27.646066
11
50.197087
21
26.753311
0
LINE
8
Layer 1
10
50.197087
20
26.753311
11
52.444715
21
24.367668
0
LINE
8
Layer 1
10
52.444715
20
24.367668
11
55.324031
21
21.757672
0
LINE
8
Layer 1
10
55.324031
20
21.757672
11
58.125890
21
19.614320
0
LINE
8
Layer 1
10
58.125890
20
19.614320
11
61.294097
21
17.699200
0
LINE
8
Layer 1
10
61.294097
20
17.699200
11
64.609694
21
16.073907
0
LINE
8
Layer 1
10
64.609694
20
16.073907
11
68.109788
21
14.722272
0
LINE
8
Layer 1
10
68.109788
20
14.722272
11
71.831490
21
13.628120
0
LINE
8
Layer 1
10
71.831490
20
13.628120
11
75.192504
21
12.968132
0
LINE
8
Layer 1
10
75.192504
20
12.968132
11
78.179500
21
12.673650
0
LINE
8
Layer 1
10
78.179500
20
12.673650
11
79.903991
21
12.727769
0
LINE
8
Layer 1
10
79.903991
20
12.727769
11
80.422017
21
12.858408
0
LINE
8
Layer 1
10
80.422017
20
12.858408
11
80.736683
21
13.093294
0
LINE
8
Layer 1
10
80.736683
20
13.093294
11
80.867574
21
13.458819
0
LINE
8
Layer 1
10
80.867574
20
13.458819
11
80.834281
21
13.981380
0
LINE
8
Layer 1
10
80.834281
20
13.981380
11
80.353490
21
15.603180
0
LINE
8
Layer 1
10
80.353490
20
15.603180
11
79.951360
21
16.500712
0
LINE
8
Layer 1
10
79.951360
20
16.500712
11
79.243878
21
17.038274
0
LINE
8
Layer 1
10
79.243878
20
17.038274
11
77.788701
21
17.399733
0
LINE
8
Layer 1
10
77.788701
20
17.399733
11
75.143490
21
17.768960
0
LINE
8
Layer 1
10
75.143490
20
17.768960
11
71.134819
21
18.429255
0
LINE
8
Layer 1
10
71.134819
20
18.429255
11
68.046180
21
19.176640
0
LINE
8
Layer 1
10
68.046180
20
19.176640
11
65.237233
21
20.316559
0
LINE
8
Layer 1
10
65.237233
20
20.316559
11
62.249046
21
21.876719
0
LINE
8
Layer 1
10
62.249046
20
21.876719
11
59.394751
21
23.677049
0
LINE
8
Layer 1
10
59.394751
20
23.677049
11
56.987480
21
25.537480
0
LINE
8
Layer 1
10
56.987480
20
25.537480
11
54.890321
21
27.178884
0
LINE
8
Layer 1
10
54.890321
20
27.178884
11
53.205280
21
28.170900
0
LINE
8
Layer 1
10
53.205280
20
28.170900
11
51.862880
21
28.546340
0
LINE
8
Layer 1
10
51.862880
20
28.546340
11
50.598180
21
28.682500
0
LINE
8
Layer 1
10
50.598180
20
28.682500
11
50.598200
21
28.682500
0
LINE
8
Layer 1
10
119.987000
20
117.080000
11
119.422210
21
116.726540
0
LINE
8
Layer 1
10
119.422210
20
116.726540
11
117.330624
21
114.245784
0
LINE
8
Layer 1
10
117.330624
20
114.245784
11
113.508420
21
109.279430
0
LINE
8
Layer 1
10
113.508420
20
109.279430
11
108.984252
21
103.615210
0
LINE
8
Layer 1
10
108.984252
20
103.615210
11
104.537799
21
98.850137
0
LINE
8
Layer 1
10
104.537799
20
98.850137
11
99.892181
21
94.713186
0
LINE
8
Layer 1
10
99.892181
20
94.713186
11
94.770520
21
90.933330
0
LINE
8
Layer 1
10
94.770520
20
90.933330
11
90.375106
21
87.683731
0
LINE
8
Layer 1
10
90.375106
20
87.683731
11
88.674630
21
86.236431
0
LINE
8
Layer 1
10
88.674630
20
86.236431
11
87.618510
21
85.160050
0
LINE
8
Layer 1
10
87.618510
20
85.160050
11
86.230151
21
82.559866
0
LINE
8
Layer 1
10
86.230151
20
82.559866
11
84.344601
21
78.204625
0
LINE
8
Layer 1
10
84.344601
20
78.204625
11
82.677078
21
73.847472
0
LINE
8
Layer 1
10
82.677078
20
73.847472
11
81.942800
21
71.241550
0
LINE
8
Layer 1
10
81.942800
20
71.241550
11
82.045803
21
71.107501
0
LINE
8
Layer 1
10
82.045803
20
71.107501
11
82.347348
21
71.303989
0
LINE
8
Layer 1
10
82.347348
20
71.303989
11
83.402286
21
72.504261
0
LINE
8
Layer 1
10
83.402286
20
72.504261
11
84.820054
21
74.473735
0
LINE
8
Layer 1
10
84.820054
20
74.473735
11
86.313090
21
76.843780
0
LINE
8
Layer 1
10
86.313090
20
76.843780
11
88.447896
21
80.111298
0
LINE
8
Layer 1
10
88.447896
20
80.111298
11
90.333470
21
82.427920
0
LINE
8
Layer 1
10
90.333470
20
82.427920
11
92.224827
21
84.020118
0
LINE
8
Layer 1
10
92.224827
20
84.020118
11
94.617039
21
85.773863
0
LINE
8
Layer 1
10
94.617039
20
85.773863
11
96.792814
21
87.191243
0
LINE
8
Layer 1
10
96.792814
20
87.191243
11
98.034860
21
87.774350
0
LINE
8
Layer 1
10
98.034860
20
87.774350
11
98.388856
21
87.668831
0
LINE
8
Layer 1
10
98.388856
20
87.668831
11
98.704148
21
87.368493
0
LINE
8
Layer 1
10
98.704148
20
87.368493
11
99.191594
21
86.280678
0
LINE
8
Layer 1
10
99.191594
20
86.280678
11
99.443148
21
84.705538
0
LINE
8
Layer 1
10
99.443148
20
84.705538
11
99.404760
21
82.837710
0
LINE
8
Layer 1
10
99.404760
20
82.837710
11
98.873643
21
80.293448
0
LINE
8
Layer 1
10
98.873643
20
80.293448
11
97.794074
21
77.608778
0
LINE
8
Layer 1
10
97.794074
20
77.608778
11
96.171750
21
74.795448
0
LINE
8
Layer 1
10
96.171750
20
74.795448
11
94.012370
21
71.865210
0
LINE
8
Layer 1
10
94.012370
20
71.865210
11
91.778512
21
69.172002
0
LINE
8
Layer 1
10
91.778512
20
69.172002
11
90.175006
21
67.542683
0
LINE
8
Layer 1
10
90.175006
20
67.542683
11
88.496255
21
66.376147
0
LINE
8
Layer 1
10
88.496255
20
66.376147
11
86.036660
21
65.071290
0
LINE
8
Layer 1
10
86.036660
20
65.071290
11
79.604960
21
61.460670
0
LINE
8
Layer 1
10
79.604960
20
61.460670
11
77.242442
21
60.212831
0
LINE
8
Layer 1
10
77.242442
20
60.212831
11
75.200550
21
59.531070
0
LINE
8
Layer 1
10
75.200550
20
59.531070
11
74.191287
21
59.387434
0
LINE
8
Layer 1
10
74.191287
20
59.387434
11
73.904309
21
59.421588
0
LINE
8
Layer 1
10
73.904309
20
59.421588
11
75.672860
21
60.313970
0
LINE
8
Layer 1
10
75.672860
20
60.313970
11
78.214276
21
61.722846
0
LINE
8
Layer 1
10
78.214276
20
61.722846
11
81.113960
21
63.619170
0
LINE
8
Layer 1
10
81.113960
20
63.619170
11
83.845835
21
65.462216
0
LINE
8
Layer 1
10
83.845835
20
65.462216
11
85.983860
21
66.743010
0
LINE
8
Layer 1
10
85.983860
20
66.743010
11
87.547850
21
67.714678
0
LINE
8
Layer 1
10
87.547850
20
67.714678
11
89.222070
21
69.049950
0
LINE
8
Layer 1
10
89.222070
20
69.049950
11
90.934546
21
70.665972
0
LINE
8
Layer 1
10
90.934546
20
70.665972
11
92.613302
21
72.479889
0
LINE
8
Layer 1
10
92.613302
20
72.479889
11
94.186367
21
74.408846
0
LINE
8
Layer 1
10
94.186367
20
74.408846
11
95.581764
21
76.369988
0
LINE
8
Layer 1
10
95.581764
20
76.369988
11
96.727520
21
78.280461
0
LINE
8
Layer 1
10
96.727520
20
78.280461
11
97.551660
21
80.057410
0
LINE
8
Layer 1
10
97.551660
20
80.057410
11
98.210143
21
82.264999
0
LINE
8
Layer 1
10
98.210143
20
82.264999
11
98.494367
21
84.245438
0
LINE
8
Layer 1
10
98.494367
20
84.245438
11
98.387088
21
85.667040
0
LINE
8
Layer 1
10
98.387088
20
85.667040
11
98.181245
21
86.064625
0
LINE
8
Layer 1
10
98.181245
20
86.064625
11
97.871060
21
86.198120
0
LINE
8
Layer 1
10
97.871060
20
86.198120
11
96.710076
21
85.914569
0
LINE
8
Layer 1
10
96.710076
20
85.914569
11
95.316296
21
85.180252
0
LINE
8
Layer 1
10
95.316296
20
85.180252
11
93.766051
21
84.067069
0
LINE
8
Layer 1
10
93.766051
20
84.067069
11
92.135672
21
82.646921
0
LINE
8
Layer 1
10
92.135672
20
82.646921
11
90.501492
21
80.991711
0
LINE
8
Layer 1
10
90.501492
20
80.991711
11
88.939842
21
79.173340
0
LINE
8
Layer 1
10
88.939842
20
79.173340
11
87.527054
21
77.263709
0
LINE
8
Layer 1
10
87.527054
20
77.263709
11
86.339460
21
75.334720
0
LINE
8
Layer 1
10
86.339460
20
75.334720
11
84.401559
21
72.347228
0
LINE
8
Layer 1
10
84.401559
20
72.347228
11
83.464884
21
71.298715
0
LINE
8
Layer 1
10
83.464884
20
71.298715
11
82.588750
21
70.596500
0
LINE
8
Layer 1
10
82.588750
20
70.596500
11
81.725584
21
69.896067
0
LINE
8
Layer 1
10
81.725584
20
69.896067
11
80.665409
21
68.786331
0
LINE
8
Layer 1
10
80.665409
20
68.786331
11
78.491860
21
65.948730
0
LINE
8
Layer 1
10
78.491860
20
65.948730
11
76.337637
21
63.000558
0
LINE
8
Layer 1
10
76.337637
20
63.000558
11
73.971153
21
60.460555
0
LINE
8
Layer 1
10
73.971153
20
60.460555
11
71.261340
21
58.259968
0
LINE
8
Layer 1
10
71.261340
20
58.259968
11
68.077126
21
56.330044
0
LINE
8
Layer 1
10
68.077126
20
56.330044
11
64.287442
21
54.602031
0
LINE
8
Layer 1
10
64.287442
20
54.602031
11
59.761216
21
53.007176
0
LINE
8
Layer 1
10
59.761216
20
53.007176
11
54.367379
21
51.476726
0
LINE
8
Layer 1
10
54.367379
20
51.476726
11
47.974860
21
49.941930
0
LINE
8
Layer 1
10
47.974860
20
49.941930
11
41.020780
21
48.223423
0
LINE
8
Layer 1
10
41.020780
20
48.223423
11
35.614297
21
46.502658
0
LINE
8
Layer 1
10
35.614297
20
46.502658
11
31.330921
21
44.621929
0
LINE
8
Layer 1
10
31.330921
20
44.621929
11
29.477744
21
43.572295
0
LINE
8
Layer 1
10
29.477744
20
43.572295
11
27.746160
21
42.423530
0
LINE
8
Layer 1
10
27.746160
20
42.423530
11
25.310615
21
40.493566
0
LINE
8
Layer 1
10
25.310615
20
40.493566
11
22.988916
21
38.291228
0
LINE
8
Layer 1
10
22.988916
20
38.291228
11
20.846064
21
35.908517
0
LINE
8
Layer 1
10
20.846064
20
35.908517
11
18.947060
21
33.437431
0
LINE
8
Layer 1
10
18.947060
20
33.437431
11
17.356906
21
30.969970
0
LINE
8
Layer 1
10
17.356906
20
30.969970
11
16.140604
21
28.598134
0
LINE
8
Layer 1
10
16.140604
20
28.598134
11
15.363155
21
26.413920
0
LINE
8
Layer 1
10
15.363155
20
26.413920
11
15.089560
21
24.509330
0
LINE
8
Layer 1
10
15.089560
20
24.509330
11
15.138341
21
23.408170
0
LINE
8
Layer 1
10
15.138341
20
23.408170
11
15.381560
21
22.746985
0
LINE
8
Layer 1
10
15.381560
20
22.746985
11
15.964529
21
22.337425
0
LINE
8
Layer 1
10
15.964529
20
22.337425
11
17.032560
21
21.991140
0
LINE
8
Layer 1
10
17.032560
20
21.991140
11
18.559621
21
21.591757
0
LINE
8
Layer 1
10
18.559621
20
21.591757
11
19.352955
21
21.616819
0
LINE
8
Layer 1
10
19.352955
20
21.616819
11
19.570639
21
21.842062
0
LINE
8
Layer 1
10
19.570639
20
21.842062
11
19.720289
21
22.237671
0
LINE
8
Layer 1
10
19.720289
20
22.237671
11
19.969350
21
23.625660
0
LINE
8
Layer 1
10
19.969350
20
23.625660
11
20.299168
21
25.202133
0
LINE
8
Layer 1
10
20.299168
20
25.202133
11
20.777597
21
26.744101
0
LINE
8
Layer 1
10
20.777597
20
26.744101
11
22.170548
21
29.715637
0
LINE
8
Layer 1
10
22.170548
20
29.715637
11
24.128716
21
32.522499
0
LINE
8
Layer 1
10
24.128716
20
32.522499
11
26.632612
21
35.146918
0
LINE
8
Layer 1
10
26.632612
20
35.146918
11
29.662751
21
37.571122
0
LINE
8
Layer 1
10
29.662751
20
37.571122
11
33.199645
21
39.777344
0
LINE
8
Layer 1
10
33.199645
20
39.777344
11
37.223807
21
41.747813
0
LINE
8
Layer 1
10
37.223807
20
41.747813
11
41.715750
21
43.464760
0
LINE
8
Layer 1
10
41.715750
20
43.464760
11
44.608573
21
44.244473
0
LINE
8
Layer 1
10
44.608573
20
44.244473
11
47.399612
21
44.698053
0
LINE
8
Layer 1
10
47.399612
20
44.698053
11
49.497445
21
44.762746
0
LINE
8
Layer 1
10
49.497445
20
44.762746
11
50.101590
21
44.629650
0
LINE
8
Layer 1
10
50.101590
20
44.629650
11
50.310650
21
44.375800
0
LINE
8
Layer 1
10
50.310650
20
44.375800
11
49.017650
21
41.914430
0
LINE
8
Layer 1
10
49.017650
20
41.914430
11
48.093632
21
39.877421
0
LINE
8
Layer 1
10
48.093632
20
39.877421
11
47.831793
21
38.839694
0
LINE
8
Layer 1
10
47.831793
20
38.839694
11
47.738640
21
37.898140
0
LINE
8
Layer 1
10
47.738640
20
37.898140
11
47.773982
21
36.787263
0
LINE
8
Layer 1
10
47.773982
20
36.787263
11
48.003377
21
36.209044
0
LINE
8
Layer 1
10
48.003377
20
36.209044
11
48.611879
21
35.989615
0
LINE
8
Layer 1
10
48.611879
20
35.989615
11
49.784540
21
35.955110
0
LINE
8
Layer 1
10
49.784540
20
35.955110
11
50.950087
21
36.010946
0
LINE
8
Layer 1
10
50.950087
20
36.010946
11
51.694864
21
36.309120
0
LINE
8
Layer 1
10
51.694864
20
36.309120
11
52.268676
21
37.045632
0
LINE
8
Layer 1
10
52.268676
20
37.045632
11
52.921330
21
38.416480
0
LINE
8
Layer 1
10
52.921330
20
38.416480
11
53.980833
21
40.411710
0
LINE
8
Layer 1
10
53.980833
20
40.411710
11
55.264906
21
42.141354
0
LINE
8
Layer 1
10
55.264906
20
42.141354
11
56.735619
21
43.561950
0
LINE
8
Layer 1
10
56.735619
20
43.561950
11
58.355040
21
44.630040
0
LINE
8
Layer 1
10
58.355040
20
44.630040
11
61.400224
21
45.855604
0
LINE
8
Layer 1
10
61.400224
20
45.855604
11
66.543240
21
47.665500
0
LINE
8
Layer 1
10
66.543240
20
47.665500
11
70.254645
21
48.888222
0
LINE
8
Layer 1
10
70.254645
20
48.888222
11
72.196836
21
49.417615
0
LINE
8
Layer 1
10
72.196836
20
49.417615
11
72.665552
21
49.450154
0
LINE
8
Layer 1
10
72.665552
20
49.450154
11
72.885255
21
49.342771
0
LINE
8
Layer 1
10
72.885255
20
49.342771
11
72.835340
21
48.752780
0
LINE
8
Layer 1
10
72.835340
20
48.752780
11
72.186547
21
47.277036
0
LINE
8
Layer 1
10
72.186547
20
47.277036
11
71.112565
21
45.608599
0
LINE
8
Layer 1
10
71.112565
20
45.608599
11
69.694952
21
43.829539
0
LINE
8
Layer 1
10
69.694952
20
43.829539
11
68.015265
21
42.021928
0
LINE
8
Layer 1
10
68.015265
20
42.021928
11
66.155063
21
40.267835
0
LINE
8
Layer 1
10
66.155063
20
40.267835
11
64.195903
21
38.649332
0
LINE
8
Layer 1
10
64.195903
20
38.649332
11
62.219342
21
37.248490
0
LINE
8
Layer 1
10
62.219342
20
37.248490
11
60.306940
21
36.147380
0
LINE
8
Layer 1
10
60.306940
20
36.147380
11
58.580854
21
35.363395
0
LINE
8
Layer 1
10
58.580854
20
35.363395
11
57.037170
21
34.915869
0
LINE
8
Layer 1
10
57.037170
20
34.915869
11
55.216323
21
34.713965
0
LINE
8
Layer 1
10
55.216323
20
34.713965
11
52.658750
21
34.666850
0
LINE
8
Layer 1
10
52.658750
20
34.666850
11
48.933611
21
34.908343
0
LINE
8
Layer 1
10
48.933611
20
34.908343
11
45.320321
21
35.612435
0
LINE
8
Layer 1
10
45.320321
20
35.612435
11
41.867045
21
36.766550
0
LINE
8
Layer 1
10
41.867045
20
36.766550
11
38.621950
21
38.358110
0
LINE
8
Layer 1
10
38.621950
20
38.358110
11
36.910900
21
39.221949
0
LINE
8
Layer 1
10
36.910900
20
39.221949
11
35.771950
21
39.580760
0
LINE
8
Layer 1
10
35.771950
20
39.580760
11
34.402046
21
39.009123
0
LINE
8
Layer 1
10
34.402046
20
39.009123
11
32.136050
21
37.637220
0
LINE
8
Layer 1
10
32.136050
20
37.637220
11
29.231850
21
35.695720
0
LINE
8
Layer 1
10
29.231850
20
35.695720
11
34.065050
21
27.663650
0
LINE
8
Layer 1
10
34.065050
20
27.663650
11
38.579738
21
19.669675
0
LINE
8
Layer 1
10
38.579738
20
19.669675
11
42.647050
21
11.729250
0
LINE
8
Layer 1
10
42.647050
20
11.729250
11
42.646200
21
11.729800
0
LINE
8
Layer 1
10
42.646200
20
11.729800
11
46.394790
21
3.826910
0
LINE
8
Layer 1
10
46.394790
20
3.826910
11
48.589000
21
3.826860
0
LINE
8
Layer 1
10
48.589000
20
3.826860
11
50.224800
21
3.966580
0
LINE
8
Layer 1
10
50.224800
20
3.966580
11
51.076700
21
4.302290
0
LINE
8
Layer 1
10
51.076700
20
4.302290
11
50.922420
21
5.149270
0
LINE
8
Layer 1
10
50.922420
20
5.149270
11
50.203041
21
7.004877
0
LINE
8
Layer 1
10
50.203041
20
7.004877
11
47.510650
21
12.835245
0
LINE
8
Layer 1
10
47.510650
20
12.835245
11
43.882859
21
19.979936
0
LINE
8
Layer 1
10
43.882859
20
19.979936
11
40.203000
21
26.625490
0
LINE
8
Layer 1
10
40.203000
20
26.625490
11
37.452292
21
31.487960
0
LINE
8
Layer 1
10
37.452292
20
31.487960
11
36.450210
21
33.652440
0
LINE
8
Layer 1
10
36.450210
20
33.652440
11
37.470574
21
33.449271
0
LINE
8
Layer 1
10
37.470574
20
33.449271
11
39.581820
21
32.618900
0
LINE
8
Layer 1
10
39.581820
20
32.618900
11
43.239983
21
31.219629
0
LINE
8
Layer 1
10
43.239983
20
31.219629
11
46.917145
21
30.231798
0
LINE
8
Layer 1
10
46.917145
20
30.231798
11
50.556975
21
29.654796
0
LINE
8
Layer 1
10
50.556975
20
29.654796
11
54.103145
21
29.488014
0
LINE
8
Layer 1
10
54.103145
20
29.488014
11
57.499324
21
29.730840
0
LINE
8
Layer 1
10
57.499324
20
29.730840
11
60.689183
21
30.382663
0
LINE
8
Layer 1
10
60.689183
20
30.382663
11
63.616391
21
31.442873
0
LINE
8
Layer 1
10
63.616391
20
31.442873
11
66.224620
21
32.910860
0
LINE
8
Layer 1
10
66.224620
20
32.910860
11
68.655520
21
34.400700
0
LINE
8
Layer 1
10
68.655520
20
34.400700
11
69.338199
21
33.471312
0
LINE
8
Layer 1
10
69.338199
20
33.471312
11
70.607310
21
31.236550
0
LINE
8
Layer 1
10
70.607310
20
31.236550
11
72.005999
21
28.921852
0
LINE
8
Layer 1
10
72.005999
20
28.921852
11
73.000520
21
27.800570
0
LINE
8
Layer 1
10
73.000520
20
27.800570
11
73.389856
21
27.805623
0
LINE
8
Layer 1
10
73.389856
20
27.805623
11
73.927766
21
28.019735
0
LINE
8
Layer 1
10
73.927766
20
28.019735
11
75.165220
21
28.927130
0
LINE
8
Layer 1
10
75.165220
20
28.927130
11
76.624020
21
30.324470
0
LINE
8
Layer 1
10
76.624020
20
30.324470
11
75.655120
21
33.437960
0
LINE
8
Layer 1
10
75.655120
20
33.437960
11
75.079398
21
36.091951
0
LINE
8
Layer 1
10
75.079398
20
36.091951
11
75.039645
21
37.297846
0
LINE
8
Layer 1
10
75.039645
20
37.297846
11
75.173002
21
38.463148
0
LINE
8
Layer 1
10
75.173002
20
38.463148
11
75.485249
21
39.617964
0
LINE
8
Layer 1
10
75.485249
20
39.617964
11
75.982163
21
40.792400
0
LINE
8
Layer 1
10
75.982163
20
40.792400
11
77.553110
21
43.320560
0
LINE
8
Layer 1
10
77.553110
20
43.320560
11
78.891839
21
44.935727
0
LINE
8
Layer 1
10
78.891839
20
44.935727
11
80.527855
21
46.550589
0
LINE
8
Layer 1
10
80.527855
20
46.550589
11
82.363787
21
48.099068
0
LINE
8
Layer 1
10
82.363787
20
48.099068
11
84.302264
21
49.515084
0
LINE
8
Layer 1
10
84.302264
20
49.515084
11
86.245915
21
50.732557
0
LINE
8
Layer 1
10
86.245915
20
50.732557
11
88.097371
21
51.685409
0
LINE
8
Layer 1
10
88.097371
20
51.685409
11
89.759259
21
52.307560
0
LINE
8
Layer 1
10
89.759259
20
52.307560
11
91.134210
21
52.532930
0
LINE
8
Layer 1
10
91.134210
20
52.532930
11
91.775989
21
52.422090
0
LINE
8
Layer 1
10
91.775989
20
52.422090
11
92.141266
21
52.091171
0
LINE
8
Layer 1
10
92.141266
20
52.091171
11
92.234680
21
51.552700
0
LINE
8
Layer 1
10
92.234680
20
51.552700
11
92.060866
21
50.819205
0
LINE
8
Layer 1
10
92.060866
20
50.819205
11
90.930108
21
48.817249
0
LINE
8
Layer 1
10
90.930108
20
48.817249
11
88.786090
21
46.185520
0
LINE
8
Layer 1
10
88.786090
20
46.185520
11
86.500352
21
43.486836
0
LINE
8
Layer 1
10
86.500352
20
43.486836
11
84.555790
21
40.919710
0
LINE
8
Layer 1
10
84.555790
20
40.919710
11
83.578701
21
39.281368
0
LINE
8
Layer 1
10
83.578701
20
39.281368
11
83.539787
21
38.952367
0
LINE
8
Layer 1
10
83.539787
20
38.952367
11
83.800242
21
38.949990
0
LINE
8
Layer 1
10
83.800242
20
38.949990
11
85.218106
21
39.924639
0
LINE
8
Layer 1
10
85.218106
20
39.924639
11
87.829980
21
42.204380
0
LINE
8
Layer 1
10
87.829980
20
42.204380
11
90.017559
21
44.592542
0
LINE
8
Layer 1
10
90.017559
20
44.592542
11
91.899951
21
47.397660
0
LINE
8
Layer 1
10
91.899951
20
47.397660
11
93.329060
21
50.361912
0
LINE
8
Layer 1
10
93.329060
20
50.361912
11
94.156790
21
53.227480
0
LINE
8
Layer 1
10
94.156790
20
53.227480
11
94.503500
21
55.212370
0
LINE
8
Layer 1
10
94.503500
20
55.212370
11
91.847400
21
53.866730
0
LINE
8
Layer 1
10
91.847400
20
53.866730
11
89.971141
21
53.010741
0
LINE
8
Layer 1
10
89.971141
20
53.010741
11
89.190700
21
52.843020
0
LINE
8
Layer 1
10
89.190700
20
52.843020
11
89.452291
21
53.298016
0
LINE
8
Layer 1
10
89.452291
20
53.298016
11
90.153387
21
53.961788
0
LINE
8
Layer 1
10
90.153387
20
53.961788
11
92.372040
21
55.585305
0
LINE
8
Layer 1
10
92.372040
20
55.585305
11
94.842542
21
57.052852
0
LINE
8
Layer 1
10
94.842542
20
57.052852
11
95.858452
21
57.521662
0
LINE
8
Layer 1
10
95.858452
20
57.521662
11
96.560780
21
57.703710
0
LINE
8
Layer 1
10
96.560780
20
57.703710
11
96.982066
21
57.567715
0
LINE
8
Layer 1
10
96.982066
20
57.567715
11
97.033519
21
56.953825
0
LINE
8
Layer 1
10
97.033519
20
56.953825
11
95.854390
21
53.185640
0
LINE
8
Layer 1
10
95.854390
20
53.185640
11
94.579153
21
49.759105
0
LINE
8
Layer 1
10
94.579153
20
49.759105
11
93.446075
21
47.179065
0
LINE
8
Layer 1
10
93.446075
20
47.179065
11
92.344227
21
45.220415
0
LINE
8
Layer 1
10
92.344227
20
45.220415
11
91.162680
21
43.658050
0
LINE
8
Layer 1
10
91.162680
20
43.658050
11
89.391414
21
41.946986
0
LINE
8
Layer 1
10
89.391414
20
41.946986
11
87.075670
21
40.082021
0
LINE
8
Layer 1
10
87.075670
20
40.082021
11
84.828604
21
38.523253
0
LINE
8
Layer 1
10
84.828604
20
38.523253
11
83.263370
21
37.730780
0
LINE
8
Layer 1
10
83.263370
20
37.730780
11
82.712983
21
37.453557
0
LINE
8
Layer 1
10
82.712983
20
37.453557
11
82.074771
21
36.914505
0
LINE
8
Layer 1
10
82.074771
20
36.914505
11
80.851680
21
35.361940
0
LINE
8
Layer 1
10
80.851680
20
35.361940
11
78.367411
21
31.404482
0
LINE
8
Layer 1
10
78.367411
20
31.404482
11
76.238455
21
28.463230
0
LINE
8
Layer 1
10
76.238455
20
28.463230
11
74.214686
21
26.226408
0
LINE
8
Layer 1
10
74.214686
20
26.226408
11
72.045980
21
24.382240
0
LINE
8
Layer 1
10
72.045980
20
24.382240
11
67.944980
21
21.434600
0
LINE
8
Layer 1
10
67.944980
20
21.434600
11
67.588948
21
21.153426
0
LINE
8
Layer 1
10
67.588948
20
21.153426
11
67.471486
21
20.863472
0
LINE
8
Layer 1
10
67.471486
20
20.863472
11
67.577091
21
20.574829
0
LINE
8
Layer 1
10
67.577091
20
20.574829
11
67.890262
21
20.297589
0
LINE
8
Layer 1
10
67.890262
20
20.297589
11
69.077298
21
19.817684
0
LINE
8
Layer 1
10
69.077298
20
19.817684
11
70.908580
21
19.504490
0
LINE
8
Layer 1
10
70.908580
20
19.504490
11
72.364317
21
19.428008
0
LINE
8
Layer 1
10
72.364317
20
19.428008
11
73.473105
21
19.647145
0
LINE
8
Layer 1
10
73.473105
20
19.647145
11
74.651230
21
20.325282
0
LINE
8
Layer 1
10
74.651230
20
20.325282
11
76.314980
21
21.625800
0
LINE
8
Layer 1
10
76.314980
20
21.625800
11
79.365339
21
24.403170
0
LINE
8
Layer 1
10
79.365339
20
24.403170
11
82.627280
21
27.763920
0
LINE
8
Layer 1
10
82.627280
20
27.763920
11
84.977930
21
30.208513
0
LINE
8
Layer 1
10
84.977930
20
30.208513
11
85.766581
21
30.783595
0
LINE
8
Layer 1
10
85.766581
20
30.783595
11
86.367796
21
30.914586
0
LINE
8
Layer 1
10
86.367796
20
30.914586
11
86.834334
21
30.592025
0
LINE
8
Layer 1
10
86.834334
20
30.592025
11
87.218955
21
29.806449
0
LINE
8
Layer 1
10
87.218955
20
29.806449
11
87.953480
21
26.808410
0
LINE
8
Layer 1
10
87.953480
20
26.808410
11
88.868803
21
22.971326
0
LINE
8
Layer 1
10
88.868803
20
22.971326
11
89.305682
21
21.753668
0
LINE
8
Layer 1
10
89.305682
20
21.753668
11
89.763716
21
20.959740
0
LINE
8
Layer 1
10
89.763716
20
20.959740
11
90.269164
21
20.556898
0
LINE
8
Layer 1
10
90.269164
20
20.556898
11
90.848284
21
20.512497
0
LINE
8
Layer 1
10
90.848284
20
20.512497
11
91.527333
21
20.793892
0
LINE
8
Layer 1
10
91.527333
20
20.793892
11
92.332570
21
21.368440
0
LINE
8
Layer 1
10
92.332570
20
21.368440
11
93.002105
21
21.971046
0
LINE
8
Layer 1
10
93.002105
20
21.971046
11
93.258416
21
22.595679
0
LINE
8
Layer 1
10
93.258416
20
22.595679
11
93.131006
21
23.619167
0
LINE
8
Layer 1
10
93.131006
20
23.619167
11
92.649380
21
25.418340
0
LINE
8
Layer 1
10
92.649380
20
25.418340
11
91.987970
21
28.850471
0
LINE
8
Layer 1
10
91.987970
20
28.850471
11
91.784251
21
32.440331
0
LINE
8
Layer 1
10
91.784251
20
32.440331
11
92.034847
21
35.666796
0
LINE
8
Layer 1
10
92.034847
20
35.666796
11
92.329458
21
36.980903
0
LINE
8
Layer 1
10
92.329458
20
36.980903
11
92.736380
21
38.008740
0
LINE
8
Layer 1
10
92.736380
20
38.008740
11
93.557349
21
39.313352
0
LINE
8
Layer 1
10
93.557349
20
39.313352
11
94.192070
21
39.953840
0
LINE
8
Layer 1
10
94.192070
20
39.953840
11
94.600721
21
39.755596
0
LINE
8
Layer 1
10
94.600721
20
39.755596
11
95.342123
21
39.092005
0
LINE
8
Layer 1
10
95.342123
20
39.092005
11
97.401760
21
36.784530
0
LINE
8
Layer 1
10
97.401760
20
36.784530
11
100.957151
21
32.856834
0
LINE
8
Layer 1
10
100.957151
20
32.856834
11
105.911569
21
27.892647
0
LINE
8
Layer 1
10
105.911569
20
27.892647
11
111.002657
21
23.116002
0
LINE
8
Layer 1
10
111.002657
20
23.116002
11
114.968060
21
19.750930
0
LINE
8
Layer 1
10
114.968060
20
19.750930
11
117.816970
21
17.600170
0
LINE
8
Layer 1
10
117.816970
20
17.600170
11
118.791060
21
18.803210
0
LINE
8
Layer 1
10
118.791060
20
18.803210
11
119.540155
21
19.984378
0
LINE
8
Layer 1
10
119.540155
20
19.984378
11
119.682880
21
20.504734
0
LINE
8
Layer 1
10
119.682880
20
20.504734
11
119.667654
21
20.995421
0
LINE
8
Layer 1
10
119.667654
20
20.995421
11
119.153129
21
21.939236
0
LINE
8
Layer 1
10
119.153129
20
21.939236
11
117.976150
21
22.918720
0
LINE
8
Layer 1
10
117.976150
20
22.918720
11
115.125923
21
25.355913
0
LINE
8
Layer 1
10
115.125923
20
25.355913
11
111.418513
21
29.121736
0
LINE
8
Layer 1
10
111.418513
20
29.121736
11
107.805995
21
33.196426
0
LINE
8
Layer 1
10
107.805995
20
33.196426
11
105.240450
21
36.560220
0
LINE
8
Layer 1
10
105.240450
20
36.560220
11
103.445331
21
39.740107
0
LINE
8
Layer 1
10
103.445331
20
39.740107
11
102.307900
21
42.807800
0
LINE
8
Layer 1
10
102.307900
20
42.807800
11
101.758769
21
46.021653
0
LINE
8
Layer 1
10
101.758769
20
46.021653
11
101.728550
21
49.640020
0
LINE
8
Layer 1
10
101.728550
20
49.640020
11
101.972852
21
51.928970
0
LINE
8
Layer 1
10
101.972852
20
51.928970
11
102.438942
21
54.141681
0
LINE
8
Layer 1
10
102.438942
20
54.141681
11
103.091208
21
56.207586
0
LINE
8
Layer 1
10
103.091208
20
56.207586
11
103.894037
21
58.056116
0
LINE
8
Layer 1
10
103.894037
20
58.056116
11
104.811819
21
59.616703
0
LINE
8
Layer 1
10
104.811819
20
59.616703
11
105.808939
21
60.818778
0
LINE
8
Layer 1
10
105.808939
20
60.818778
11
106.849787
21
61.591773
0
LINE
8
Layer 1
10
106.849787
20
61.591773
11
107.898750
21
61.865120
0
LINE
8
Layer 1
10
107.898750
20
61.865120
11
108.359245
21
61.741505
0
LINE
8
Layer 1
10
108.359245
20
61.741505
11
108.911843
21
61.398329
0
LINE
8
Layer 1
10
108.911843
20
61.398329
11
110.147684
21
60.219291
0
LINE
8
Layer 1
10
110.147684
20
60.219291
11
111.314935
21
58.660013
0
LINE
8
Layer 1
10
111.314935
20
58.660013
11
112.122260
21
57.052500
0
LINE
8
Layer 1
10
112.122260
20
57.052500
11
112.560008
21
56.101150
0
LINE
8
Layer 1
10
112.560008
20
56.101150
11
112.754372
21
55.872960
0
LINE
8
Layer 1
10
112.754372
20
55.872960
11
112.898470
21
55.861880
0
LINE
8
Layer 1
10
112.898470
20
55.861880
11
113.119991
21
55.803833
0
LINE
8
Layer 1
10
113.119991
20
55.803833
11
113.525126
21
55.447602
0
LINE
8
Layer 1
10
113.525126
20
55.447602
11
114.655460
21
54.074930
0
LINE
8
Layer 1
10
114.655460
20
54.074930
11
116.375770
21
52.019230
0
LINE
8
Layer 1
10
116.375770
20
52.019230
11
116.344308
21
52.599978
0
LINE
8
Layer 1
10
116.344308
20
52.599978
11
115.961514
21
54.056534
0
LINE
8
Layer 1
10
115.961514
20
54.056534
11
114.647160
21
57.882940
0
LINE
8
Layer 1
10
114.647160
20
57.882940
11
114.236246
21
59.532655
0
LINE
8
Layer 1
10
114.236246
20
59.532655
11
114.065250
21
61.450690
0
LINE
8
Layer 1
10
114.065250
20
61.450690
11
114.540456
21
64.645502
0
LINE
8
Layer 1
10
114.540456
20
64.645502
11
115.792176
21
69.929870
0
LINE
8
Layer 1
10
115.792176
20
69.929870
11
117.559560
21
76.297073
0
LINE
8
Layer 1
10
117.559560
20
76.297073
11
119.581760
21
82.740390
0
LINE
8
Layer 1
10
119.581760
20
82.740390
11
120.830751
21
86.762666
0
LINE
8
Layer 1
10
120.830751
20
86.762666
11
121.199250
21
88.586550
0
LINE
8
Layer 1
10
121.199250
20
88.586550
11
120.814476
21
88.269170
0
LINE
8
Layer 1
10
120.814476
20
88.269170
11
120.251960
21
87.143740
0
LINE
8
Layer 1
10
120.251960
20
87.143740
11
119.042799
21
84.980349
0
LINE
8
Layer 1
10
119.042799
20
84.980349
11
117.103370
21
82.167300
0
LINE
8
Layer 1
10
117.103370
20
82.167300
11
115.884287
21
80.386830
0
LINE
8
Layer 1
10
115.884287
20
80.386830
11
114.832108
21
78.488867
0
LINE
8
Layer 1
10
114.832108
20
78.488867
11
113.889259
21
76.357246
0
LINE
8
Layer 1
10
113.889259
20
76.357246
11
112.998170
21
73.875800
0
LINE
8
Layer 1
10
112.998170
20
73.875800
11
111.468246
21
69.756691
0
LINE
8
Layer 1
10
111.468246
20
69.756691
11
109.802614
21
66.521880
0
LINE
8
Layer 1
10
109.802614
20
66.521880
11
107.780362
21
63.815504
0
LINE
8
Layer 1
10
107.780362
20
63.815504
11
105.180580
21
61.281700
0
LINE
8
Layer 1
10
105.180580
20
61.281700
11
102.860348
21
59.011680
0
LINE
8
Layer 1
10
102.860348
20
59.011680
11
101.238253
21
56.768966
0
LINE
8
Layer 1
10
101.238253
20
56.768966
11
100.658398
21
55.604235
0
LINE
8
Layer 1
10
100.658398
20
55.604235
11
100.216349
21
54.381992
0
LINE
8
Layer 1
10
100.216349
20
54.381992
11
99.696690
21
51.679190
0
LINE
8
Layer 1
10
99.696690
20
51.679190
11
99.399026
21
49.697892
0
LINE
8
Layer 1
10
99.399026
20
49.697892
11
99.043629
21
48.757776
0
LINE
8
Layer 1
10
99.043629
20
48.757776
11
98.855519
21
48.690448
0
LINE
8
Layer 1
10
98.855519
20
48.690448
11
98.666464
21
48.898158
0
LINE
8
Layer 1
10
98.666464
20
48.898158
11
98.303500
21
50.158350
0
LINE
8
Layer 1
10
98.303500
20
50.158350
11
98.184090
21
51.216822
0
LINE
8
Layer 1
10
98.184090
20
51.216822
11
98.214639
21
52.358725
0
LINE
8
Layer 1
10
98.214639
20
52.358725
11
98.752539
21
54.982421
0
LINE
8
Layer 1
10
98.752539
20
54.982421
11
99.971047
21
58.208632
0
LINE
8
Layer 1
10
99.971047
20
58.208632
11
101.924010
21
62.216550
0
LINE
8
Layer 1
10
101.924010
20
62.216550
11
103.849830
21
66.174860
0
LINE
8
Layer 1
10
103.849830
20
66.174860
11
104.358248
21
67.454322
0
LINE
8
Layer 1
10
104.358248
20
67.454322
11
104.453010
21
68.013610
0
LINE
8
Layer 1
10
104.453010
20
68.013610
11
104.254130
21
68.041694
0
LINE
8
Layer 1
10
104.254130
20
68.041694
11
103.963004
21
67.874801
0
LINE
8
Layer 1
10
103.963004
20
67.874801
11
103.260320
21
67.078760
0
LINE
8
Layer 1
10
103.260320
20
67.078760
11
101.392424
21
64.751532
0
LINE
8
Layer 1
10
101.392424
20
64.751532
11
99.059589
21
62.573336
0
LINE
8
Layer 1
10
99.059589
20
62.573336
11
96.343172
21
60.610895
0
LINE
8
Layer 1
10
96.343172
20
60.610895
11
93.324530
21
58.930930
0
LINE
8
Layer 1
10
93.324530
20
58.930930
11
89.766324
21
57.009639
0
LINE
8
Layer 1
10
89.766324
20
57.009639
11
86.743623
21
54.930078
0
LINE
8
Layer 1
10
86.743623
20
54.930078
11
84.216974
21
52.661415
0
LINE
8
Layer 1
10
84.216974
20
52.661415
11
82.146930
21
50.172820
0
LINE
8
Layer 1
10
82.146930
20
50.172820
11
80.991855
21
48.710083
0
LINE
8
Layer 1
10
80.991855
20
48.710083
11
80.449121
21
48.365572
0
LINE
8
Layer 1
10
80.449121
20
48.365572
11
80.562017
21
49.100000
0
LINE
8
Layer 1
10
80.562017
20
49.100000
11
81.373830
21
50.874080
0
LINE
8
Layer 1
10
81.373830
20
50.874080
11
82.404465
21
52.494264
0
LINE
8
Layer 1
10
82.404465
20
52.494264
11
83.889838
21
54.166991
0
LINE
8
Layer 1
10
83.889838
20
54.166991
11
85.942154
21
56.003491
0
LINE
8
Layer 1
10
85.942154
20
56.003491
11
88.673620
21
58.114990
0
LINE
8
Layer 1
10
88.673620
20
58.114990
11
91.637208
21
60.626300
0
LINE
8
Layer 1
10
91.637208
20
60.626300
11
95.444020
21
64.287461
0
LINE
8
Layer 1
10
95.444020
20
64.287461
11
99.341658
21
68.344737
0
LINE
8
Layer 1
10
99.341658
20
68.344737
11
102.577720
21
72.044390
0
LINE
8
Layer 1
10
102.577720
20
72.044390
11
104.194458
21
74.437449
0
LINE
8
Layer 1
10
104.194458
20
74.437449
11
104.755397
21
75.563062
0
LINE
8
Layer 1
10
104.755397
20
75.563062
11
105.043720
21
76.448780
0
LINE
8
Layer 1
10
105.043720
20
76.448780
11
105.346030
21
78.188220
0
LINE
8
Layer 1
10
105.346030
20
78.188220
11
103.357540
21
76.059680
0
LINE
8
Layer 1
10
103.357540
20
76.059680
11
97.394520
21
69.536060
0
LINE
8
Layer 1
10
97.394520
20
69.536060
11
95.435273
21
67.484668
0
LINE
8
Layer 1
10
95.435273
20
67.484668
11
93.521230
21
65.711928
0
LINE
8
Layer 1
10
93.521230
20
65.711928
11
91.657512
21
64.222286
0
LINE
8
Layer 1
10
91.657512
20
64.222286
11
89.849240
21
63.020190
0
LINE
8
Layer 1
10
89.849240
20
63.020190
11
86.461455
21
60.793930
0
LINE
8
Layer 1
10
86.461455
20
60.793930
11
83.330830
21
58.420460
0
LINE
8
Layer 1
10
83.330830
20
58.420460
11
81.654147
21
57.196141
0
LINE
8
Layer 1
10
81.654147
20
57.196141
11
79.590678
21
55.981604
0
LINE
8
Layer 1
10
79.590678
20
55.981604
11
77.259833
21
54.823639
0
LINE
8
Layer 1
10
77.259833
20
54.823639
11
74.781018
21
53.769039
0
LINE
8
Layer 1
10
74.781018
20
53.769039
11
72.273642
21
52.864593
0
LINE
8
Layer 1
10
72.273642
20
52.864593
11
69.857113
21
52.157094
0
LINE
8
Layer 1
10
69.857113
20
52.157094
11
67.650840
21
51.693333
0
LINE
8
Layer 1
10
67.650840
20
51.693333
11
65.774230
21
51.520100
0
LINE
8
Layer 1
10
65.774230
20
51.520100
11
63.597264
21
51.658891
0
LINE
8
Layer 1
10
63.597264
20
51.658891
11
62.861755
21
51.819565
0
LINE
8
Layer 1
10
62.861755
20
51.819565
11
62.504730
21
52.019300
0
LINE
8
Layer 1
10
62.504730
20
52.019300
11
62.532338
21
52.233206
0
LINE
8
Layer 1
10
62.532338
20
52.233206
11
62.886143
21
52.396606
0
LINE
8
Layer 1
10
62.886143
20
52.396606
11
64.445130
21
52.537610
0
LINE
8
Layer 1
10
64.445130
20
52.537610
11
65.733867
21
52.696007
0
LINE
8
Layer 1
10
65.733867
20
52.696007
11
67.694222
21
53.124911
0
LINE
8
Layer 1
10
67.694222
20
53.124911
11
72.715218
21
54.516513
0
LINE
8
Layer 1
10
72.715218
20
54.516513
11
77.678969
21
56.156960
0
LINE
8
Layer 1
10
77.678969
20
56.156960
11
79.567770
21
56.896922
0
LINE
8
Layer 1
10
79.567770
20
56.896922
11
80.756330
21
57.490800
0
LINE
8
Layer 1
10
80.756330
20
57.490800
11
84.437220
21
60.489060
0
LINE
8
Layer 1
10
84.437220
20
60.489060
11
86.917346
21
62.411443
0
LINE
8
Layer 1
10
86.917346
20
62.411443
11
89.328930
21
63.879040
0
LINE
8
Layer 1
10
89.328930
20
63.879040
11
91.231904
21
64.985100
0
LINE
8
Layer 1
10
91.231904
20
64.985100
11
93.248200
21
66.514741
0
LINE
8
Layer 1
10
93.248200
20
66.514741
11
95.375677
21
68.465546
0
LINE
8
Layer 1
10
95.375677
20
68.465546
11
97.612193
21
70.835099
0
LINE
8
Layer 1
10
97.612193
20
70.835099
11
99.955607
21
73.620981
0
LINE
8
Layer 1
10
99.955607
20
73.620981
11
102.403778
21
76.820777
0
LINE
8
Layer 1
10
102.403778
20
76.820777
11
107.605830
21
84.452440
0
LINE
8
Layer 1
10
107.605830
20
84.452440
11
111.406039
21
90.667072
0
LINE
8
Layer 1
10
111.406039
20
90.667072
11
113.994060
21
95.711338
0
LINE
8
Layer 1
10
113.994060
20
95.711338
11
114.959296
21
98.077620
0
LINE
8
Layer 1
10
114.959296
20
98.077620
11
115.772441
21
100.490955
0
LINE
8
Layer 1
10
115.772441
20
100.490955
11
117.143730
21
105.911640
0
LINE
8
Layer 1
10
117.143730
20
105.911640
11
118.447530
21
111.517798
0
LINE
8
Layer 1
10
118.447530
20
111.517798
11
119.466030
21
115.172560
0
LINE
8
Layer 1
10
119.466030
20
115.172560
11
119.952680
21
116.598924
0
LINE
8
Layer 1
10
119.952680
20
116.598924
11
119.986930
21
117.080460
0
LINE
8
Layer 1
10
119.986930
20
117.080460
11
119.987000
21
117.080000
0
LINE
8
Layer 1
10
96.481000
20
82.560600
11
96.762090
21
82.449490
0
LINE
8
Layer 1
10
96.762090
20
82.449490
11
96.876166
21
82.125338
0
LINE
8
Layer 1
10
96.876166
20
82.125338
11
96.826840
21
81.576942
0
LINE
8
Layer 1
10
96.826840
20
81.576942
11
96.294815
21
79.945077
0
LINE
8
Layer 1
10
96.294815
20
79.945077
11
95.279677
21
77.829219
0
LINE
8
Layer 1
10
95.279677
20
77.829219
11
93.895090
21
75.504690
0
LINE
8
Layer 1
10
93.895090
20
75.504690
11
92.243950
21
73.264417
0
LINE
8
Layer 1
10
92.243950
20
73.264417
11
90.354556
21
71.054109
0
LINE
8
Layer 1
10
90.354556
20
71.054109
11
88.800377
21
69.500589
0
LINE
8
Layer 1
10
88.800377
20
69.500589
11
88.328202
21
69.166007
0
LINE
8
Layer 1
10
88.328202
20
69.166007
11
88.154880
21
69.230680
0
LINE
8
Layer 1
10
88.154880
20
69.230680
11
89.071519
21
70.569942
0
LINE
8
Layer 1
10
89.071519
20
70.569942
11
91.275090
21
73.348260
0
LINE
8
Layer 1
10
91.275090
20
73.348260
11
93.339699
21
76.088090
0
LINE
8
Layer 1
10
93.339699
20
76.088090
11
94.605831
21
78.263626
0
LINE
8
Layer 1
10
94.605831
20
78.263626
11
94.921939
21
79.101603
0
LINE
8
Layer 1
10
94.921939
20
79.101603
11
95.017393
21
79.752690
0
LINE
8
Layer 1
10
95.017393
20
79.752690
11
94.885180
21
80.201613
0
LINE
8
Layer 1
10
94.885180
20
80.201613
11
94.518290
21
80.433100
0
LINE
8
Layer 1
10
94.518290
20
80.433100
11
94.100066
21
80.399391
0
LINE
8
Layer 1
10
94.100066
20
80.399391
11
93.507546
21
80.164027
0
LINE
8
Layer 1
10
93.507546
20
80.164027
11
91.961937
21
79.205055
0
LINE
8
Layer 1
10
91.961937
20
79.205055
11
90.206100
21
77.789626
0
LINE
8
Layer 1
10
90.206100
20
77.789626
11
88.564670
21
76.151180
0
LINE
8
Layer 1
10
88.564670
20
76.151180
11
87.567577
21
75.227996
0
LINE
8
Layer 1
10
87.567577
20
75.227996
11
87.259392
21
75.102726
0
LINE
8
Layer 1
10
87.259392
20
75.102726
11
87.139870
21
75.241690
0
LINE
8
Layer 1
10
87.139870
20
75.241690
11
87.452049
21
76.043894
0
LINE
8
Layer 1
10
87.452049
20
76.043894
11
88.322850
21
77.113639
0
LINE
8
Layer 1
10
88.322850
20
77.113639
11
91.111906
21
79.585048
0
LINE
8
Layer 1
10
91.111906
20
79.585048
11
94.250217
21
81.714512
0
LINE
8
Layer 1
10
94.250217
20
81.714512
11
95.557586
21
82.356827
0
LINE
8
Layer 1
10
95.557586
20
82.356827
11
96.480960
21
82.560630
0
LINE
8
Layer 1
10
96.480960
20
82.560630
11
96.481000
21
82.560600
0
LINE
8
Layer 1
10
116.156000
20
109.539000
11
116.465964
21
109.384516
0
LINE
8
Layer 1
10
116.465964
20
109.384516
11
116.612973
21
108.944924
0
LINE
8
Layer 1
10
116.612973
20
108.944924
11
116.475088
21
107.353583
0
LINE
8
Layer 1
10
116.475088
20
107.353583
11
115.856263
21
105.051310
0
LINE
8
Layer 1
10
115.856263
20
105.051310
11
114.870418
21
102.324438
0
LINE
8
Layer 1
10
114.870418
20
102.324438
11
113.631471
21
99.459298
0
LINE
8
Layer 1
10
113.631471
20
99.459298
11
112.253341
21
96.742223
0
LINE
8
Layer 1
10
112.253341
20
96.742223
11
110.849948
21
94.459547
0
LINE
8
Layer 1
10
110.849948
20
94.459547
11
109.535210
21
92.897600
0
LINE
8
Layer 1
10
109.535210
20
92.897600
11
108.157520
21
91.660970
0
LINE
8
Layer 1
10
108.157520
20
91.660970
11
108.963740
21
92.956500
0
LINE
8
Layer 1
10
108.963740
20
92.956500
11
112.359340
21
98.606021
0
LINE
8
Layer 1
10
112.359340
20
98.606021
11
113.216299
21
100.295599
0
LINE
8
Layer 1
10
113.216299
20
100.295599
11
113.799030
21
101.749260
0
LINE
8
Layer 1
10
113.799030
20
101.749260
11
114.582420
21
104.660210
0
LINE
8
Layer 1
10
114.582420
20
104.660210
11
114.025011
21
104.378240
0
LINE
8
Layer 1
10
114.025011
20
104.378240
11
112.507321
21
103.099586
0
LINE
8
Layer 1
10
112.507321
20
103.099586
11
107.518330
21
98.376850
0
LINE
8
Layer 1
10
107.518330
20
98.376850
11
100.228320
21
91.402090
0
LINE
8
Layer 1
10
100.228320
20
91.402090
11
100.164970
21
91.551909
0
LINE
8
Layer 1
10
100.164970
20
91.551909
11
100.403735
21
91.982841
0
LINE
8
Layer 1
10
100.403735
20
91.982841
11
101.690167
21
93.576905
0
LINE
8
Layer 1
10
101.690167
20
93.576905
11
106.816520
21
98.915850
0
LINE
8
Layer 1
10
106.816520
20
98.915850
11
110.769351
21
103.084925
0
LINE
8
Layer 1
10
110.769351
20
103.084925
11
113.609430
21
106.559320
0
LINE
8
Layer 1
10
113.609430
20
106.559320
11
115.202110
21
108.663712
0
LINE
8
Layer 1
10
115.202110
20
108.663712
11
116.156030
21
109.538990
0
LINE
8
Layer 1
10
116.156030
20
109.538990
11
116.156000
21
109.539000
0
LINE
8
Layer 1
10
152.972000
20
0.675920
11
152.728110
21
0.622720
0
LINE
8
Layer 1
10
152.728110
20
0.622720
11
151.140359
21
-1.705919
0
LINE
8
Layer 1
10
151.140359
20
-1.705919
11
149.097800
21
-4.189380
0
LINE
8
Layer 1
10
149.097800
20
-4.189380
11
155.143000
21
-4.189380
0
LINE
8
Layer 1
10
155.143000
20
-4.189380
11
156.534318
21
-2.063758
0
LINE
8
Layer 1
10
156.534318
20
-2.063758
11
157.074700
21
-0.776140
0
LINE
8
Layer 1
10
157.074700
20
-0.776140
11
156.564026
21
-0.406307
0
LINE
8
Layer 1
10
156.564026
20
-0.406307
11
155.371019
21
0.068128
0
LINE
8
Layer 1
10
155.371019
20
0.068128
11
152.972080
21
0.675980
0
LINE
8
Layer 1
10
152.972080
20
0.675980
11
152.972000
21
0.675920
0
LINE
8
Layer 1
10
123.404000
20
234.437000
11
123.146090
21
234.363600
0
LINE
8
Layer 1
10
123.146090
20
234.363600
11
122.946930
21
233.286833
0
LINE
8
Layer 1
10
122.946930
20
233.286833
11
122.809180
21
231.037710
0
LINE
8
Layer 1
10
122.809180
20
231.037710
11
122.819056
21
229.310047
0
LINE
8
Layer 1
10
122.819056
20
229.310047
11
123.046440
21
227.960778
0
LINE
8
Layer 1
10
123.046440
20
227.960778
11
123.598964
21
226.618029
0
LINE
8
Layer 1
10
123.598964
20
226.618029
11
124.584260
21
224.909930
0
LINE
8
Layer 1
10
124.584260
20
224.909930
11
126.253456
21
221.751306
0
LINE
8
Layer 1
10
126.253456
20
221.751306
11
127.640870
21
218.432280
0
LINE
8
Layer 1
10
127.640870
20
218.432280
11
128.361234
21
215.614172
0
LINE
8
Layer 1
10
128.361234
20
215.614172
11
128.763191
21
212.348077
0
LINE
8
Layer 1
10
128.763191
20
212.348077
11
128.857292
21
208.751480
0
LINE
8
Layer 1
10
128.857292
20
208.751480
11
128.654090
21
204.941864
0
LINE
8
Layer 1
10
128.654090
20
204.941864
11
128.164134
21
201.036712
0
LINE
8
Layer 1
10
128.164134
20
201.036712
11
127.397977
21
197.153508
0
LINE
8
Layer 1
10
127.397977
20
197.153508
11
126.366168
21
193.409736
0
LINE
8
Layer 1
10
126.366168
20
193.409736
11
125.079260
21
189.922880
0
LINE
8
Layer 1
10
125.079260
20
189.922880
11
124.111970
21
187.647040
0
LINE
8
Layer 1
10
124.111970
20
187.647040
11
122.678470
21
190.842190
0
LINE
8
Layer 1
10
122.678470
20
190.842190
11
121.367236
21
194.063947
0
LINE
8
Layer 1
10
121.367236
20
194.063947
11
121.046873
21
195.289482
0
LINE
8
Layer 1
10
121.046873
20
195.289482
11
120.952069
21
196.375048
0
LINE
8
Layer 1
10
120.952069
20
196.375048
11
121.084364
21
197.408337
0
LINE
8
Layer 1
10
121.084364
20
197.408337
11
121.445300
21
198.477045
0
LINE
8
Layer 1
10
121.445300
20
198.477045
11
122.859260
21
201.071490
0
LINE
8
Layer 1
10
122.859260
20
201.071490
11
125.036440
21
204.635110
0
LINE
8
Layer 1
10
125.036440
20
204.635110
11
124.694340
21
209.040010
0
LINE
8
Layer 1
10
124.694340
20
209.040010
11
123.999240
21
216.553760
0
LINE
8
Layer 1
10
123.999240
20
216.553760
11
123.645760
21
219.663140
0
LINE
8
Layer 1
10
123.645760
20
219.663140
11
120.008860
21
216.035450
0
LINE
8
Layer 1
10
120.008860
20
216.035450
11
117.166702
21
212.965968
0
LINE
8
Layer 1
10
117.166702
20
212.965968
11
116.177352
21
211.639188
0
LINE
8
Layer 1
10
116.177352
20
211.639188
11
115.435243
21
210.369391
0
LINE
8
Layer 1
10
115.435243
20
210.369391
11
114.909941
21
209.095333
0
LINE
8
Layer 1
10
114.909941
20
209.095333
11
114.571012
21
207.755769
0
LINE
8
Layer 1
10
114.571012
20
207.755769
11
114.330540
21
204.635150
0
LINE
8
Layer 1
10
114.330540
20
204.635150
11
114.389092
21
202.535097
0
LINE
8
Layer 1
10
114.389092
20
202.535097
11
114.698536
21
200.861025
0
LINE
8
Layer 1
10
114.698536
20
200.861025
11
115.434808
21
199.021946
0
LINE
8
Layer 1
10
115.434808
20
199.021946
11
116.773840
21
196.426870
0
LINE
8
Layer 1
10
116.773840
20
196.426870
11
118.196174
21
193.618477
0
LINE
8
Layer 1
10
118.196174
20
193.618477
11
119.296812
21
191.065051
0
LINE
8
Layer 1
10
119.296812
20
191.065051
11
120.087542
21
188.690366
0
LINE
8
Layer 1
10
120.087542
20
188.690366
11
120.580156
21
186.418198
0
LINE
8
Layer 1
10
120.580156
20
186.418198
11
120.786443
21
184.172319
0
LINE
8
Layer 1
10
120.786443
20
184.172319
11
120.718193
21
181.876505
0
LINE
8
Layer 1
10
120.718193
20
181.876505
11
120.387195
21
179.454531
0
LINE
8
Layer 1
10
120.387195
20
179.454531
11
119.805240
21
176.830170
0
LINE
8
Layer 1
10
119.805240
20
176.830170
11
118.604906
21
173.096603
0
LINE
8
Layer 1
10
118.604906
20
173.096603
11
116.949125
21
169.200905
0
LINE
8
Layer 1
10
116.949125
20
169.200905
11
115.088804
21
165.672639
0
LINE
8
Layer 1
10
115.088804
20
165.672639
11
113.274850
21
163.041370
0
LINE
8
Layer 1
10
113.274850
20
163.041370
11
112.168301
21
161.512269
0
LINE
8
Layer 1
10
112.168301
20
161.512269
11
111.875512
21
160.920249
0
LINE
8
Layer 1
10
111.875512
20
160.920249
11
111.820130
21
160.552140
0
LINE
8
Layer 1
10
111.820130
20
160.552140
11
111.698158
21
160.073754
0
LINE
8
Layer 1
10
111.698158
20
160.073754
11
111.224798
21
159.181492
0
LINE
8
Layer 1
10
111.224798
20
159.181492
11
109.525240
21
156.665550
0
LINE
8
Layer 1
10
109.525240
20
156.665550
11
108.198438
21
154.966344
0
LINE
8
Layer 1
10
108.198438
20
154.966344
11
107.214835
21
153.952074
0
LINE
8
Layer 1
10
107.214835
20
153.952074
11
106.379507
21
153.461647
0
LINE
8
Layer 1
10
106.379507
20
153.461647
11
105.497530
21
153.333970
0
LINE
8
Layer 1
10
105.497530
20
153.333970
11
104.587009
21
153.477772
0
LINE
8
Layer 1
10
104.587009
20
153.477772
11
103.708059
21
154.083222
0
LINE
8
Layer 1
10
103.708059
20
154.083222
11
102.591094
21
155.411392
0
LINE
8
Layer 1
10
102.591094
20
155.411392
11
100.966530
21
157.723350
0
LINE
8
Layer 1
10
100.966530
20
157.723350
11
98.462745
21
161.234413
0
LINE
8
Layer 1
10
98.462745
20
161.234413
11
96.235537
21
163.846356
0
LINE
8
Layer 1
10
96.235537
20
163.846356
11
93.728651
21
166.135246
0
LINE
8
Layer 1
10
93.728651
20
166.135246
11
90.385830
21
168.677150
0
LINE
8
Layer 1
10
90.385830
20
168.677150
11
86.832506
21
171.492091
0
LINE
8
Layer 1
10
86.832506
20
171.492091
11
84.245040
21
173.942990
0
LINE
8
Layer 1
10
84.245040
20
173.942990
11
82.978790
21
175.254486
0
LINE
8
Layer 1
10
82.978790
20
175.254486
11
82.652096
21
175.469512
0
LINE
8
Layer 1
10
82.652096
20
175.469512
11
82.601740
21
175.329990
0
LINE
8
Layer 1
10
82.601740
20
175.329990
11
83.724150
21
171.443400
0
LINE
8
Layer 1
10
83.724150
20
171.443400
11
84.592340
21
168.361940
0
LINE
8
Layer 1
10
84.592340
20
168.361940
11
89.786340
21
165.252560
0
LINE
8
Layer 1
10
89.786340
20
165.252560
11
93.864889
21
162.569545
0
LINE
8
Layer 1
10
93.864889
20
162.569545
11
95.505113
21
161.272293
0
LINE
8
Layer 1
10
95.505113
20
161.272293
11
96.908511
21
159.975064
0
LINE
8
Layer 1
10
96.908511
20
159.975064
11
98.096988
21
158.655746
0
LINE
8
Layer 1
10
98.096988
20
158.655746
11
99.092448
21
157.292230
0
LINE
8
Layer 1
10
99.092448
20
157.292230
11
99.916797
21
155.862405
0
LINE
8
Layer 1
10
99.916797
20
155.862405
11
100.591940
21
154.344160
0
LINE
8
Layer 1
10
100.591940
20
154.344160
11
101.404740
21
151.292704
0
LINE
8
Layer 1
10
101.404740
20
151.292704
11
101.824769
21
147.787269
0
LINE
8
Layer 1
10
101.824769
20
147.787269
11
101.805760
21
144.601279
0
LINE
8
Layer 1
10
101.805760
20
144.601279
11
101.617159
21
143.369772
0
LINE
8
Layer 1
10
101.617159
20
143.369772
11
101.301450
21
142.508160
0
LINE
8
Layer 1
10
101.301450
20
142.508160
11
101.017877
21
142.208894
0
LINE
8
Layer 1
10
101.017877
20
142.208894
11
100.844212
21
142.553069
0
LINE
8
Layer 1
10
100.844212
20
142.553069
11
100.744350
21
145.617530
0
LINE
8
Layer 1
10
100.744350
20
145.617530
11
100.488735
21
149.257560
0
LINE
8
Layer 1
10
100.488735
20
149.257560
11
99.737801
21
152.746540
0
LINE
8
Layer 1
10
99.737801
20
152.746540
11
98.573920
21
155.802740
0
LINE
8
Layer 1
10
98.573920
20
155.802740
11
97.862864
21
157.080507
0
LINE
8
Layer 1
10
97.862864
20
157.080507
11
97.079460
21
158.144430
0
LINE
8
Layer 1
10
97.079460
20
158.144430
11
94.491029
21
160.487676
0
LINE
8
Layer 1
10
94.491029
20
160.487676
11
90.520705
21
163.583683
0
LINE
8
Layer 1
10
90.520705
20
163.583683
11
86.844283
21
166.184085
0
LINE
8
Layer 1
10
86.844283
20
166.184085
11
85.639972
21
166.908321
0
LINE
8
Layer 1
10
85.639972
20
166.908321
11
85.137560
21
167.040520
0
LINE
8
Layer 1
10
85.137560
20
167.040520
11
85.489402
21
165.179852
0
LINE
8
Layer 1
10
85.489402
20
165.179852
11
86.562760
21
161.307550
0
LINE
8
Layer 1
10
86.562760
20
161.307550
11
87.677755
21
156.863804
0
LINE
8
Layer 1
10
87.677755
20
156.863804
11
88.168249
21
153.261867
0
LINE
8
Layer 1
10
88.168249
20
153.261867
11
88.173271
21
151.884564
0
LINE
8
Layer 1
10
88.173271
20
151.884564
11
88.014925
21
150.847297
0
LINE
8
Layer 1
10
88.014925
20
150.847297
11
87.690796
21
150.193261
0
LINE
8
Layer 1
10
87.690796
20
150.193261
11
87.198470
21
149.965650
0
LINE
8
Layer 1
10
87.198470
20
149.965650
11
86.426585
21
150.187031
0
LINE
8
Layer 1
10
86.426585
20
150.187031
11
85.138018
21
150.792085
0
LINE
8
Layer 1
10
85.138018
20
150.792085
11
81.595632
21
152.798679
0
LINE
8
Layer 1
10
81.595632
20
152.798679
11
77.740890
21
155.276369
0
LINE
8
Layer 1
10
77.740890
20
155.276369
11
74.743370
21
157.516090
0
LINE
8
Layer 1
10
74.743370
20
157.516090
11
72.977822
21
159.198271
0
LINE
8
Layer 1
10
72.977822
20
159.198271
11
71.691030
21
160.791660
0
LINE
8
Layer 1
10
71.691030
20
160.791660
11
70.881497
21
162.319036
0
LINE
8
Layer 1
10
70.881497
20
162.319036
11
70.547729
21
163.803174
0
LINE
8
Layer 1
10
70.547729
20
163.803174
11
70.688228
21
165.266851
0
LINE
8
Layer 1
10
70.688228
20
165.266851
11
71.301499
21
166.732845
0
LINE
8
Layer 1
10
71.301499
20
166.732845
11
72.386045
21
168.223932
0
LINE
8
Layer 1
10
72.386045
20
168.223932
11
73.940370
21
169.762890
0
LINE
8
Layer 1
10
73.940370
20
169.762890
11
75.350861
21
171.275085
0
LINE
8
Layer 1
10
75.350861
20
171.275085
11
76.239821
21
172.941506
0
LINE
8
Layer 1
10
76.239821
20
172.941506
11
76.658459
21
174.904546
0
LINE
8
Layer 1
10
76.658459
20
174.904546
11
76.657980
21
177.306600
0
LINE
8
Layer 1
10
76.657980
20
177.306600
11
76.237262
21
179.885569
0
LINE
8
Layer 1
10
76.237262
20
179.885569
11
75.364984
21
182.406694
0
LINE
8
Layer 1
10
75.364984
20
182.406694
11
74.063703
21
184.818969
0
LINE
8
Layer 1
10
74.063703
20
184.818969
11
72.355980
21
187.071390
0
LINE
8
Layer 1
10
72.355980
20
187.071390
11
70.574070
21
189.089360
0
LINE
8
Layer 1
10
70.574070
20
189.089360
11
70.551070
21
186.859000
0
LINE
8
Layer 1
10
70.551070
20
186.859000
11
70.423200
21
185.686454
0
LINE
8
Layer 1
10
70.423200
20
185.686454
11
70.085432
21
184.204720
0
LINE
8
Layer 1
10
70.085432
20
184.204720
11
68.938270
21
180.899680
0
LINE
8
Layer 1
10
68.938270
20
180.899680
11
68.149765
21
178.923115
0
LINE
8
Layer 1
10
68.149765
20
178.923115
11
67.704849
21
177.390846
0
LINE
8
Layer 1
10
67.704849
20
177.390846
11
67.546168
21
176.033120
0
LINE
8
Layer 1
10
67.546168
20
176.033120
11
67.616370
21
174.580180
0
LINE
8
Layer 1
10
67.616370
20
174.580180
11
68.384037
21
166.227330
0
LINE
8
Layer 1
10
68.384037
20
166.227330
11
68.277611
21
165.157861
0
LINE
8
Layer 1
10
68.277611
20
165.157861
11
68.111295
21
165.051516
0
LINE
8
Layer 1
10
68.111295
20
165.051516
11
67.873180
21
165.098060
0
LINE
8
Layer 1
10
67.873180
20
165.098060
11
66.962669
21
165.804768
0
LINE
8
Layer 1
10
66.962669
20
165.804768
11
65.925944
21
167.195297
0
LINE
8
Layer 1
10
65.925944
20
167.195297
11
64.970389
21
168.942936
0
LINE
8
Layer 1
10
64.970389
20
168.942936
11
64.303390
21
170.720970
0
LINE
8
Layer 1
10
64.303390
20
170.720970
11
63.786632
21
173.254124
0
LINE
8
Layer 1
10
63.786632
20
173.254124
11
63.279190
21
176.615180
0
LINE
8
Layer 1
10
63.279190
20
176.615180
11
62.853811
21
179.405711
0
LINE
8
Layer 1
10
62.853811
20
179.405711
11
62.245735
21
181.418174
0
LINE
8
Layer 1
10
62.245735
20
181.418174
11
61.161034
21
183.334297
0
LINE
8
Layer 1
10
61.161034
20
183.334297
11
59.305780
21
185.835810
0
LINE
8
Layer 1
10
59.305780
20
185.835810
11
56.897080
21
189.470730
0
LINE
8
Layer 1
10
56.897080
20
189.470730
11
56.883780
21
184.765119
0
LINE
8
Layer 1
10
56.883780
20
184.765119
11
57.021680
21
180.049600
0
LINE
8
Layer 1
10
57.021680
20
180.049600
11
58.578690
21
177.172770
0
LINE
8
Layer 1
10
58.578690
20
177.172770
11
60.354290
21
174.452000
0
LINE
8
Layer 1
10
60.354290
20
174.452000
11
60.550123
21
173.857894
0
LINE
8
Layer 1
10
60.550123
20
173.857894
11
60.127479
21
173.866809
0
LINE
8
Layer 1
10
60.127479
20
173.866809
11
59.267643
21
174.401900
0
LINE
8
Layer 1
10
59.267643
20
174.401900
11
58.151900
21
175.386320
0
LINE
8
Layer 1
10
58.151900
20
175.386320
11
57.209800
21
176.610010
0
LINE
8
Layer 1
10
57.209800
20
176.610010
11
57.513100
21
172.780270
0
LINE
8
Layer 1
10
57.513100
20
172.780270
11
58.796810
21
172.043890
0
LINE
8
Layer 1
10
58.796810
20
172.043890
11
60.192942
21
171.269768
0
LINE
8
Layer 1
10
60.192942
20
171.269768
11
61.263800
21
170.376290
0
LINE
8
Layer 1
10
61.263800
20
170.376290
11
62.936075
21
167.996316
0
LINE
8
Layer 1
10
62.936075
20
167.996316
11
65.323776
21
164.238085
0
LINE
8
Layer 1
10
65.323776
20
164.238085
11
67.379192
21
160.798732
0
LINE
8
Layer 1
10
67.379192
20
160.798732
11
67.954882
21
159.728989
0
LINE
8
Layer 1
10
67.954882
20
159.728989
11
68.054610
21
159.375390
0
LINE
8
Layer 1
10
68.054610
20
159.375390
11
62.415744
21
161.780140
0
LINE
8
Layer 1
10
62.415744
20
161.780140
11
58.682110
21
163.576160
0
LINE
8
Layer 1
10
58.682110
20
163.576160
11
59.566200
21
158.533590
0
LINE
8
Layer 1
10
59.566200
20
158.533590
11
54.955414
21
156.695143
0
LINE
8
Layer 1
10
54.955414
20
156.695143
11
50.438687
21
154.696864
0
LINE
8
Layer 1
10
50.438687
20
154.696864
11
46.017642
21
152.544330
0
LINE
8
Layer 1
10
46.017642
20
152.544330
11
41.693900
21
150.243120
0
LINE
8
Layer 1
10
41.693900
20
150.243120
11
45.007900
21
149.504660
0
LINE
8
Layer 1
10
45.007900
20
149.504660
11
47.659662
21
148.537224
0
LINE
8
Layer 1
10
47.659662
20
148.537224
11
48.761700
21
147.950210
0
LINE
8
Layer 1
10
48.761700
20
147.950210
11
48.209061
21
147.351580
0
LINE
8
Layer 1
10
48.209061
20
147.351580
11
46.882790
21
146.356530
0
LINE
8
Layer 1
10
46.882790
20
146.356530
11
45.082831
21
144.855503
0
LINE
8
Layer 1
10
45.082831
20
144.855503
11
43.388390
21
143.040450
0
LINE
8
Layer 1
10
43.388390
20
143.040450
11
42.436411
21
142.023608
0
LINE
8
Layer 1
10
42.436411
20
142.023608
11
41.233347
21
141.068360
0
LINE
8
Layer 1
10
41.233347
20
141.068360
11
39.742130
21
140.148834
0
LINE
8
Layer 1
10
39.742130
20
140.148834
11
37.925690
21
139.239160
0
LINE
8
Layer 1
10
37.925690
20
139.239160
11
34.550774
21
137.576700
0
LINE
8
Layer 1
10
34.550774
20
137.576700
11
32.324540
21
136.110149
0
LINE
8
Layer 1
10
32.324540
20
136.110149
11
31.512926
21
135.343252
0
LINE
8
Layer 1
10
31.512926
20
135.343252
11
30.833381
21
134.496828
0
LINE
8
Layer 1
10
30.833381
20
134.496828
11
29.663690
21
132.394060
0
LINE
8
Layer 1
10
29.663690
20
132.394060
11
28.972941
21
130.742594
0
LINE
8
Layer 1
10
28.972941
20
130.742594
11
28.570844
21
129.221980
0
LINE
8
Layer 1
10
28.570844
20
129.221980
11
28.391795
21
127.461936
0
LINE
8
Layer 1
10
28.391795
20
127.461936
11
28.370190
21
125.092180
0
LINE
8
Layer 1
10
28.370190
20
125.092180
11
28.631581
21
121.370106
0
LINE
8
Layer 1
10
28.631581
20
121.370106
11
29.187190
21
118.624900
0
LINE
8
Layer 1
10
29.187190
20
118.624900
11
29.947890
21
116.562490
0
LINE
8
Layer 1
10
29.947890
20
116.562490
11
30.861490
21
118.487450
0
LINE
8
Layer 1
10
30.861490
20
118.487450
11
31.490030
21
119.481387
0
LINE
8
Layer 1
10
31.490030
20
119.481387
11
32.480006
21
120.607239
0
LINE
8
Layer 1
10
32.480006
20
120.607239
11
35.372390
21
123.079400
0
LINE
8
Layer 1
10
35.372390
20
123.079400
11
38.736681
21
125.847118
0
LINE
8
Layer 1
10
38.736681
20
125.847118
11
39.936648
21
127.138515
0
LINE
8
Layer 1
10
39.936648
20
127.138515
11
40.872349
21
128.463809
0
LINE
8
Layer 1
10
40.872349
20
128.463809
11
41.586674
21
129.894651
0
LINE
8
Layer 1
10
41.586674
20
129.894651
11
42.122512
21
131.502695
0
LINE
8
Layer 1
10
42.122512
20
131.502695
11
42.522755
21
133.359594
0
LINE
8
Layer 1
10
42.522755
20
133.359594
11
42.830290
21
135.537000
0
LINE
8
Layer 1
10
42.830290
20
135.537000
11
43.325584
21
138.044877
0
LINE
8
Layer 1
10
43.325584
20
138.044877
11
44.219990
21
140.064322
0
LINE
8
Layer 1
10
44.219990
20
140.064322
11
45.607071
21
141.747374
0
LINE
8
Layer 1
10
45.607071
20
141.747374
11
47.580390
21
143.246070
0
LINE
8
Layer 1
10
47.580390
20
143.246070
11
49.213731
21
144.170607
0
LINE
8
Layer 1
10
49.213731
20
144.170607
11
50.879451
21
144.891873
0
LINE
8
Layer 1
10
50.879451
20
144.891873
11
52.581148
21
145.410303
0
LINE
8
Layer 1
10
52.581148
20
145.410303
11
54.322419
21
145.726334
0
LINE
8
Layer 1
10
54.322419
20
145.726334
11
56.106861
21
145.840403
0
LINE
8
Layer 1
10
56.106861
20
145.840403
11
57.938072
21
145.752945
0
LINE
8
Layer 1
10
57.938072
20
145.752945
11
59.819650
21
145.464399
0
LINE
8
Layer 1
10
59.819650
20
145.464399
11
61.755190
21
144.975200
0
LINE
8
Layer 1
10
61.755190
20
144.975200
11
64.564127
21
144.402936
0
LINE
8
Layer 1
10
64.564127
20
144.402936
11
67.365190
21
144.213480
0
LINE
8
Layer 1
10
67.365190
20
144.213480
11
69.851532
21
144.122044
0
LINE
8
Layer 1
10
69.851532
20
144.122044
11
71.896528
21
143.670689
0
LINE
8
Layer 1
10
71.896528
20
143.670689
11
73.563729
21
142.837410
0
LINE
8
Layer 1
10
73.563729
20
142.837410
11
74.916690
21
141.600200
0
LINE
8
Layer 1
10
74.916690
20
141.600200
11
76.064541
21
139.982126
0
LINE
8
Layer 1
10
76.064541
20
139.982126
11
76.255250
21
139.489371
0
LINE
8
Layer 1
10
76.255250
20
139.489371
11
76.212158
21
139.227330
0
LINE
8
Layer 1
10
76.212158
20
139.227330
11
75.951519
21
139.210899
0
LINE
8
Layer 1
10
75.951519
20
139.210899
11
75.489591
21
139.454974
0
LINE
8
Layer 1
10
75.489591
20
139.454974
11
74.026890
21
140.784220
0
LINE
8
Layer 1
10
74.026890
20
140.784220
11
72.417740
21
142.308037
0
LINE
8
Layer 1
10
72.417740
20
142.308037
11
70.914649
21
143.249056
0
LINE
8
Layer 1
10
70.914649
20
143.249056
11
69.364028
21
143.676087
0
LINE
8
Layer 1
10
69.364028
20
143.676087
11
67.612290
21
143.657940
0
LINE
8
Layer 1
10
67.612290
20
143.657940
11
66.844123
21
143.520037
0
LINE
8
Layer 1
10
66.844123
20
143.520037
11
66.711733
21
143.405915
0
LINE
8
Layer 1
10
66.711733
20
143.405915
11
66.769378
21
143.231949
0
LINE
8
Layer 1
10
66.769378
20
143.231949
11
67.521488
21
142.615291
0
LINE
8
Layer 1
10
67.521488
20
142.615291
11
69.233890
21
141.491680
0
LINE
8
Layer 1
10
69.233890
20
141.491680
11
71.962390
21
139.602297
0
LINE
8
Layer 1
10
71.962390
20
139.602297
11
74.156590
21
137.863470
0
LINE
8
Layer 1
10
74.156590
20
137.863470
11
76.806386
21
135.801785
0
LINE
8
Layer 1
10
76.806386
20
135.801785
11
77.893642
21
135.170557
0
LINE
8
Layer 1
10
77.893642
20
135.170557
11
78.620390
21
134.938090
0
LINE
8
Layer 1
10
78.620390
20
134.938090
11
78.798837
21
135.135239
0
LINE
8
Layer 1
10
78.798837
20
135.135239
11
78.827679
21
135.672515
0
LINE
8
Layer 1
10
78.827679
20
135.672515
11
78.517404
21
137.442430
0
LINE
8
Layer 1
10
78.517404
20
137.442430
11
77.851274
21
139.597792
0
LINE
8
Layer 1
10
77.851274
20
139.597792
11
76.991000
21
141.488560
0
LINE
8
Layer 1
10
76.991000
20
141.488560
11
76.331983
21
142.444222
0
LINE
8
Layer 1
10
76.331983
20
142.444222
11
75.494925
21
143.382462
0
LINE
8
Layer 1
10
75.494925
20
143.382462
11
73.385650
21
145.137594
0
LINE
8
Layer 1
10
73.385650
20
145.137594
11
70.861100
21
146.615794
0
LINE
8
Layer 1
10
70.861100
20
146.615794
11
68.119200
21
147.678900
0
LINE
8
Layer 1
10
68.119200
20
147.678900
11
66.237041
21
148.079308
0
LINE
8
Layer 1
10
66.237041
20
148.079308
11
64.278175
21
148.062854
0
LINE
8
Layer 1
10
64.278175
20
148.062854
11
61.700822
21
147.568528
0
LINE
8
Layer 1
10
61.700822
20
147.568528
11
57.963200
21
146.535320
0
LINE
8
Layer 1
10
57.963200
20
146.535320
11
57.322658
21
146.504695
0
LINE
8
Layer 1
10
57.322658
20
146.504695
11
57.056290
21
146.806620
0
LINE
8
Layer 1
10
57.056290
20
146.806620
11
57.288995
21
147.083477
0
LINE
8
Layer 1
10
57.288995
20
147.083477
11
57.922603
21
147.439070
0
LINE
8
Layer 1
10
57.922603
20
147.439070
11
60.005490
21
148.202920
0
LINE
8
Layer 1
10
60.005490
20
148.202920
11
62.329799
21
148.694586
0
LINE
8
Layer 1
10
62.329799
20
148.694586
11
64.698616
21
148.849035
0
LINE
8
Layer 1
10
64.698616
20
148.849035
11
67.064915
21
148.679325
0
LINE
8
Layer 1
10
67.064915
20
148.679325
11
69.381669
21
148.198514
0
LINE
8
Layer 1
10
69.381669
20
148.198514
11
71.601850
21
147.419660
0
LINE
8
Layer 1
10
71.601850
20
147.419660
11
73.678432
21
146.355820
0
LINE
8
Layer 1
10
73.678432
20
146.355820
11
75.564388
21
145.020055
0
LINE
8
Layer 1
10
75.564388
20
145.020055
11
77.212690
21
143.425420
0
LINE
8
Layer 1
10
77.212690
20
143.425420
11
78.175426
21
142.175114
0
LINE
8
Layer 1
10
78.175426
20
142.175114
11
78.952321
21
140.844497
0
LINE
8
Layer 1
10
78.952321
20
140.844497
11
79.534742
21
139.475920
0
LINE
8
Layer 1
10
79.534742
20
139.475920
11
79.914056
21
138.111734
0
LINE
8
Layer 1
10
79.914056
20
138.111734
11
80.081631
21
136.794291
0
LINE
8
Layer 1
10
80.081631
20
136.794291
11
80.028834
21
135.565944
0
LINE
8
Layer 1
10
80.028834
20
135.565944
11
79.747031
21
134.469043
0
LINE
8
Layer 1
10
79.747031
20
134.469043
11
79.227590
21
133.545940
0
LINE
8
Layer 1
10
79.227590
20
133.545940
11
79.101565
21
132.888492
0
LINE
8
Layer 1
10
79.101565
20
132.888492
11
79.277639
21
131.967096
0
LINE
8
Layer 1
10
79.277639
20
131.967096
11
79.642486
21
131.146660
0
LINE
8
Layer 1
10
79.642486
20
131.146660
11
80.082780
21
130.792090
0
LINE
8
Layer 1
10
80.082780
20
130.792090
11
81.310580
21
132.551680
0
LINE
8
Layer 1
10
81.310580
20
132.551680
11
82.864784
21
134.414227
0
LINE
8
Layer 1
10
82.864784
20
134.414227
11
85.143480
21
136.421180
0
LINE
8
Layer 1
10
85.143480
20
136.421180
11
87.234255
21
138.247400
0
LINE
8
Layer 1
10
87.234255
20
138.247400
11
88.824214
21
140.254607
0
LINE
8
Layer 1
10
88.824214
20
140.254607
11
90.031334
21
142.627527
0
LINE
8
Layer 1
10
90.031334
20
142.627527
11
90.973590
21
145.550880
0
LINE
8
Layer 1
10
90.973590
20
145.550880
11
92.035080
21
148.843180
0
LINE
8
Layer 1
10
92.035080
20
148.843180
11
92.330502
21
148.923091
0
LINE
8
Layer 1
10
92.330502
20
148.923091
11
92.761933
21
148.766332
0
LINE
8
Layer 1
10
92.761933
20
148.766332
11
93.854871
21
147.915462
0
LINE
8
Layer 1
10
93.854871
20
147.915462
11
94.957989
21
146.635874
0
LINE
8
Layer 1
10
94.957989
20
146.635874
11
95.715380
21
145.272870
0
LINE
8
Layer 1
10
95.715380
20
145.272870
11
96.213623
21
142.927178
0
LINE
8
Layer 1
10
96.213623
20
142.927178
11
96.381655
21
139.949794
0
LINE
8
Layer 1
10
96.381655
20
139.949794
11
96.219799
21
136.963048
0
LINE
8
Layer 1
10
96.219799
20
136.963048
11
95.728380
21
134.589270
0
LINE
8
Layer 1
10
95.728380
20
134.589270
11
94.138673
21
130.953637
0
LINE
8
Layer 1
10
94.138673
20
130.953637
11
91.323990
21
125.067360
0
LINE
8
Layer 1
10
91.323990
20
125.067360
11
89.553775
21
121.377831
0
LINE
8
Layer 1
10
89.553775
20
121.377831
11
88.201275
21
118.249144
0
LINE
8
Layer 1
10
88.201275
20
118.249144
11
87.224885
21
115.448241
0
LINE
8
Layer 1
10
87.224885
20
115.448241
11
86.583000
21
112.742060
0
LINE
8
Layer 1
10
86.583000
20
112.742060
11
86.234014
21
109.897542
0
LINE
8
Layer 1
10
86.234014
20
109.897542
11
86.136323
21
106.681626
0
LINE
8
Layer 1
10
86.136323
20
106.681626
11
86.528400
21
98.203360
0
LINE
8
Layer 1
10
86.528400
20
98.203360
11
86.859090
21
93.338550
0
LINE
8
Layer 1
10
86.859090
20
93.338550
11
88.568100
21
95.981800
0
LINE
8
Layer 1
10
88.568100
20
95.981800
11
90.418835
21
98.441552
0
LINE
8
Layer 1
10
90.418835
20
98.441552
11
92.783684
21
100.704977
0
LINE
8
Layer 1
10
92.783684
20
100.704977
11
96.046491
21
103.088962
0
LINE
8
Layer 1
10
96.046491
20
103.088962
11
100.591100
21
105.910390
0
LINE
8
Layer 1
10
100.591100
20
105.910390
11
105.235972
21
108.909413
0
LINE
8
Layer 1
10
105.235972
20
108.909413
11
109.326609
21
112.082221
0
LINE
8
Layer 1
10
109.326609
20
112.082221
11
112.884016
21
115.446814
0
LINE
8
Layer 1
10
112.884016
20
115.446814
11
115.929200
21
119.021190
0
LINE
8
Layer 1
10
115.929200
20
119.021190
11
117.327069
21
121.190513
0
LINE
8
Layer 1
10
117.327069
20
121.190513
11
119.317999
21
124.707295
0
LINE
8
Layer 1
10
119.317999
20
124.707295
11
124.051690
21
133.901390
0
LINE
8
Layer 1
10
124.051690
20
133.901390
11
128.501820
21
142.691065
0
LINE
8
Layer 1
10
128.501820
20
142.691065
11
131.226500
21
147.450990
0
LINE
8
Layer 1
10
131.226500
20
147.450990
11
133.009476
21
149.274489
0
LINE
8
Layer 1
10
133.009476
20
149.274489
11
135.355763
21
150.960755
0
LINE
8
Layer 1
10
135.355763
20
150.960755
11
138.244093
21
152.496691
0
LINE
8
Layer 1
10
138.244093
20
152.496691
11
141.653200
21
153.869200
0
LINE
8
Layer 1
10
141.653200
20
153.869200
11
144.884893
21
155.233870
0
LINE
8
Layer 1
10
144.884893
20
155.233870
11
146.178507
21
155.936776
0
LINE
8
Layer 1
10
146.178507
20
155.936776
11
147.022410
21
156.536740
0
LINE
8
Layer 1
10
147.022410
20
156.536740
11
147.949294
21
157.272015
0
LINE
8
Layer 1
10
147.949294
20
157.272015
11
148.577310
21
157.545470
0
LINE
8
Layer 1
10
148.577310
20
157.545470
11
148.661310
21
157.514470
0
LINE
8
Layer 1
10
148.661310
20
157.514470
11
148.705565
21
157.141371
0
LINE
8
Layer 1
10
148.705565
20
157.141371
11
148.346313
21
156.597051
0
LINE
8
Layer 1
10
148.346313
20
156.597051
11
146.708786
21
155.201939
0
LINE
8
Layer 1
10
146.708786
20
155.201939
11
144.331724
21
153.743525
0
LINE
8
Layer 1
10
144.331724
20
153.743525
11
141.798120
21
152.636200
0
LINE
8
Layer 1
10
141.798120
20
152.636200
11
136.942620
21
150.771730
0
LINE
8
Layer 1
10
136.942620
20
150.771730
11
135.466127
21
149.725513
0
LINE
8
Layer 1
10
135.466127
20
149.725513
11
133.733180
21
148.070607
0
LINE
8
Layer 1
10
133.733180
20
148.070607
11
131.936581
21
146.010038
0
LINE
8
Layer 1
10
131.936581
20
146.010038
11
130.269130
21
143.746830
0
LINE
8
Layer 1
10
130.269130
20
143.746830
11
128.244360
21
140.261625
0
LINE
8
Layer 1
10
128.244360
20
140.261625
11
125.605711
21
135.143629
0
LINE
8
Layer 1
10
125.605711
20
135.143629
11
122.951749
21
129.598708
0
LINE
8
Layer 1
10
122.951749
20
129.598708
11
120.881040
21
124.832730
0
LINE
8
Layer 1
10
120.881040
20
124.832730
11
119.143674
21
121.143835
0
LINE
8
Layer 1
10
119.143674
20
121.143835
11
117.280240
21
118.096220
0
LINE
8
Layer 1
10
117.280240
20
118.096220
11
114.866655
21
115.459181
0
LINE
8
Layer 1
10
114.866655
20
115.459181
11
111.255673
21
112.277107
0
LINE
8
Layer 1
10
111.255673
20
112.277107
11
106.701674
21
108.758790
0
LINE
8
Layer 1
10
106.701674
20
108.758790
11
101.459040
21
105.113020
0
LINE
8
Layer 1
10
101.459040
20
105.113020
11
96.501235
21
101.751168
0
LINE
8
Layer 1
10
96.501235
20
101.751168
11
93.037519
21
99.181761
0
LINE
8
Layer 1
10
93.037519
20
99.181761
11
90.727638
21
97.132654
0
LINE
8
Layer 1
10
90.727638
20
97.132654
11
89.231340
21
95.331700
0
LINE
8
Layer 1
10
89.231340
20
95.331700
11
88.050609
21
93.318534
0
LINE
8
Layer 1
10
88.050609
20
93.318534
11
87.066415
21
91.067536
0
LINE
8
Layer 1
10
87.066415
20
91.067536
11
86.315509
21
88.677183
0
LINE
8
Layer 1
10
86.315509
20
88.677183
11
85.834640
21
86.245950
0
LINE
8
Layer 1
10
85.834640
20
86.245950
11
85.515840
21
83.933420
0
LINE
8
Layer 1
10
85.515840
20
83.933420
11
87.004050
21
85.987040
0
LINE
8
Layer 1
10
87.004050
20
85.987040
11
88.330831
21
87.596813
0
LINE
8
Layer 1
10
88.330831
20
87.596813
11
90.020325
21
89.123737
0
LINE
8
Layer 1
10
90.020325
20
89.123737
11
92.433607
21
90.854561
0
LINE
8
Layer 1
10
92.433607
20
90.854561
11
95.931750
21
93.076030
0
LINE
8
Layer 1
10
95.931750
20
93.076030
11
97.853246
21
94.398598
0
LINE
8
Layer 1
10
97.853246
20
94.398598
11
100.016723
21
96.124979
0
LINE
8
Layer 1
10
100.016723
20
96.124979
11
104.687363
21
100.411410
0
LINE
8
Layer 1
10
104.687363
20
100.411410
11
109.179145
21
105.179776
0
LINE
8
Layer 1
10
109.179145
20
105.179776
11
111.119053
21
107.508576
0
LINE
8
Layer 1
10
111.119053
20
107.508576
11
112.727550
21
109.674530
0
LINE
8
Layer 1
10
112.727550
20
109.674530
11
115.020054
21
112.769958
0
LINE
8
Layer 1
10
115.020054
20
112.769958
11
117.605201
21
115.935017
0
LINE
8
Layer 1
10
117.605201
20
115.935017
11
119.825168
21
118.399138
0
LINE
8
Layer 1
10
119.825168
20
118.399138
11
121.022130
21
119.391750
0
LINE
8
Layer 1
10
121.022130
20
119.391750
11
121.208937
21
119.275332
0
LINE
8
Layer 1
10
121.208937
20
119.275332
11
121.303388
21
118.930108
0
LINE
8
Layer 1
10
121.303388
20
118.930108
11
121.218850
21
117.577406
0
LINE
8
Layer 1
10
121.218850
20
117.577406
11
120.775775
21
115.381984
0
LINE
8
Layer 1
10
120.775775
20
115.381984
11
119.981420
21
112.392180
0
LINE
8
Layer 1
10
119.981420
20
112.392180
11
118.922968
21
107.865361
0
LINE
8
Layer 1
10
118.922968
20
107.865361
11
118.256930
21
103.525540
0
LINE
8
Layer 1
10
118.256930
20
103.525540
11
117.983154
21
101.193901
0
LINE
8
Layer 1
10
117.983154
20
101.193901
11
117.569670
21
99.451586
0
LINE
8
Layer 1
10
117.569670
20
99.451586
11
116.862771
21
97.838619
0
LINE
8
Layer 1
10
116.862771
20
97.838619
11
115.708750
21
95.895020
0
LINE
8
Layer 1
10
115.708750
20
95.895020
11
113.546150
21
92.235290
0
LINE
8
Layer 1
10
113.546150
20
92.235290
11
113.022083
21
90.814577
0
LINE
8
Layer 1
10
113.022083
20
90.814577
11
111.783238
21
88.257396
0
LINE
8
Layer 1
10
111.783238
20
88.257396
11
110.329648
21
85.542785
0
LINE
8
Layer 1
10
110.329648
20
85.542785
11
109.161350
21
83.649780
0
LINE
8
Layer 1
10
109.161350
20
83.649780
11
108.134751
21
82.015491
0
LINE
8
Layer 1
10
108.134751
20
82.015491
11
107.387846
21
79.986649
0
LINE
8
Layer 1
10
107.387846
20
79.986649
11
106.749596
21
76.935922
0
LINE
8
Layer 1
10
106.749596
20
76.935922
11
106.048960
21
72.235980
0
LINE
8
Layer 1
10
106.048960
20
72.235980
11
104.922860
21
64.463340
0
LINE
8
Layer 1
10
104.922860
20
64.463340
11
104.882860
21
64.465340
0
LINE
8
Layer 1
10
104.882860
20
64.465340
11
104.576950
21
62.651500
0
LINE
8
Layer 1
10
104.576950
20
62.651500
11
106.647660
21
64.638960
0
LINE
8
Layer 1
10
106.647660
20
64.638960
11
108.538034
21
66.838251
0
LINE
8
Layer 1
10
108.538034
20
66.838251
11
110.065258
21
69.408120
0
LINE
8
Layer 1
10
110.065258
20
69.408120
11
111.159585
21
72.205659
0
LINE
8
Layer 1
10
111.159585
20
72.205659
11
111.751270
21
75.087960
0
LINE
8
Layer 1
10
111.751270
20
75.087960
11
112.124830
21
77.382003
0
LINE
8
Layer 1
10
112.124830
20
77.382003
11
112.747191
21
79.793530
0
LINE
8
Layer 1
10
112.747191
20
79.793530
11
113.606946
21
82.297729
0
LINE
8
Layer 1
10
113.606946
20
82.297729
11
114.692690
21
84.869791
0
LINE
8
Layer 1
10
114.692690
20
84.869791
11
115.993019
21
87.484906
0
LINE
8
Layer 1
10
115.993019
20
87.484906
11
117.496527
21
90.118262
0
LINE
8
Layer 1
10
117.496527
20
90.118262
11
119.191809
21
92.745051
0
LINE
8
Layer 1
10
119.191809
20
92.745051
11
121.067460
21
95.340460
0
LINE
8
Layer 1
10
121.067460
20
95.340460
11
124.748481
21
100.404445
0
LINE
8
Layer 1
10
124.748481
20
100.404445
11
126.051370
21
102.520418
0
LINE
8
Layer 1
10
126.051370
20
102.520418
11
127.102140
21
104.595224
0
LINE
8
Layer 1
10
127.102140
20
104.595224
11
127.980514
21
106.805996
0
LINE
8
Layer 1
10
127.980514
20
106.805996
11
128.766212
21
109.329870
0
LINE
8
Layer 1
10
128.766212
20
109.329870
11
130.378470
21
116.025460
0
LINE
8
Layer 1
10
130.378470
20
116.025460
11
131.693639
21
121.377410
0
LINE
8
Layer 1
10
131.693639
20
121.377410
11
133.065210
21
125.589094
0
LINE
8
Layer 1
10
133.065210
20
125.589094
11
134.639056
21
129.040035
0
LINE
8
Layer 1
10
134.639056
20
129.040035
11
136.561050
21
132.109760
0
LINE
8
Layer 1
10
136.561050
20
132.109760
11
139.020783
21
135.164947
0
LINE
8
Layer 1
10
139.020783
20
135.164947
11
141.768463
21
137.841700
0
LINE
8
Layer 1
10
141.768463
20
137.841700
11
144.800111
21
140.136576
0
LINE
8
Layer 1
10
144.800111
20
140.136576
11
148.111750
21
142.046130
0
LINE
8
Layer 1
10
148.111750
20
142.046130
11
149.905693
21
142.836794
0
LINE
8
Layer 1
10
149.905693
20
142.836794
11
151.756498
21
143.459525
0
LINE
8
Layer 1
10
151.756498
20
143.459525
11
153.638708
21
143.911739
0
LINE
8
Layer 1
10
153.638708
20
143.911739
11
155.526863
21
144.190851
0
LINE
8
Layer 1
10
155.526863
20
144.190851
11
157.395503
21
144.294276
0
LINE
8
Layer 1
10
157.395503
20
144.294276
11
159.219170
21
144.219429
0
LINE
8
Layer 1
10
159.219170
20
144.219429
11
160.972406
21
143.963725
0
LINE
8
Layer 1
10
160.972406
20
143.963725
11
162.629750
21
143.524580
0
LINE
8
Layer 1
10
162.629750
20
143.524580
11
164.933441
21
142.429881
0
LINE
8
Layer 1
10
164.933441
20
142.429881
11
167.320305
21
140.771754
0
LINE
8
Layer 1
10
167.320305
20
140.771754
11
169.393692
21
138.867017
0
LINE
8
Layer 1
10
169.393692
20
138.867017
11
170.188877
21
137.921176
0
LINE
8
Layer 1
10
170.188877
20
137.921176
11
170.756950
21
137.032490
0
LINE
8
Layer 1
10
170.756950
20
137.032490
11
171.236350
21
135.628222
0
LINE
8
Layer 1
10
171.236350
20
135.628222
11
171.225006
21
134.976917
0
LINE
8
Layer 1
10
171.225006
20
134.976917
11
171.030159
21
134.322547
0
LINE
8
Layer 1
10
171.030159
20
134.322547
11
170.041536
21
132.893764
0
LINE
8
Layer 1
10
170.041536
20
132.893764
11
168.173640
21
131.120170
0
LINE
8
Layer 1
10
168.173640
20
131.120170
11
165.977821
21
128.864757
0
LINE
8
Layer 1
10
165.977821
20
128.864757
11
165.236615
21
127.798689
0
LINE
8
Layer 1
10
165.236615
20
127.798689
11
164.785150
21
126.839280
0
LINE
8
Layer 1
10
164.785150
20
126.839280
11
164.507235
21
125.689255
0
LINE
8
Layer 1
10
164.507235
20
125.689255
11
164.365217
21
124.374038
0
LINE
8
Layer 1
10
164.365217
20
124.374038
11
164.469099
21
121.420997
0
LINE
8
Layer 1
10
164.469099
20
121.420997
11
165.057238
21
118.326098
0
LINE
8
Layer 1
10
165.057238
20
118.326098
11
166.090080
21
115.435280
0
LINE
8
Layer 1
10
166.090080
20
115.435280
11
167.329795
21
113.113292
0
LINE
8
Layer 1
10
167.329795
20
113.113292
11
167.654823
21
113.020369
0
LINE
8
Layer 1
10
167.654823
20
113.020369
11
167.924060
21
113.490210
0
LINE
8
Layer 1
10
167.924060
20
113.490210
11
169.233251
21
115.386984
0
LINE
8
Layer 1
10
169.233251
20
115.386984
11
171.786370
21
118.413400
0
LINE
8
Layer 1
10
171.786370
20
118.413400
11
174.462059
21
121.575431
0
LINE
8
Layer 1
10
174.462059
20
121.575431
11
176.065660
21
123.798590
0
LINE
8
Layer 1
10
176.065660
20
123.798590
11
176.606463
21
125.102888
0
LINE
8
Layer 1
10
176.606463
20
125.102888
11
176.868468
21
126.526683
0
LINE
8
Layer 1
10
176.868468
20
126.526683
11
176.844441
21
128.098634
0
LINE
8
Layer 1
10
176.844441
20
128.098634
11
176.527146
21
129.847395
0
LINE
8
Layer 1
10
176.527146
20
129.847395
11
175.909350
21
131.801625
0
LINE
8
Layer 1
10
175.909350
20
131.801625
11
174.983816
21
133.989979
0
LINE
8
Layer 1
10
174.983816
20
133.989979
11
172.180600
21
139.183690
0
LINE
8
Layer 1
10
172.180600
20
139.183690
11
170.642290
21
141.422956
0
LINE
8
Layer 1
10
170.642290
20
141.422956
11
168.887601
21
143.223172
0
LINE
8
Layer 1
10
168.887601
20
143.223172
11
166.707710
21
144.761552
0
LINE
8
Layer 1
10
166.707710
20
144.761552
11
163.893790
21
146.215310
0
LINE
8
Layer 1
10
163.893790
20
146.215310
11
160.921380
21
147.580610
0
LINE
8
Layer 1
10
160.921380
20
147.580610
11
162.994070
21
148.041570
0
LINE
8
Layer 1
10
162.994070
20
148.041570
11
165.925553
21
148.308457
0
LINE
8
Layer 1
10
165.925553
20
148.308457
11
169.868853
21
148.172921
0
LINE
8
Layer 1
10
169.868853
20
148.172921
11
174.118860
21
147.691232
0
LINE
8
Layer 1
10
174.118860
20
147.691232
11
177.970470
21
146.919660
0
LINE
8
Layer 1
10
177.970470
20
146.919660
11
172.355752
21
150.223351
0
LINE
8
Layer 1
10
172.355752
20
150.223351
11
166.561874
21
153.268034
0
LINE
8
Layer 1
10
166.561874
20
153.268034
11
160.593693
21
156.041980
0
LINE
8
Layer 1
10
160.593693
20
156.041980
11
154.456070
21
158.533460
0
LINE
8
Layer 1
10
154.456070
20
158.533460
11
154.655560
21
159.658460
0
LINE
8
Layer 1
10
154.655560
20
159.658460
11
152.987346
21
157.921835
0
LINE
8
Layer 1
10
152.987346
20
157.921835
11
150.894580
21
155.485610
0
LINE
8
Layer 1
10
150.894580
20
155.485610
11
148.415636
21
152.762745
0
LINE
8
Layer 1
10
148.415636
20
152.762745
11
147.292492
21
151.781621
0
LINE
8
Layer 1
10
147.292492
20
151.781621
11
146.160938
21
151.002706
0
LINE
8
Layer 1
10
146.160938
20
151.002706
11
144.956501
21
150.387504
0
LINE
8
Layer 1
10
144.956501
20
150.387504
11
143.614711
21
149.897517
0
LINE
8
Layer 1
10
143.614711
20
149.897517
11
140.261180
21
149.139200
0
LINE
8
Layer 1
10
140.261180
20
149.139200
11
138.788737
21
149.024502
0
LINE
8
Layer 1
10
138.788737
20
149.024502
11
138.534267
21
149.131390
0
LINE
8
Layer 1
10
138.534267
20
149.131390
11
138.577113
21
149.319307
0
LINE
8
Layer 1
10
138.577113
20
149.319307
11
139.483195
21
149.852849
0
LINE
8
Layer 1
10
139.483195
20
149.852849
11
141.363870
21
150.454360
0
LINE
8
Layer 1
10
141.363870
20
150.454360
11
143.934651
21
151.314867
0
LINE
8
Layer 1
10
143.934651
20
151.314867
11
146.285536
21
152.607984
0
LINE
8
Layer 1
10
146.285536
20
152.607984
11
148.588889
21
154.449776
0
LINE
8
Layer 1
10
148.588889
20
154.449776
11
151.017070
21
156.956310
0
LINE
8
Layer 1
10
151.017070
20
156.956310
11
153.102630
21
159.438671
0
LINE
8
Layer 1
10
153.102630
20
159.438671
11
153.851480
21
160.589670
0
LINE
8
Layer 1
10
153.851480
20
160.589670
11
152.343038
21
160.275550
0
LINE
8
Layer 1
10
152.343038
20
160.275550
11
149.000680
21
159.235760
0
LINE
8
Layer 1
10
149.000680
20
159.235760
11
145.213055
21
157.787161
0
LINE
8
Layer 1
10
145.213055
20
157.787161
11
141.156030
21
155.901570
0
LINE
8
Layer 1
10
141.156030
20
155.901570
11
136.956205
21
153.642502
0
LINE
8
Layer 1
10
136.956205
20
153.642502
11
132.740180
21
151.073470
0
LINE
8
Layer 1
10
132.740180
20
151.073470
11
130.244014
21
149.684820
0
LINE
8
Layer 1
10
130.244014
20
149.684820
11
129.314846
21
149.327509
0
LINE
8
Layer 1
10
129.314846
20
149.327509
11
128.771890
21
149.273570
0
LINE
8
Layer 1
10
128.771890
20
149.273570
11
128.494684
21
149.507637
0
LINE
8
Layer 1
10
128.494684
20
149.507637
11
128.289278
21
149.962933
0
LINE
8
Layer 1
10
128.289278
20
149.962933
11
128.088650
21
151.499445
0
LINE
8
Layer 1
10
128.088650
20
151.499445
11
128.159584
21
153.807572
0
LINE
8
Layer 1
10
128.159584
20
153.807572
11
128.491656
21
156.811781
0
LINE
8
Layer 1
10
128.491656
20
156.811781
11
129.897527
21
164.606312
0
LINE
8
Layer 1
10
129.897527
20
164.606312
11
132.222880
21
174.278770
0
LINE
8
Layer 1
10
132.222880
20
174.278770
11
133.804777
21
179.574230
0
LINE
8
Layer 1
10
133.804777
20
179.574230
11
135.603050
21
184.285725
0
LINE
8
Layer 1
10
135.603050
20
184.285725
11
137.646958
21
188.453926
0
LINE
8
Layer 1
10
137.646958
20
188.453926
11
139.965759
21
192.119507
0
LINE
8
Layer 1
10
139.965759
20
192.119507
11
142.588713
21
195.323140
0
LINE
8
Layer 1
10
142.588713
20
195.323140
11
145.545078
21
198.105497
0
LINE
8
Layer 1
10
145.545078
20
198.105497
11
148.864114
21
200.507249
0
LINE
8
Layer 1
10
148.864114
20
200.507249
11
152.575080
21
202.569070
0
LINE
8
Layer 1
10
152.575080
20
202.569070
11
156.126760
21
204.083190
0
LINE
8
Layer 1
10
156.126760
20
204.083190
11
155.433518
21
209.181375
0
LINE
8
Layer 1
10
155.433518
20
209.181375
11
154.566145
21
214.245987
0
LINE
8
Layer 1
10
154.566145
20
214.245987
11
153.524112
21
219.272302
0
LINE
8
Layer 1
10
153.524112
20
219.272302
11
152.306890
21
224.255590
0
LINE
8
Layer 1
10
152.306890
20
224.255590
11
151.501780
21
222.503240
0
LINE
8
Layer 1
10
151.501780
20
222.503240
11
150.104672
21
220.039859
0
LINE
8
Layer 1
10
150.104672
20
220.039859
11
148.400543
21
217.741114
0
LINE
8
Layer 1
10
148.400543
20
217.741114
11
146.159057
21
215.332109
0
LINE
8
Layer 1
10
146.159057
20
215.332109
11
143.149880
21
212.537950
0
LINE
8
Layer 1
10
143.149880
20
212.537950
11
141.640340
21
211.259762
0
LINE
8
Layer 1
10
141.640340
20
211.259762
11
140.421204
21
210.445102
0
LINE
8
Layer 1
10
140.421204
20
210.445102
11
139.412973
21
210.149477
0
LINE
8
Layer 1
10
139.412973
20
210.149477
11
138.963104
21
210.213648
0
LINE
8
Layer 1
10
138.963104
20
210.213648
11
138.536150
21
210.428392
0
LINE
8
Layer 1
10
138.536150
20
210.428392
11
137.711236
21
211.337356
0
LINE
8
Layer 1
10
137.711236
20
211.337356
11
136.858734
21
212.931874
0
LINE
8
Layer 1
10
136.858734
20
212.931874
11
134.752970
21
218.399600
0
LINE
8
Layer 1
10
134.752970
20
218.399600
11
133.003887
21
223.017609
0
LINE
8
Layer 1
10
133.003887
20
223.017609
11
131.441749
21
226.420089
0
LINE
8
Layer 1
10
131.441749
20
226.420089
11
129.864368
21
228.991724
0
LINE
8
Layer 1
10
129.864368
20
228.991724
11
128.069560
21
231.117200
0
LINE
8
Layer 1
10
128.069560
20
231.117200
11
126.713945
21
232.391826
0
LINE
8
Layer 1
10
126.713945
20
232.391826
11
125.380028
21
233.438864
0
LINE
8
Layer 1
10
125.380028
20
233.438864
11
124.224546
21
234.155000
0
LINE
8
Layer 1
10
124.224546
20
234.155000
11
123.404240
21
234.436920
0
LINE
8
Layer 1
10
123.404240
20
234.436920
11
123.404000
21
234.437000
0
LINE
8
Layer 1
10
120.776830
20
143.184700
11
121.001045
21
143.042095
0
LINE
8
Layer 1
10
121.001045
20
143.042095
11
121.172071
21
142.702281
0
LINE
8
Layer 1
10
121.172071
20
142.702281
11
121.319430
21
141.447850
0
LINE
8
Layer 1
10
121.319430
20
141.447850
11
121.181436
21
140.103200
0
LINE
8
Layer 1
10
121.181436
20
140.103200
11
120.849650
21
139.374060
0
LINE
8
Layer 1
10
120.849650
20
139.374060
11
120.688343
21
139.343176
0
LINE
8
Layer 1
10
120.688343
20
139.343176
11
120.597111
21
139.473661
0
LINE
8
Layer 1
10
120.597111
20
139.473661
11
120.650730
21
140.120800
0
LINE
8
Layer 1
10
120.650730
20
140.120800
11
120.655040
21
140.912550
0
LINE
8
Layer 1
10
120.655040
20
140.912550
11
120.437475
21
141.098329
0
LINE
8
Layer 1
10
120.437475
20
141.098329
11
120.065740
21
141.157940
0
LINE
8
Layer 1
10
120.065740
20
141.157940
11
119.661926
21
141.201517
0
LINE
8
Layer 1
10
119.661926
20
141.201517
11
119.485344
21
141.360530
0
LINE
8
Layer 1
10
119.485344
20
141.360530
11
119.764440
21
142.194560
0
LINE
8
Layer 1
10
119.764440
20
142.194560
11
120.221914
21
142.882339
0
LINE
8
Layer 1
10
120.221914
20
142.882339
11
120.627930
21
143.175910
0
LINE
8
Layer 1
10
120.627930
20
143.175910
11
120.776830
21
143.184910
0
LINE
8
Layer 1
10
120.776830
20
143.184910
11
120.776830
21
143.184700
0
LINE
8
Layer 1
10
140.707930
20
141.099560
11
140.743069
21
141.038854
0
LINE
8
Layer 1
10
140.743069
20
141.038854
11
140.483691
21
140.875421
0
LINE
8
Layer 1
10
140.483691
20
140.875421
11
139.041820
21
140.172490
0
LINE
8
Layer 1
10
139.041820
20
140.172490
11
137.845651
21
139.507493
0
LINE
8
Layer 1
10
137.845651
20
139.507493
11
136.947196
21
138.708653
0
LINE
8
Layer 1
10
136.947196
20
138.708653
11
136.162780
21
137.563758
0
LINE
8
Layer 1
10
136.162780
20
137.563758
11
135.308730
21
135.860600
0
LINE
8
Layer 1
10
135.308730
20
135.860600
11
134.336967
21
134.101909
0
LINE
8
Layer 1
10
134.336967
20
134.101909
11
134.003999
21
133.738981
0
LINE
8
Layer 1
10
134.003999
20
133.738981
11
133.793636
21
133.702725
0
LINE
8
Layer 1
10
133.793636
20
133.702725
11
133.721373
21
133.979935
0
LINE
8
Layer 1
10
133.721373
20
133.979935
11
133.802705
21
134.557406
0
LINE
8
Layer 1
10
133.802705
20
134.557406
11
134.488140
21
136.560310
0
LINE
8
Layer 1
10
134.488140
20
136.560310
11
135.388153
21
138.196886
0
LINE
8
Layer 1
10
135.388153
20
138.196886
11
136.555609
21
139.501238
0
LINE
8
Layer 1
10
136.555609
20
139.501238
11
137.937585
21
140.427053
0
LINE
8
Layer 1
10
137.937585
20
140.427053
11
139.481160
21
140.928020
0
LINE
8
Layer 1
10
139.481160
20
140.928020
11
140.707960
21
141.099590
0
LINE
8
Layer 1
10
140.707960
20
141.099590
11
140.707930
21
141.099560
0
LINE
8
Layer 1
10
120.108630
20
136.322610
11
120.162012
21
135.978864
0
LINE
8
Layer 1
10
120.162012
20
135.978864
11
120.027694
21
135.306180
0
LINE
8
Layer 1
10
120.027694
20
135.306180
11
119.306575
21
133.248008
0
LINE
8
Layer 1
10
119.306575
20
133.248008
11
118.166506
21
130.696114
0
LINE
8
Layer 1
10
118.166506
20
130.696114
11
116.828720
21
128.198520
0
LINE
8
Layer 1
10
116.828720
20
128.198520
11
114.832754
21
125.176420
0
LINE
8
Layer 1
10
114.832754
20
125.176420
11
114.266233
21
124.599291
0
LINE
8
Layer 1
10
114.266233
20
124.599291
11
114.116162
21
124.575901
0
LINE
8
Layer 1
10
114.116162
20
124.575901
11
114.064530
21
124.741370
0
LINE
8
Layer 1
10
114.064530
20
124.741370
11
115.816940
21
127.878640
0
LINE
8
Layer 1
10
115.816940
20
127.878640
11
117.396831
21
130.777485
0
LINE
8
Layer 1
10
117.396831
20
130.777485
11
118.734540
21
133.660190
0
LINE
8
Layer 1
10
118.734540
20
133.660190
11
119.618951
21
135.626466
0
LINE
8
Layer 1
10
119.618951
20
135.626466
11
120.108660
21
136.322580
0
LINE
8
Layer 1
10
120.108660
20
136.322580
11
120.108630
21
136.322610
0
LINE
8
Layer 1
10
73.084630
20
179.225910
11
73.172630
21
179.216910
0
LINE
8
Layer 1
10
73.172630
20
179.216910
11
73.461768
21
178.900092
0
LINE
8
Layer 1
10
73.461768
20
178.900092
11
73.690011
21
178.375475
0
LINE
8
Layer 1
10
73.690011
20
178.375475
11
73.949730
21
176.896000
0
LINE
8
Layer 1
10
73.949730
20
176.896000
11
73.923624
21
175.164795
0
LINE
8
Layer 1
10
73.923624
20
175.164795
11
73.583530
21
173.568170
0
LINE
8
Layer 1
10
73.583530
20
173.568170
11
72.891527
21
172.129844
0
LINE
8
Layer 1
10
72.891527
20
172.129844
11
72.055130
21
170.947049
0
LINE
8
Layer 1
10
72.055130
20
170.947049
11
71.350658
21
170.340620
0
LINE
8
Layer 1
10
71.350658
20
170.340620
11
71.134244
21
170.353803
0
LINE
8
Layer 1
10
71.134244
20
170.353803
11
71.054430
21
170.631390
0
LINE
8
Layer 1
10
71.054430
20
170.631390
11
71.288934
21
171.627140
0
LINE
8
Layer 1
10
71.288934
20
171.627140
11
71.852830
21
173.157340
0
LINE
8
Layer 1
10
71.852830
20
173.157340
11
72.427730
21
175.155698
0
LINE
8
Layer 1
10
72.427730
20
175.155698
11
72.695730
21
177.276470
0
LINE
8
Layer 1
10
72.695730
20
177.276470
11
72.822892
21
178.617550
0
LINE
8
Layer 1
10
72.822892
20
178.617550
11
73.084830
21
179.225700
0
LINE
8
Layer 1
10
73.084830
20
179.225700
11
73.084630
21
179.225910
0
LINE
8
Layer 1
10
172.220730
20
130.715710
11
172.368652
21
130.535788
0
LINE
8
Layer 1
10
172.368652
20
130.535788
11
172.301804
21
130.088096
0
LINE
8
Layer 1
10
172.301804
20
130.088096
11
171.505520
21
128.445050
0
LINE
8
Layer 1
10
171.505520
20
128.445050
11
170.438995
21
126.295310
0
LINE
8
Layer 1
10
170.438995
20
126.295310
11
169.499910
21
123.881510
0
LINE
8
Layer 1
10
169.499910
20
123.881510
11
168.813690
21
122.301097
0
LINE
8
Layer 1
10
168.813690
20
122.301097
11
168.518679
21
121.961508
0
LINE
8
Layer 1
10
168.518679
20
121.961508
11
168.278546
21
121.912066
0
LINE
8
Layer 1
10
168.278546
20
121.912066
11
168.110403
21
122.145075
0
LINE
8
Layer 1
10
168.110403
20
122.145075
11
168.031359
21
122.652837
0
LINE
8
Layer 1
10
168.031359
20
122.652837
11
168.209010
21
124.461830
0
LINE
8
Layer 1
10
168.209010
20
124.461830
11
168.636192
21
126.140709
0
LINE
8
Layer 1
10
168.636192
20
126.140709
11
169.249241
21
127.624198
0
LINE
8
Layer 1
10
169.249241
20
127.624198
11
170.043943
21
128.903938
0
LINE
8
Layer 1
10
170.043943
20
128.903938
11
171.016080
21
129.971570
0
LINE
8
Layer 1
10
171.016080
20
129.971570
11
171.766005
21
130.558568
0
LINE
8
Layer 1
10
171.766005
20
130.558568
11
172.220670
21
130.715710
0
LINE
8
Layer 1
10
172.220670
20
130.715710
11
172.220730
21
130.715710
0
LINE
8
Layer 1
10
39.280700
20
137.519000
11
39.452145
21
137.348773
0
LINE
8
Layer 1
10
39.452145
20
137.348773
11
39.270914
21
136.873540
0
LINE
8
Layer 1
10
39.270914
20
136.873540
11
37.773810
21
135.069540
0
LINE
8
Layer 1
10
37.773810
20
135.069540
11
35.672718
21
132.646043
0
LINE
8
Layer 1
10
35.672718
20
132.646043
11
34.004000
21
130.276020
0
LINE
8
Layer 1
10
34.004000
20
130.276020
11
32.643300
21
127.944410
0
LINE
8
Layer 1
10
32.643300
20
127.944410
11
32.996800
21
129.757710
0
LINE
8
Layer 1
10
32.996800
20
129.757710
11
33.493530
21
131.609841
0
LINE
8
Layer 1
10
33.493530
20
131.609841
11
34.235045
21
133.186718
0
LINE
8
Layer 1
10
34.235045
20
133.186718
11
35.283610
21
134.592021
0
LINE
8
Layer 1
10
35.283610
20
134.592021
11
36.701490
21
135.929430
0
LINE
8
Layer 1
10
36.701490
20
135.929430
11
38.358177
21
137.141133
0
LINE
8
Layer 1
10
38.358177
20
137.141133
11
39.280690
21
137.519000
0
LINE
8
Layer 1
10
39.280690
20
137.519000
11
39.280700
21
137.519000
0
LINE
8
Layer 1
10
119.521200
20
210.363100
11
119.634233
21
210.198230
0
LINE
8
Layer 1
10
119.634233
20
210.198230
11
119.634062
21
209.778480
0
LINE
8
Layer 1
10
119.634062
20
209.778480
11
119.287100
21
208.183400
0
LINE
8
Layer 1
10
119.287100
20
208.183400
11
118.894991
21
205.825255
0
LINE
8
Layer 1
10
118.894991
20
205.825255
11
118.731100
21
202.952700
0
LINE
8
Layer 1
10
118.731100
20
202.952700
11
118.599784
21
200.831675
0
LINE
8
Layer 1
10
118.599784
20
200.831675
11
118.269390
21
199.827012
0
LINE
8
Layer 1
10
118.269390
20
199.827012
11
118.059329
21
199.774039
0
LINE
8
Layer 1
10
118.059329
20
199.774039
11
117.835248
21
200.037023
0
LINE
8
Layer 1
10
117.835248
20
200.037023
11
117.392690
21
201.560020
0
LINE
8
Layer 1
10
117.392690
20
201.560020
11
117.201840
21
203.622013
0
LINE
8
Layer 1
10
117.201840
20
203.622013
11
117.339190
21
205.746072
0
LINE
8
Layer 1
10
117.339190
20
205.746072
11
117.771365
21
207.692491
0
LINE
8
Layer 1
10
117.771365
20
207.692491
11
118.464990
21
209.221560
0
LINE
8
Layer 1
10
118.464990
20
209.221560
11
119.124521
21
210.107554
0
LINE
8
Layer 1
10
119.124521
20
210.107554
11
119.521200
21
210.363090
0
LINE
8
Layer 1
10
119.521200
20
210.363090
11
119.521200
21
210.363100
0
LINE
8
Layer 1
10
68.957900
20
156.644000
11
70.668256
21
156.508969
0
LINE
8
Layer 1
10
70.668256
20
156.508969
11
72.353225
21
156.157984
0
LINE
8
Layer 1
10
72.353225
20
156.157984
11
74.105281
21
155.596157
0
LINE
8
Layer 1
10
74.105281
20
155.596157
11
76.016900
21
154.828600
0
LINE
8
Layer 1
10
76.016900
20
154.828600
11
78.892641
21
153.459202
0
LINE
8
Layer 1
10
78.892641
20
153.459202
11
80.287525
21
152.554725
0
LINE
8
Layer 1
10
80.287525
20
152.554725
11
80.353597
21
152.354943
0
LINE
8
Layer 1
10
80.353597
20
152.354943
11
79.958197
21
152.365126
0
LINE
8
Layer 1
10
79.958197
20
152.365126
11
77.661300
21
153.140360
0
LINE
8
Layer 1
10
77.661300
20
153.140360
11
72.705950
21
154.944066
0
LINE
8
Layer 1
10
72.705950
20
154.944066
11
70.746420
21
155.420360
0
LINE
8
Layer 1
10
70.746420
20
155.420360
11
68.913709
21
155.620656
0
LINE
8
Layer 1
10
68.913709
20
155.620656
11
67.043859
21
155.550738
0
LINE
8
Layer 1
10
67.043859
20
155.550738
11
64.972913
21
155.216386
0
LINE
8
Layer 1
10
64.972913
20
155.216386
11
59.571900
21
153.777510
0
LINE
8
Layer 1
10
59.571900
20
153.777510
11
54.065959
21
152.242496
0
LINE
8
Layer 1
10
54.065959
20
152.242496
11
49.808700
21
151.205580
0
LINE
8
Layer 1
10
49.808700
20
151.205580
11
46.987869
21
150.692481
0
LINE
8
Layer 1
10
46.987869
20
150.692481
11
45.752275
21
150.584377
0
LINE
8
Layer 1
10
45.752275
20
150.584377
11
45.766161
21
150.674261
0
LINE
8
Layer 1
10
45.766161
20
150.674261
11
46.221019
21
150.855868
0
LINE
8
Layer 1
10
46.221019
20
150.855868
11
48.513200
21
151.481550
0
LINE
8
Layer 1
10
48.513200
20
151.481550
11
56.285790
21
153.734630
0
LINE
8
Layer 1
10
56.285790
20
153.734630
11
60.433231
21
155.048293
0
LINE
8
Layer 1
10
60.433231
20
155.048293
11
63.796790
21
155.963817
0
LINE
8
Layer 1
10
63.796790
20
155.963817
11
66.572874
21
156.492098
0
LINE
8
Layer 1
10
66.572874
20
156.492098
11
68.957890
21
156.644030
0
LINE
8
Layer 1
10
68.957890
20
156.644030
11
68.957900
21
156.644000
0
LINE
8
Layer 1
10
93.593100
20
124.714700
11
93.648736
21
124.283639
0
LINE
8
Layer 1
10
93.648736
20
124.283639
11
93.500489
21
123.141480
0
LINE
8
Layer 1
10
93.500489
20
123.141480
11
92.573510
21
118.834420
0
LINE
8
Layer 1
10
92.573510
20
118.834420
11
91.692606
21
114.402385
0
LINE
8
Layer 1
10
91.692606
20
114.402385
11
91.285472
21
110.605627
0
LINE
8
Layer 1
10
91.285472
20
110.605627
11
91.377033
21
107.953817
0
LINE
8
Layer 1
10
91.377033
20
107.953817
11
91.617612
21
107.216537
0
LINE
8
Layer 1
10
91.617612
20
107.216537
11
91.992210
21
106.956620
0
LINE
8
Layer 1
10
91.992210
20
106.956620
11
92.378612
21
107.133681
0
LINE
8
Layer 1
10
92.378612
20
107.133681
11
92.892546
21
107.615763
0
LINE
8
Layer 1
10
92.892546
20
107.615763
11
94.034900
21
109.200390
0
LINE
8
Layer 1
10
94.034900
20
109.200390
11
95.030169
21
110.727520
0
LINE
8
Layer 1
10
95.030169
20
110.727520
11
95.977317
21
111.908608
0
LINE
8
Layer 1
10
95.977317
20
111.908608
11
96.685535
21
112.535284
0
LINE
8
Layer 1
10
96.685535
20
112.535284
11
96.890416
21
112.575602
0
LINE
8
Layer 1
10
96.890416
20
112.575602
11
96.964010
21
112.399180
0
LINE
8
Layer 1
10
96.964010
20
112.399180
11
96.371871
21
111.091212
0
LINE
8
Layer 1
10
96.371871
20
111.091212
11
94.982105
21
108.705718
0
LINE
8
Layer 1
10
94.982105
20
108.705718
11
93.374689
21
106.190972
0
LINE
8
Layer 1
10
93.374689
20
106.190972
11
92.129600
21
104.495250
0
LINE
8
Layer 1
10
92.129600
20
104.495250
11
91.271896
21
103.671866
0
LINE
8
Layer 1
10
91.271896
20
103.671866
11
90.679100
21
103.329450
0
LINE
8
Layer 1
10
90.679100
20
103.329450
11
90.406645
21
103.454926
0
LINE
8
Layer 1
10
90.406645
20
103.454926
11
90.191572
21
103.816515
0
LINE
8
Layer 1
10
90.191572
20
103.816515
11
89.926163
21
105.159008
0
LINE
8
Layer 1
10
89.926163
20
105.159008
11
89.868045
21
107.178875
0
LINE
8
Layer 1
10
89.868045
20
107.178875
11
90.002392
21
109.698063
0
LINE
8
Layer 1
10
90.002392
20
109.698063
11
90.789176
21
115.522186
0
LINE
8
Layer 1
10
90.789176
20
115.522186
11
91.411958
21
118.471015
0
LINE
8
Layer 1
10
91.411958
20
118.471015
11
92.167900
21
121.206950
0
LINE
8
Layer 1
10
92.167900
20
121.206950
11
93.112509
21
123.906759
0
LINE
8
Layer 1
10
93.112509
20
123.906759
11
93.593100
21
124.714760
0
LINE
8
Layer 1
10
93.593100
20
124.714760
11
93.593100
21
124.714700
0
LINE
8
Layer 1
10
69.775400
20
151.767000
11
72.947800
21
151.718383
0
LINE
8
Layer 1
10
72.947800
20
151.718383
11
75.058267
21
151.523851
0
LINE
8
Layer 1
10
75.058267
20
151.523851
11
76.702104
21
151.082706
0
LINE
8
Layer 1
10
76.702104
20
151.082706
11
78.474610
21
150.294250
0
LINE
8
Layer 1
10
78.474610
20
150.294250
11
80.872948
21
148.911979
0
LINE
8
Layer 1
10
80.872948
20
148.911979
11
81.695685
21
148.187469
0
LINE
8
Layer 1
10
81.695685
20
148.187469
11
82.312269
21
147.364603
0
LINE
8
Layer 1
10
82.312269
20
147.364603
11
82.756302
21
146.386300
0
LINE
8
Layer 1
10
82.756302
20
146.386300
11
83.061385
21
145.195480
0
LINE
8
Layer 1
10
83.061385
20
145.195480
11
83.389110
21
141.947970
0
LINE
8
Layer 1
10
83.389110
20
141.947970
11
83.389600
21
141.948000
0
LINE
8
Layer 1
10
83.389600
20
141.948000
11
83.410851
21
138.657815
0
LINE
8
Layer 1
10
83.410851
20
138.657815
11
83.272042
21
137.736262
0
LINE
8
Layer 1
10
83.272042
20
137.736262
11
83.034610
21
137.308990
0
LINE
8
Layer 1
10
83.034610
20
137.308990
11
82.773850
21
137.325176
0
LINE
8
Layer 1
10
82.773850
20
137.325176
11
82.592331
21
137.759329
0
LINE
8
Layer 1
10
82.592331
20
137.759329
11
82.451710
21
139.961030
0
LINE
8
Layer 1
10
82.451710
20
139.961030
11
82.361983
21
142.163651
0
LINE
8
Layer 1
10
82.361983
20
142.163651
11
82.082645
21
144.030960
0
LINE
8
Layer 1
10
82.082645
20
144.030960
11
81.587208
21
145.598869
0
LINE
8
Layer 1
10
81.587208
20
145.598869
11
80.849186
21
146.903290
0
LINE
8
Layer 1
10
80.849186
20
146.903290
11
79.842093
21
147.980135
0
LINE
8
Layer 1
10
79.842093
20
147.980135
11
78.539442
21
148.865315
0
LINE
8
Layer 1
10
78.539442
20
148.865315
11
76.914747
21
149.594743
0
LINE
8
Layer 1
10
76.914747
20
149.594743
11
74.941520
21
150.204330
0
LINE
8
Layer 1
10
74.941520
20
150.204330
11
71.734559
21
150.799226
0
LINE
8
Layer 1
10
71.734559
20
150.799226
11
68.281991
21
150.954219
0
LINE
8
Layer 1
10
68.281991
20
150.954219
11
64.459413
21
150.667092
0
LINE
8
Layer 1
10
64.459413
20
150.667092
11
60.142420
21
149.935630
0
LINE
8
Layer 1
10
60.142420
20
149.935630
11
55.932703
21
149.228804
0
LINE
8
Layer 1
10
55.932703
20
149.228804
11
53.046720
21
149.028700
0
LINE
8
Layer 1
10
53.046720
20
149.028700
11
52.486882
21
149.115930
0
LINE
8
Layer 1
10
52.486882
20
149.115930
11
52.328810
21
149.245047
0
LINE
8
Layer 1
10
52.328810
20
149.245047
11
53.057066
21
149.602630
0
LINE
8
Layer 1
10
53.057066
20
149.602630
11
57.564886
21
150.531000
0
LINE
8
Layer 1
10
57.564886
20
150.531000
11
63.995798
21
151.392800
0
LINE
8
Layer 1
10
63.995798
20
151.392800
11
67.127919
21
151.667171
0
LINE
8
Layer 1
10
67.127919
20
151.667171
11
69.775420
21
151.767020
0
LINE
8
Layer 1
10
69.775420
20
151.767020
11
69.775400
21
151.767000
0
LINE
8
Layer 1
10
144.642700
20
144.217590
11
146.928900
21
144.049130
0
LINE
8
Layer 1
10
146.928900
20
144.049130
11
148.443822
21
143.586227
0
LINE
8
Layer 1
10
148.443822
20
143.586227
11
148.567842
21
143.361534
0
LINE
8
Layer 1
10
148.567842
20
143.361534
11
148.301267
21
143.154899
0
LINE
8
Layer 1
10
148.301267
20
143.154899
11
146.691432
21
142.836466
0
LINE
8
Layer 1
10
146.691432
20
142.836466
11
143.804510
21
142.712250
0
LINE
8
Layer 1
10
143.804510
20
142.712250
11
140.149110
21
142.516222
0
LINE
8
Layer 1
10
140.149110
20
142.516222
11
138.844950
21
142.275888
0
LINE
8
Layer 1
10
138.844950
20
142.275888
11
137.921110
21
141.944850
0
LINE
8
Layer 1
10
137.921110
20
141.944850
11
136.965329
21
141.350140
0
LINE
8
Layer 1
10
136.965329
20
141.350140
11
136.074692
21
140.585411
0
LINE
8
Layer 1
10
136.074692
20
140.585411
11
135.245515
21
139.644638
0
LINE
8
Layer 1
10
135.245515
20
139.644638
11
134.474114
21
138.521791
0
LINE
8
Layer 1
10
134.474114
20
138.521791
11
133.089909
21
135.705773
0
LINE
8
Layer 1
10
133.089909
20
135.705773
11
131.892610
21
132.089140
0
LINE
8
Layer 1
10
131.892610
20
132.089140
11
131.392576
21
129.693550
0
LINE
8
Layer 1
10
131.392576
20
129.693550
11
131.177079
21
127.505260
0
LINE
8
Layer 1
10
131.177079
20
127.505260
11
131.267024
21
126.119080
0
LINE
8
Layer 1
10
131.267024
20
126.119080
11
131.433072
21
125.912659
0
LINE
8
Layer 1
10
131.433072
20
125.912659
11
131.683320
21
126.129820
0
LINE
8
Layer 1
10
131.683320
20
126.129820
11
132.093954
21
126.555770
0
LINE
8
Layer 1
10
132.093954
20
126.555770
11
132.193330
21
125.844540
0
LINE
8
Layer 1
10
132.193330
20
125.844540
11
132.014627
21
124.911626
0
LINE
8
Layer 1
10
132.014627
20
124.911626
11
131.579440
21
124.160400
0
LINE
8
Layer 1
10
131.579440
20
124.160400
11
131.021446
21
123.721349
0
LINE
8
Layer 1
10
131.021446
20
123.721349
11
130.553130
21
123.538760
0
LINE
8
Layer 1
10
130.553130
20
123.538760
11
130.271365
21
123.669799
0
LINE
8
Layer 1
10
130.271365
20
123.669799
11
130.043681
21
124.041123
0
LINE
8
Layer 1
10
130.043681
20
124.041123
11
129.763022
21
125.373884
0
LINE
8
Layer 1
10
129.763022
20
125.373884
11
129.736093
21
127.275547
0
LINE
8
Layer 1
10
129.736093
20
127.275547
11
129.987830
21
129.484620
0
LINE
8
Layer 1
10
129.987830
20
129.484620
11
130.494321
21
131.853411
0
LINE
8
Layer 1
10
130.494321
20
131.853411
11
131.151092
21
134.081670
0
LINE
8
Layer 1
10
131.151092
20
134.081670
11
131.943307
21
136.142410
0
LINE
8
Layer 1
10
131.943307
20
136.142410
11
132.856132
21
138.008642
0
LINE
8
Layer 1
10
132.856132
20
138.008642
11
133.874731
21
139.653378
0
LINE
8
Layer 1
10
133.874731
20
139.653378
11
134.984267
21
141.049628
0
LINE
8
Layer 1
10
134.984267
20
141.049628
11
136.169905
21
142.170405
0
LINE
8
Layer 1
10
136.169905
20
142.170405
11
137.416810
21
142.988720
0
LINE
8
Layer 1
10
137.416810
20
142.988720
11
138.767925
21
143.483276
0
LINE
8
Layer 1
10
138.767925
20
143.483276
11
140.578607
21
143.870287
0
LINE
8
Layer 1
10
140.578607
20
143.870287
11
142.614864
21
144.123735
0
LINE
8
Layer 1
10
142.614864
20
144.123735
11
144.642700
21
144.217600
0
LINE
8
Layer 1
10
144.642700
20
144.217600
11
144.642700
21
144.217590
0
LINE
8
Layer 1
10
89.637800
20
160.755000
11
89.638800
21
160.755000
0
LINE
8
Layer 1
10
89.638800
20
160.755000
11
90.478576
21
160.468985
0
LINE
8
Layer 1
10
90.478576
20
160.468985
11
91.625846
21
159.807111
0
LINE
8
Layer 1
10
91.625846
20
159.807111
11
92.852018
21
158.909281
0
LINE
8
Layer 1
10
92.852018
20
158.909281
11
93.928500
21
157.915400
0
LINE
8
Layer 1
10
93.928500
20
157.915400
11
95.512860
21
155.822115
0
LINE
8
Layer 1
10
95.512860
20
155.822115
11
96.824411
21
153.298043
0
LINE
8
Layer 1
10
96.824411
20
153.298043
11
97.845585
21
150.443673
0
LINE
8
Layer 1
10
97.845585
20
150.443673
11
98.558813
21
147.359491
0
LINE
8
Layer 1
10
98.558813
20
147.359491
11
98.946526
21
144.145986
0
LINE
8
Layer 1
10
98.946526
20
144.145986
11
98.991158
21
140.903644
0
LINE
8
Layer 1
10
98.991158
20
140.903644
11
98.675138
21
137.732953
0
LINE
8
Layer 1
10
98.675138
20
137.732953
11
97.980900
21
134.734400
0
LINE
8
Layer 1
10
97.980900
20
134.734400
11
97.154141
21
132.317196
0
LINE
8
Layer 1
10
97.154141
20
132.317196
11
96.650790
21
131.311890
0
LINE
8
Layer 1
10
96.650790
20
131.311890
11
96.537045
21
131.578092
0
LINE
8
Layer 1
10
96.537045
20
131.578092
11
96.650790
21
132.218290
0
LINE
8
Layer 1
10
96.650790
20
132.218290
11
97.329552
21
134.947189
0
LINE
8
Layer 1
10
97.329552
20
134.947189
11
97.755938
21
137.778272
0
LINE
8
Layer 1
10
97.755938
20
137.778272
11
97.933397
21
140.659553
0
LINE
8
Layer 1
10
97.933397
20
140.659553
11
97.865378
21
143.539044
0
LINE
8
Layer 1
10
97.865378
20
143.539044
11
97.555328
21
146.364759
0
LINE
8
Layer 1
10
97.555328
20
146.364759
11
97.006698
21
149.084713
0
LINE
8
Layer 1
10
97.006698
20
149.084713
11
96.222936
21
151.646919
0
LINE
8
Layer 1
10
96.222936
20
151.646919
11
95.207490
21
153.999390
0
LINE
8
Layer 1
10
95.207490
20
153.999390
11
94.035668
21
155.913752
0
LINE
8
Layer 1
10
94.035668
20
155.913752
11
92.732515
21
157.442295
0
LINE
8
Layer 1
10
92.732515
20
157.442295
11
91.525700
21
158.362888
0
LINE
8
Layer 1
10
91.525700
20
158.362888
11
91.029565
21
158.525787
0
LINE
8
Layer 1
10
91.029565
20
158.525787
11
90.642890
21
158.453400
0
LINE
8
Layer 1
10
90.642890
20
158.453400
11
90.462834
21
158.021446
0
LINE
8
Layer 1
10
90.462834
20
158.021446
11
90.377713
21
157.058316
0
LINE
8
Layer 1
10
90.377713
20
157.058316
11
90.501770
21
153.852110
0
LINE
8
Layer 1
10
90.501770
20
153.852110
11
90.619235
21
150.521738
0
LINE
8
Layer 1
10
90.619235
20
150.521738
11
90.537050
21
149.350372
0
LINE
8
Layer 1
10
90.537050
20
149.350372
11
90.365360
21
148.675690
0
LINE
8
Layer 1
10
90.365360
20
148.675690
11
90.239484
21
148.549749
0
LINE
8
Layer 1
10
90.239484
20
148.549749
11
90.121251
21
148.641199
0
LINE
8
Layer 1
10
90.121251
20
148.641199
11
89.903485
21
149.503020
0
LINE
8
Layer 1
10
89.903485
20
149.503020
11
89.513160
21
154.129610
0
LINE
8
Layer 1
10
89.513160
20
154.129610
11
89.327441
21
158.672410
0
LINE
8
Layer 1
10
89.327441
20
158.672410
11
89.384070
21
160.696140
0
LINE
8
Layer 1
10
89.384070
20
160.696140
11
89.637760
21
160.755040
0
LINE
8
Layer 1
10
89.637760
20
160.755040
11
89.637800
21
160.755000
0
LINE
8
Layer 1
10
145.834900
20
147.291300
11
150.947567
21
146.992375
0
LINE
8
Layer 1
10
150.947567
20
146.992375
11
152.687635
21
146.721021
0
LINE
8
Layer 1
10
152.687635
20
146.721021
11
153.123647
21
146.571977
0
LINE
8
Layer 1
10
153.123647
20
146.571977
11
153.182710
21
146.420540
0
LINE
8
Layer 1
10
153.182710
20
146.420540
11
151.089587
21
146.174220
0
LINE
8
Layer 1
10
151.089587
20
146.174220
11
146.537200
21
146.058820
0
LINE
8
Layer 1
10
146.537200
20
146.058820
11
143.143045
21
146.007888
0
LINE
8
Layer 1
10
143.143045
20
146.007888
11
140.892996
21
145.834783
0
LINE
8
Layer 1
10
140.892996
20
145.834783
11
139.272927
21
145.467641
0
LINE
8
Layer 1
10
139.272927
20
145.467641
11
137.768710
21
144.834600
0
LINE
8
Layer 1
10
137.768710
20
144.834600
11
135.854388
21
143.713709
0
LINE
8
Layer 1
10
135.854388
20
143.713709
11
134.208220
21
142.235156
0
LINE
8
Layer 1
10
134.208220
20
142.235156
11
132.543324
21
140.084486
0
LINE
8
Layer 1
10
132.543324
20
140.084486
11
130.572820
21
136.947240
0
LINE
8
Layer 1
10
130.572820
20
136.947240
11
128.474936
21
133.031353
0
LINE
8
Layer 1
10
128.474936
20
133.031353
11
127.017829
21
129.338940
0
LINE
8
Layer 1
10
127.017829
20
129.338940
11
126.113867
21
125.593802
0
LINE
8
Layer 1
10
126.113867
20
125.593802
11
125.675420
21
121.519740
0
LINE
8
Layer 1
10
125.675420
20
121.519740
11
125.321349
21
117.358045
0
LINE
8
Layer 1
10
125.321349
20
117.358045
11
124.849610
21
114.340850
0
LINE
8
Layer 1
10
124.849610
20
114.340850
11
124.850000
21
114.341000
0
LINE
8
Layer 1
10
124.850000
20
114.341000
11
124.356121
21
112.785831
0
LINE
8
Layer 1
10
124.356121
20
112.785831
11
123.949310
21
112.139070
0
LINE
8
Layer 1
10
123.949310
20
112.139070
11
123.823084
21
112.772500
0
LINE
8
Layer 1
10
123.823084
20
112.772500
11
123.863088
21
114.465822
0
LINE
8
Layer 1
10
123.863088
20
114.465822
11
124.311527
21
119.790332
0
LINE
8
Layer 1
10
124.311527
20
119.790332
11
125.034111
21
125.628987
0
LINE
8
Layer 1
10
125.034111
20
125.628987
11
125.770320
21
129.498170
0
LINE
8
Layer 1
10
125.770320
20
129.498170
11
127.198391
21
133.113022
0
LINE
8
Layer 1
10
127.198391
20
133.113022
11
129.151392
21
136.911352
0
LINE
8
Layer 1
10
129.151392
20
136.911352
11
131.343460
21
140.391267
0
LINE
8
Layer 1
10
131.343460
20
140.391267
11
133.488730
21
143.050870
0
LINE
8
Layer 1
10
133.488730
20
143.050870
11
135.401143
21
144.791021
0
LINE
8
Layer 1
10
135.401143
20
144.791021
11
137.332174
21
145.939069
0
LINE
8
Layer 1
10
137.332174
20
145.939069
11
139.695480
21
146.676550
0
LINE
8
Layer 1
10
139.695480
20
146.676550
11
142.904720
21
147.185000
0
LINE
8
Layer 1
10
142.904720
20
147.185000
11
145.835320
21
147.291960
0
LINE
8
Layer 1
10
145.835320
20
147.291960
11
145.834900
21
147.291300
0
LINE
8
Layer 1
10
123.756100
20
149.404820
11
124.133579
21
149.213686
0
LINE
8
Layer 1
10
124.133579
20
149.213686
11
124.313351
21
148.545222
0
LINE
8
Layer 1
10
124.313351
20
148.545222
11
124.195880
21
145.727030
0
LINE
8
Layer 1
10
124.195880
20
145.727030
11
123.466517
21
140.800775
0
LINE
8
Layer 1
10
123.466517
20
140.800775
11
122.297513
21
136.082079
0
LINE
8
Layer 1
10
122.297513
20
136.082079
11
120.750767
21
131.776683
0
LINE
8
Layer 1
10
120.750767
20
131.776683
11
118.888180
21
128.090330
0
LINE
8
Layer 1
10
118.888180
20
128.090330
11
116.668849
21
124.622755
0
LINE
8
Layer 1
10
116.668849
20
124.622755
11
114.547161
21
121.807361
0
LINE
8
Layer 1
10
114.547161
20
121.807361
11
112.246128
21
119.311402
0
LINE
8
Layer 1
10
112.246128
20
119.311402
11
109.488760
21
116.802130
0
LINE
8
Layer 1
10
109.488760
20
116.802130
11
102.865350
21
110.971990
0
LINE
8
Layer 1
10
102.865350
20
110.971990
11
100.950361
21
109.310720
0
LINE
8
Layer 1
10
100.950361
20
109.310720
11
99.593745
21
108.310893
0
LINE
8
Layer 1
10
99.593745
20
108.310893
11
98.786429
21
107.966718
0
LINE
8
Layer 1
10
98.786429
20
107.966718
11
98.585923
21
108.038693
0
LINE
8
Layer 1
10
98.585923
20
108.038693
11
98.519340
21
108.272410
0
LINE
8
Layer 1
10
98.519340
20
108.272410
11
98.937825
21
109.389585
0
LINE
8
Layer 1
10
98.937825
20
109.389585
11
100.039759
21
111.453344
0
LINE
8
Layer 1
10
100.039759
20
111.453344
11
103.372830
21
116.802130
0
LINE
8
Layer 1
10
103.372830
20
116.802130
11
105.726973
21
120.460143
0
LINE
8
Layer 1
10
105.726973
20
120.460143
11
107.691430
21
123.797560
0
LINE
8
Layer 1
10
107.691430
20
123.797560
11
108.883714
21
125.722213
0
LINE
8
Layer 1
10
108.883714
20
125.722213
11
109.249593
21
126.096663
0
LINE
8
Layer 1
10
109.249593
20
126.096663
11
109.390040
21
125.983470
0
LINE
8
Layer 1
10
109.390040
20
125.983470
11
109.166473
21
124.686786
0
LINE
8
Layer 1
10
109.166473
20
124.686786
11
108.420738
21
122.872448
0
LINE
8
Layer 1
10
108.420738
20
122.872448
11
107.080781
21
120.392316
0
LINE
8
Layer 1
10
107.080781
20
120.392316
11
105.074550
21
117.098250
0
LINE
8
Layer 1
10
105.074550
20
117.098250
11
103.079059
21
113.767069
0
LINE
8
Layer 1
10
103.079059
20
113.767069
11
102.375450
21
112.255140
0
LINE
8
Layer 1
10
102.375450
20
112.255140
11
103.188471
21
112.555939
0
LINE
8
Layer 1
10
103.188471
20
112.555939
11
104.838860
21
113.583720
0
LINE
8
Layer 1
10
104.838860
20
113.583720
11
107.821168
21
116.059643
0
LINE
8
Layer 1
10
107.821168
20
116.059643
11
111.174548
21
119.516134
0
LINE
8
Layer 1
10
111.174548
20
119.516134
11
114.467383
21
123.471718
0
LINE
8
Layer 1
10
114.467383
20
123.471718
11
117.268060
21
127.444920
0
LINE
8
Layer 1
10
117.268060
20
127.444920
11
118.851716
21
130.083586
0
LINE
8
Layer 1
10
118.851716
20
130.083586
11
119.934785
21
132.326016
0
LINE
8
Layer 1
10
119.934785
20
132.326016
11
120.759891
21
134.768174
0
LINE
8
Layer 1
10
120.759891
20
134.768174
11
121.569660
21
138.006020
0
LINE
8
Layer 1
10
121.569660
20
138.006020
11
122.345893
21
141.659913
0
LINE
8
Layer 1
10
122.345893
20
141.659913
11
122.620599
21
143.888851
0
LINE
8
Layer 1
10
122.620599
20
143.888851
11
122.571398
21
144.565125
0
LINE
8
Layer 1
10
122.571398
20
144.565125
11
122.398637
21
145.000554
0
LINE
8
Layer 1
10
122.398637
20
145.000554
11
122.102926
21
145.233604
0
LINE
8
Layer 1
10
122.102926
20
145.233604
11
121.684870
21
145.302740
0
LINE
8
Layer 1
10
121.684870
20
145.302740
11
121.220478
21
145.196757
0
LINE
8
Layer 1
10
121.220478
20
145.196757
11
120.699511
21
144.878464
0
LINE
8
Layer 1
10
120.699511
20
144.878464
11
119.486254
21
143.602897
0
LINE
8
Layer 1
10
119.486254
20
143.602897
11
118.041905
21
141.471929
0
LINE
8
Layer 1
10
118.041905
20
141.471929
11
116.363270
21
138.481450
0
LINE
8
Layer 1
10
116.363270
20
138.481450
11
114.758454
21
135.634554
0
LINE
8
Layer 1
10
114.758454
20
135.634554
11
114.266508
21
134.927351
0
LINE
8
Layer 1
10
114.266508
20
134.927351
11
114.079670
21
134.856330
0
LINE
8
Layer 1
10
114.079670
20
134.856330
11
114.280860
21
135.695397
0
LINE
8
Layer 1
10
114.280860
20
135.695397
11
114.848701
21
137.043850
0
LINE
8
Layer 1
10
114.848701
20
137.043850
11
116.730462
21
140.643894
0
LINE
8
Layer 1
10
116.730462
20
140.643894
11
119.017205
21
144.406431
0
LINE
8
Layer 1
10
119.017205
20
144.406431
11
121.001180
21
147.081430
0
LINE
8
Layer 1
10
121.001180
20
147.081430
11
122.707507
21
148.782517
0
LINE
8
Layer 1
10
122.707507
20
148.782517
11
123.307211
21
149.231375
0
LINE
8
Layer 1
10
123.307211
20
149.231375
11
123.756100
21
149.404790
0
LINE
8
Layer 1
10
123.756100
20
149.404790
11
123.756100
21
149.404820
0
LINE
8
Layer 1
10
123.011950
20
185.463120
11
123.427450
21
181.576530
0
LINE
8
Layer 1
10
123.427450
20
181.576530
11
124.023489
21
177.461629
0
LINE
8
Layer 1
10
124.023489
20
177.461629
11
124.871760
21
173.026140
0
LINE
8
Layer 1
10
124.871760
20
173.026140
11
125.784502
21
168.329917
0
LINE
8
Layer 1
10
125.784502
20
168.329917
11
126.268700
21
164.320723
0
LINE
8
Layer 1
10
126.268700
20
164.320723
11
126.298052
21
160.895847
0
LINE
8
Layer 1
10
126.298052
20
160.895847
11
125.846256
21
157.952577
0
LINE
8
Layer 1
10
125.846256
20
157.952577
11
125.431709
21
156.629448
0
LINE
8
Layer 1
10
125.431709
20
156.629448
11
124.887011
21
155.388203
0
LINE
8
Layer 1
10
124.887011
20
155.388203
11
123.394015
21
153.100013
0
LINE
8
Layer 1
10
123.394015
20
153.100013
11
121.340965
21
150.985296
0
LINE
8
Layer 1
10
121.340965
20
150.985296
11
118.701560
21
148.941340
0
LINE
8
Layer 1
10
118.701560
20
148.941340
11
115.850489
21
146.792105
0
LINE
8
Layer 1
10
115.850489
20
146.792105
11
113.195380
21
144.409886
0
LINE
8
Layer 1
10
113.195380
20
144.409886
11
110.572611
21
141.634894
0
LINE
8
Layer 1
10
110.572611
20
141.634894
11
107.818560
21
138.307340
0
LINE
8
Layer 1
10
107.818560
20
138.307340
11
104.200569
21
133.370170
0
LINE
8
Layer 1
10
104.200569
20
133.370170
11
101.197485
21
128.598941
0
LINE
8
Layer 1
10
101.197485
20
128.598941
11
98.972263
21
124.277137
0
LINE
8
Layer 1
10
98.972263
20
124.277137
11
98.202274
21
122.373358
0
LINE
8
Layer 1
10
98.202274
20
122.373358
11
97.687860
21
120.688240
0
LINE
8
Layer 1
10
97.687860
20
120.688240
11
97.552596
21
119.947975
0
LINE
8
Layer 1
10
97.552596
20
119.947975
11
97.598241
21
119.577141
0
LINE
8
Layer 1
10
97.598241
20
119.577141
11
97.829065
21
119.580483
0
LINE
8
Layer 1
10
97.829065
20
119.580483
11
98.249340
21
119.962743
0
LINE
8
Layer 1
10
98.249340
20
119.962743
11
99.675324
21
121.882990
0
LINE
8
Layer 1
10
99.675324
20
121.882990
11
101.910360
21
125.375830
0
LINE
8
Layer 1
10
101.910360
20
125.375830
11
104.374209
21
129.057308
0
LINE
8
Layer 1
10
104.374209
20
129.057308
11
105.345206
21
130.296484
0
LINE
8
Layer 1
10
105.345206
20
130.296484
11
105.964960
21
130.893290
0
LINE
8
Layer 1
10
105.964960
20
130.893290
11
106.575108
21
131.187466
0
LINE
8
Layer 1
10
106.575108
20
131.187466
11
106.661958
21
131.126573
0
LINE
8
Layer 1
10
106.661958
20
131.126573
11
106.564976
21
130.848572
0
LINE
8
Layer 1
10
106.564976
20
130.848572
11
103.763450
21
126.388680
0
LINE
8
Layer 1
10
103.763450
20
126.388680
11
99.329150
21
120.040750
0
LINE
8
Layer 1
10
99.329150
20
120.040750
11
97.903135
21
118.283214
0
LINE
8
Layer 1
10
97.903135
20
118.283214
11
97.020679
21
117.482843
0
LINE
8
Layer 1
10
97.020679
20
117.482843
11
96.748926
21
117.423496
0
LINE
8
Layer 1
10
96.748926
20
117.423496
11
96.571833
21
117.581725
0
LINE
8
Layer 1
10
96.571833
20
117.581725
11
96.446650
21
118.521950
0
LINE
8
Layer 1
10
96.446650
20
118.521950
11
96.594204
21
120.063844
0
LINE
8
Layer 1
10
96.594204
20
120.063844
11
97.020322
21
121.833158
0
LINE
8
Layer 1
10
97.020322
20
121.833158
11
97.700183
21
123.793855
0
LINE
8
Layer 1
10
97.700183
20
123.793855
11
98.608969
21
125.909899
0
LINE
8
Layer 1
10
98.608969
20
125.909899
11
101.014038
21
130.463887
0
LINE
8
Layer 1
10
101.014038
20
130.463887
11
104.036975
21
135.206833
0
LINE
8
Layer 1
10
104.036975
20
135.206833
11
107.479228
21
139.850449
0
LINE
8
Layer 1
10
107.479228
20
139.850449
11
111.142244
21
144.106450
0
LINE
8
Layer 1
10
111.142244
20
144.106450
11
114.827469
21
147.686546
0
LINE
8
Layer 1
10
114.827469
20
147.686546
11
116.616362
21
149.133040
0
LINE
8
Layer 1
10
116.616362
20
149.133040
11
118.336350
21
150.302450
0
LINE
8
Layer 1
10
118.336350
20
150.302450
11
120.781053
21
152.099757
0
LINE
8
Layer 1
10
120.781053
20
152.099757
11
121.797787
21
153.110400
0
LINE
8
Layer 1
10
121.797787
20
153.110400
11
122.680513
21
154.199950
0
LINE
8
Layer 1
10
122.680513
20
154.199950
11
123.431529
21
155.371591
0
LINE
8
Layer 1
10
123.431529
20
155.371591
11
124.053139
21
156.628508
0
LINE
8
Layer 1
10
124.053139
20
156.628508
11
124.917340
21
159.410910
0
LINE
8
Layer 1
10
124.917340
20
159.410910
11
125.250722
21
161.623621
0
LINE
8
Layer 1
10
125.250722
20
161.623621
11
125.228140
21
164.051087
0
LINE
8
Layer 1
10
125.228140
20
164.051087
11
124.787883
21
167.471715
0
LINE
8
Layer 1
10
124.787883
20
167.471715
11
123.868240
21
172.663910
0
LINE
8
Layer 1
10
123.868240
20
172.663910
11
123.186591
21
177.529461
0
LINE
8
Layer 1
10
123.186591
20
177.529461
11
122.943250
21
181.732080
0
LINE
8
Layer 1
10
122.943250
20
181.732080
11
123.011950
21
185.463120
0
LINE
8
Layer 1
10
121.955190
20
171.990520
11
121.956000
21
171.991000
0
LINE
8
Layer 1
10
121.956000
20
171.991000
11
122.179643
21
171.805414
0
LINE
8
Layer 1
10
122.179643
20
171.805414
11
122.380368
21
171.264896
0
LINE
8
Layer 1
10
122.380368
20
171.264896
11
122.685404
21
169.365465
0
LINE
8
Layer 1
10
122.685404
20
169.365465
11
122.815785
21
166.785507
0
LINE
8
Layer 1
10
122.815785
20
166.785507
11
122.716190
21
164.017820
0
LINE
8
Layer 1
10
122.716190
20
164.017820
11
122.495582
21
161.884021
0
LINE
8
Layer 1
10
122.495582
20
161.884021
11
122.173579
21
160.103790
0
LINE
8
Layer 1
10
122.173579
20
160.103790
11
121.647466
21
158.517207
0
LINE
8
Layer 1
10
121.647466
20
158.517207
11
120.814528
21
156.964349
0
LINE
8
Layer 1
10
120.814528
20
156.964349
11
119.572046
21
155.285293
0
LINE
8
Layer 1
10
119.572046
20
155.285293
11
117.817307
21
153.320118
0
LINE
8
Layer 1
10
117.817307
20
153.320118
11
112.360190
21
147.891720
0
LINE
8
Layer 1
10
112.360190
20
147.891720
11
105.978046
21
141.509955
0
LINE
8
Layer 1
10
105.978046
20
141.509955
11
102.500870
21
137.668620
0
LINE
8
Layer 1
10
102.500870
20
137.668620
11
101.208060
21
135.493595
0
LINE
8
Layer 1
10
101.208060
20
135.493595
11
99.796184
21
132.605076
0
LINE
8
Layer 1
10
99.796184
20
132.605076
11
96.974541
21
125.669550
0
LINE
8
Layer 1
10
96.974541
20
125.669550
11
94.754566
21
118.826034
0
LINE
8
Layer 1
10
94.754566
20
118.826034
11
94.094773
21
116.052528
0
LINE
8
Layer 1
10
94.094773
20
116.052528
11
93.854880
21
114.038520
0
LINE
8
Layer 1
10
93.854880
20
114.038520
11
93.854600
21
112.476000
0
LINE
8
Layer 1
10
93.854600
20
112.476000
11
95.150100
21
113.692980
0
LINE
8
Layer 1
10
95.150100
20
113.692980
11
96.055757
21
114.389517
0
LINE
8
Layer 1
10
96.055757
20
114.389517
11
96.302250
21
114.452464
0
LINE
8
Layer 1
10
96.302250
20
114.452464
11
96.407850
21
114.343655
0
LINE
8
Layer 1
10
96.407850
20
114.343655
11
96.186366
21
113.666143
0
LINE
8
Layer 1
10
96.186366
20
113.666143
11
95.371290
21
112.467730
0
LINE
8
Layer 1
10
95.371290
20
112.467730
11
95.371300
21
112.467000
0
LINE
8
Layer 1
10
95.371300
20
112.467000
11
94.664372
21
111.672427
0
LINE
8
Layer 1
10
94.664372
20
111.672427
11
94.072555
21
111.231162
0
LINE
8
Layer 1
10
94.072555
20
111.231162
11
93.596657
21
111.142007
0
LINE
8
Layer 1
10
93.596657
20
111.142007
11
93.237489
21
111.403767
0
LINE
8
Layer 1
10
93.237489
20
111.403767
11
92.995860
21
112.015246
0
LINE
8
Layer 1
10
92.995860
20
112.015246
11
92.872581
21
112.975247
0
LINE
8
Layer 1
10
92.872581
20
112.975247
11
92.984310
21
115.936030
0
LINE
8
Layer 1
10
92.984310
20
115.936030
11
93.519967
21
118.939904
0
LINE
8
Layer 1
10
93.519967
20
118.939904
11
94.563829
21
122.717936
0
LINE
8
Layer 1
10
94.563829
20
122.717936
11
95.989454
21
126.864340
0
LINE
8
Layer 1
10
95.989454
20
126.864340
11
97.670400
21
130.973330
0
LINE
8
Layer 1
10
97.670400
20
130.973330
11
99.626398
21
134.754649
0
LINE
8
Layer 1
10
99.626398
20
134.754649
11
102.118745
21
138.468010
0
LINE
8
Layer 1
10
102.118745
20
138.468010
11
105.268895
21
142.275406
0
LINE
8
Layer 1
10
105.268895
20
142.275406
11
109.198300
21
146.338830
0
LINE
8
Layer 1
10
109.198300
20
146.338830
11
114.318782
21
151.376013
0
LINE
8
Layer 1
10
114.318782
20
151.376013
11
117.349420
21
154.570078
0
LINE
8
Layer 1
10
117.349420
20
154.570078
11
119.087298
21
156.833193
0
LINE
8
Layer 1
10
119.087298
20
156.833193
11
120.329500
21
159.077530
0
LINE
8
Layer 1
10
120.329500
20
159.077530
11
121.119472
21
160.800181
0
LINE
8
Layer 1
10
121.119472
20
160.800181
11
121.572757
21
162.213489
0
LINE
8
Layer 1
10
121.572757
20
162.213489
11
121.756062
21
163.613377
0
LINE
8
Layer 1
10
121.756062
20
163.613377
11
121.736090
21
165.295770
0
LINE
8
Layer 1
10
121.736090
20
165.295770
11
121.577390
21
168.362230
0
LINE
8
Layer 1
10
121.577390
20
168.362230
11
119.307800
21
163.800770
0
LINE
8
Layer 1
10
119.307800
20
163.800770
11
117.926971
21
161.217988
0
LINE
8
Layer 1
10
117.926971
20
161.217988
11
116.475374
21
159.121246
0
LINE
8
Layer 1
10
116.475374
20
159.121246
11
114.469562
21
156.907694
0
LINE
8
Layer 1
10
114.469562
20
156.907694
11
111.426090
21
153.974480
0
LINE
8
Layer 1
10
111.426090
20
153.974480
11
107.739067
21
150.608635
0
LINE
8
Layer 1
10
107.739067
20
150.608635
11
105.406778
21
148.765834
0
LINE
8
Layer 1
10
105.406778
20
148.765834
11
104.644376
21
148.347451
0
LINE
8
Layer 1
10
104.644376
20
148.347451
11
104.095520
21
148.228083
0
LINE
8
Layer 1
10
104.095520
20
148.228083
11
103.718495
21
148.380479
0
LINE
8
Layer 1
10
103.718495
20
148.380479
11
103.471590
21
148.777390
0
LINE
8
Layer 1
10
103.471590
20
148.777390
11
103.330256
21
149.435465
0
LINE
8
Layer 1
10
103.330256
20
149.435465
11
103.429590
21
149.867790
0
LINE
8
Layer 1
10
103.429590
20
149.867790
11
103.621107
21
149.881904
0
LINE
8
Layer 1
10
103.621107
20
149.881904
11
103.700890
21
149.534480
0
LINE
8
Layer 1
10
103.700890
20
149.534480
11
103.760091
21
149.174567
0
LINE
8
Layer 1
10
103.760091
20
149.174567
11
103.933916
21
148.979949
0
LINE
8
Layer 1
10
103.933916
20
148.979949
11
104.602767
21
149.075802
0
LINE
8
Layer 1
10
104.602767
20
149.075802
11
105.662103
21
149.800452
0
LINE
8
Layer 1
10
105.662103
20
149.800452
11
107.066580
21
151.132310
0
LINE
8
Layer 1
10
107.066580
20
151.132310
11
112.011980
21
155.786280
0
LINE
8
Layer 1
10
112.011980
20
155.786280
11
114.431171
21
158.170341
0
LINE
8
Layer 1
10
114.431171
20
158.170341
11
116.509000
21
160.865922
0
LINE
8
Layer 1
10
116.509000
20
160.865922
11
118.304994
21
163.962082
0
LINE
8
Layer 1
10
118.304994
20
163.962082
11
119.878680
21
167.547880
0
LINE
8
Layer 1
10
119.878680
20
167.547880
11
121.073422
21
170.451540
0
LINE
8
Layer 1
10
121.073422
20
170.451540
11
121.829490
21
171.922790
0
LINE
8
Layer 1
10
121.829490
20
171.922790
11
121.955100
21
171.990490
0
LINE
8
Layer 1
10
121.955100
20
171.990490
11
121.955190
21
171.990520
0
LINE
8
Layer 1
10
222.875000
20
100.994000
11
221.643250
21
98.103936
0
LINE
8
Layer 1
10
221.643250
20
98.103936
11
220.416810
21
96.054240
0
LINE
8
Layer 1
10
220.416810
20
96.054240
11
219.172420
21
94.575260
0
LINE
8
Layer 1
10
219.172420
20
94.575260
11
220.958920
21
94.239880
0
LINE
8
Layer 1
10
220.958920
20
94.239880
11
222.090696
21
94.125710
0
LINE
8
Layer 1
10
222.090696
20
94.125710
11
223.430696
21
94.148536
0
LINE
8
Layer 1
10
223.430696
20
94.148536
11
226.451600
21
94.537020
0
LINE
8
Layer 1
10
226.451600
20
94.537020
11
222.875000
21
100.994000
0
LINE
8
Layer 1
10
222.875000
20
100.994000
11
222.875000
21
100.994000
0
LINE
8
Layer 1
10
-8.565050
20
62.382500
11
-10.183624
21
62.331817
0
LINE
8
Layer 1
10
-10.183624
20
62.331817
11
-11.279988
21
62.098734
0
LINE
8
Layer 1
10
-11.279988
20
62.098734
11
-12.167008
21
61.561696
0
LINE
8
Layer 1
10
-12.167008
20
61.561696
11
-13.157550
21
60.599150
0
LINE
8
Layer 1
10
-13.157550
20
60.599150
11
-14.373033
21
58.915771
0
LINE
8
Layer 1
10
-14.373033
20
58.915771
11
-15.078452
21
57.050304
0
LINE
8
Layer 1
10
-15.078452
20
57.050304
11
-15.293185
21
55.081689
0
LINE
8
Layer 1
10
-15.293185
20
55.081689
11
-15.036613
21
53.088865
0
LINE
8
Layer 1
10
-15.036613
20
53.088865
11
-14.328113
21
51.150770
0
LINE
8
Layer 1
10
-14.328113
20
51.150770
11
-13.187067
21
49.346343
0
LINE
8
Layer 1
10
-13.187067
20
49.346343
11
-11.632853
21
47.754524
0
LINE
8
Layer 1
10
-11.632853
20
47.754524
11
-9.684850
21
46.454250
0
LINE
8
Layer 1
10
-9.684850
20
46.454250
11
-6.773555
21
44.716019
0
LINE
8
Layer 1
10
-6.773555
20
44.716019
11
-5.720520
21
43.867775
0
LINE
8
Layer 1
10
-5.720520
20
43.867775
11
-4.888286
21
42.972889
0
LINE
8
Layer 1
10
-4.888286
20
42.972889
11
-4.241147
21
41.985944
0
LINE
8
Layer 1
10
-4.241147
20
41.985944
11
-3.743397
21
40.861522
0
LINE
8
Layer 1
10
-3.743397
20
40.861522
11
-3.053240
21
38.018580
0
LINE
8
Layer 1
10
-3.053240
20
38.018580
11
-1.787934
21
31.376872
0
LINE
8
Layer 1
10
-1.787934
20
31.376872
11
-1.147422
21
28.978405
0
LINE
8
Layer 1
10
-1.147422
20
28.978405
11
-0.432674
21
27.037767
0
LINE
8
Layer 1
10
-0.432674
20
27.037767
11
0.408060
21
25.437138
0
LINE
8
Layer 1
10
0.408060
20
25.437138
11
1.426528
21
24.058694
0
LINE
8
Layer 1
10
1.426528
20
24.058694
11
2.674479
21
22.784615
0
LINE
8
Layer 1
10
2.674479
20
22.784615
11
4.203660
21
21.497080
0
LINE
8
Layer 1
10
4.203660
20
21.497080
11
6.138199
21
20.203174
0
LINE
8
Layer 1
10
6.138199
20
20.203174
11
8.641300
21
18.917300
0
LINE
8
Layer 1
10
8.641300
20
18.917300
11
11.670579
21
17.653131
0
LINE
8
Layer 1
10
11.670579
20
17.653131
11
15.183651
21
16.424340
0
LINE
8
Layer 1
10
15.183651
20
16.424340
11
19.138130
21
15.244601
0
LINE
8
Layer 1
10
19.138130
20
15.244601
11
23.491632
21
14.127588
0
LINE
8
Layer 1
10
23.491632
20
14.127588
11
28.201770
21
13.086973
0
LINE
8
Layer 1
10
28.201770
20
13.086973
11
33.226160
21
12.136430
0
LINE
8
Layer 1
10
33.226160
20
12.136430
11
39.545460
21
11.197845
0
LINE
8
Layer 1
10
39.545460
20
11.197845
11
41.036866
21
11.151262
0
LINE
8
Layer 1
10
41.036866
20
11.151262
11
41.398665
21
11.230634
0
LINE
8
Layer 1
10
41.398665
20
11.230634
11
41.517160
21
11.377300
0
LINE
8
Layer 1
10
41.517160
20
11.377300
11
40.205060
21
13.912550
0
LINE
8
Layer 1
10
40.205060
20
13.912550
11
38.893560
21
16.151170
0
LINE
8
Layer 1
10
38.893560
20
16.151170
11
32.932660
21
17.261700
0
LINE
8
Layer 1
10
32.932660
20
17.261700
11
25.476850
21
18.788638
0
LINE
8
Layer 1
10
25.476850
20
18.788638
11
19.205978
21
20.383233
0
LINE
8
Layer 1
10
19.205978
20
20.383233
11
14.061228
21
22.076839
0
LINE
8
Layer 1
10
14.061228
20
22.076839
11
9.983780
21
23.900813
0
LINE
8
Layer 1
10
9.983780
20
23.900813
11
8.326914
21
24.871486
0
LINE
8
Layer 1
10
8.326914
20
24.871486
11
6.914818
21
25.886510
0
LINE
8
Layer 1
10
6.914818
20
25.886510
11
5.740139
21
26.949803
0
LINE
8
Layer 1
10
5.740139
20
26.949803
11
4.795524
21
28.065286
0
LINE
8
Layer 1
10
4.795524
20
28.065286
11
4.073622
21
29.236878
0
LINE
8
Layer 1
10
4.073622
20
29.236878
11
3.567081
21
30.468497
0
LINE
8
Layer 1
10
3.567081
20
30.468497
11
3.268547
21
31.764065
0
LINE
8
Layer 1
10
3.268547
20
31.764065
11
3.170670
21
33.127500
0
LINE
8
Layer 1
10
3.170670
20
33.127500
11
3.411568
21
34.647115
0
LINE
8
Layer 1
10
3.411568
20
34.647115
11
4.123081
21
35.975556
0
LINE
8
Layer 1
10
4.123081
20
35.975556
11
5.288432
21
37.105261
0
LINE
8
Layer 1
10
5.288432
20
37.105261
11
6.890849
21
38.028665
0
LINE
8
Layer 1
10
6.890849
20
38.028665
11
8.913555
21
38.738205
0
LINE
8
Layer 1
10
8.913555
20
38.738205
11
11.339777
21
39.226316
0
LINE
8
Layer 1
10
11.339777
20
39.226316
11
14.152740
21
39.485436
0
LINE
8
Layer 1
10
14.152740
20
39.485436
11
17.335670
21
39.508000
0
LINE
8
Layer 1
10
17.335670
20
39.508000
11
22.663060
21
39.352450
0
LINE
8
Layer 1
10
22.663060
20
39.352450
11
25.353260
21
41.669620
0
LINE
8
Layer 1
10
25.353260
20
41.669620
11
27.253434
21
43.410875
0
LINE
8
Layer 1
10
27.253434
20
43.410875
11
28.044050
21
44.343360
0
LINE
8
Layer 1
10
28.044050
20
44.343360
11
27.828385
21
44.624185
0
LINE
8
Layer 1
10
27.828385
20
44.624185
11
27.217507
21
44.833766
0
LINE
8
Layer 1
10
27.217507
20
44.833766
11
25.030020
21
45.034832
0
LINE
8
Layer 1
10
25.030020
20
45.034832
11
21.921398
21
44.937838
0
LINE
8
Layer 1
10
21.921398
20
44.937838
11
18.331450
21
44.534060
0
LINE
8
Layer 1
10
18.331450
20
44.534060
11
13.850498
21
43.949947
0
LINE
8
Layer 1
10
13.850498
20
43.949947
11
10.389270
21
43.781942
0
LINE
8
Layer 1
10
10.389270
20
43.781942
11
7.338757
21
44.038315
0
LINE
8
Layer 1
10
7.338757
20
44.038315
11
4.089950
21
44.727330
0
LINE
8
Layer 1
10
4.089950
20
44.727330
11
0.854417
21
45.769995
0
LINE
8
Layer 1
10
0.854417
20
45.769995
11
-2.636462
21
47.228294
0
LINE
8
Layer 1
10
-2.636462
20
47.228294
11
-5.797661
21
48.832923
0
LINE
8
Layer 1
10
-5.797661
20
48.832923
11
-8.044150
21
50.314580
0
LINE
8
Layer 1
10
-8.044150
20
50.314580
11
-8.956889
21
51.231524
0
LINE
8
Layer 1
10
-8.956889
20
51.231524
11
-9.669130
21
52.260313
0
LINE
8
Layer 1
10
-9.669130
20
52.260313
11
-10.172092
21
53.346490
0
LINE
8
Layer 1
10
-10.172092
20
53.346490
11
-10.456996
21
54.435599
0
LINE
8
Layer 1
10
-10.456996
20
54.435599
11
-10.515064
21
55.473182
0
LINE
8
Layer 1
10
-10.515064
20
55.473182
11
-10.337515
21
56.404783
0
LINE
8
Layer 1
10
-10.337515
20
56.404783
11
-9.915570
21
57.175945
0
LINE
8
Layer 1
10
-9.915570
20
57.175945
11
-9.240450
21
57.732210
0
LINE
8
Layer 1
10
-9.240450
20
57.732210
11
-8.240970
21
58.100478
0
LINE
8
Layer 1
10
-8.240970
20
58.100478
11
-7.238537
21
58.220396
0
LINE
8
Layer 1
10
-7.238537
20
58.220396
11
-6.466186
21
58.092996
0
LINE
8
Layer 1
10
-6.466186
20
58.092996
11
-6.239114
21
57.936874
0
LINE
8
Layer 1
10
-6.239114
20
57.936874
11
-6.156950
21
57.719310
0
LINE
8
Layer 1
10
-6.156950
20
57.719310
11
-6.303600
21
57.353164
0
LINE
8
Layer 1
10
-6.303600
20
57.353164
11
-6.656645
21
57.201000
0
LINE
8
Layer 1
10
-6.656645
20
57.201000
11
-7.172781
21
56.896466
0
LINE
8
Layer 1
10
-7.172781
20
56.896466
11
-7.711345
21
56.164380
0
LINE
8
Layer 1
10
-7.711345
20
56.164380
11
-7.935776
21
55.589320
0
LINE
8
Layer 1
10
-7.935776
20
55.589320
11
-7.999933
21
55.029920
0
LINE
8
Layer 1
10
-7.999933
20
55.029920
11
-7.696105
21
54.033327
0
LINE
8
Layer 1
10
-7.696105
20
54.033327
11
-6.897222
21
53.325046
0
LINE
8
Layer 1
10
-6.897222
20
53.325046
11
-5.700645
21
53.055520
0
LINE
8
Layer 1
10
-5.700645
20
53.055520
11
-4.967284
21
53.133332
0
LINE
8
Layer 1
10
-4.967284
20
53.133332
11
-4.305820
21
53.360159
0
LINE
8
Layer 1
10
-4.305820
20
53.360159
11
-3.724231
21
53.726082
0
LINE
8
Layer 1
10
-3.724231
20
53.726082
11
-3.230495
21
54.221185
0
LINE
8
Layer 1
10
-3.230495
20
54.221185
11
-2.538495
21
55.559264
0
LINE
8
Layer 1
10
-2.538495
20
55.559264
11
-2.293645
21
57.295060
0
LINE
8
Layer 1
10
-2.293645
20
57.295060
11
-2.363863
21
58.399238
0
LINE
8
Layer 1
10
-2.363863
20
58.399238
11
-2.620935
21
59.265910
0
LINE
8
Layer 1
10
-2.620935
20
59.265910
11
-3.134487
21
60.043609
0
LINE
8
Layer 1
10
-3.134487
20
60.043609
11
-3.974145
21
60.880870
0
LINE
8
Layer 1
10
-3.974145
20
60.880870
11
-4.946755
21
61.655103
0
LINE
8
Layer 1
10
-4.946755
20
61.655103
11
-5.876865
21
62.111361
0
LINE
8
Layer 1
10
-5.876865
20
62.111361
11
-7.003340
21
62.327801
0
LINE
8
Layer 1
10
-7.003340
20
62.327801
11
-8.565045
21
62.382580
0
LINE
8
Layer 1
10
-8.565045
20
62.382580
11
-8.565050
21
62.382500
0
LINE
8
Layer 1
10
17.225700
20
132.811000
11
13.045010
21
128.916650
0
LINE
8
Layer 1
10
13.045010
20
128.916650
11
13.261100
21
123.128870
0
LINE
8
Layer 1
10
13.261100
20
123.128870
11
12.932624
21
123.640519
0
LINE
8
Layer 1
10
12.932624
20
123.640519
11
12.303990
21
125.082790
0
LINE
8
Layer 1
10
12.303990
20
125.082790
11
11.930619
21
126.266699
0
LINE
8
Layer 1
10
11.930619
20
126.266699
11
11.679190
21
127.547200
0
LINE
8
Layer 1
10
11.679190
20
127.547200
11
8.283590
21
124.007890
0
LINE
8
Layer 1
10
8.283590
20
124.007890
11
8.689934
21
122.557049
0
LINE
8
Layer 1
10
8.689934
20
122.557049
11
9.238515
21
121.151531
0
LINE
8
Layer 1
10
9.238515
20
121.151531
11
9.933234
21
119.808258
0
LINE
8
Layer 1
10
9.933234
20
119.808258
11
10.777990
21
118.544150
0
LINE
8
Layer 1
10
10.777990
20
118.544150
11
12.057398
21
117.162461
0
LINE
8
Layer 1
10
12.057398
20
117.162461
11
13.707194
21
115.801181
0
LINE
8
Layer 1
10
13.707194
20
115.801181
11
15.439713
21
114.672050
0
LINE
8
Layer 1
10
15.439713
20
114.672050
11
16.967290
21
113.986810
0
LINE
8
Layer 1
10
16.967290
20
113.986810
11
17.585132
21
113.870702
0
LINE
8
Layer 1
10
17.585132
20
113.870702
11
17.884511
21
114.160626
0
LINE
8
Layer 1
10
17.884511
20
114.160626
11
17.936108
21
115.104035
0
LINE
8
Layer 1
10
17.936108
20
115.104035
11
17.810600
21
116.948380
0
LINE
8
Layer 1
10
17.810600
20
116.948380
11
17.833014
21
120.318036
0
LINE
8
Layer 1
10
17.833014
20
120.318036
11
18.363110
21
123.830650
0
LINE
8
Layer 1
10
18.363110
20
123.830650
11
18.813562
21
126.439200
0
LINE
8
Layer 1
10
18.813562
20
126.439200
11
18.803680
21
128.603950
0
LINE
8
Layer 1
10
18.803680
20
128.603950
11
18.289161
21
130.627138
0
LINE
8
Layer 1
10
18.289161
20
130.627138
11
17.225700
21
132.811000
0
LINE
8
Layer 1
10
17.225700
20
132.811000
11
17.225700
21
132.811000
0
LINE
8
Layer 1
10
80.340600
20
-4.047320
11
79.841900
21
-4.189440
0
LINE
8
Layer 1
10
79.841900
20
-4.189440
11
80.759200
21
-4.189440
0
LINE
8
Layer 1
10
80.759200
20
-4.189440
11
80.340610
21
-4.047320
0
LINE
8
Layer 1
10
80.340610
20
-4.047320
11
80.340600
21
-4.047320
0
LINE
8
Layer 1
10
91.264000
20
255.885000
11
85.811759
21
255.746260
0
LINE
8
Layer 1
10
85.811759
20
255.746260
11
81.525825
21
255.209520
0
LINE
8
Layer 1
10
81.525825
20
255.209520
11
79.573561
21
254.742929
0
LINE
8
Layer 1
10
79.573561
20
254.742929
11
77.616878
21
254.118072
0
LINE
8
Layer 1
10
77.616878
20
254.118072
11
73.295600
21
252.315210
0
LINE
8
Layer 1
10
73.295600
20
252.315210
11
71.926200
21
251.643940
0
LINE
8
Layer 1
10
71.926200
20
251.643940
11
68.713000
21
244.635570
0
LINE
8
Layer 1
10
68.713000
20
244.635570
11
71.613592
21
246.578937
0
LINE
8
Layer 1
10
71.613592
20
246.578937
11
74.720304
21
248.311190
0
LINE
8
Layer 1
10
74.720304
20
248.311190
11
77.646039
21
249.626863
0
LINE
8
Layer 1
10
77.646039
20
249.626863
11
80.003700
21
250.320490
0
LINE
8
Layer 1
10
80.003700
20
250.320490
11
81.436283
21
250.354229
0
LINE
8
Layer 1
10
81.436283
20
250.354229
11
81.695304
21
250.154429
0
LINE
8
Layer 1
10
81.695304
20
250.154429
11
81.651961
21
249.815426
0
LINE
8
Layer 1
10
81.651961
20
249.815426
11
80.665632
21
248.735538
0
LINE
8
Layer 1
10
80.665632
20
248.735538
11
78.492190
21
247.146020
0
LINE
8
Layer 1
10
78.492190
20
247.146020
11
76.497768
21
245.522149
0
LINE
8
Layer 1
10
76.497768
20
245.522149
11
74.979006
21
243.657052
0
LINE
8
Layer 1
10
74.979006
20
243.657052
11
74.007986
21
241.662134
0
LINE
8
Layer 1
10
74.007986
20
241.662134
11
73.750405
21
240.650806
0
LINE
8
Layer 1
10
73.750405
20
240.650806
11
73.656790
21
239.648800
0
LINE
8
Layer 1
10
73.656790
20
239.648800
11
73.743863
21
238.817790
0
LINE
8
Layer 1
10
73.743863
20
238.817790
11
73.999528
21
237.878474
0
LINE
8
Layer 1
10
73.999528
20
237.878474
11
74.902291
21
235.879312
0
LINE
8
Layer 1
10
74.902291
20
235.879312
11
76.136407
21
234.060087
0
LINE
8
Layer 1
10
76.136407
20
234.060087
11
77.473200
21
232.829570
0
LINE
8
Layer 1
10
77.473200
20
232.829570
11
78.816135
21
232.099137
0
LINE
8
Layer 1
10
78.816135
20
232.099137
11
79.645409
21
231.927365
0
LINE
8
Layer 1
10
79.645409
20
231.927365
11
79.907550
21
232.058503
0
LINE
8
Layer 1
10
79.907550
20
232.058503
11
80.089428
21
232.338336
0
LINE
8
Layer 1
10
80.089428
20
232.338336
11
80.276600
21
233.356130
0
LINE
8
Layer 1
10
80.276600
20
233.356130
11
80.735925
21
235.236601
0
LINE
8
Layer 1
10
80.735925
20
235.236601
11
81.677500
21
237.631340
0
LINE
8
Layer 1
10
81.677500
20
237.631340
11
82.317407
21
239.186300
0
LINE
8
Layer 1
10
82.317407
20
239.186300
11
82.712284
21
240.690136
0
LINE
8
Layer 1
10
82.712284
20
240.690136
11
82.912369
21
242.423512
0
LINE
8
Layer 1
10
82.912369
20
242.423512
11
82.967900
21
244.667090
0
LINE
8
Layer 1
10
82.967900
20
244.667090
11
83.008861
21
246.865347
0
LINE
8
Layer 1
10
83.008861
20
246.865347
11
83.161105
21
248.319829
0
LINE
8
Layer 1
10
83.161105
20
248.319829
11
83.468674
21
249.267368
0
LINE
8
Layer 1
10
83.468674
20
249.267368
11
83.975610
21
249.944800
0
LINE
8
Layer 1
10
83.975610
20
249.944800
11
85.063615
21
250.726304
0
LINE
8
Layer 1
10
85.063615
20
250.726304
11
86.539384
21
251.332047
0
LINE
8
Layer 1
10
86.539384
20
251.332047
11
88.323346
21
251.756620
0
LINE
8
Layer 1
10
88.323346
20
251.756620
11
90.335931
21
251.994616
0
LINE
8
Layer 1
10
90.335931
20
251.994616
11
92.497570
21
252.040626
0
LINE
8
Layer 1
10
92.497570
20
252.040626
11
94.728693
21
251.889240
0
LINE
8
Layer 1
10
94.728693
20
251.889240
11
96.949730
21
251.535051
0
LINE
8
Layer 1
10
96.949730
20
251.535051
11
99.081110
21
250.972650
0
LINE
8
Layer 1
10
99.081110
20
250.972650
11
102.137125
21
249.821795
0
LINE
8
Layer 1
10
102.137125
20
249.821795
11
104.839481
21
248.437225
0
LINE
8
Layer 1
10
104.839481
20
248.437225
11
107.353852
21
246.720330
0
LINE
8
Layer 1
10
107.353852
20
246.720330
11
109.845910
21
244.572500
0
LINE
8
Layer 1
10
109.845910
20
244.572500
11
111.506382
21
242.826899
0
LINE
8
Layer 1
10
111.506382
20
242.826899
11
112.910200
21
240.978316
0
LINE
8
Layer 1
10
112.910200
20
240.978316
11
114.050818
21
239.044815
0
LINE
8
Layer 1
10
114.050818
20
239.044815
11
114.921691
21
237.044461
0
LINE
8
Layer 1
10
114.921691
20
237.044461
11
115.516272
21
234.995318
0
LINE
8
Layer 1
10
115.516272
20
234.995318
11
115.828015
21
232.915451
0
LINE
8
Layer 1
10
115.828015
20
232.915451
11
115.850373
21
230.822923
0
LINE
8
Layer 1
10
115.850373
20
230.822923
11
115.576800
21
228.735800
0
LINE
8
Layer 1
10
115.576800
20
228.735800
11
115.009172
21
226.572586
0
LINE
8
Layer 1
10
115.009172
20
226.572586
11
114.201413
21
224.429839
0
LINE
8
Layer 1
10
114.201413
20
224.429839
11
113.173116
21
222.336660
0
LINE
8
Layer 1
10
113.173116
20
222.336660
11
111.943878
21
220.322154
0
LINE
8
Layer 1
10
111.943878
20
220.322154
11
110.533292
21
218.415422
0
LINE
8
Layer 1
10
110.533292
20
218.415422
11
108.960953
21
216.645567
0
LINE
8
Layer 1
10
108.960953
20
216.645567
11
107.246458
21
215.041692
0
LINE
8
Layer 1
10
107.246458
20
215.041692
11
105.409400
21
213.632900
0
LINE
8
Layer 1
10
105.409400
20
213.632900
11
104.096633
21
212.631569
0
LINE
8
Layer 1
10
104.096633
20
212.631569
11
103.397745
21
211.782429
0
LINE
8
Layer 1
10
103.397745
20
211.782429
11
103.226557
21
210.915557
0
LINE
8
Layer 1
10
103.226557
20
210.915557
11
103.496890
21
209.861030
0
LINE
8
Layer 1
10
103.496890
20
209.861030
11
103.497000
21
209.860000
0
LINE
8
Layer 1
10
103.497000
20
209.860000
11
103.981238
21
209.281114
0
LINE
8
Layer 1
10
103.981238
20
209.281114
11
104.703600
21
209.040410
0
LINE
8
Layer 1
10
104.703600
20
209.040410
11
105.400586
21
209.183469
0
LINE
8
Layer 1
10
105.400586
20
209.183469
11
106.322563
21
209.595790
0
LINE
8
Layer 1
10
106.322563
20
209.595790
11
108.703159
21
211.127071
0
LINE
8
Layer 1
10
108.703159
20
211.127071
11
111.568725
21
213.431964
0
LINE
8
Layer 1
10
111.568725
20
213.431964
11
114.642600
21
216.308180
0
LINE
8
Layer 1
10
114.642600
20
216.308180
11
116.327291
21
218.074024
0
LINE
8
Layer 1
10
116.327291
20
218.074024
11
117.683086
21
219.703571
0
LINE
8
Layer 1
10
117.683086
20
219.703571
11
118.753136
21
221.301033
0
LINE
8
Layer 1
10
118.753136
20
221.301033
11
119.580589
21
222.970621
0
LINE
8
Layer 1
10
119.580589
20
222.970621
11
120.208593
21
224.816548
0
LINE
8
Layer 1
10
120.208593
20
224.816548
11
120.680299
21
226.943026
0
LINE
8
Layer 1
10
120.680299
20
226.943026
11
121.327410
21
232.454480
0
LINE
8
Layer 1
10
121.327410
20
232.454480
11
121.653273
21
235.663343
0
LINE
8
Layer 1
10
121.653273
20
235.663343
11
122.084547
21
238.283927
0
LINE
8
Layer 1
10
122.084547
20
238.283927
11
122.666559
21
240.391215
0
LINE
8
Layer 1
10
122.666559
20
240.391215
11
123.444635
21
242.060189
0
LINE
8
Layer 1
10
123.444635
20
242.060189
11
124.464103
21
243.365830
0
LINE
8
Layer 1
10
124.464103
20
243.365830
11
125.770288
21
244.383121
0
LINE
8
Layer 1
10
125.770288
20
244.383121
11
127.408518
21
245.187043
0
LINE
8
Layer 1
10
127.408518
20
245.187043
11
129.424120
21
245.852580
0
LINE
8
Layer 1
10
129.424120
20
245.852580
11
130.938225
21
246.441011
0
LINE
8
Layer 1
10
130.938225
20
246.441011
11
131.350438
21
246.772647
0
LINE
8
Layer 1
10
131.350438
20
246.772647
11
131.534581
21
247.139180
0
LINE
8
Layer 1
10
131.534581
20
247.139180
11
131.492023
21
247.548073
0
LINE
8
Layer 1
10
131.492023
20
247.548073
11
131.224130
21
248.006789
0
LINE
8
Layer 1
10
131.224130
20
248.006789
11
130.017810
21
249.103540
0
LINE
8
Layer 1
10
130.017810
20
249.103540
11
128.611230
21
250.152590
0
LINE
8
Layer 1
10
128.611230
20
250.152590
11
123.895220
21
248.706160
0
LINE
8
Layer 1
10
123.895220
20
248.706160
11
120.033757
21
247.709931
0
LINE
8
Layer 1
10
120.033757
20
247.709931
11
118.489515
21
247.547128
0
LINE
8
Layer 1
10
118.489515
20
247.547128
11
117.055744
21
247.629818
0
LINE
8
Layer 1
10
117.055744
20
247.629818
11
115.622051
21
247.974464
0
LINE
8
Layer 1
10
115.622051
20
247.974464
11
114.078044
21
248.597533
0
LINE
8
Layer 1
10
114.078044
20
248.597533
11
110.217520
21
250.744790
0
LINE
8
Layer 1
10
110.217520
20
250.744790
11
105.443434
21
253.412133
0
LINE
8
Layer 1
10
105.443434
20
253.412133
11
103.392025
21
254.311505
0
LINE
8
Layer 1
10
103.392025
20
254.311505
11
101.390133
21
254.968666
0
LINE
8
Layer 1
10
101.390133
20
254.968666
11
99.307075
21
255.419110
0
LINE
8
Layer 1
10
99.307075
20
255.419110
11
97.012174
21
255.698327
0
LINE
8
Layer 1
10
97.012174
20
255.698327
11
91.264120
21
255.885050
0
LINE
8
Layer 1
10
91.264120
20
255.885050
11
91.264000
21
255.885000
0
LINE
8
Layer 1
10
79.767100
20
246.315580
11
79.953152
21
246.220509
0
LINE
8
Layer 1
10
79.953152
20
246.220509
11
79.975112
21
245.866091
0
LINE
8
Layer 1
10
79.975112
20
245.866091
11
79.504600
21
244.407680
0
LINE
8
Layer 1
10
79.504600
20
244.407680
11
79.505100
21
244.408000
0
LINE
8
Layer 1
10
79.505100
20
244.408000
11
78.743216
21
242.274575
0
LINE
8
Layer 1
10
78.743216
20
242.274575
11
78.069000
21
239.873910
0
LINE
8
Layer 1
10
78.069000
20
239.873910
11
77.457110
21
237.283360
0
LINE
8
Layer 1
10
77.457110
20
237.283360
11
77.078310
21
239.379370
0
LINE
8
Layer 1
10
77.078310
20
239.379370
11
76.961374
21
241.049846
0
LINE
8
Layer 1
10
76.961374
20
241.049846
11
77.202871
21
242.665671
0
LINE
8
Layer 1
10
77.202871
20
242.665671
11
77.783610
21
244.154403
0
LINE
8
Layer 1
10
77.783610
20
244.154403
11
78.684400
21
245.443600
0
LINE
8
Layer 1
10
78.684400
20
245.443600
11
79.334955
21
246.077607
0
LINE
8
Layer 1
10
79.334955
20
246.077607
11
79.767110
21
246.315900
0
LINE
8
Layer 1
10
79.767110
20
246.315900
11
79.767100
21
246.315580
0
LINE
8
Layer 1
10
144.897000
20
6.926680
11
142.641410
21
6.874888
0
LINE
8
Layer 1
10
142.641410
20
6.874888
11
140.913777
21
6.655979
0
LINE
8
Layer 1
10
140.913777
20
6.655979
11
139.329428
21
6.190400
0
LINE
8
Layer 1
10
139.329428
20
6.190400
11
137.503690
21
5.398600
0
LINE
8
Layer 1
10
137.503690
20
5.398600
11
135.114700
21
4.066171
0
LINE
8
Layer 1
10
135.114700
20
4.066171
11
134.314096
21
3.468490
0
LINE
8
Layer 1
10
134.314096
20
3.468490
11
133.932280
21
3.020460
0
LINE
8
Layer 1
10
133.932280
20
3.020460
11
133.955507
21
1.898609
0
LINE
8
Layer 1
10
133.955507
20
1.898609
11
134.464570
21
0.383930
0
LINE
8
Layer 1
10
134.464570
20
0.383930
11
134.464000
21
0.383410
0
LINE
8
Layer 1
10
134.464000
20
0.383410
11
135.041918
21
-0.683484
0
LINE
8
Layer 1
10
135.041918
20
-0.683484
11
135.315512
21
-0.945989
0
LINE
8
Layer 1
10
135.315512
20
-0.945989
11
135.633215
21
-1.026102
0
LINE
8
Layer 1
10
135.633215
20
-1.026102
11
136.564007
21
-0.633860
0
LINE
8
Layer 1
10
136.564007
20
-0.633860
11
138.160410
21
0.503830
0
LINE
8
Layer 1
10
138.160410
20
0.503830
11
140.088991
21
1.606190
0
LINE
8
Layer 1
10
140.088991
20
1.606190
11
142.373175
21
2.328733
0
LINE
8
Layer 1
10
142.373175
20
2.328733
11
144.964649
21
2.661009
0
LINE
8
Layer 1
10
144.964649
20
2.661009
11
147.815100
21
2.592570
0
LINE
8
Layer 1
10
147.815100
20
2.592570
11
150.888848
21
2.114966
0
LINE
8
Layer 1
10
150.888848
20
2.114966
11
154.312504
21
1.313025
0
LINE
8
Layer 1
10
154.312504
20
1.313025
11
157.249183
21
0.410981
0
LINE
8
Layer 1
10
157.249183
20
0.410981
11
158.862000
21
-0.366930
0
LINE
8
Layer 1
10
158.862000
20
-0.366930
11
159.533432
21
-0.779281
0
LINE
8
Layer 1
10
159.533432
20
-0.779281
11
160.210273
21
-0.712927
0
LINE
8
Layer 1
10
160.210273
20
-0.712927
11
160.921445
21
-0.154735
0
LINE
8
Layer 1
10
160.921445
20
-0.154735
11
161.695870
21
0.908430
0
LINE
8
Layer 1
10
161.695870
20
0.908430
11
162.774360
21
2.939320
0
LINE
8
Layer 1
10
162.774360
20
2.939320
11
161.768755
21
3.501960
0
LINE
8
Layer 1
10
161.768755
20
3.501960
11
159.250121
21
4.383144
0
LINE
8
Layer 1
10
159.250121
20
4.383144
11
155.965732
21
5.345460
0
LINE
8
Layer 1
10
155.965732
20
5.345460
11
152.662860
21
6.151500
0
LINE
8
Layer 1
10
152.662860
20
6.151500
11
148.887912
21
6.697291
0
LINE
8
Layer 1
10
148.887912
20
6.697291
11
144.896350
21
6.926650
0
LINE
8
Layer 1
10
144.896350
20
6.926650
11
144.897000
21
6.926680
0
LINE
8
Layer 1
10
146.322000
20
242.217000
11
144.684596
21
240.699728
0
LINE
8
Layer 1
10
144.684596
20
240.699728
11
142.769574
21
238.565927
0
LINE
8
Layer 1
10
142.769574
20
238.565927
11
140.985387
21
236.275096
0
LINE
8
Layer 1
10
140.985387
20
236.275096
11
139.740490
21
234.286730
0
LINE
8
Layer 1
10
139.740490
20
234.286730
11
138.766765
21
231.792876
0
LINE
8
Layer 1
10
138.766765
20
231.792876
11
138.536305
21
230.609452
0
LINE
8
Layer 1
10
138.536305
20
230.609452
11
138.477699
21
229.429166
0
LINE
8
Layer 1
10
138.477699
20
229.429166
11
138.591635
21
228.222620
0
LINE
8
Layer 1
10
138.591635
20
228.222620
11
138.878803
21
226.960414
0
LINE
8
Layer 1
10
138.878803
20
226.960414
11
139.975590
21
224.151430
0
LINE
8
Layer 1
10
139.975590
20
224.151430
11
141.073384
21
221.464419
0
LINE
8
Layer 1
10
141.073384
20
221.464419
11
141.530010
21
219.617340
0
LINE
8
Layer 1
10
141.530010
20
219.617340
11
141.731880
21
218.665609
0
LINE
8
Layer 1
10
141.731880
20
218.665609
11
141.984628
21
218.466119
0
LINE
8
Layer 1
10
141.984628
20
218.466119
11
142.338947
21
218.450942
0
LINE
8
Layer 1
10
142.338947
20
218.450942
11
143.353396
21
218.973725
0
LINE
8
Layer 1
10
143.353396
20
218.973725
11
144.777410
21
220.234340
0
LINE
8
Layer 1
10
144.777410
20
220.234340
11
146.368772
21
222.088624
0
LINE
8
Layer 1
10
146.368772
20
222.088624
11
147.530425
21
224.061980
0
LINE
8
Layer 1
10
147.530425
20
224.061980
11
148.292118
21
226.218291
0
LINE
8
Layer 1
10
148.292118
20
226.218291
11
148.683600
21
228.621440
0
LINE
8
Layer 1
10
148.683600
20
228.621440
11
148.751090
21
230.145122
0
LINE
8
Layer 1
10
148.751090
20
230.145122
11
148.595924
21
231.338085
0
LINE
8
Layer 1
10
148.595924
20
231.338085
11
148.137718
21
232.509336
0
LINE
8
Layer 1
10
148.137718
20
232.509336
11
147.296090
21
233.967880
0
LINE
8
Layer 1
10
147.296090
20
233.967880
11
146.174136
21
235.990664
0
LINE
8
Layer 1
10
146.174136
20
235.990664
11
145.765680
21
237.463995
0
LINE
8
Layer 1
10
145.765680
20
237.463995
11
145.825507
21
238.076137
0
LINE
8
Layer 1
10
145.825507
20
238.076137
11
146.059501
21
238.648741
0
LINE
8
Layer 1
10
146.059501
20
238.648741
11
147.044380
21
239.805770
0
LINE
8
Layer 1
10
147.044380
20
239.805770
11
147.199380
21
239.984570
0
LINE
8
Layer 1
10
147.199380
20
239.984570
11
146.321970
21
242.217000
0
LINE
8
Layer 1
10
146.321970
20
242.217000
11
146.322000
21
242.217000
0
LINE
8
Layer 1
10
144.158300
20
233.861940
11
144.489510
21
233.592720
0
LINE
8
Layer 1
10
144.489510
20
233.592720
11
145.137000
21
232.281882
0
LINE
8
Layer 1
10
145.137000
20
232.281882
11
145.486032
21
230.637939
0
LINE
8
Layer 1
10
145.486032
20
230.637939
11
145.515232
21
228.855206
0
LINE
8
Layer 1
10
145.515232
20
228.855206
11
145.203220
21
227.128000
0
LINE
8
Layer 1
10
145.203220
20
227.128000
11
144.667117
21
225.699809
0
LINE
8
Layer 1
10
144.667117
20
225.699809
11
144.229130
21
225.106420
0
LINE
8
Layer 1
10
144.229130
20
225.106420
11
143.962744
21
226.485028
0
LINE
8
Layer 1
10
143.962744
20
226.485028
11
143.848240
21
229.797600
0
LINE
8
Layer 1
10
143.848240
20
229.797600
11
143.902376
21
232.908679
0
LINE
8
Layer 1
10
143.902376
20
232.908679
11
143.999169
21
233.617854
0
LINE
8
Layer 1
10
143.999169
20
233.617854
11
144.158330
21
233.861940
0
LINE
8
Layer 1
10
144.158330
20
233.861940
11
144.158300
21
233.861940
0
LINE
8
Layer 1
10
223.853000
20
62.375500
11
221.888260
21
62.201313
0
LINE
8
Layer 1
10
221.888260
20
62.201313
11
220.342063
21
61.660032
0
LINE
8
Layer 1
10
220.342063
20
61.660032
11
219.121174
21
60.701081
0
LINE
8
Layer 1
10
219.121174
20
60.701081
11
218.132360
21
59.273880
0
LINE
8
Layer 1
10
218.132360
20
59.273880
11
217.660956
21
58.118373
0
LINE
8
Layer 1
10
217.660956
20
58.118373
11
217.471772
21
56.983332
0
LINE
8
Layer 1
10
217.471772
20
56.983332
11
217.543051
21
55.914420
0
LINE
8
Layer 1
10
217.543051
20
55.914420
11
217.853036
21
54.957303
0
LINE
8
Layer 1
10
217.853036
20
54.957303
11
218.379971
21
54.157643
0
LINE
8
Layer 1
10
218.379971
20
54.157643
11
219.102097
21
53.561105
0
LINE
8
Layer 1
10
219.102097
20
53.561105
11
219.997659
21
53.213352
0
LINE
8
Layer 1
10
219.997659
20
53.213352
11
221.044900
21
53.160050
0
LINE
8
Layer 1
10
221.044900
20
53.160050
11
221.854177
21
53.297669
0
LINE
8
Layer 1
10
221.854177
20
53.297669
11
222.361045
21
53.569056
0
LINE
8
Layer 1
10
222.361045
20
53.569056
11
222.648163
21
54.052193
0
LINE
8
Layer 1
10
222.648163
20
54.052193
11
222.798190
21
54.825060
0
LINE
8
Layer 1
10
222.798190
20
54.825060
11
222.715101
21
56.064525
0
LINE
8
Layer 1
10
222.715101
20
56.064525
11
222.491305
21
56.498399
0
LINE
8
Layer 1
10
222.491305
20
56.498399
11
222.150670
21
56.793930
0
LINE
8
Layer 1
10
222.150670
20
56.793930
11
221.500058
21
57.309835
0
LINE
8
Layer 1
10
221.500058
20
57.309835
11
221.376959
21
57.773715
0
LINE
8
Layer 1
10
221.376959
20
57.773715
11
221.756620
21
58.108535
0
LINE
8
Layer 1
10
221.756620
20
58.108535
11
222.614290
21
58.237260
0
LINE
8
Layer 1
10
222.614290
20
58.237260
11
223.212710
21
58.147285
0
LINE
8
Layer 1
10
223.212710
20
58.147285
11
223.786496
21
57.887428
0
LINE
8
Layer 1
10
223.786496
20
57.887428
11
224.311106
21
57.472789
0
LINE
8
Layer 1
10
224.311106
20
57.472789
11
224.762000
21
56.918470
0
LINE
8
Layer 1
10
224.762000
20
56.918470
11
225.143011
21
56.156576
0
LINE
8
Layer 1
10
225.143011
20
56.156576
11
225.325185
21
55.352390
0
LINE
8
Layer 1
10
225.325185
20
55.352390
11
225.317395
21
54.514536
0
LINE
8
Layer 1
10
225.317395
20
54.514536
11
225.128515
21
53.651635
0
LINE
8
Layer 1
10
225.128515
20
53.651635
11
224.242969
21
51.885189
0
LINE
8
Layer 1
10
224.242969
20
51.885189
11
222.739528
21
50.122034
0
LINE
8
Layer 1
10
222.739528
20
50.122034
11
220.689170
21
48.431152
0
LINE
8
Layer 1
10
220.689170
20
48.431152
11
218.162877
21
46.881525
0
LINE
8
Layer 1
10
218.162877
20
46.881525
11
215.231627
21
45.542137
0
LINE
8
Layer 1
10
215.231627
20
45.542137
11
211.966400
21
44.481970
0
LINE
8
Layer 1
10
211.966400
20
44.481970
11
209.986433
21
44.048244
0
LINE
8
Layer 1
10
209.986433
20
44.048244
11
207.917404
21
43.844891
0
LINE
8
Layer 1
10
207.917404
20
43.844891
11
205.226248
21
43.849620
0
LINE
8
Layer 1
10
205.226248
20
43.849620
11
201.379900
21
44.040140
0
LINE
8
Layer 1
10
201.379900
20
44.040140
11
192.406183
21
44.460267
0
LINE
8
Layer 1
10
192.406183
20
44.460267
11
189.318717
21
44.440133
0
LINE
8
Layer 1
10
189.318717
20
44.440133
11
186.918063
21
44.230039
0
LINE
8
Layer 1
10
186.918063
20
44.230039
11
185.019631
21
43.802613
0
LINE
8
Layer 1
10
185.019631
20
43.802613
11
183.438836
21
43.130483
0
LINE
8
Layer 1
10
183.438836
20
43.130483
11
181.991088
21
42.186280
0
LINE
8
Layer 1
10
181.991088
20
42.186280
11
180.491800
21
40.942630
0
LINE
8
Layer 1
10
180.491800
20
40.942630
11
178.531315
21
39.360572
0
LINE
8
Layer 1
10
178.531315
20
39.360572
11
176.549001
21
38.086674
0
LINE
8
Layer 1
10
176.549001
20
38.086674
11
174.425936
21
37.054131
0
LINE
8
Layer 1
10
174.425936
20
37.054131
11
172.043200
21
36.196140
0
LINE
8
Layer 1
10
172.043200
20
36.196140
11
170.399083
21
35.640747
0
LINE
8
Layer 1
10
170.399083
20
35.640747
11
169.468709
21
35.102575
0
LINE
8
Layer 1
10
169.468709
20
35.102575
11
168.969057
21
34.320278
0
LINE
8
Layer 1
10
168.969057
20
34.320278
11
168.617110
21
33.032510
0
LINE
8
Layer 1
10
168.617110
20
33.032510
11
168.345876
21
31.742361
0
LINE
8
Layer 1
10
168.345876
20
31.742361
11
168.345220
21
31.069914
0
LINE
8
Layer 1
10
168.345220
20
31.069914
11
168.689661
21
30.816264
0
LINE
8
Layer 1
10
168.689661
20
30.816264
11
169.453720
21
30.782510
0
LINE
8
Layer 1
10
169.453720
20
30.782510
11
171.696112
21
31.319211
0
LINE
8
Layer 1
10
171.696112
20
31.319211
11
175.187240
21
32.596350
0
LINE
8
Layer 1
10
175.187240
20
32.596350
11
179.706340
21
34.400370
0
LINE
8
Layer 1
10
179.706340
20
34.400370
11
176.461530
21
29.187780
0
LINE
8
Layer 1
10
176.461530
20
29.187780
11
173.668830
21
24.669857
0
LINE
8
Layer 1
10
173.668830
20
24.669857
11
171.454194
21
20.680679
0
LINE
8
Layer 1
10
171.454194
20
20.680679
11
170.071748
21
17.711926
0
LINE
8
Layer 1
10
170.071748
20
17.711926
11
169.772011
21
16.763860
0
LINE
8
Layer 1
10
169.772011
20
16.763860
11
169.775620
21
16.255280
0
LINE
8
Layer 1
10
169.775620
20
16.255280
11
170.058062
21
16.021197
0
LINE
8
Layer 1
10
170.058062
20
16.021197
11
170.531689
21
15.862355
0
LINE
8
Layer 1
10
170.531689
20
15.862355
11
171.829309
21
15.763531
0
LINE
8
Layer 1
10
171.829309
20
15.763531
11
173.222110
21
15.945074
0
LINE
8
Layer 1
10
173.222110
20
15.945074
11
174.263720
21
16.393250
0
LINE
8
Layer 1
10
174.263720
20
16.393250
11
175.484673
21
18.068385
0
LINE
8
Layer 1
10
175.484673
20
18.068385
11
177.289410
21
21.186250
0
LINE
8
Layer 1
10
177.289410
20
21.186250
11
181.278321
21
28.337677
0
LINE
8
Layer 1
10
181.278321
20
28.337677
11
184.416824
21
33.147238
0
LINE
8
Layer 1
10
184.416824
20
33.147238
11
185.810688
21
34.866208
0
LINE
8
Layer 1
10
185.810688
20
34.866208
11
187.164169
21
36.230580
0
LINE
8
Layer 1
10
187.164169
20
36.230580
11
188.534674
21
37.317308
0
LINE
8
Layer 1
10
188.534674
20
37.317308
11
189.979610
21
38.203350
0
LINE
8
Layer 1
10
189.979610
20
38.203350
11
191.246687
21
38.779801
0
LINE
8
Layer 1
10
191.246687
20
38.779801
11
192.662135
21
39.116550
0
LINE
8
Layer 1
10
192.662135
20
39.116550
11
194.614860
21
39.269032
0
LINE
8
Layer 1
10
194.614860
20
39.269032
11
197.493770
21
39.292680
0
LINE
8
Layer 1
10
197.493770
20
39.292680
11
200.772414
21
39.174604
0
LINE
8
Layer 1
10
200.772414
20
39.174604
11
203.614094
21
38.859922
0
LINE
8
Layer 1
10
203.614094
20
38.859922
11
206.018751
21
38.348669
0
LINE
8
Layer 1
10
206.018751
20
38.348669
11
207.986328
21
37.640879
0
LINE
8
Layer 1
10
207.986328
20
37.640879
11
209.516766
21
36.736584
0
LINE
8
Layer 1
10
209.516766
20
36.736584
11
210.610007
21
35.635818
0
LINE
8
Layer 1
10
210.610007
20
35.635818
11
211.265995
21
34.338616
0
LINE
8
Layer 1
10
211.265995
20
34.338616
11
211.484670
21
32.845010
0
LINE
8
Layer 1
10
211.484670
20
32.845010
11
211.261596
21
30.913610
0
LINE
8
Layer 1
10
211.261596
20
30.913610
11
210.725090
21
29.251970
0
LINE
8
Layer 1
10
210.725090
20
29.251970
11
209.447232
21
27.526633
0
LINE
8
Layer 1
10
209.447232
20
27.526633
11
207.489663
21
25.634544
0
LINE
8
Layer 1
10
207.489663
20
25.634544
11
205.332484
21
23.988468
0
LINE
8
Layer 1
10
205.332484
20
23.988468
11
203.455800
21
23.001170
0
LINE
8
Layer 1
10
203.455800
20
23.001170
11
202.491429
21
22.619975
0
LINE
8
Layer 1
10
202.491429
20
22.619975
11
201.954702
21
22.105729
0
LINE
8
Layer 1
10
201.954702
20
22.105729
11
201.693597
21
21.184606
0
LINE
8
Layer 1
10
201.693597
20
21.184606
11
201.556090
21
19.582780
0
LINE
8
Layer 1
10
201.556090
20
19.582780
11
201.478397
21
17.960763
0
LINE
8
Layer 1
10
201.478397
20
17.960763
11
201.570870
21
17.149059
0
LINE
8
Layer 1
10
201.570870
20
17.149059
11
201.931663
21
16.922210
0
LINE
8
Layer 1
10
201.931663
20
16.922210
11
202.658930
21
17.054760
0
LINE
8
Layer 1
10
202.658930
20
17.054760
11
205.038953
21
17.894218
0
LINE
8
Layer 1
10
205.038953
20
17.894218
11
207.583441
21
19.203045
0
LINE
8
Layer 1
10
207.583441
20
19.203045
11
210.052744
21
20.840357
0
LINE
8
Layer 1
10
210.052744
20
20.840357
11
212.207210
21
22.665270
0
LINE
8
Layer 1
10
212.207210
20
22.665270
11
213.341983
21
23.863779
0
LINE
8
Layer 1
10
213.341983
20
23.863779
11
214.312772
21
25.099525
0
LINE
8
Layer 1
10
214.312772
20
25.099525
11
215.136934
21
26.413623
0
LINE
8
Layer 1
10
215.136934
20
26.413623
11
215.831820
21
27.847186
0
LINE
8
Layer 1
10
215.831820
20
27.847186
11
216.414786
21
29.441328
0
LINE
8
Layer 1
10
216.414786
20
29.441328
11
216.903185
21
31.237164
0
LINE
8
Layer 1
10
216.903185
20
31.237164
11
217.665700
21
35.598370
0
LINE
8
Layer 1
10
217.665700
20
35.598370
11
218.336318
21
39.516497
0
LINE
8
Layer 1
10
218.336318
20
39.516497
11
218.753065
21
40.959251
0
LINE
8
Layer 1
10
218.753065
20
40.959251
11
219.264975
21
42.133795
0
LINE
8
Layer 1
10
219.264975
20
42.133795
11
219.902701
21
43.097124
0
LINE
8
Layer 1
10
219.902701
20
43.097124
11
220.696897
21
43.906233
0
LINE
8
Layer 1
10
220.696897
20
43.906233
11
221.678216
21
44.618120
0
LINE
8
Layer 1
10
221.678216
20
44.618120
11
222.877310
21
45.289780
0
LINE
8
Layer 1
10
222.877310
20
45.289780
11
225.158263
21
46.662992
0
LINE
8
Layer 1
10
225.158263
20
46.662992
11
227.121946
21
48.263549
0
LINE
8
Layer 1
10
227.121946
20
48.263549
11
228.641519
21
49.970926
0
LINE
8
Layer 1
10
228.641519
20
49.970926
11
229.590140
21
51.664600
0
LINE
8
Layer 1
10
229.590140
20
51.664600
11
229.978411
21
53.463882
0
LINE
8
Layer 1
10
229.978411
20
53.463882
11
230.139950
21
55.741350
0
LINE
8
Layer 1
10
230.139950
20
55.741350
11
230.079592
21
57.202364
0
LINE
8
Layer 1
10
230.079592
20
57.202364
11
229.811351
21
58.260372
0
LINE
8
Layer 1
10
229.811351
20
58.260372
11
229.204480
21
59.216295
0
LINE
8
Layer 1
10
229.204480
20
59.216295
11
228.128230
21
60.371050
0
LINE
8
Layer 1
10
228.128230
20
60.371050
11
227.004792
21
61.413031
0
LINE
8
Layer 1
10
227.004792
20
61.413031
11
226.071648
21
62.021106
0
LINE
8
Layer 1
10
226.071648
20
62.021106
11
225.097992
21
62.305281
0
LINE
8
Layer 1
10
225.097992
20
62.305281
11
223.853020
21
62.375560
0
LINE
8
Layer 1
10
223.853020
20
62.375560
11
223.853000
21
62.375500
0
LINE
8
Layer 1
10
112.967000
20
8.230480
11
111.924710
21
6.934950
0
LINE
8
Layer 1
10
111.924710
20
6.934950
11
107.956948
21
2.372486
0
LINE
8
Layer 1
10
107.956948
20
2.372486
11
106.140292
21
0.576746
0
LINE
8
Layer 1
10
106.140292
20
0.576746
11
104.433478
21
-0.896626
0
LINE
8
Layer 1
10
104.433478
20
-0.896626
11
102.835273
21
-2.048602
0
LINE
8
Layer 1
10
102.835273
20
-2.048602
11
101.344448
21
-2.880150
0
LINE
8
Layer 1
10
101.344448
20
-2.880150
11
99.959771
21
-3.392243
0
LINE
8
Layer 1
10
99.959771
20
-3.392243
11
98.680010
21
-3.585850
0
LINE
8
Layer 1
10
98.680010
20
-3.585850
11
97.611741
21
-3.503698
0
LINE
8
Layer 1
10
97.611741
20
-3.503698
11
96.753206
21
-3.197824
0
LINE
8
Layer 1
10
96.753206
20
-3.197824
11
96.108428
21
-2.678663
0
LINE
8
Layer 1
10
96.108428
20
-2.678663
11
95.681426
21
-1.956650
0
LINE
8
Layer 1
10
95.681426
20
-1.956650
11
95.476223
21
-1.042221
0
LINE
8
Layer 1
10
95.476223
20
-1.042221
11
95.496838
21
0.054189
0
LINE
8
Layer 1
10
95.496838
20
0.054189
11
95.747293
21
1.322144
0
LINE
8
Layer 1
10
95.747293
20
1.322144
11
96.231610
21
2.751210
0
LINE
8
Layer 1
10
96.231610
20
2.751210
11
96.661429
21
3.915855
0
LINE
8
Layer 1
10
96.661429
20
3.915855
11
96.789670
21
4.695075
0
LINE
8
Layer 1
10
96.789670
20
4.695075
11
96.606578
21
5.343007
0
LINE
8
Layer 1
10
96.606578
20
5.343007
11
96.102400
21
6.113790
0
LINE
8
Layer 1
10
96.102400
20
6.113790
11
95.150159
21
7.138347
0
LINE
8
Layer 1
10
95.150159
20
7.138347
11
94.728226
21
7.323208
0
LINE
8
Layer 1
10
94.728226
20
7.323208
11
94.321767
21
7.281779
0
LINE
8
Layer 1
10
94.321767
20
7.281779
11
93.915295
21
7.008052
0
LINE
8
Layer 1
10
93.915295
20
7.008052
11
93.493320
21
6.496019
0
LINE
8
Layer 1
10
93.493320
20
6.496019
11
92.540910
21
4.733000
0
LINE
8
Layer 1
10
92.540910
20
4.733000
11
91.692755
21
2.346630
0
LINE
8
Layer 1
10
91.692755
20
2.346630
11
91.349969
21
0.004605
0
LINE
8
Layer 1
10
91.349969
20
0.004605
11
91.492454
21
-2.203837
0
LINE
8
Layer 1
10
91.492454
20
-2.203837
11
92.100110
21
-4.189460
0
LINE
8
Layer 1
10
92.100110
20
-4.189460
11
107.308000
21
-4.189470
0
LINE
8
Layer 1
10
107.308000
20
-4.189470
11
109.327533
21
-2.414135
0
LINE
8
Layer 1
10
109.327533
20
-2.414135
11
111.269455
21
-0.498316
0
LINE
8
Layer 1
10
111.269455
20
-0.498316
11
112.984953
21
1.421168
0
LINE
8
Layer 1
10
112.984953
20
1.421168
11
114.325210
21
3.207500
0
LINE
8
Layer 1
10
114.325210
20
3.207500
11
115.795420
21
5.439410
0
LINE
8
Layer 1
10
115.795420
20
5.439410
11
114.381510
21
6.834670
0
LINE
8
Layer 1
10
114.381510
20
6.834670
11
112.967000
21
8.230480
0
LINE
8
Layer 1
10
156.626000
20
186.549000
11
155.909276
21
186.283120
0
LINE
8
Layer 1
10
155.909276
20
186.283120
11
155.179062
21
185.594874
0
LINE
8
Layer 1
10
155.179062
20
185.594874
11
154.380123
21
184.438656
0
LINE
8
Layer 1
10
154.380123
20
184.438656
11
153.457220
21
182.768860
0
LINE
8
Layer 1
10
153.457220
20
182.768860
11
152.434907
21
181.008108
0
LINE
8
Layer 1
10
152.434907
20
181.008108
11
151.303521
21
179.737139
0
LINE
8
Layer 1
10
151.303521
20
179.737139
11
149.691987
21
178.635083
0
LINE
8
Layer 1
10
149.691987
20
178.635083
11
147.229230
21
177.381070
0
LINE
8
Layer 1
10
147.229230
20
177.381070
11
145.764763
21
176.611215
0
LINE
8
Layer 1
10
145.764763
20
176.611215
11
144.538020
21
175.795690
0
LINE
8
Layer 1
10
144.538020
20
175.795690
11
143.524020
21
174.897762
0
LINE
8
Layer 1
10
143.524020
20
174.897762
11
142.697778
21
173.880704
0
LINE
8
Layer 1
10
142.697778
20
173.880704
11
142.034311
21
172.707783
0
LINE
8
Layer 1
10
142.034311
20
172.707783
11
141.508636
21
171.342271
0
LINE
8
Layer 1
10
141.508636
20
171.342271
11
140.770730
21
167.886550
0
LINE
8
Layer 1
10
140.770730
20
167.886550
11
140.261914
21
165.706794
0
LINE
8
Layer 1
10
140.261914
20
165.706794
11
139.554730
21
164.043900
0
LINE
8
Layer 1
10
139.554730
20
164.043900
11
138.706220
21
162.748890
0
LINE
8
Layer 1
10
138.706220
20
162.748890
11
141.928200
21
163.085830
0
LINE
8
Layer 1
10
141.928200
20
163.085830
11
144.688282
21
163.527352
0
LINE
8
Layer 1
10
144.688282
20
163.527352
11
147.018230
21
164.250316
0
LINE
8
Layer 1
10
147.018230
20
164.250316
11
149.018290
21
165.295632
0
LINE
8
Layer 1
10
149.018290
20
165.295632
11
150.788710
21
166.704210
0
LINE
8
Layer 1
10
150.788710
20
166.704210
11
152.187971
21
168.281371
0
LINE
8
Layer 1
10
152.187971
20
168.281371
11
153.179747
21
169.973931
0
LINE
8
Layer 1
10
153.179747
20
169.973931
11
153.770255
21
171.795734
0
LINE
8
Layer 1
10
153.770255
20
171.795734
11
153.965710
21
173.760620
0
LINE
8
Layer 1
10
153.965710
20
173.760620
11
154.157276
21
176.612346
0
LINE
8
Layer 1
10
154.157276
20
176.612346
11
154.736789
21
179.135220
0
LINE
8
Layer 1
10
154.736789
20
179.135220
11
155.711467
21
181.351141
0
LINE
8
Layer 1
10
155.711467
20
181.351141
11
157.088530
21
183.282010
0
LINE
8
Layer 1
10
157.088530
20
183.282010
11
157.116530
21
183.313510
0
LINE
8
Layer 1
10
157.116530
20
183.313510
11
157.163530
21
186.499880
0
LINE
8
Layer 1
10
157.163530
20
186.499880
11
156.625990
21
186.548980
0
LINE
8
Layer 1
10
156.625990
20
186.548980
11
156.626000
21
186.549000
0
LINE
8
Layer 1
10
151.563850
20
176.194600
11
151.673880
21
176.047199
0
LINE
8
Layer 1
10
151.673880
20
176.047199
11
151.639480
21
175.541629
0
LINE
8
Layer 1
10
151.639480
20
175.541629
11
151.123060
21
173.471780
0
LINE
8
Layer 1
10
151.123060
20
173.471780
11
150.447420
21
171.724237
0
LINE
8
Layer 1
10
150.447420
20
171.724237
11
149.536129
21
170.285151
0
LINE
8
Layer 1
10
149.536129
20
170.285151
11
148.356231
21
169.113360
0
LINE
8
Layer 1
10
148.356231
20
169.113360
11
146.874770
21
168.167700
0
LINE
8
Layer 1
10
146.874770
20
168.167700
11
145.781312
21
167.676135
0
LINE
8
Layer 1
10
145.781312
20
167.676135
11
145.521041
21
167.641494
0
LINE
8
Layer 1
10
145.521041
20
167.641494
11
145.453149
21
167.757118
0
LINE
8
Layer 1
10
145.453149
20
167.757118
11
145.898721
21
168.467662
0
LINE
8
Layer 1
10
145.898721
20
168.467662
11
147.126470
21
169.864780
0
LINE
8
Layer 1
10
147.126470
20
169.864780
11
148.936844
21
172.114090
0
LINE
8
Layer 1
10
148.936844
20
172.114090
11
150.337560
21
174.319780
0
LINE
8
Layer 1
10
150.337560
20
174.319780
11
151.114175
21
175.702656
0
LINE
8
Layer 1
10
151.114175
20
175.702656
11
151.563850
21
176.194600
0
LINE
8
Layer 1
10
151.563850
20
176.194600
11
151.563850
21
176.194600
0
LINE
8
Layer 1
10
230.389000
20
86.260700
11
229.319225
21
84.562398
0
LINE
8
Layer 1
10
229.319225
20
84.562398
11
228.587351
21
82.738407
0
LINE
8
Layer 1
10
228.587351
20
82.738407
11
228.167329
21
80.724131
0
LINE
8
Layer 1
10
228.167329
20
80.724131
11
228.033110
21
78.454970
0
LINE
8
Layer 1
10
228.033110
20
78.454970
11
228.116522
21
76.282518
0
LINE
8
Layer 1
10
228.116522
20
76.282518
11
228.368534
21
74.185177
0
LINE
8
Layer 1
10
228.368534
20
74.185177
11
228.791806
21
72.149865
0
LINE
8
Layer 1
10
228.791806
20
72.149865
11
229.389000
21
70.163500
0
LINE
8
Layer 1
10
229.389000
20
70.163500
11
229.557501
21
69.891102
0
LINE
8
Layer 1
10
229.557501
20
69.891102
11
229.780786
21
69.921941
0
LINE
8
Layer 1
10
229.780786
20
69.921941
11
230.456200
21
70.940720
0
LINE
8
Layer 1
10
230.456200
20
70.940720
11
231.122687
21
72.043465
0
LINE
8
Layer 1
10
231.122687
20
72.043465
11
231.982789
21
73.088139
0
LINE
8
Layer 1
10
231.982789
20
73.088139
11
234.578390
21
75.339950
0
LINE
8
Layer 1
10
234.578390
20
75.339950
11
232.635890
21
80.744800
0
LINE
8
Layer 1
10
232.635890
20
80.744800
11
232.428199
21
80.703881
0
LINE
8
Layer 1
10
232.428199
20
80.703881
11
232.304074
21
80.826466
0
LINE
8
Layer 1
10
232.304074
20
80.826466
11
232.302580
21
81.611400
0
LINE
8
Layer 1
10
232.302580
20
81.611400
11
230.389000
21
86.260720
0
LINE
8
Layer 1
10
230.389000
20
86.260720
11
230.389000
21
86.260700
0
LINE
8
Layer 1
10
107.872000
20
18.395200
11
105.630790
21
17.403530
0
LINE
8
Layer 1
10
105.630790
20
17.403530
11
103.598942
21
16.278539
0
LINE
8
Layer 1
10
103.598942
20
16.278539
11
101.630736
21
14.836213
0
LINE
8
Layer 1
10
101.630736
20
14.836213
11
100.143657
21
13.421677
0
LINE
8
Layer 1
10
100.143657
20
13.421677
11
99.711004
21
12.832683
0
LINE
8
Layer 1
10
99.711004
20
12.832683
11
99.555190
21
12.380060
0
LINE
8
Layer 1
10
99.555190
20
12.380060
11
99.838522
21
11.559575
0
LINE
8
Layer 1
10
99.838522
20
11.559575
11
100.519488
21
10.522820
0
LINE
8
Layer 1
10
100.519488
20
10.522820
11
101.483288
21
9.332700
0
LINE
8
Layer 1
10
101.483288
20
9.332700
11
103.976578
21
10.983760
0
LINE
8
Layer 1
10
103.976578
20
10.983760
11
106.068213
21
12.150125
0
LINE
8
Layer 1
10
106.068213
20
12.150125
11
107.596088
21
12.635340
0
LINE
8
Layer 1
10
107.596088
20
12.635340
11
108.764545
21
12.381729
0
LINE
8
Layer 1
10
108.764545
20
12.381729
11
110.222001
21
11.679369
0
LINE
8
Layer 1
10
110.222001
20
11.679369
11
111.863646
21
10.615969
0
LINE
8
Layer 1
10
111.863646
20
10.615969
11
113.584672
21
9.279241
0
LINE
8
Layer 1
10
113.584672
20
9.279241
11
115.280268
21
7.756894
0
LINE
8
Layer 1
10
115.280268
20
7.756894
11
116.845626
21
6.136638
0
LINE
8
Layer 1
10
116.845626
20
6.136638
11
118.175935
21
4.506184
0
LINE
8
Layer 1
10
118.175935
20
4.506184
11
119.166388
21
2.953240
0
LINE
8
Layer 1
10
119.166388
20
2.953240
11
119.679357
21
1.471684
0
LINE
8
Layer 1
10
119.679357
20
1.471684
11
119.727671
21
-0.047769
0
LINE
8
Layer 1
10
119.727671
20
-0.047769
11
119.327016
21
-1.473867
0
LINE
8
Layer 1
10
119.327016
20
-1.473867
11
118.493078
21
-2.675360
0
LINE
8
Layer 1
10
118.493078
20
-2.675360
11
117.440405
21
-3.551488
0
LINE
8
Layer 1
10
117.440405
20
-3.551488
11
116.419939
21
-3.874001
0
LINE
8
Layer 1
10
116.419939
20
-3.874001
11
115.166466
21
-3.654941
0
LINE
8
Layer 1
10
115.166466
20
-3.654941
11
113.414768
21
-2.906350
0
LINE
8
Layer 1
10
113.414768
20
-2.906350
11
111.260958
21
-1.865060
0
LINE
8
Layer 1
10
111.260958
20
-1.865060
11
110.091468
21
-3.294960
0
LINE
8
Layer 1
10
110.091468
20
-3.294960
11
109.453768
21
-4.189490
0
LINE
8
Layer 1
10
109.453768
20
-4.189490
11
123.372000
21
-4.189470
0
LINE
8
Layer 1
10
123.372000
20
-4.189470
11
123.813172
21
-3.206785
0
LINE
8
Layer 1
10
123.813172
20
-3.206785
11
124.109533
21
-2.169522
0
LINE
8
Layer 1
10
124.109533
20
-2.169522
11
124.264148
21
0.057256
0
LINE
8
Layer 1
10
124.264148
20
0.057256
11
123.828486
21
2.467899
0
LINE
8
Layer 1
10
123.828486
20
2.467899
11
122.795190
21
5.039440
0
LINE
8
Layer 1
10
122.795190
20
5.039440
11
121.962670
21
6.335516
0
LINE
8
Layer 1
10
121.962670
20
6.335516
11
120.654304
21
7.956970
0
LINE
8
Layer 1
10
120.654304
20
7.956970
11
117.146411
21
11.653211
0
LINE
8
Layer 1
10
117.146411
20
11.653211
11
113.344258
21
15.082567
0
LINE
8
Layer 1
10
113.344258
20
15.082567
11
111.668066
21
16.370413
0
LINE
8
Layer 1
10
111.668066
20
16.370413
11
110.320590
21
17.199440
0
LINE
8
Layer 1
10
110.320590
20
17.199440
11
107.872000
21
18.395200
0
LINE
8
Layer 1
10
3.567520
20
118.658000
11
1.791920
21
116.450900
0
LINE
8
Layer 1
10
1.791920
20
116.450900
11
2.807369
21
112.192050
0
LINE
8
Layer 1
10
2.807369
20
112.192050
11
3.431610
21
107.901040
0
LINE
8
Layer 1
10
3.431610
20
107.901040
11
3.835470
21
104.078243
0
LINE
8
Layer 1
10
3.835470
20
104.078243
11
4.407364
21
101.374220
0
LINE
8
Layer 1
10
4.407364
20
101.374220
11
5.274530
21
99.373307
0
LINE
8
Layer 1
10
5.274530
20
99.373307
11
6.564210
21
97.659840
0
LINE
8
Layer 1
10
6.564210
20
97.659840
11
7.551619
21
96.691947
0
LINE
8
Layer 1
10
7.551619
20
96.691947
11
8.663879
21
95.834672
0
LINE
8
Layer 1
10
8.663879
20
95.834672
11
9.898380
21
95.089069
0
LINE
8
Layer 1
10
9.898380
20
95.089069
11
11.252510
21
94.456193
0
LINE
8
Layer 1
10
11.252510
20
94.456193
11
14.309216
21
93.532839
0
LINE
8
Layer 1
10
14.309216
20
93.532839
11
17.813110
21
93.073050
0
LINE
8
Layer 1
10
17.813110
20
93.073050
11
21.839210
21
92.829670
0
LINE
8
Layer 1
10
21.839210
20
92.829670
11
20.014010
21
95.541640
0
LINE
8
Layer 1
10
20.014010
20
95.541640
11
18.477989
21
98.316243
0
LINE
8
Layer 1
10
18.477989
20
98.316243
11
17.348010
21
101.179030
0
LINE
8
Layer 1
10
17.348010
20
101.179030
11
16.156416
21
104.653212
0
LINE
8
Layer 1
10
16.156416
20
104.653212
11
15.499877
21
105.978393
0
LINE
8
Layer 1
10
15.499877
20
105.978393
11
14.754494
21
107.090509
0
LINE
8
Layer 1
10
14.754494
20
107.090509
11
13.884007
21
108.035715
0
LINE
8
Layer 1
10
13.884007
20
108.035715
11
12.852154
21
108.860169
0
LINE
8
Layer 1
10
12.852154
20
108.860169
11
10.159310
21
110.331440
0
LINE
8
Layer 1
10
10.159310
20
110.331440
11
7.710252
21
111.726798
0
LINE
8
Layer 1
10
7.710252
20
111.726798
11
6.721734
21
112.548965
0
LINE
8
Layer 1
10
6.721734
20
112.548965
11
5.871498
21
113.479236
0
LINE
8
Layer 1
10
5.871498
20
113.479236
11
5.145250
21
114.536445
0
LINE
8
Layer 1
10
5.145250
20
114.536445
11
4.528699
21
115.739426
0
LINE
8
Layer 1
10
4.528699
20
115.739426
11
3.567510
21
118.658040
0
LINE
8
Layer 1
10
3.567510
20
118.658040
11
3.567520
21
118.658000
0
LINE
8
Layer 1
10
5.930090
20
107.994600
11
6.522056
21
107.271824
0
LINE
8
Layer 1
10
6.522056
20
107.271824
11
7.592590
21
105.533750
0
LINE
8
Layer 1
10
7.592590
20
105.533750
11
9.133515
21
103.224364
0
LINE
8
Layer 1
10
9.133515
20
103.224364
11
10.856390
21
101.128840
0
LINE
8
Layer 1
10
10.856390
20
101.128840
11
12.019222
21
99.760684
0
LINE
8
Layer 1
10
12.019222
20
99.760684
11
12.260089
21
99.346102
0
LINE
8
Layer 1
10
12.260089
20
99.346102
11
12.214480
21
99.194090
0
LINE
8
Layer 1
10
12.214480
20
99.194090
11
11.144884
21
99.574442
0
LINE
8
Layer 1
10
11.144884
20
99.574442
11
9.758326
21
100.509918
0
LINE
8
Layer 1
10
9.758326
20
100.509918
11
8.393723
21
101.734447
0
LINE
8
Layer 1
10
8.393723
20
101.734447
11
7.389990
21
102.981960
0
LINE
8
Layer 1
10
7.389990
20
102.981960
11
6.681458
21
104.439575
0
LINE
8
Layer 1
10
6.681458
20
104.439575
11
6.106795
21
106.087724
0
LINE
8
Layer 1
10
6.106795
20
106.087724
11
5.808755
21
107.436140
0
LINE
8
Layer 1
10
5.808755
20
107.436140
11
5.808078
21
107.844741
0
LINE
8
Layer 1
10
5.808078
20
107.844741
11
5.930090
21
107.994560
0
LINE
8
Layer 1
10
5.930090
20
107.994560
11
5.930090
21
107.994600
0
LINE
8
Layer 1
10
141.608000
20
24.261100
11
141.368310
21
24.260580
0
LINE
8
Layer 1
10
141.368310
20
24.260580
11
140.654443
21
23.691805
0
LINE
8
Layer 1
10
140.654443
20
23.691805
11
139.962700
21
22.717520
0
LINE
8
Layer 1
10
139.962700
20
22.717520
11
139.638948
21
22.009521
0
LINE
8
Layer 1
10
139.638948
20
22.009521
11
139.601961
21
21.483211
0
LINE
8
Layer 1
10
139.601961
20
21.483211
11
139.888991
21
20.986363
0
LINE
8
Layer 1
10
139.888991
20
20.986363
11
140.537290
21
20.366750
0
LINE
8
Layer 1
10
140.537290
20
20.366750
11
142.701826
21
18.889032
0
LINE
8
Layer 1
10
142.701826
20
18.889032
11
146.149380
21
16.864130
0
LINE
8
Layer 1
10
146.149380
20
16.864130
11
149.751549
21
14.710132
0
LINE
8
Layer 1
10
149.751549
20
14.710132
11
152.178655
21
12.821151
0
LINE
8
Layer 1
10
152.178655
20
12.821151
11
153.029349
21
11.901754
0
LINE
8
Layer 1
10
153.029349
20
11.901754
11
153.679624
21
10.959465
0
LINE
8
Layer 1
10
153.679624
20
10.959465
11
154.160596
21
9.964569
0
LINE
8
Layer 1
10
154.160596
20
9.964569
11
154.503380
21
8.887350
0
LINE
8
Layer 1
10
154.503380
20
8.887350
11
154.882401
21
7.597993
0
LINE
8
Layer 1
10
154.882401
20
7.597993
11
155.318966
21
6.808047
0
LINE
8
Layer 1
10
155.318966
20
6.808047
11
155.971211
21
6.333901
0
LINE
8
Layer 1
10
155.971211
20
6.333901
11
156.997270
21
5.991940
0
LINE
8
Layer 1
10
156.997270
20
5.991940
11
156.997000
21
5.991380
0
LINE
8
Layer 1
10
156.997000
20
5.991380
11
158.540034
21
5.596077
0
LINE
8
Layer 1
10
158.540034
20
5.596077
11
159.332435
21
5.500451
0
LINE
8
Layer 1
10
159.332435
20
5.500451
11
159.624398
21
5.737362
0
LINE
8
Layer 1
10
159.624398
20
5.737362
11
159.666120
21
6.339670
0
LINE
8
Layer 1
10
159.666120
20
6.339670
11
159.833022
21
7.496448
0
LINE
8
Layer 1
10
159.833022
20
7.496448
11
160.234480
21
8.930740
0
LINE
8
Layer 1
10
160.234480
20
8.930740
11
160.803510
21
10.562670
0
LINE
8
Layer 1
10
160.803510
20
10.562670
11
167.697000
21
10.562700
0
LINE
8
Layer 1
10
167.697000
20
10.562700
11
171.471181
21
10.670222
0
LINE
8
Layer 1
10
171.471181
20
10.670222
11
175.451875
21
10.971501
0
LINE
8
Layer 1
10
175.451875
20
10.971501
11
179.456353
21
11.434610
0
LINE
8
Layer 1
10
179.456353
20
11.434610
11
183.301891
21
12.027620
0
LINE
8
Layer 1
10
183.301891
20
12.027620
11
186.805761
21
12.718602
0
LINE
8
Layer 1
10
186.805761
20
12.718602
11
189.785237
21
13.475629
0
LINE
8
Layer 1
10
189.785237
20
13.475629
11
192.057592
21
14.266771
0
LINE
8
Layer 1
10
192.057592
20
14.266771
11
193.440100
21
15.060100
0
LINE
8
Layer 1
10
193.440100
20
15.060100
11
194.068694
21
16.105485
0
LINE
8
Layer 1
10
194.068694
20
16.105485
11
194.603668
21
17.719486
0
LINE
8
Layer 1
10
194.603668
20
17.719486
11
194.887455
21
19.289637
0
LINE
8
Layer 1
10
194.887455
20
19.289637
11
194.885914
21
19.866873
0
LINE
8
Layer 1
10
194.885914
20
19.866873
11
194.762490
21
20.203470
0
LINE
8
Layer 1
10
194.762490
20
20.203470
11
193.371506
21
19.930269
0
LINE
8
Layer 1
10
193.371506
20
19.930269
11
190.368510
21
18.931720
0
LINE
8
Layer 1
10
190.368510
20
18.931720
11
184.347798
21
17.024714
0
LINE
8
Layer 1
10
184.347798
20
17.024714
11
178.500585
21
15.763563
0
LINE
8
Layer 1
10
178.500585
20
15.763563
11
175.639847
21
15.375326
0
LINE
8
Layer 1
10
175.639847
20
15.375326
11
172.819853
21
15.148725
0
LINE
8
Layer 1
10
172.819853
20
15.148725
11
170.039725
21
15.083817
0
LINE
8
Layer 1
10
170.039725
20
15.083817
11
167.298585
21
15.180659
0
LINE
8
Layer 1
10
167.298585
20
15.180659
11
164.595557
21
15.439309
0
LINE
8
Layer 1
10
164.595557
20
15.439309
11
161.929764
21
15.859823
0
LINE
8
Layer 1
10
161.929764
20
15.859823
11
159.300328
21
16.442261
0
LINE
8
Layer 1
10
159.300328
20
16.442261
11
156.706373
21
17.186678
0
LINE
8
Layer 1
10
156.706373
20
17.186678
11
154.147020
21
18.093132
0
LINE
8
Layer 1
10
154.147020
20
18.093132
11
151.621394
21
19.161680
0
LINE
8
Layer 1
10
151.621394
20
19.161680
11
149.128616
21
20.392381
0
LINE
8
Layer 1
10
149.128616
20
20.392381
11
146.667810
21
21.785290
0
LINE
8
Layer 1
10
146.667810
20
21.785290
11
143.597668
21
23.471495
0
LINE
8
Layer 1
10
143.597668
20
23.471495
11
141.607600
21
24.261120
0
LINE
8
Layer 1
10
141.607600
20
24.261120
11
141.608000
21
24.261100
0
LINE
8
Layer 1
10
-15.546600
20
88.116400
11
-16.824600
21
85.179110
0
LINE
8
Layer 1
10
-16.824600
20
85.179110
11
-15.172086
21
83.611584
0
LINE
8
Layer 1
10
-15.172086
20
83.611584
11
-14.463179
21
82.715041
0
LINE
8
Layer 1
10
-14.463179
20
82.715041
11
-13.925990
21
81.814970
0
LINE
8
Layer 1
10
-13.925990
20
81.814970
11
-13.190130
21
79.929607
0
LINE
8
Layer 1
10
-13.190130
20
79.929607
11
-12.983989
21
78.626560
0
LINE
8
Layer 1
10
-12.983989
20
78.626560
11
-13.097304
21
78.270124
0
LINE
8
Layer 1
10
-13.097304
20
78.270124
11
-13.256013
21
78.229346
0
LINE
8
Layer 1
10
-13.256013
20
78.229346
11
-13.799388
21
79.152620
0
LINE
8
Layer 1
10
-13.799388
20
79.152620
11
-14.963200
21
80.909272
0
LINE
8
Layer 1
10
-14.963200
20
80.909272
11
-16.856088
21
83.146180
0
LINE
8
Layer 1
10
-16.856088
20
83.146180
11
-17.418786
21
83.780770
0
LINE
8
Layer 1
10
-17.418786
20
83.780770
11
-20.061596
21
76.768770
0
LINE
8
Layer 1
10
-20.061596
20
76.768770
11
-17.750596
21
74.770970
0
LINE
8
Layer 1
10
-17.750596
20
74.770970
11
-15.856274
21
73.061259
0
LINE
8
Layer 1
10
-15.856274
20
73.061259
11
-14.315221
21
71.193827
0
LINE
8
Layer 1
10
-14.315221
20
71.193827
11
-13.279255
21
69.385229
0
LINE
8
Layer 1
10
-13.279255
20
69.385229
11
-12.998124
21
68.570666
0
LINE
8
Layer 1
10
-12.998124
20
68.570666
11
-12.900196
21
67.852020
0
LINE
8
Layer 1
10
-12.900196
20
67.852020
11
-12.778555
21
67.196315
0
LINE
8
Layer 1
10
-12.778555
20
67.196315
11
-12.448432
21
67.012615
0
LINE
8
Layer 1
10
-12.448432
20
67.012615
11
-11.962022
21
67.239835
0
LINE
8
Layer 1
10
-11.962022
20
67.239835
11
-11.371525
21
67.816884
0
LINE
8
Layer 1
10
-11.371525
20
67.816884
11
-10.087053
21
69.776120
0
LINE
8
Layer 1
10
-10.087053
20
69.776120
11
-9.012596
21
72.401620
0
LINE
8
Layer 1
10
-9.012596
20
72.401620
11
-8.435363
21
75.029435
0
LINE
8
Layer 1
10
-8.435363
20
75.029435
11
-8.293833
21
77.537974
0
LINE
8
Layer 1
10
-8.293833
20
77.537974
11
-8.587136
21
79.898340
0
LINE
8
Layer 1
10
-8.587136
20
79.898340
11
-9.314400
21
82.081640
0
LINE
8
Layer 1
10
-9.314400
20
82.081640
11
-10.418653
21
84.122577
0
LINE
8
Layer 1
10
-10.418653
20
84.122577
11
-11.736449
21
85.725285
0
LINE
8
Layer 1
10
-11.736449
20
85.725285
11
-13.401268
21
87.014861
0
LINE
8
Layer 1
10
-13.401268
20
87.014861
11
-15.546590
21
88.116400
0
LINE
8
Layer 1
10
-15.546590
20
88.116400
11
-15.546600
21
88.116400
0
LINE
8
Layer 1
10
97.184500
20
208.199000
11
96.719276
21
208.009384
0
LINE
8
Layer 1
10
96.719276
20
208.009384
11
96.191896
21
207.381479
0
LINE
8
Layer 1
10
96.191896
20
207.381479
11
94.856010
21
204.748050
0
LINE
8
Layer 1
10
94.856010
20
204.748050
11
94.278273
21
203.228645
0
LINE
8
Layer 1
10
94.278273
20
203.228645
11
93.913426
21
201.693447
0
LINE
8
Layer 1
10
93.913426
20
201.693447
11
93.722844
21
199.908398
0
LINE
8
Layer 1
10
93.722844
20
199.908398
11
93.667900
21
197.639440
0
LINE
8
Layer 1
10
93.667900
20
197.639440
11
93.751594
21
194.791016
0
LINE
8
Layer 1
10
93.751594
20
194.791016
11
93.921007
21
193.654107
0
LINE
8
Layer 1
10
93.921007
20
193.654107
11
94.233059
21
192.544639
0
LINE
8
Layer 1
10
94.233059
20
192.544639
11
95.457869
21
189.915737
0
LINE
8
Layer 1
10
95.457869
20
189.915737
11
97.771600
21
185.919740
0
LINE
8
Layer 1
10
97.771600
20
185.919740
11
98.335925
21
184.787437
0
LINE
8
Layer 1
10
98.335925
20
184.787437
11
98.791340
21
183.484616
0
LINE
8
Layer 1
10
98.791340
20
183.484616
11
99.343590
21
180.478210
0
LINE
8
Layer 1
10
99.343590
20
180.478210
11
99.757707
21
177.255276
0
LINE
8
Layer 1
10
99.757707
20
177.255276
11
100.435169
21
174.998517
0
LINE
8
Layer 1
10
100.435169
20
174.998517
11
100.942690
21
174.078880
0
LINE
8
Layer 1
10
100.942690
20
174.078880
11
101.600091
21
173.216498
0
LINE
8
Layer 1
10
101.600091
20
173.216498
11
103.476590
21
171.417780
0
LINE
8
Layer 1
10
103.476590
20
171.417780
11
104.770053
21
170.224222
0
LINE
8
Layer 1
10
104.770053
20
170.224222
11
105.754623
21
169.110806
0
LINE
8
Layer 1
10
105.754623
20
169.110806
11
106.453348
21
168.047717
0
LINE
8
Layer 1
10
106.453348
20
168.047717
11
106.889280
21
167.005140
0
LINE
8
Layer 1
10
106.889280
20
167.005140
11
107.405040
21
165.584658
0
LINE
8
Layer 1
10
107.405040
20
165.584658
11
107.798760
21
164.994950
0
LINE
8
Layer 1
10
107.798760
20
164.994950
11
108.311193
21
165.715189
0
LINE
8
Layer 1
10
108.311193
20
165.715189
11
109.112450
21
167.444410
0
LINE
8
Layer 1
10
109.112450
20
167.444410
11
110.043496
21
170.191527
0
LINE
8
Layer 1
10
110.043496
20
170.191527
11
110.522378
21
172.786851
0
LINE
8
Layer 1
10
110.522378
20
172.786851
11
110.554302
21
175.212679
0
LINE
8
Layer 1
10
110.554302
20
175.212679
11
110.144474
21
177.451310
0
LINE
8
Layer 1
10
110.144474
20
177.451310
11
109.298098
21
179.485041
0
LINE
8
Layer 1
10
109.298098
20
179.485041
11
108.020380
21
181.296169
0
LINE
8
Layer 1
10
108.020380
20
181.296169
11
106.316526
21
182.866993
0
LINE
8
Layer 1
10
106.316526
20
182.866993
11
104.191740
21
184.179810
0
LINE
8
Layer 1
10
104.191740
20
184.179810
11
102.631755
21
185.050395
0
LINE
8
Layer 1
10
102.631755
20
185.050395
11
101.409039
21
185.943458
0
LINE
8
Layer 1
10
101.409039
20
185.943458
11
100.410945
21
186.955669
0
LINE
8
Layer 1
10
100.410945
20
186.955669
11
99.524830
21
188.183700
0
LINE
8
Layer 1
10
99.524830
20
188.183700
11
98.593770
21
189.774054
0
LINE
8
Layer 1
10
98.593770
20
189.774054
11
97.884126
21
191.287165
0
LINE
8
Layer 1
10
97.884126
20
191.287165
11
97.389896
21
192.773788
0
LINE
8
Layer 1
10
97.389896
20
192.773788
11
97.105079
21
194.284678
0
LINE
8
Layer 1
10
97.105079
20
194.284678
11
97.023675
21
195.870589
0
LINE
8
Layer 1
10
97.023675
20
195.870589
11
97.139682
21
197.582276
0
LINE
8
Layer 1
10
97.139682
20
197.582276
11
97.939930
21
201.586000
0
LINE
8
Layer 1
10
97.939930
20
201.586000
11
98.419243
21
203.578294
0
LINE
8
Layer 1
10
98.419243
20
203.578294
11
98.610869
21
204.928954
0
LINE
8
Layer 1
10
98.610869
20
204.928954
11
98.529305
21
205.951592
0
LINE
8
Layer 1
10
98.529305
20
205.951592
11
98.189050
21
206.959820
0
LINE
8
Layer 1
10
98.189050
20
206.959820
11
97.694091
21
207.870105
0
LINE
8
Layer 1
10
97.694091
20
207.870105
11
97.184440
21
208.199020
0
LINE
8
Layer 1
10
97.184440
20
208.199020
11
97.184500
21
208.199000
0
LINE
8
Layer 1
10
102.505610
20
182.532300
11
102.962279
21
182.362886
0
LINE
8
Layer 1
10
102.962279
20
182.362886
11
103.580520
21
181.879285
0
LINE
8
Layer 1
10
103.580520
20
181.879285
11
105.060676
21
180.261359
0
LINE
8
Layer 1
10
105.060676
20
180.261359
11
106.463997
21
178.262198
0
LINE
8
Layer 1
10
106.463997
20
178.262198
11
107.308400
21
176.465480
0
LINE
8
Layer 1
10
107.308400
20
176.465480
11
107.659302
21
174.717136
0
LINE
8
Layer 1
10
107.659302
20
174.717136
11
107.658320
21
173.634140
0
LINE
8
Layer 1
10
107.658320
20
173.634140
11
107.468736
21
173.433575
0
LINE
8
Layer 1
10
107.468736
20
173.433575
11
107.368920
21
173.850680
0
LINE
8
Layer 1
10
107.368920
20
173.850680
11
106.566355
21
175.535731
0
LINE
8
Layer 1
10
106.566355
20
175.535731
11
104.693630
21
178.427660
0
LINE
8
Layer 1
10
104.693630
20
178.427660
11
102.918119
21
181.162079
0
LINE
8
Layer 1
10
102.918119
20
181.162079
11
102.444343
21
182.060163
0
LINE
8
Layer 1
10
102.444343
20
182.060163
11
102.349110
21
182.468760
0
LINE
8
Layer 1
10
102.349110
20
182.468760
11
102.505610
21
182.532360
0
LINE
8
Layer 1
10
102.505610
20
182.532360
11
102.505610
21
182.532300
0
LINE
8
Layer 1
10
59.548700
20
17.090900
11
58.572634
21
16.987021
0
LINE
8
Layer 1
10
58.572634
20
16.987021
11
57.206200
21
16.563800
0
LINE
8
Layer 1
10
57.206200
20
16.563800
11
54.571984
21
15.896873
0
LINE
8
Layer 1
10
54.571984
20
15.896873
11
51.550700
21
15.422260
0
LINE
8
Layer 1
10
51.550700
20
15.422260
11
48.253700
21
14.907580
0
LINE
8
Layer 1
10
48.253700
20
14.907580
11
49.087300
21
12.647260
0
LINE
8
Layer 1
10
49.087300
20
12.647260
11
49.602272
21
11.486150
0
LINE
8
Layer 1
10
49.602272
20
11.486150
11
50.121650
21
10.862755
0
LINE
8
Layer 1
10
50.121650
20
10.862755
11
50.890478
21
10.610715
0
LINE
8
Layer 1
10
50.890478
20
10.610715
11
52.153800
21
10.563670
0
LINE
8
Layer 1
10
52.153800
20
10.563670
11
53.444048
21
10.519066
0
LINE
8
Layer 1
10
53.444048
20
10.519066
11
54.210037
21
10.239613
0
LINE
8
Layer 1
10
54.210037
20
10.239613
11
54.729108
21
9.506848
0
LINE
8
Layer 1
10
54.729108
20
9.506848
11
55.278600
21
8.102310
0
LINE
8
Layer 1
10
55.278600
20
8.102310
11
56.718175
21
4.492897
0
LINE
8
Layer 1
10
56.718175
20
4.492897
11
58.296050
21
1.175804
0
LINE
8
Layer 1
10
58.296050
20
1.175804
11
59.948700
21
-1.750962
0
LINE
8
Layer 1
10
59.948700
20
-1.750962
11
61.612600
21
-4.189390
0
LINE
8
Layer 1
10
61.612600
20
-4.189390
11
67.412300
21
-4.189410
0
LINE
8
Layer 1
10
67.412300
20
-4.189410
11
65.947851
21
-2.453039
0
LINE
8
Layer 1
10
65.947851
20
-2.453039
11
64.595362
21
-0.571847
0
LINE
8
Layer 1
10
64.595362
20
-0.571847
11
63.391484
21
1.381897
0
LINE
8
Layer 1
10
63.391484
20
1.381897
11
62.372866
21
3.335924
0
LINE
8
Layer 1
10
62.372866
20
3.335924
11
61.576159
21
5.217965
0
LINE
8
Layer 1
10
61.576159
20
5.217965
11
61.038012
21
6.955753
0
LINE
8
Layer 1
10
61.038012
20
6.955753
11
60.795076
21
8.477017
0
LINE
8
Layer 1
10
60.795076
20
8.477017
11
60.884000
21
9.709490
0
LINE
8
Layer 1
10
60.884000
20
9.709490
11
61.598692
21
11.206434
0
LINE
8
Layer 1
10
61.598692
20
11.206434
11
62.839900
21
12.904130
0
LINE
8
Layer 1
10
62.839900
20
12.904130
11
63.922558
21
14.256114
0
LINE
8
Layer 1
10
63.922558
20
14.256114
11
64.257390
21
14.922620
0
LINE
8
Layer 1
10
64.257390
20
14.922620
11
61.811590
21
16.234170
0
LINE
8
Layer 1
10
61.811590
20
16.234170
11
60.504829
21
16.848812
0
LINE
8
Layer 1
10
60.504829
20
16.848812
11
59.548700
21
17.090990
0
LINE
8
Layer 1
10
59.548700
20
17.090990
11
59.548700
21
17.090900
0
LINE
8
Layer 1
10
103.442000
20
28.655100
11
99.673200
21
25.374680
0
LINE
8
Layer 1
10
99.673200
20
25.374680
11
96.785266
21
23.092468
0
LINE
8
Layer 1
10
96.785266
20
23.092468
11
93.686684
21
20.991220
0
LINE
8
Layer 1
10
93.686684
20
20.991220
11
90.983710
21
19.451437
0
LINE
8
Layer 1
10
90.983710
20
19.451437
11
89.970031
21
19.011001
0
LINE
8
Layer 1
10
89.970031
20
19.011001
11
89.282600
21
18.853620
0
LINE
8
Layer 1
10
89.282600
20
18.853620
11
87.451790
21
18.363720
0
LINE
8
Layer 1
10
87.451790
20
18.363720
11
86.752133
21
18.047291
0
LINE
8
Layer 1
10
86.752133
20
18.047291
11
86.437242
21
17.667471
0
LINE
8
Layer 1
10
86.437242
20
17.667471
11
86.452371
21
17.040333
0
LINE
8
Layer 1
10
86.452371
20
17.040333
11
86.742770
21
15.981950
0
LINE
8
Layer 1
10
86.742770
20
15.981950
11
87.112109
21
14.908768
0
LINE
8
Layer 1
10
87.112109
20
14.908768
11
87.523465
21
14.383476
0
LINE
8
Layer 1
10
87.523465
20
14.383476
11
88.214571
21
14.268039
0
LINE
8
Layer 1
10
88.214571
20
14.268039
11
89.423160
21
14.424420
0
LINE
8
Layer 1
10
89.423160
20
14.424420
11
90.991033
21
14.849759
0
LINE
8
Layer 1
10
90.991033
20
14.849759
11
92.903216
21
15.646152
0
LINE
8
Layer 1
10
92.903216
20
15.646152
11
97.305060
21
18.068929
0
LINE
8
Layer 1
10
97.305060
20
18.068929
11
101.717779
21
21.126406
0
LINE
8
Layer 1
10
101.717779
20
21.126406
11
103.643556
21
22.716175
0
LINE
8
Layer 1
10
103.643556
20
22.716175
11
105.230460
21
24.252240
0
LINE
8
Layer 1
10
105.230460
20
24.252240
11
106.501160
21
25.620620
0
LINE
8
Layer 1
10
106.501160
20
25.620620
11
104.971550
21
27.137830
0
LINE
8
Layer 1
10
104.971550
20
27.137830
11
103.442000
21
28.655100
0
LINE
8
Layer 1
10
128.833000
20
104.616000
11
126.869290
21
101.133520
0
LINE
8
Layer 1
10
126.869290
20
101.133520
11
125.243750
21
97.642193
0
LINE
8
Layer 1
10
125.243750
20
97.642193
11
124.088100
21
94.138070
0
LINE
8
Layer 1
10
124.088100
20
94.138070
11
123.214348
21
90.832723
0
LINE
8
Layer 1
10
123.214348
20
90.832723
11
122.266510
21
87.819590
0
LINE
8
Layer 1
10
122.266510
20
87.819590
11
121.260028
21
84.531227
0
LINE
8
Layer 1
10
121.260028
20
84.531227
11
120.244410
21
80.564730
0
LINE
8
Layer 1
10
120.244410
20
80.564730
11
118.975505
21
75.824164
0
LINE
8
Layer 1
10
118.975505
20
75.824164
11
117.359800
21
70.674900
0
LINE
8
Layer 1
10
117.359800
20
70.674900
11
116.369848
21
67.644182
0
LINE
8
Layer 1
10
116.369848
20
67.644182
11
115.843889
21
65.487041
0
LINE
8
Layer 1
10
115.843889
20
65.487041
11
115.677462
21
63.591930
0
LINE
8
Layer 1
10
115.677462
20
63.591930
11
115.766110
21
61.347300
0
LINE
8
Layer 1
10
115.766110
20
61.347300
11
116.347201
21
57.525800
0
LINE
8
Layer 1
10
116.347201
20
57.525800
11
117.473301
21
53.293559
0
LINE
8
Layer 1
10
117.473301
20
53.293559
11
118.919503
21
49.364263
0
LINE
8
Layer 1
10
118.919503
20
49.364263
11
119.692359
21
47.736247
0
LINE
8
Layer 1
10
119.692359
20
47.736247
11
120.460900
21
46.451600
0
LINE
8
Layer 1
10
120.460900
20
46.451600
11
122.734190
21
43.222350
0
LINE
8
Layer 1
10
122.734190
20
43.222350
11
123.186015
21
42.557405
0
LINE
8
Layer 1
10
123.186015
20
42.557405
11
123.218074
21
42.364285
0
LINE
8
Layer 1
10
123.218074
20
42.364285
11
121.723390
21
43.465730
0
LINE
8
Layer 1
10
121.723390
20
43.465730
11
119.952330
21
45.109497
0
LINE
8
Layer 1
10
119.952330
20
45.109497
11
118.098286
21
47.265028
0
LINE
8
Layer 1
10
118.098286
20
47.265028
11
116.258195
21
49.809017
0
LINE
8
Layer 1
10
116.258195
20
49.809017
11
114.528990
21
52.618160
0
LINE
8
Layer 1
10
114.528990
20
52.618160
11
113.513054
21
54.245968
0
LINE
8
Layer 1
10
113.513054
20
54.245968
11
113.274737
21
54.486352
0
LINE
8
Layer 1
10
113.274737
20
54.486352
11
113.271170
21
54.271790
0
LINE
8
Layer 1
10
113.271170
20
54.271790
11
113.854144
21
51.825029
0
LINE
8
Layer 1
10
113.854144
20
51.825029
11
114.182391
21
49.559030
0
LINE
8
Layer 1
10
114.182391
20
49.559030
11
114.248010
21
47.427328
0
LINE
8
Layer 1
10
114.248010
20
47.427328
11
114.043101
21
45.383461
0
LINE
8
Layer 1
10
114.043101
20
45.383461
11
113.559762
21
43.380967
0
LINE
8
Layer 1
10
113.559762
20
43.380967
11
112.790093
21
41.373382
0
LINE
8
Layer 1
10
112.790093
20
41.373382
11
111.726193
21
39.314244
0
LINE
8
Layer 1
10
111.726193
20
39.314244
11
110.360160
21
37.157090
0
LINE
8
Layer 1
10
110.360160
20
37.157090
11
109.313901
21
35.436015
0
LINE
8
Layer 1
10
109.313901
20
35.436015
11
108.878660
21
34.340200
0
LINE
8
Layer 1
10
108.878660
20
34.340200
11
109.213644
21
33.514055
0
LINE
8
Layer 1
10
109.213644
20
33.514055
11
110.008500
21
32.504850
0
LINE
8
Layer 1
10
110.008500
20
32.504850
11
110.948083
21
31.651090
0
LINE
8
Layer 1
10
110.948083
20
31.651090
11
111.717250
21
31.291280
0
LINE
8
Layer 1
10
111.717250
20
31.291280
11
112.572842
21
31.756901
0
LINE
8
Layer 1
10
112.572842
20
31.756901
11
113.893313
21
33.016241
0
LINE
8
Layer 1
10
113.893313
20
33.016241
11
115.485227
21
34.863013
0
LINE
8
Layer 1
10
115.485227
20
34.863013
11
117.155150
21
37.090930
0
LINE
8
Layer 1
10
117.155150
20
37.090930
11
118.471214
21
38.793288
0
LINE
8
Layer 1
10
118.471214
20
38.793288
11
119.522311
21
39.686246
0
LINE
8
Layer 1
10
119.522311
20
39.686246
11
119.987594
21
39.849979
0
LINE
8
Layer 1
10
119.987594
20
39.849979
11
120.433550
21
39.836294
0
LINE
8
Layer 1
10
120.433550
20
39.836294
11
121.330040
21
39.309920
0
LINE
8
Layer 1
10
121.330040
20
39.309920
11
121.935630
21
38.617919
0
LINE
8
Layer 1
10
121.935630
20
38.617919
11
122.430145
21
37.751241
0
LINE
8
Layer 1
10
122.430145
20
37.751241
11
123.093815
21
35.563101
0
LINE
8
Layer 1
10
123.093815
20
35.563101
11
123.336782
21
32.883993
0
LINE
8
Layer 1
10
123.336782
20
32.883993
11
123.174781
21
29.852411
0
LINE
8
Layer 1
10
123.174781
20
29.852411
11
122.623544
21
26.606849
0
LINE
8
Layer 1
10
122.623544
20
26.606849
11
121.698802
21
23.285801
0
LINE
8
Layer 1
10
121.698802
20
23.285801
11
120.416290
21
20.027760
0
LINE
8
Layer 1
10
120.416290
20
20.027760
11
118.791740
21
16.971220
0
LINE
8
Layer 1
10
118.791740
20
16.971220
11
117.646156
21
14.979915
0
LINE
8
Layer 1
10
117.646156
20
14.979915
11
117.169640
21
13.893890
0
LINE
8
Layer 1
10
117.169640
20
13.893890
11
117.588311
21
13.239416
0
LINE
8
Layer 1
10
117.588311
20
13.239416
11
118.594840
21
12.285700
0
LINE
8
Layer 1
10
118.594840
20
12.285700
11
119.681487
21
11.450219
0
LINE
8
Layer 1
10
119.681487
20
11.450219
11
120.406541
21
11.207841
0
LINE
8
Layer 1
10
120.406541
20
11.207841
11
121.078017
21
11.589270
0
LINE
8
Layer 1
10
121.078017
20
11.589270
11
122.003930
21
12.625210
0
LINE
8
Layer 1
10
122.003930
20
12.625210
11
122.947886
21
13.920596
0
LINE
8
Layer 1
10
122.947886
20
13.920596
11
123.892230
21
15.542425
0
LINE
8
Layer 1
10
123.892230
20
15.542425
11
125.690749
21
19.529788
0
LINE
8
Layer 1
10
125.690749
20
19.529788
11
127.216813
21
24.116036
0
LINE
8
Layer 1
10
127.216813
20
24.116036
11
128.287750
21
28.829910
0
LINE
8
Layer 1
10
128.287750
20
28.829910
11
128.653844
21
30.202491
0
LINE
8
Layer 1
10
128.653844
20
30.202491
11
128.869061
21
30.620096
0
LINE
8
Layer 1
10
128.869061
20
30.620096
11
129.071260
21
30.773480
0
LINE
8
Layer 1
10
129.071260
20
30.773480
11
129.947226
21
30.126459
0
LINE
8
Layer 1
10
129.947226
20
30.126459
11
131.415250
21
28.571030
0
LINE
8
Layer 1
10
131.415250
20
28.571030
11
133.304560
21
26.368580
0
LINE
8
Layer 1
10
133.304560
20
26.368580
11
135.103970
21
28.327100
0
LINE
8
Layer 1
10
135.103970
20
28.327100
11
136.316301
21
29.820229
0
LINE
8
Layer 1
10
136.316301
20
29.820229
11
136.703880
21
30.659260
0
LINE
8
Layer 1
10
136.703880
20
30.659260
11
134.462550
21
34.545317
0
LINE
8
Layer 1
10
134.462550
20
34.545317
11
131.710549
21
38.913333
0
LINE
8
Layer 1
10
131.710549
20
38.913333
11
129.051336
21
42.838462
0
LINE
8
Layer 1
10
129.051336
20
42.838462
11
127.088370
21
45.395860
0
LINE
8
Layer 1
10
127.088370
20
45.395860
11
124.392601
21
48.555813
0
LINE
8
Layer 1
10
124.392601
20
48.555813
11
123.076961
21
50.597914
0
LINE
8
Layer 1
10
123.076961
20
50.597914
11
122.913932
21
51.253324
0
LINE
8
Layer 1
10
122.913932
20
51.253324
11
123.068625
21
51.693535
0
LINE
8
Layer 1
10
123.068625
20
51.693535
11
123.531939
21
51.939970
0
LINE
8
Layer 1
10
123.531939
20
51.939970
11
124.294770
21
52.014050
0
LINE
8
Layer 1
10
124.294770
20
52.014050
11
125.863231
21
51.788480
0
LINE
8
Layer 1
10
125.863231
20
51.788480
11
127.613199
21
51.157799
0
LINE
8
Layer 1
10
127.613199
20
51.157799
11
129.472604
21
50.175754
0
LINE
8
Layer 1
10
129.472604
20
50.175754
11
131.369379
21
48.896090
0
LINE
8
Layer 1
10
131.369379
20
48.896090
11
133.231452
21
47.372552
0
LINE
8
Layer 1
10
133.231452
20
47.372552
11
134.986755
21
45.658886
0
LINE
8
Layer 1
10
134.986755
20
45.658886
11
136.563217
21
43.808836
0
LINE
8
Layer 1
10
136.563217
20
43.808836
11
137.888770
21
41.876150
0
LINE
8
Layer 1
10
137.888770
20
41.876150
11
138.801355
21
40.242398
0
LINE
8
Layer 1
10
138.801355
20
40.242398
11
139.348696
21
38.896356
0
LINE
8
Layer 1
10
139.348696
20
38.896356
11
139.612952
21
37.568594
0
LINE
8
Layer 1
10
139.612952
20
37.568594
11
139.676280
21
35.989680
0
LINE
8
Layer 1
10
139.676280
20
35.989680
11
139.477943
21
33.665300
0
LINE
8
Layer 1
10
139.477943
20
33.665300
11
138.751313
21
31.490493
0
LINE
8
Layer 1
10
138.751313
20
31.490493
11
137.251714
21
28.946179
0
LINE
8
Layer 1
10
137.251714
20
28.946179
11
134.734470
21
25.513280
0
LINE
8
Layer 1
10
134.734470
20
25.513280
11
132.771041
21
22.819429
0
LINE
8
Layer 1
10
132.771041
20
22.819429
11
131.488024
21
20.750868
0
LINE
8
Layer 1
10
131.488024
20
20.750868
11
130.908377
21
19.350440
0
LINE
8
Layer 1
10
130.908377
20
19.350440
11
130.889493
21
18.914165
0
LINE
8
Layer 1
10
130.889493
20
18.914165
11
131.055060
21
18.660990
0
LINE
8
Layer 1
10
131.055060
20
18.660990
11
133.237860
21
18.129250
0
LINE
8
Layer 1
10
133.237860
20
18.129250
11
134.351306
21
18.051411
0
LINE
8
Layer 1
10
134.351306
20
18.051411
11
134.834323
21
18.223365
0
LINE
8
Layer 1
10
134.834323
20
18.223365
11
135.363432
21
18.624983
0
LINE
8
Layer 1
10
135.363432
20
18.624983
11
136.845625
21
20.384450
0
LINE
8
Layer 1
10
136.845625
20
20.384450
11
139.369270
21
23.864300
0
LINE
8
Layer 1
10
139.369270
20
23.864300
11
142.733749
21
28.770554
0
LINE
8
Layer 1
10
142.733749
20
28.770554
11
144.754460
21
32.090160
0
LINE
8
Layer 1
10
144.754460
20
32.090160
11
145.818550
21
34.279700
0
LINE
8
Layer 1
10
145.818550
20
34.279700
11
149.873050
21
32.172340
0
LINE
8
Layer 1
10
149.873050
20
32.172340
11
151.936712
21
31.169988
0
LINE
8
Layer 1
10
151.936712
20
31.169988
11
153.705065
21
30.481645
0
LINE
8
Layer 1
10
153.705065
20
30.481645
11
155.332883
21
30.056643
0
LINE
8
Layer 1
10
155.332883
20
30.056643
11
156.974940
21
29.844310
0
LINE
8
Layer 1
10
156.974940
20
29.844310
11
160.022240
21
29.623630
0
LINE
8
Layer 1
10
160.022240
20
29.623630
11
160.900230
21
31.817300
0
LINE
8
Layer 1
10
160.900230
20
31.817300
11
161.476240
21
33.405645
0
LINE
8
Layer 1
10
161.476240
20
33.405645
11
161.626850
21
34.142740
0
LINE
8
Layer 1
10
161.626850
20
34.142740
11
158.388270
21
35.160250
0
LINE
8
Layer 1
10
158.388270
20
35.160250
11
155.673482
21
36.101561
0
LINE
8
Layer 1
10
155.673482
20
36.101561
11
153.039560
21
37.324398
0
LINE
8
Layer 1
10
153.039560
20
37.324398
11
150.542232
21
38.784611
0
LINE
8
Layer 1
10
150.542232
20
38.784611
11
148.237225
21
40.438049
0
LINE
8
Layer 1
10
148.237225
20
40.438049
11
146.180268
21
42.240562
0
LINE
8
Layer 1
10
146.180268
20
42.240562
11
144.427087
21
44.148000
0
LINE
8
Layer 1
10
144.427087
20
44.148000
11
143.033412
21
46.116213
0
LINE
8
Layer 1
10
143.033412
20
46.116213
11
142.054970
21
48.101050
0
LINE
8
Layer 1
10
142.054970
20
48.101050
11
141.773314
21
48.910083
0
LINE
8
Layer 1
10
141.773314
20
48.910083
11
141.776846
21
49.300560
0
LINE
8
Layer 1
10
141.776846
20
49.300560
11
142.140868
21
49.365679
0
LINE
8
Layer 1
10
142.140868
20
49.365679
11
142.940680
21
49.198640
0
LINE
8
Layer 1
10
142.940680
20
49.198640
11
150.242634
21
47.027929
0
LINE
8
Layer 1
10
150.242634
20
47.027929
11
156.293880
21
44.876440
0
LINE
8
Layer 1
10
156.293880
20
44.876440
11
157.794860
21
44.033569
0
LINE
8
Layer 1
10
157.794860
20
44.033569
11
159.097587
21
43.102861
0
LINE
8
Layer 1
10
159.097587
20
43.102861
11
160.201942
21
42.084710
0
LINE
8
Layer 1
10
160.201942
20
42.084710
11
161.107810
21
40.979511
0
LINE
8
Layer 1
10
161.107810
20
40.979511
11
161.815074
21
39.787657
0
LINE
8
Layer 1
10
161.815074
20
39.787657
11
162.323618
21
38.509543
0
LINE
8
Layer 1
10
162.323618
20
38.509543
11
162.633326
21
37.145563
0
LINE
8
Layer 1
10
162.633326
20
37.145563
11
162.744080
21
35.696110
0
LINE
8
Layer 1
10
162.744080
20
35.696110
11
162.579001
21
33.842949
0
LINE
8
Layer 1
10
162.579001
20
33.842949
11
162.079750
21
31.960304
0
LINE
8
Layer 1
10
162.079750
20
31.960304
11
161.275187
21
30.090486
0
LINE
8
Layer 1
10
161.275187
20
30.090486
11
160.194169
21
28.275808
0
LINE
8
Layer 1
10
160.194169
20
28.275808
11
158.865552
21
26.558579
0
LINE
8
Layer 1
10
158.865552
20
26.558579
11
157.318195
21
24.981112
0
LINE
8
Layer 1
10
157.318195
20
24.981112
11
155.580955
21
23.585719
0
LINE
8
Layer 1
10
155.580955
20
23.585719
11
153.682690
21
22.414710
0
LINE
8
Layer 1
10
153.682690
20
22.414710
11
152.049835
21
21.462183
0
LINE
8
Layer 1
10
152.049835
20
21.462183
11
151.370680
21
20.894390
0
LINE
8
Layer 1
10
151.370680
20
20.894390
11
151.919455
21
20.425398
0
LINE
8
Layer 1
10
151.919455
20
20.425398
11
153.238780
21
19.709970
0
LINE
8
Layer 1
10
153.238780
20
19.709970
11
154.343036
21
19.226481
0
LINE
8
Layer 1
10
154.343036
20
19.226481
11
155.148972
21
19.107641
0
LINE
8
Layer 1
10
155.148972
20
19.107641
11
156.013435
21
19.387766
0
LINE
8
Layer 1
10
156.013435
20
19.387766
11
157.293270
21
20.101170
0
LINE
8
Layer 1
10
157.293270
20
20.101170
11
160.059593
21
21.997370
0
LINE
8
Layer 1
10
160.059593
20
21.997370
11
162.598130
21
24.256510
0
LINE
8
Layer 1
10
162.598130
20
24.256510
11
164.717972
21
26.686425
0
LINE
8
Layer 1
10
164.717972
20
26.686425
11
166.228210
21
29.094950
0
LINE
8
Layer 1
10
166.228210
20
29.094950
11
166.895934
21
30.686503
0
LINE
8
Layer 1
10
166.895934
20
30.686503
11
167.373970
21
32.331929
0
LINE
8
Layer 1
10
167.373970
20
32.331929
11
167.662306
21
34.004746
0
LINE
8
Layer 1
10
167.662306
20
34.004746
11
167.760936
21
35.678474
0
LINE
8
Layer 1
10
167.760936
20
35.678474
11
167.669850
21
37.326630
0
LINE
8
Layer 1
10
167.669850
20
37.326630
11
167.389040
21
38.922732
0
LINE
8
Layer 1
10
167.389040
20
38.922732
11
166.918496
21
40.440299
0
LINE
8
Layer 1
10
166.918496
20
40.440299
11
166.258210
21
41.852850
0
LINE
8
Layer 1
10
166.258210
20
41.852850
11
164.847500
21
44.570530
0
LINE
8
Layer 1
10
164.847500
20
44.570530
11
165.056581
21
44.753335
0
LINE
8
Layer 1
10
165.056581
20
44.753335
11
165.647108
21
44.819940
0
LINE
8
Layer 1
10
165.647108
20
44.819940
11
167.752225
21
44.636483
0
LINE
8
Layer 1
10
167.752225
20
44.636483
11
170.722287
21
44.084021
0
LINE
8
Layer 1
10
170.722287
20
44.084021
11
174.116730
21
43.226420
0
LINE
8
Layer 1
10
174.116730
20
43.226420
11
179.497220
21
41.688510
0
LINE
8
Layer 1
10
179.497220
20
41.688510
11
181.488800
21
43.096690
0
LINE
8
Layer 1
10
181.488800
20
43.096690
11
182.900915
21
44.185041
0
LINE
8
Layer 1
10
182.900915
20
44.185041
11
183.491300
21
44.823190
0
LINE
8
Layer 1
10
183.491300
20
44.823190
11
183.165345
21
45.221426
0
LINE
8
Layer 1
10
183.165345
20
45.221426
11
182.211639
21
45.756546
0
LINE
8
Layer 1
10
182.211639
20
45.756546
11
178.700936
21
47.140106
0
LINE
8
Layer 1
10
178.700936
20
47.140106
11
173.519116
21
48.779200
0
LINE
8
Layer 1
10
173.519116
20
48.779200
11
167.226100
21
50.479160
0
LINE
8
Layer 1
10
167.226100
20
50.479160
11
159.955108
21
52.339981
0
LINE
8
Layer 1
10
159.955108
20
52.339981
11
155.156612
21
53.732374
0
LINE
8
Layer 1
10
155.156612
20
53.732374
11
151.563836
21
55.068222
0
LINE
8
Layer 1
10
151.563836
20
55.068222
11
147.910000
21
56.759410
0
LINE
8
Layer 1
10
147.910000
20
56.759410
11
145.637451
21
57.964507
0
LINE
8
Layer 1
10
145.637451
20
57.964507
11
143.559872
21
59.267990
0
LINE
8
Layer 1
10
143.559872
20
59.267990
11
141.665203
21
60.681618
0
LINE
8
Layer 1
10
141.665203
20
60.681618
11
139.941384
21
62.217146
0
LINE
8
Layer 1
10
139.941384
20
62.217146
11
138.376354
21
63.886333
0
LINE
8
Layer 1
10
138.376354
20
63.886333
11
136.958053
21
65.700934
0
LINE
8
Layer 1
10
136.958053
20
65.700934
11
135.674422
21
67.672707
0
LINE
8
Layer 1
10
135.674422
20
67.672707
11
134.513400
21
69.813410
0
LINE
8
Layer 1
10
134.513400
20
69.813410
11
133.326760
21
72.469502
0
LINE
8
Layer 1
10
133.326760
20
72.469502
11
132.310262
21
75.337721
0
LINE
8
Layer 1
10
132.310262
20
75.337721
11
131.449100
21
78.503144
0
LINE
8
Layer 1
10
131.449100
20
78.503144
11
130.728467
21
82.050848
0
LINE
8
Layer 1
10
130.728467
20
82.050848
11
130.133558
21
86.065909
0
LINE
8
Layer 1
10
130.133558
20
86.065909
11
129.649567
21
90.633405
0
LINE
8
Layer 1
10
129.649567
20
90.633405
11
128.955110
21
101.766010
0
LINE
8
Layer 1
10
128.955110
20
101.766010
11
128.833000
21
104.616000
0
LINE
8
Layer 1
10
135.957760
20
65.300000
11
136.458950
21
64.715010
0
LINE
8
Layer 1
10
136.458950
20
64.715010
11
137.246166
21
63.261332
0
LINE
8
Layer 1
10
137.246166
20
63.261332
11
138.106440
21
61.222220
0
LINE
8
Layer 1
10
138.106440
20
61.222220
11
139.127665
21
59.191706
0
LINE
8
Layer 1
10
139.127665
20
59.191706
11
140.301140
21
57.758350
0
LINE
8
Layer 1
10
140.301140
20
57.758350
11
142.105314
21
56.806942
0
LINE
8
Layer 1
10
142.105314
20
56.806942
11
145.364586
21
55.538814
0
LINE
8
Layer 1
10
145.364586
20
55.538814
11
149.702510
21
54.088666
0
LINE
8
Layer 1
10
149.702510
20
54.088666
11
154.742640
21
52.591200
0
LINE
8
Layer 1
10
154.742640
20
52.591200
11
157.314731
21
51.768777
0
LINE
8
Layer 1
10
157.314731
20
51.768777
11
157.413574
21
51.672436
0
LINE
8
Layer 1
10
157.413574
20
51.672436
11
157.313795
21
51.608932
0
LINE
8
Layer 1
10
157.313795
20
51.608932
11
156.556470
21
51.558700
0
LINE
8
Layer 1
10
156.556470
20
51.558700
11
153.374606
21
52.016300
0
LINE
8
Layer 1
10
153.374606
20
52.016300
11
148.663966
21
53.148201
0
LINE
8
Layer 1
10
148.663966
20
53.148201
11
143.955878
21
54.543557
0
LINE
8
Layer 1
10
143.955878
20
54.543557
11
140.781670
21
55.791520
0
LINE
8
Layer 1
10
140.781670
20
55.791520
11
139.938625
21
56.346499
0
LINE
8
Layer 1
10
139.938625
20
56.346499
11
139.151182
21
57.052705
0
LINE
8
Layer 1
10
139.151182
20
57.052705
11
137.776710
21
58.862559
0
LINE
8
Layer 1
10
137.776710
20
58.862559
11
136.725466
21
61.108603
0
LINE
8
Layer 1
10
136.725466
20
61.108603
11
136.064660
21
63.678360
0
LINE
8
Layer 1
10
136.064660
20
63.678360
11
135.883515
21
64.945922
0
LINE
8
Layer 1
10
135.883515
20
64.945922
11
135.957760
21
65.299970
0
LINE
8
Layer 1
10
135.957760
20
65.299970
11
135.957760
21
65.300000
0
LINE
8
Layer 1
10
126.528830
20
87.742000
11
126.937460
21
87.690091
0
LINE
8
Layer 1
10
126.937460
20
87.690091
11
127.346588
21
87.438502
0
LINE
8
Layer 1
10
127.346588
20
87.438502
11
128.130278
21
86.378951
0
LINE
8
Layer 1
10
128.130278
20
86.378951
11
128.807771
21
84.648685
0
LINE
8
Layer 1
10
128.807771
20
84.648685
11
129.306940
21
82.333040
0
LINE
8
Layer 1
10
129.306940
20
82.333040
11
129.454112
21
81.219411
0
LINE
8
Layer 1
10
129.454112
20
81.219411
11
129.377291
21
80.959161
0
LINE
8
Layer 1
10
129.377291
20
80.959161
11
128.156150
21
83.347440
0
LINE
8
Layer 1
10
128.156150
20
83.347440
11
127.066905
21
85.356735
0
LINE
8
Layer 1
10
127.066905
20
85.356735
11
126.663786
21
85.737344
0
LINE
8
Layer 1
10
126.663786
20
85.737344
11
126.324046
21
85.673101
0
LINE
8
Layer 1
10
126.324046
20
85.673101
11
126.024470
21
85.142387
0
LINE
8
Layer 1
10
126.024470
20
85.142387
11
125.741840
21
84.123582
0
LINE
8
Layer 1
10
125.741840
20
84.123582
11
125.134550
21
80.535220
0
LINE
8
Layer 1
10
125.134550
20
80.535220
11
124.708117
21
78.154745
0
LINE
8
Layer 1
10
124.708117
20
78.154745
11
124.124563
21
76.065709
0
LINE
8
Layer 1
10
124.124563
20
76.065709
11
123.272152
21
73.940379
0
LINE
8
Layer 1
10
123.272152
20
73.940379
11
122.039150
21
71.451020
0
LINE
8
Layer 1
10
122.039150
20
71.451020
11
120.028936
21
67.244040
0
LINE
8
Layer 1
10
120.028936
20
67.244040
11
118.635740
21
63.678340
0
LINE
8
Layer 1
10
118.635740
20
63.678340
11
117.681850
21
60.568970
0
LINE
8
Layer 1
10
117.681850
20
60.568970
11
117.871940
21
62.901120
0
LINE
8
Layer 1
10
117.871940
20
62.901120
11
118.098593
21
64.127410
0
LINE
8
Layer 1
10
118.098593
20
64.127410
11
118.574873
21
65.742412
0
LINE
8
Layer 1
10
118.574873
20
65.742412
11
119.997430
21
69.299190
0
LINE
8
Layer 1
10
119.997430
20
69.299190
11
121.814836
21
74.008145
0
LINE
8
Layer 1
10
121.814836
20
74.008145
11
123.466950
21
79.618990
0
LINE
8
Layer 1
10
123.466950
20
79.618990
11
124.699995
21
84.314559
0
LINE
8
Layer 1
10
124.699995
20
84.314559
11
125.510250
21
86.823210
0
LINE
8
Layer 1
10
125.510250
20
86.823210
11
126.000419
21
87.482184
0
LINE
8
Layer 1
10
126.000419
20
87.482184
11
126.528830
21
87.742030
0
LINE
8
Layer 1
10
126.528830
20
87.742030
11
126.528830
21
87.742000
0
LINE
8
Layer 1
10
128.981930
20
77.925540
11
129.418278
21
77.725164
0
LINE
8
Layer 1
10
129.418278
20
77.725164
11
129.881235
21
77.269306
0
LINE
8
Layer 1
10
129.881235
20
77.269306
11
130.895440
21
75.596980
0
LINE
8
Layer 1
10
130.895440
20
75.596980
11
131.423348
21
74.216716
0
LINE
8
Layer 1
10
131.423348
20
74.216716
11
131.782694
21
72.327991
0
LINE
8
Layer 1
10
131.782694
20
72.327991
11
132.030963
21
69.482710
0
LINE
8
Layer 1
10
132.030963
20
69.482710
11
132.225640
21
65.232780
0
LINE
8
Layer 1
10
132.225640
20
65.232780
11
132.493462
21
59.961322
0
LINE
8
Layer 1
10
132.493462
20
59.961322
11
132.947181
21
56.589459
0
LINE
8
Layer 1
10
132.947181
20
56.589459
11
133.303403
21
55.351513
0
LINE
8
Layer 1
10
133.303403
20
55.351513
11
133.777680
21
54.271231
0
LINE
8
Layer 1
10
133.777680
20
54.271231
11
135.175840
21
52.160680
0
LINE
8
Layer 1
10
135.175840
20
52.160680
11
136.101351
21
50.803394
0
LINE
8
Layer 1
10
136.101351
20
50.803394
11
136.001740
21
50.713507
0
LINE
8
Layer 1
10
136.001740
20
50.713507
11
135.545830
21
50.955610
0
LINE
8
Layer 1
10
135.545830
20
50.955610
11
134.518902
21
51.757215
0
LINE
8
Layer 1
10
134.518902
20
51.757215
11
133.632021
21
52.794084
0
LINE
8
Layer 1
10
133.632021
20
52.794084
11
132.883716
21
54.070519
0
LINE
8
Layer 1
10
132.883716
20
54.070519
11
132.272515
21
55.590820
0
LINE
8
Layer 1
10
132.272515
20
55.590820
11
131.796948
21
57.359289
0
LINE
8
Layer 1
10
131.796948
20
57.359289
11
131.455544
21
59.380226
0
LINE
8
Layer 1
10
131.455544
20
59.380226
11
131.169340
21
64.196710
0
LINE
8
Layer 1
10
131.169340
20
64.196710
11
131.001694
21
67.718796
0
LINE
8
Layer 1
10
131.001694
20
67.718796
11
130.831225
21
68.967932
0
LINE
8
Layer 1
10
130.831225
20
68.967932
11
130.626740
21
69.637720
0
LINE
8
Layer 1
10
130.626740
20
69.637720
11
130.376448
21
69.906101
0
LINE
8
Layer 1
10
130.376448
20
69.906101
11
130.081073
21
69.966357
0
LINE
8
Layer 1
10
130.081073
20
69.966357
11
129.702168
21
69.775136
0
LINE
8
Layer 1
10
129.702168
20
69.775136
11
129.201286
21
69.289086
0
LINE
8
Layer 1
10
129.201286
20
69.289086
11
127.679801
21
67.259095
0
LINE
8
Layer 1
10
127.679801
20
67.259095
11
125.209040
21
63.529570
0
LINE
8
Layer 1
10
125.209040
20
63.529570
11
123.113600
21
59.886412
0
LINE
8
Layer 1
10
123.113600
20
59.886412
11
122.392759
21
58.232007
0
LINE
8
Layer 1
10
122.392759
20
58.232007
11
121.879861
21
56.651322
0
LINE
8
Layer 1
10
121.879861
20
56.651322
11
121.567423
21
55.116063
0
LINE
8
Layer 1
10
121.567423
20
55.116063
11
121.447964
21
53.597932
0
LINE
8
Layer 1
10
121.447964
20
53.597932
11
121.514000
21
52.068633
0
LINE
8
Layer 1
10
121.514000
20
52.068633
11
121.758050
21
50.499870
0
LINE
8
Layer 1
10
121.758050
20
50.499870
11
122.100293
21
48.466867
0
LINE
8
Layer 1
10
122.100293
20
48.466867
11
122.074207
21
47.551226
0
LINE
8
Layer 1
10
122.074207
20
47.551226
11
121.929801
21
47.523884
0
LINE
8
Layer 1
10
121.929801
20
47.523884
11
121.701423
21
47.789642
0
LINE
8
Layer 1
10
121.701423
20
47.789642
11
121.003570
21
49.218810
0
LINE
8
Layer 1
10
121.003570
20
49.218810
11
120.616844
21
50.372902
0
LINE
8
Layer 1
10
120.616844
20
50.372902
11
120.399918
21
51.654469
0
LINE
8
Layer 1
10
120.399918
20
51.654469
11
120.421780
21
55.148160
0
LINE
8
Layer 1
10
120.421780
20
55.148160
11
120.651841
21
57.371592
0
LINE
8
Layer 1
10
120.651841
20
57.371592
11
121.107033
21
59.296331
0
LINE
8
Layer 1
10
121.107033
20
59.296331
11
121.955071
21
61.447363
0
LINE
8
Layer 1
10
121.955071
20
61.447363
11
123.363670
21
64.349670
0
LINE
8
Layer 1
10
123.363670
20
64.349670
11
125.415138
21
68.963207
0
LINE
8
Layer 1
10
125.415138
20
68.963207
11
126.165055
21
71.047071
0
LINE
8
Layer 1
10
126.165055
20
71.047071
11
126.589780
21
72.620480
0
LINE
8
Layer 1
10
126.589780
20
72.620480
11
127.121752
21
75.042142
0
LINE
8
Layer 1
10
127.121752
20
75.042142
11
127.691048
21
76.728899
0
LINE
8
Layer 1
10
127.691048
20
76.728899
11
128.307762
21
77.687726
0
LINE
8
Layer 1
10
128.307762
20
77.687726
11
128.637056
21
77.896346
0
LINE
8
Layer 1
10
128.637056
20
77.896346
11
128.981990
21
77.925600
0
LINE
8
Layer 1
10
128.981990
20
77.925600
11
128.981930
21
77.925540
0
LINE
8
Layer 1
10
128.880640
20
76.633120
11
128.183530
21
74.042050
0
LINE
8
Layer 1
10
128.183530
20
74.042050
11
127.234046
21
71.146666
0
LINE
8
Layer 1
10
127.234046
20
71.146666
11
125.930420
21
67.823820
0
LINE
8
Layer 1
10
125.930420
20
67.823820
11
125.077595
21
65.616308
0
LINE
8
Layer 1
10
125.077595
20
65.616308
11
124.964145
21
65.093988
0
LINE
8
Layer 1
10
124.964145
20
65.093988
11
125.052176
21
64.957171
0
LINE
8
Layer 1
10
125.052176
20
64.957171
11
125.811200
21
65.833677
0
LINE
8
Layer 1
10
125.811200
20
65.833677
11
127.311700
21
68.233090
0
LINE
8
Layer 1
10
127.311700
20
68.233090
11
128.796876
21
70.297732
0
LINE
8
Layer 1
10
128.796876
20
70.297732
11
129.464110
21
70.859619
0
LINE
8
Layer 1
10
129.464110
20
70.859619
11
130.077910
21
71.104760
0
LINE
8
Layer 1
10
130.077910
20
71.104760
11
130.668469
21
71.244653
0
LINE
8
Layer 1
10
130.668469
20
71.244653
11
130.977234
21
71.498829
0
LINE
8
Layer 1
10
130.977234
20
71.498829
11
131.045884
21
71.944582
0
LINE
8
Layer 1
10
131.045884
20
71.944582
11
130.916100
21
72.659210
0
LINE
8
Layer 1
10
130.916100
20
72.659210
11
130.427087
21
74.016477
0
LINE
8
Layer 1
10
130.427087
20
74.016477
11
129.728600
21
75.337580
0
LINE
8
Layer 1
10
129.728600
20
75.337580
11
128.880640
21
76.633120
0
LINE
8
Layer 1
10
80.745700
20
24.173200
11
80.454300
21
24.075500
0
LINE
8
Layer 1
10
80.454300
20
24.075500
11
79.118903
21
23.187162
0
LINE
8
Layer 1
10
79.118903
20
23.187162
11
78.753531
21
22.722304
0
LINE
8
Layer 1
10
78.753531
20
22.722304
11
78.583216
21
22.193729
0
LINE
8
Layer 1
10
78.583216
20
22.193729
11
78.603087
21
21.563993
0
LINE
8
Layer 1
10
78.603087
20
21.563993
11
78.808272
21
20.795654
0
LINE
8
Layer 1
10
78.808272
20
20.795654
11
79.755100
21
18.693390
0
LINE
8
Layer 1
10
79.755100
20
18.693390
11
81.252345
21
15.598268
0
LINE
8
Layer 1
10
81.252345
20
15.598268
11
82.135920
21
13.203874
0
LINE
8
Layer 1
10
82.135920
20
13.203874
11
82.623082
21
10.740463
0
LINE
8
Layer 1
10
82.623082
20
10.740463
11
82.931090
21
7.438290
0
LINE
8
Layer 1
10
82.931090
20
7.438290
11
83.163088
21
4.895074
0
LINE
8
Layer 1
10
83.163088
20
4.895074
11
83.461119
21
3.132569
0
LINE
8
Layer 1
10
83.461119
20
3.132569
11
83.892685
21
1.871212
0
LINE
8
Layer 1
10
83.892685
20
1.871212
11
84.525290
21
0.831440
0
LINE
8
Layer 1
10
84.525290
20
0.831440
11
85.504739
21
-0.346626
0
LINE
8
Layer 1
10
85.504739
20
-0.346626
11
86.127780
21
-0.836680
0
LINE
8
Layer 1
10
86.127780
20
-0.836680
11
86.570935
21
-0.076366
0
LINE
8
Layer 1
10
86.570935
20
-0.076366
11
87.117890
21
1.751790
0
LINE
8
Layer 1
10
87.117890
20
1.751790
11
87.331030
21
3.054836
0
LINE
8
Layer 1
10
87.331030
20
3.054836
11
87.407236
21
4.556633
0
LINE
8
Layer 1
10
87.407236
20
4.556633
11
87.196346
21
7.997356
0
LINE
8
Layer 1
10
87.196346
20
7.997356
11
86.580213
21
11.755711
0
LINE
8
Layer 1
10
86.580213
20
11.755711
11
85.653832
21
15.513446
0
LINE
8
Layer 1
10
85.653832
20
15.513446
11
84.512197
21
18.952312
0
LINE
8
Layer 1
10
84.512197
20
18.952312
11
83.250300
21
21.754058
0
LINE
8
Layer 1
10
83.250300
20
21.754058
11
82.603940
21
22.816558
0
LINE
8
Layer 1
10
82.603940
20
22.816558
11
81.963137
21
23.600434
0
LINE
8
Layer 1
10
81.963137
20
23.600434
11
81.339765
21
24.065905
0
LINE
8
Layer 1
10
81.339765
20
24.065905
11
80.745700
21
24.173190
0
LINE
8
Layer 1
10
80.745700
20
24.173190
11
80.745700
21
24.173200
0
LINE
8
Layer 1
10
139.556000
20
252.028000
11
138.076513
21
252.011501
0
LINE
8
Layer 1
10
138.076513
20
252.011501
11
136.680200
21
251.839910
0
LINE
8
Layer 1
10
136.680200
20
251.839910
11
134.843590
21
251.495730
0
LINE
8
Layer 1
10
134.843590
20
251.495730
11
135.861080
21
249.771300
0
LINE
8
Layer 1
10
135.861080
20
249.771300
11
136.500437
21
248.824824
0
LINE
8
Layer 1
10
136.500437
20
248.824824
11
137.213833
21
248.269459
0
LINE
8
Layer 1
10
137.213833
20
248.269459
11
138.300274
21
247.961809
0
LINE
8
Layer 1
10
138.300274
20
247.961809
11
140.058770
21
247.758480
0
LINE
8
Layer 1
10
140.058770
20
247.758480
11
142.429733
21
247.316245
0
LINE
8
Layer 1
10
142.429733
20
247.316245
11
144.531370
21
246.439190
0
LINE
8
Layer 1
10
144.531370
20
246.439190
11
142.048760
21
251.738620
0
LINE
8
Layer 1
10
142.048760
20
251.738620
11
139.555970
21
252.028000
0
LINE
8
Layer 1
10
139.555970
20
252.028000
11
139.556000
21
252.028000
0
LINE
8
Layer 1
10
128.690000
20
-3.945510
11
128.399010
21
-4.189410
0
LINE
8
Layer 1
10
128.399010
20
-4.189410
11
129.014000
21
-4.189410
0
LINE
8
Layer 1
10
129.014000
20
-4.189410
11
128.689510
21
-3.945510
0
LINE
8
Layer 1
10
128.689510
20
-3.945510
11
128.690000
21
-3.945510
0
LINE
8
Layer 1
10
69.139700
20
6.656420
11
65.516098
21
6.574482
0
LINE
8
Layer 1
10
65.516098
20
6.574482
11
64.343415
21
6.429920
0
LINE
8
Layer 1
10
64.343415
20
6.429920
11
63.542604
21
6.191090
0
LINE
8
Layer 1
10
63.542604
20
6.191090
11
63.073011
21
5.839087
0
LINE
8
Layer 1
10
63.073011
20
5.839087
11
62.893983
21
5.355006
0
LINE
8
Layer 1
10
62.893983
20
5.355006
11
62.964864
21
4.719942
0
LINE
8
Layer 1
10
62.964864
20
4.719942
11
63.245000
21
3.914990
0
LINE
8
Layer 1
10
63.245000
20
3.914990
11
63.691135
21
3.033872
0
LINE
8
Layer 1
10
63.691135
20
3.033872
11
64.434154
21
2.557706
0
LINE
8
Layer 1
10
64.434154
20
2.557706
11
65.993995
21
2.327130
0
LINE
8
Layer 1
10
65.993995
20
2.327130
11
68.890600
21
2.182780
0
LINE
8
Layer 1
10
68.890600
20
2.182780
11
71.596500
21
2.022539
0
LINE
8
Layer 1
10
71.596500
20
2.022539
11
73.505416
21
1.747210
0
LINE
8
Layer 1
10
73.505416
20
1.747210
11
75.047375
21
1.262046
0
LINE
8
Layer 1
10
75.047375
20
1.262046
11
76.652400
21
0.472300
0
LINE
8
Layer 1
10
76.652400
20
0.472300
11
77.818705
21
-0.292236
0
LINE
8
Layer 1
10
77.818705
20
-0.292236
11
79.066272
21
-1.342934
0
LINE
8
Layer 1
10
79.066272
20
-1.342934
11
81.722410
21
-4.189440
0
LINE
8
Layer 1
10
81.722410
20
-4.189440
11
87.187800
21
-4.189440
0
LINE
8
Layer 1
10
87.187800
20
-4.189440
11
87.000210
21
-3.927450
0
LINE
8
Layer 1
10
87.000210
20
-3.927450
11
84.611871
21
-0.797232
0
LINE
8
Layer 1
10
84.611871
20
-0.797232
11
82.219022
21
1.752260
0
LINE
8
Layer 1
10
82.219022
20
1.752260
11
79.784868
21
3.755684
0
LINE
8
Layer 1
10
79.784868
20
3.755684
11
77.272610
21
5.247700
0
LINE
8
Layer 1
10
77.272610
20
5.247700
11
75.597670
21
5.980422
0
LINE
8
Layer 1
10
75.597670
20
5.980422
11
74.008927
21
6.403583
0
LINE
8
Layer 1
10
74.008927
20
6.403583
11
72.018826
21
6.600974
0
LINE
8
Layer 1
10
72.018826
20
6.600974
11
69.139810
21
6.656390
0
LINE
8
Layer 1
10
69.139810
20
6.656390
11
69.139700
21
6.656420
0
LINE
8
Layer 1
10
169.241000
20
9.527540
11
167.983709
21
9.481788
0
LINE
8
Layer 1
10
167.983709
20
9.481788
11
167.194688
21
9.286808
0
LINE
8
Layer 1
10
167.194688
20
9.286808
11
166.695913
21
8.856016
0
LINE
8
Layer 1
10
166.695913
20
8.856016
11
166.309360
21
8.102830
0
LINE
8
Layer 1
10
166.309360
20
8.102830
11
164.421526
21
3.826421
0
LINE
8
Layer 1
10
164.421526
20
3.826421
11
162.648271
21
0.503874
0
LINE
8
Layer 1
10
162.648271
20
0.503874
11
160.837960
21
-2.092270
0
LINE
8
Layer 1
10
160.837960
20
-2.092270
11
158.838960
21
-4.189470
0
LINE
8
Layer 1
10
158.838960
20
-4.189470
11
165.024000
21
-4.189440
0
LINE
8
Layer 1
10
165.024000
20
-4.189440
11
167.225420
21
-1.021160
0
LINE
8
Layer 1
10
167.225420
20
-1.021160
11
168.723283
21
1.748103
0
LINE
8
Layer 1
10
168.723283
20
1.748103
11
170.130894
21
4.765446
0
LINE
8
Layer 1
10
170.130894
20
4.765446
11
171.175488
21
7.401986
0
LINE
8
Layer 1
10
171.175488
20
7.401986
11
171.584300
21
9.028840
0
LINE
8
Layer 1
10
171.584300
20
9.028840
11
171.399427
21
9.222333
0
LINE
8
Layer 1
10
171.399427
20
9.222333
11
170.896054
21
9.380905
0
LINE
8
Layer 1
10
170.896054
20
9.380905
11
169.241290
21
9.527500
0
LINE
8
Layer 1
10
169.241290
20
9.527500
11
169.241000
21
9.527540
0
LINE
8
Layer 1
10
150.653000
20
192.446000
11
148.573257
21
192.300240
0
LINE
8
Layer 1
10
148.573257
20
192.300240
11
146.653214
21
191.849087
0
LINE
8
Layer 1
10
146.653214
20
191.849087
11
144.899638
21
191.097946
0
LINE
8
Layer 1
10
144.899638
20
191.097946
11
143.319296
21
190.052222
0
LINE
8
Layer 1
10
143.319296
20
190.052222
11
141.918955
21
188.717320
0
LINE
8
Layer 1
10
141.918955
20
188.717320
11
140.705380
21
187.098644
0
LINE
8
Layer 1
10
140.705380
20
187.098644
11
139.685340
21
185.201599
0
LINE
8
Layer 1
10
139.685340
20
185.201599
11
138.865600
21
183.031590
0
LINE
8
Layer 1
10
138.865600
20
183.031590
11
138.239170
21
180.728646
0
LINE
8
Layer 1
10
138.239170
20
180.728646
11
138.115690
21
179.633870
0
LINE
8
Layer 1
10
138.115690
20
179.633870
11
139.205169
21
179.788115
0
LINE
8
Layer 1
10
139.205169
20
179.788115
11
141.495390
21
180.488090
0
LINE
8
Layer 1
10
141.495390
20
180.488090
11
143.914725
21
181.256730
0
LINE
8
Layer 1
10
143.914725
20
181.256730
11
145.314300
21
181.576390
0
LINE
8
Layer 1
10
145.314300
20
181.576390
11
146.073525
21
181.696880
0
LINE
8
Layer 1
10
146.073525
20
181.696880
11
146.991994
21
182.031145
0
LINE
8
Layer 1
10
146.991994
20
182.031145
11
149.059249
21
183.177764
0
LINE
8
Layer 1
10
149.059249
20
183.177764
11
151.021224
21
184.689773
0
LINE
8
Layer 1
10
151.021224
20
184.689773
11
152.383080
21
186.240700
0
LINE
8
Layer 1
10
152.383080
20
186.240700
11
153.545525
21
187.785360
0
LINE
8
Layer 1
10
153.545525
20
187.785360
11
154.559170
21
188.596100
0
LINE
8
Layer 1
10
154.559170
20
188.596100
11
155.628826
21
188.564595
0
LINE
8
Layer 1
10
155.628826
20
188.564595
11
157.150770
21
187.950670
0
LINE
8
Layer 1
10
157.150770
20
187.950670
11
157.099770
21
190.965470
0
LINE
8
Layer 1
10
157.099770
20
190.965470
11
155.396527
21
191.621727
0
LINE
8
Layer 1
10
155.396527
20
191.621727
11
153.778102
21
192.081650
0
LINE
8
Layer 1
10
153.778102
20
192.081650
11
152.208731
21
192.353616
0
LINE
8
Layer 1
10
152.208731
20
192.353616
11
150.652650
21
192.446000
0
LINE
8
Layer 1
10
150.652650
20
192.446000
11
150.653000
21
192.446000
0
LINE
8
Layer 1
10
149.278890
20
190.547410
11
150.556780
21
190.402190
0
LINE
8
Layer 1
10
150.556780
20
190.402190
11
150.960061
21
190.188988
0
LINE
8
Layer 1
10
150.960061
20
190.188988
11
150.914930
21
189.944064
0
LINE
8
Layer 1
10
150.914930
20
189.944064
11
149.261280
21
189.148010
0
LINE
8
Layer 1
10
149.261280
20
189.148010
11
147.072718
21
188.137551
0
LINE
8
Layer 1
10
147.072718
20
188.137551
11
145.027480
21
186.976050
0
LINE
8
Layer 1
10
145.027480
20
186.976050
11
143.656483
21
186.196550
0
LINE
8
Layer 1
10
143.656483
20
186.196550
11
143.296688
21
186.095483
0
LINE
8
Layer 1
10
143.296688
20
186.095483
11
143.155590
21
186.178304
0
LINE
8
Layer 1
10
143.155590
20
186.178304
11
143.534169
21
186.869894
0
LINE
8
Layer 1
10
143.534169
20
186.869894
11
144.801590
21
188.219900
0
LINE
8
Layer 1
10
144.801590
20
188.219900
11
145.906027
21
189.150236
0
LINE
8
Layer 1
10
145.906027
20
189.150236
11
147.052840
21
189.860610
0
LINE
8
Layer 1
10
147.052840
20
189.860610
11
148.193353
21
190.332507
0
LINE
8
Layer 1
10
148.193353
20
190.332507
11
149.278890
21
190.547410
0
LINE
8
Layer 1
10
149.278890
20
190.547410
11
149.278890
21
190.547410
0
LINE
8
Layer 1
10
116.417000
20
257.225000
11
113.569943
21
257.052302
0
LINE
8
Layer 1
10
113.569943
20
257.052302
11
110.470806
21
256.629206
0
LINE
8
Layer 1
10
110.470806
20
256.629206
11
107.864819
21
256.082460
0
LINE
8
Layer 1
10
107.864819
20
256.082460
11
106.497210
21
255.538810
0
LINE
8
Layer 1
10
106.497210
20
255.538810
11
106.813507
21
254.992353
0
LINE
8
Layer 1
10
106.813507
20
254.992353
11
107.946210
21
254.051050
0
LINE
8
Layer 1
10
107.946210
20
254.051050
11
109.075251
21
253.375839
0
LINE
8
Layer 1
10
109.075251
20
253.375839
11
110.520692
21
253.006538
0
LINE
8
Layer 1
10
110.520692
20
253.006538
11
112.985740
21
252.847885
0
LINE
8
Layer 1
10
112.985740
20
252.847885
11
117.173600
21
252.804620
0
LINE
8
Layer 1
10
117.173600
20
252.804620
11
121.226246
21
252.753226
0
LINE
8
Layer 1
10
121.226246
20
252.753226
11
123.892457
21
252.583324
0
LINE
8
Layer 1
10
123.892457
20
252.583324
11
125.790290
21
252.223182
0
LINE
8
Layer 1
10
125.790290
20
252.223182
11
127.537800
21
251.601070
0
LINE
8
Layer 1
10
127.537800
20
251.601070
11
129.381172
21
250.730383
0
LINE
8
Layer 1
10
129.381172
20
250.730383
11
130.874821
21
249.796651
0
LINE
8
Layer 1
10
130.874821
20
249.796651
11
132.009443
21
248.816253
0
LINE
8
Layer 1
10
132.009443
20
248.816253
11
132.775739
21
247.805570
0
LINE
8
Layer 1
10
132.775739
20
247.805570
11
133.164405
21
246.780982
0
LINE
8
Layer 1
10
133.164405
20
246.780982
11
133.166140
21
245.758869
0
LINE
8
Layer 1
10
133.166140
20
245.758869
11
132.771642
21
244.755612
0
LINE
8
Layer 1
10
132.771642
20
244.755612
11
131.971610
21
243.787590
0
LINE
8
Layer 1
10
131.971610
20
243.787590
11
130.728647
21
242.330090
0
LINE
8
Layer 1
10
130.728647
20
242.330090
11
129.830340
21
240.633702
0
LINE
8
Layer 1
10
129.830340
20
240.633702
11
129.292768
21
238.738913
0
LINE
8
Layer 1
10
129.292768
20
238.738913
11
129.132010
21
236.686210
0
LINE
8
Layer 1
10
129.132010
20
236.686210
11
129.308434
21
234.511030
0
LINE
8
Layer 1
10
129.308434
20
234.511030
11
129.817256
21
232.547812
0
LINE
8
Layer 1
10
129.817256
20
232.547812
11
130.738056
21
230.577564
0
LINE
8
Layer 1
10
130.738056
20
230.577564
11
132.150410
21
228.381290
0
LINE
8
Layer 1
10
132.150410
20
228.381290
11
133.172851
21
226.968485
0
LINE
8
Layer 1
10
133.172851
20
226.968485
11
133.751910
21
226.370976
0
LINE
8
Layer 1
10
133.751910
20
226.370976
11
133.940041
21
226.343505
0
LINE
8
Layer 1
10
133.940041
20
226.343505
11
134.095169
21
226.478514
0
LINE
8
Layer 1
10
134.095169
20
226.478514
11
134.410210
21
227.180850
0
LINE
8
Layer 1
10
134.410210
20
227.180850
11
136.922810
21
232.886440
0
LINE
8
Layer 1
10
136.922810
20
232.886440
11
138.362309
21
236.441828
0
LINE
8
Layer 1
10
138.362309
20
236.441828
11
138.719753
21
237.868482
0
LINE
8
Layer 1
10
138.719753
20
237.868482
11
138.835090
21
239.184316
0
LINE
8
Layer 1
10
138.835090
20
239.184316
11
138.707892
21
240.481734
0
LINE
8
Layer 1
10
138.707892
20
240.481734
11
138.337731
21
241.853141
0
LINE
8
Layer 1
10
138.337731
20
241.853141
11
136.866810
21
245.187540
0
LINE
8
Layer 1
10
136.866810
20
245.187540
11
135.225239
21
248.017226
0
LINE
8
Layer 1
10
135.225239
20
248.017226
11
133.322970
21
250.467611
0
LINE
8
Layer 1
10
133.322970
20
250.467611
11
131.159686
21
252.539059
0
LINE
8
Layer 1
10
131.159686
20
252.539059
11
128.735069
21
254.231936
0
LINE
8
Layer 1
10
128.735069
20
254.231936
11
126.048801
21
255.546608
0
LINE
8
Layer 1
10
126.048801
20
255.546608
11
123.100563
21
256.483439
0
LINE
8
Layer 1
10
123.100563
20
256.483439
11
119.890039
21
257.042794
0
LINE
8
Layer 1
10
119.890039
20
257.042794
11
116.416910
21
257.225040
0
LINE
8
Layer 1
10
116.416910
20
257.225040
11
116.417000
21
257.225000
0
LINE
8
Layer 1
10
134.205100
20
243.133900
11
134.358624
21
243.009221
0
LINE
8
Layer 1
10
134.358624
20
243.009221
11
134.386633
21
242.635958
0
LINE
8
Layer 1
10
134.386633
20
242.635958
11
134.006100
21
241.144370
0
LINE
8
Layer 1
10
134.006100
20
241.144370
11
133.463416
21
238.864016
0
LINE
8
Layer 1
10
133.463416
20
238.864016
11
133.237690
21
236.440270
0
LINE
8
Layer 1
10
133.237690
20
236.440270
11
133.238000
21
236.435000
0
LINE
8
Layer 1
10
133.238000
20
236.435000
11
133.122433
21
234.830268
0
LINE
8
Layer 1
10
133.122433
20
234.830268
11
132.827502
21
234.011318
0
LINE
8
Layer 1
10
132.827502
20
234.011318
11
132.637045
21
233.923394
0
LINE
8
Layer 1
10
132.637045
20
233.923394
11
132.430869
21
234.064178
0
LINE
8
Layer 1
10
132.430869
20
234.064178
11
132.010190
21
235.074880
0
LINE
8
Layer 1
10
132.010190
20
235.074880
11
131.733711
21
236.657950
0
LINE
8
Layer 1
10
131.733711
20
236.657950
11
131.748603
21
238.222164
0
LINE
8
Layer 1
10
131.748603
20
238.222164
11
132.050988
21
239.730081
0
LINE
8
Layer 1
10
132.050988
20
239.730081
11
132.636990
21
241.144260
0
LINE
8
Layer 1
10
132.636990
20
241.144260
11
133.581951
21
242.636859
0
LINE
8
Layer 1
10
133.581951
20
242.636859
11
134.205380
21
243.133810
0
LINE
8
Layer 1
10
134.205380
20
243.133810
11
134.205100
21
243.133900
0
LINE
8
Layer 1
10
122.720000
20
95.883400
11
121.811004
21
94.929259
0
LINE
8
Layer 1
10
121.811004
20
94.929259
11
119.930510
21
92.330630
0
LINE
8
Layer 1
10
119.930510
20
92.330630
11
118.046713
21
89.330722
0
LINE
8
Layer 1
10
118.046713
20
89.330722
11
116.510709
21
86.428595
0
LINE
8
Layer 1
10
116.510709
20
86.428595
11
115.481328
21
83.956586
0
LINE
8
Layer 1
10
115.481328
20
83.956586
11
115.117400
21
82.247030
0
LINE
8
Layer 1
10
115.117400
20
82.247030
11
115.117000
21
82.246400
0
LINE
8
Layer 1
10
115.117000
20
82.246400
11
115.147127
21
81.760507
0
LINE
8
Layer 1
10
115.147127
20
81.760507
11
115.254514
21
81.609903
0
LINE
8
Layer 1
10
115.254514
20
81.609903
11
115.938110
21
82.342500
0
LINE
8
Layer 1
10
115.938110
20
82.342500
11
117.508452
21
85.030957
0
LINE
8
Layer 1
10
117.508452
20
85.030957
11
119.849171
21
89.555647
0
LINE
8
Layer 1
10
119.849171
20
89.555647
11
121.929732
21
93.858965
0
LINE
8
Layer 1
10
121.929732
20
93.858965
11
122.719600
21
95.883300
0
LINE
8
Layer 1
10
122.719600
20
95.883300
11
122.720000
21
95.883400
0
LINE
8
Layer 1
10
53.936100
20
-2.472220
11
52.779110
21
-2.550820
0
LINE
8
Layer 1
10
52.779110
20
-2.550820
11
51.260055
21
-2.834553
0
LINE
8
Layer 1
10
51.260055
20
-2.834553
11
50.444800
21
-3.136300
0
LINE
8
Layer 1
10
50.444800
20
-3.136300
11
50.521016
21
-3.519885
0
LINE
8
Layer 1
10
50.521016
20
-3.519885
11
50.997200
21
-4.189460
0
LINE
8
Layer 1
10
50.997200
20
-4.189460
11
56.986400
21
-4.189460
0
LINE
8
Layer 1
10
56.986400
20
-4.189460
11
55.273025
21
-2.894178
0
LINE
8
Layer 1
10
55.273025
20
-2.894178
11
54.600191
21
-2.588785
0
LINE
8
Layer 1
10
54.600191
20
-2.588785
11
53.936000
21
-2.472240
0
LINE
8
Layer 1
10
53.936000
20
-2.472240
11
53.936100
21
-2.472220
0
LINE
8
Layer 1
10
104.391000
20
72.584500
11
103.960515
21
72.361280
0
LINE
8
Layer 1
10
103.960515
20
72.361280
11
103.170390
21
71.499810
0
LINE
8
Layer 1
10
103.170390
20
71.499810
11
98.389290
21
66.105830
0
LINE
8
Layer 1
10
98.389290
20
66.105830
11
95.918879
21
63.251255
0
LINE
8
Layer 1
10
95.918879
20
63.251255
11
94.891310
21
61.837850
0
LINE
8
Layer 1
10
94.891310
20
61.837850
11
94.993902
21
61.600282
0
LINE
8
Layer 1
10
94.993902
20
61.600282
11
95.284958
21
61.546130
0
LINE
8
Layer 1
10
95.284958
20
61.546130
11
96.332146
21
61.934874
0
LINE
8
Layer 1
10
96.332146
20
61.934874
11
97.832239
21
62.897680
0
LINE
8
Layer 1
10
97.832239
20
62.897680
11
99.584600
21
64.328150
0
LINE
8
Layer 1
10
99.584600
20
64.328150
11
101.629103
21
66.436181
0
LINE
8
Layer 1
10
101.629103
20
66.436181
11
103.296010
21
68.653095
0
LINE
8
Layer 1
10
103.296010
20
68.653095
11
104.370193
21
70.648369
0
LINE
8
Layer 1
10
104.370193
20
70.648369
11
104.617784
21
71.459603
0
LINE
8
Layer 1
10
104.617784
20
71.459603
11
104.636520
21
72.091480
0
LINE
8
Layer 1
10
104.636520
20
72.091480
11
104.391000
21
72.584470
0
LINE
8
Layer 1
10
104.391000
20
72.584470
11
104.391000
21
72.584500
0
LINE
8
Layer 1
10
93.223600
20
147.037000
11
92.859356
21
146.884695
0
LINE
8
Layer 1
10
92.859356
20
146.884695
11
92.443464
21
146.223720
0
LINE
8
Layer 1
10
92.443464
20
146.223720
11
91.275900
21
143.231030
0
LINE
8
Layer 1
10
91.275900
20
143.231030
11
90.186219
21
140.426893
0
LINE
8
Layer 1
10
90.186219
20
140.426893
11
89.096650
21
138.509550
0
LINE
8
Layer 1
10
89.096650
20
138.509550
11
87.651206
21
136.997380
0
LINE
8
Layer 1
10
87.651206
20
136.997380
11
85.493900
21
135.408760
0
LINE
8
Layer 1
10
85.493900
20
135.408760
11
83.210926
21
133.673108
0
LINE
8
Layer 1
10
83.210926
20
133.673108
11
81.951410
21
132.372260
0
LINE
8
Layer 1
10
81.951410
20
132.372260
11
81.566401
21
131.102720
0
LINE
8
Layer 1
10
81.566401
20
131.102720
11
81.434985
21
129.551238
0
LINE
8
Layer 1
10
81.434985
20
129.551238
11
81.558532
21
128.238507
0
LINE
8
Layer 1
10
81.558532
20
128.238507
11
81.716344
21
127.834389
0
LINE
8
Layer 1
10
81.716344
20
127.834389
11
81.938410
21
127.685220
0
LINE
8
Layer 1
10
81.938410
20
127.685220
11
82.304389
21
127.929171
0
LINE
8
Layer 1
10
82.304389
20
127.929171
11
82.456700
21
128.515670
0
LINE
8
Layer 1
10
82.456700
20
128.515670
11
82.789017
21
129.150294
0
LINE
8
Layer 1
10
82.789017
20
129.150294
11
83.673569
21
130.236068
0
LINE
8
Layer 1
10
83.673569
20
130.236068
11
86.424985
21
133.101953
0
LINE
8
Layer 1
10
86.424985
20
133.101953
11
89.362161
21
135.795101
0
LINE
8
Layer 1
10
89.362161
20
135.795101
11
90.478913
21
136.664954
0
LINE
8
Layer 1
10
90.478913
20
136.664954
11
91.136310
21
136.997290
0
LINE
8
Layer 1
10
91.136310
20
136.997290
11
91.529771
21
136.860224
0
LINE
8
Layer 1
10
91.529771
20
136.860224
11
91.742582
21
136.441766
0
LINE
8
Layer 1
10
91.742582
20
136.441766
11
91.779802
21
135.765674
0
LINE
8
Layer 1
10
91.779802
20
135.765674
11
91.646488
21
134.855708
0
LINE
8
Layer 1
10
91.646488
20
134.855708
11
90.888484
21
132.429188
0
LINE
8
Layer 1
10
90.888484
20
132.429188
11
89.509030
21
129.352280
0
LINE
8
Layer 1
10
89.509030
20
129.352280
11
87.665417
21
125.386669
0
LINE
8
Layer 1
10
87.665417
20
125.386669
11
86.448430
21
122.011619
0
LINE
8
Layer 1
10
86.448430
20
122.011619
11
85.786743
21
118.984124
0
LINE
8
Layer 1
10
85.786743
20
118.984124
11
85.609030
21
116.061180
0
LINE
8
Layer 1
10
85.609030
20
116.061180
11
85.651030
21
112.916650
0
LINE
8
Layer 1
10
85.651030
20
112.916650
11
86.346620
21
115.766590
0
LINE
8
Layer 1
10
86.346620
20
115.766590
11
87.946657
21
120.054645
0
LINE
8
Layer 1
10
87.946657
20
120.054645
11
90.817720
21
126.361790
0
LINE
8
Layer 1
10
90.817720
20
126.361790
11
92.976182
21
130.866499
0
LINE
8
Layer 1
10
92.976182
20
130.866499
11
94.123860
21
133.706169
0
LINE
8
Layer 1
10
94.123860
20
133.706169
11
94.613990
21
135.985475
0
LINE
8
Layer 1
10
94.613990
20
135.985475
11
94.799810
21
138.809090
0
LINE
8
Layer 1
10
94.799810
20
138.809090
11
94.777944
21
142.929751
0
LINE
8
Layer 1
10
94.777944
20
142.929751
11
94.551535
21
144.339431
0
LINE
8
Layer 1
10
94.551535
20
144.339431
11
94.159610
21
145.535810
0
LINE
8
Layer 1
10
94.159610
20
145.535810
11
93.656934
21
146.595979
0
LINE
8
Layer 1
10
93.656934
20
146.595979
11
93.223700
21
147.037000
0
LINE
8
Layer 1
10
93.223700
20
147.037000
11
93.223600
21
147.037000
0
LINE
8
Layer 1
10
113.054000
20
235.248000
11
111.418020
21
234.946210
0
LINE
8
Layer 1
10
111.418020
20
234.946210
11
109.541116
21
234.323555
0
LINE
8
Layer 1
10
109.541116
20
234.323555
11
107.751529
21
233.474947
0
LINE
8
Layer 1
10
107.751529
20
233.474947
11
106.058256
21
232.408491
0
LINE
8
Layer 1
10
106.058256
20
232.408491
11
104.470295
21
231.132290
0
LINE
8
Layer 1
10
104.470295
20
231.132290
11
102.996643
21
229.654447
0
LINE
8
Layer 1
10
102.996643
20
229.654447
11
101.646298
21
227.983067
0
LINE
8
Layer 1
10
101.646298
20
227.983067
11
100.428258
21
226.126254
0
LINE
8
Layer 1
10
100.428258
20
226.126254
11
99.351520
21
224.092110
0
LINE
8
Layer 1
10
99.351520
20
224.092110
11
98.499874
21
222.145562
0
LINE
8
Layer 1
10
98.499874
20
222.145562
11
98.013979
21
220.486612
0
LINE
8
Layer 1
10
98.013979
20
220.486612
11
97.794955
21
218.616324
0
LINE
8
Layer 1
10
97.794955
20
218.616324
11
97.743920
21
216.035760
0
LINE
8
Layer 1
10
97.743920
20
216.035760
11
97.793798
21
213.378005
0
LINE
8
Layer 1
10
97.793798
20
213.378005
11
98.038627
21
211.462730
0
LINE
8
Layer 1
10
98.038627
20
211.462730
11
98.621201
21
209.650640
0
LINE
8
Layer 1
10
98.621201
20
209.650640
11
99.684310
21
207.302440
0
LINE
8
Layer 1
10
99.684310
20
207.302440
11
100.669860
21
205.108359
0
LINE
8
Layer 1
10
100.669860
20
205.108359
11
101.261994
21
203.376643
0
LINE
8
Layer 1
10
101.261994
20
203.376643
11
101.551035
21
201.764397
0
LINE
8
Layer 1
10
101.551035
20
201.764397
11
101.627310
21
199.928730
0
LINE
8
Layer 1
10
101.627310
20
199.928730
11
101.846144
21
196.936234
0
LINE
8
Layer 1
10
101.846144
20
196.936234
11
102.135743
21
195.653540
0
LINE
8
Layer 1
10
102.135743
20
195.653540
11
102.559735
21
194.480734
0
LINE
8
Layer 1
10
102.559735
20
194.480734
11
103.128824
21
193.393453
0
LINE
8
Layer 1
10
103.128824
20
193.393453
11
103.853713
21
192.367336
0
LINE
8
Layer 1
10
103.853713
20
192.367336
11
105.813710
21
190.401150
0
LINE
8
Layer 1
10
105.813710
20
190.401150
11
107.867365
21
188.401324
0
LINE
8
Layer 1
10
107.867365
20
188.401324
11
109.210320
21
186.624120
0
LINE
8
Layer 1
10
109.210320
20
186.624120
11
109.693198
21
185.743656
0
LINE
8
Layer 1
10
109.693198
20
185.743656
11
110.030291
21
185.378107
0
LINE
8
Layer 1
10
110.030291
20
185.378107
11
110.346147
21
185.476401
0
LINE
8
Layer 1
10
110.346147
20
185.476401
11
110.765310
21
185.987460
0
LINE
8
Layer 1
10
110.765310
20
185.987460
11
111.513042
21
187.377360
0
LINE
8
Layer 1
10
111.513042
20
187.377360
11
112.058829
21
189.207814
0
LINE
8
Layer 1
10
112.058829
20
189.207814
11
112.393226
21
191.439209
0
LINE
8
Layer 1
10
112.393226
20
191.439209
11
112.506790
21
194.031930
0
LINE
8
Layer 1
10
112.506790
20
194.031930
11
112.438124
21
195.599320
0
LINE
8
Layer 1
10
112.438124
20
195.599320
11
112.229750
21
197.050338
0
LINE
8
Layer 1
10
112.229750
20
197.050338
11
111.878104
21
198.392105
0
LINE
8
Layer 1
10
111.878104
20
198.392105
11
111.379624
21
199.631744
0
LINE
8
Layer 1
10
111.379624
20
199.631744
11
110.730746
21
200.776376
0
LINE
8
Layer 1
10
110.730746
20
200.776376
11
109.927906
21
201.833123
0
LINE
8
Layer 1
10
109.927906
20
201.833123
11
108.967542
21
202.809107
0
LINE
8
Layer 1
10
108.967542
20
202.809107
11
107.846090
21
203.711450
0
LINE
8
Layer 1
10
107.846090
20
203.711450
11
105.144551
21
205.785306
0
LINE
8
Layer 1
10
105.144551
20
205.785306
11
103.369617
21
207.516944
0
LINE
8
Layer 1
10
103.369617
20
207.516944
11
102.278493
21
209.195202
0
LINE
8
Layer 1
10
102.278493
20
209.195202
11
101.628380
21
211.108920
0
LINE
8
Layer 1
10
101.628380
20
211.108920
11
101.234695
21
213.609029
0
LINE
8
Layer 1
10
101.234695
20
213.609029
11
101.337751
21
215.990909
0
LINE
8
Layer 1
10
101.337751
20
215.990909
11
101.970069
21
218.469619
0
LINE
8
Layer 1
10
101.970069
20
218.469619
11
103.164170
21
221.260220
0
LINE
8
Layer 1
10
103.164170
20
221.260220
11
104.712500
21
223.867884
0
LINE
8
Layer 1
10
104.712500
20
223.867884
11
106.562660
21
225.931582
0
LINE
8
Layer 1
10
106.562660
20
225.931582
11
108.823280
21
227.548630
0
LINE
8
Layer 1
10
108.823280
20
227.548630
11
111.602990
21
228.816340
0
LINE
8
Layer 1
10
111.602990
20
228.816340
11
113.322735
21
229.479528
0
LINE
8
Layer 1
10
113.322735
20
229.479528
11
114.207907
21
230.038112
0
LINE
8
Layer 1
10
114.207907
20
230.038112
11
114.533472
21
230.791573
0
LINE
8
Layer 1
10
114.533472
20
230.791573
11
114.574390
21
232.039390
0
LINE
8
Layer 1
10
114.574390
20
232.039390
11
114.510684
21
233.566891
0
LINE
8
Layer 1
10
114.510684
20
233.566891
11
114.285307
21
234.565679
0
LINE
8
Layer 1
10
114.285307
20
234.565679
11
113.824375
21
235.103470
0
LINE
8
Layer 1
10
113.824375
20
235.103470
11
113.054000
21
235.247980
0
LINE
8
Layer 1
10
113.054000
20
235.247980
11
113.054000
21
235.248000
0
LINE
8
Layer 1
10
104.953200
20
202.822100
11
105.467261
21
202.667624
0
LINE
8
Layer 1
10
105.467261
20
202.667624
11
106.072473
21
202.242827
0
LINE
8
Layer 1
10
106.072473
20
202.242827
11
107.380879
21
200.814050
0
LINE
8
Layer 1
10
107.380879
20
200.814050
11
108.527470
21
198.999330
0
LINE
8
Layer 1
10
108.527470
20
198.999330
11
109.161300
21
197.262230
0
LINE
8
Layer 1
10
109.161300
20
197.262230
11
109.739490
21
194.401420
0
LINE
8
Layer 1
10
109.739490
20
194.401420
11
109.772249
21
193.760899
0
LINE
8
Layer 1
10
109.772249
20
193.760899
11
109.500290
21
193.494500
0
LINE
8
Layer 1
10
109.500290
20
193.494500
11
109.070943
21
193.912982
0
LINE
8
Layer 1
10
109.070943
20
193.912982
11
108.724080
21
194.919210
0
LINE
8
Layer 1
10
108.724080
20
194.919210
11
107.904579
21
196.877115
0
LINE
8
Layer 1
10
107.904579
20
196.877115
11
106.338670
21
199.583010
0
LINE
8
Layer 1
10
106.338670
20
199.583010
11
104.970549
21
201.980990
0
LINE
8
Layer 1
10
104.970549
20
201.980990
11
104.787971
21
202.607899
0
LINE
8
Layer 1
10
104.787971
20
202.607899
11
104.953170
21
202.822090
0
LINE
8
Layer 1
10
104.953170
20
202.822090
11
104.953200
21
202.822100
0
LINE
8
Layer 1
10
96.063100
20
15.712700
11
95.294685
21
15.454653
0
LINE
8
Layer 1
10
95.294685
20
15.454653
11
94.208371
21
14.752557
0
LINE
8
Layer 1
10
94.208371
20
14.752557
11
93.238249
21
13.918556
0
LINE
8
Layer 1
10
93.238249
20
13.918556
11
92.818410
21
13.264790
0
LINE
8
Layer 1
10
92.818410
20
13.264790
11
92.952688
21
12.595593
0
LINE
8
Layer 1
10
92.952688
20
12.595593
11
93.337065
21
11.706204
0
LINE
8
Layer 1
10
93.337065
20
11.706204
11
94.745381
21
9.424779
0
LINE
8
Layer 1
10
94.745381
20
9.424779
11
96.821890
21
6.736371
0
LINE
8
Layer 1
10
96.821890
20
6.736371
11
99.345120
21
3.956840
0
LINE
8
Layer 1
10
99.345120
20
3.956840
11
102.154382
21
1.303544
0
LINE
8
Layer 1
10
102.154382
20
1.303544
11
103.166087
21
0.496415
0
LINE
8
Layer 1
10
103.166087
20
0.496415
11
103.724210
21
0.199980
0
LINE
8
Layer 1
10
103.724210
20
0.199980
11
104.559420
21
0.528519
0
LINE
8
Layer 1
10
104.559420
20
0.528519
11
105.602590
21
1.318780
0
LINE
8
Layer 1
10
105.602590
20
1.318780
11
106.793690
21
2.438100
0
LINE
8
Layer 1
10
106.793690
20
2.438100
11
102.692190
21
6.710720
0
LINE
8
Layer 1
10
102.692190
20
6.710720
11
99.461426
21
10.389614
0
LINE
8
Layer 1
10
99.461426
20
10.389614
11
98.218955
21
12.023469
0
LINE
8
Layer 1
10
98.218955
20
12.023469
11
97.454310
21
13.234860
0
LINE
8
Layer 1
10
97.454310
20
13.234860
11
96.159200
21
15.666740
0
LINE
8
Layer 1
10
96.159200
20
15.666740
11
96.063200
21
15.712740
0
LINE
8
Layer 1
10
96.063200
20
15.712740
11
96.063100
21
15.712700
0
LINE
8
Layer 1
10
192.216000
20
37.508800
11
191.399842
21
37.380809
0
LINE
8
Layer 1
10
191.399842
20
37.380809
11
190.402425
21
37.052685
0
LINE
8
Layer 1
10
190.402425
20
37.052685
11
189.436673
21
36.608198
0
LINE
8
Layer 1
10
189.436673
20
36.608198
11
188.715510
21
36.131120
0
LINE
8
Layer 1
10
188.715510
20
36.131120
11
189.258434
21
35.269921
0
LINE
8
Layer 1
10
189.258434
20
35.269921
11
190.883780
21
33.481160
0
LINE
8
Layer 1
10
190.883780
20
33.481160
11
192.794552
21
31.150207
0
LINE
8
Layer 1
10
192.794552
20
31.150207
11
194.240248
21
28.578541
0
LINE
8
Layer 1
10
194.240248
20
28.578541
11
195.215062
21
25.831182
0
LINE
8
Layer 1
10
195.215062
20
25.831182
11
195.713189
21
22.973149
0
LINE
8
Layer 1
10
195.713189
20
22.973149
11
195.728821
21
20.069461
0
LINE
8
Layer 1
10
195.728821
20
20.069461
11
195.256153
21
17.185137
0
LINE
8
Layer 1
10
195.256153
20
17.185137
11
194.289378
21
14.385197
0
LINE
8
Layer 1
10
194.289378
20
14.385197
11
192.822690
21
11.734660
0
LINE
8
Layer 1
10
192.822690
20
11.734660
11
191.416244
21
9.917585
0
LINE
8
Layer 1
10
191.416244
20
9.917585
11
189.783407
21
8.315407
0
LINE
8
Layer 1
10
189.783407
20
8.315407
11
187.917386
21
6.924843
0
LINE
8
Layer 1
10
187.917386
20
6.924843
11
185.811385
21
5.742610
0
LINE
8
Layer 1
10
185.811385
20
5.742610
11
183.458610
21
4.765425
0
LINE
8
Layer 1
10
183.458610
20
4.765425
11
180.852265
21
3.990005
0
LINE
8
Layer 1
10
180.852265
20
3.990005
11
177.985557
21
3.413068
0
LINE
8
Layer 1
10
177.985557
20
3.413068
11
174.851690
21
3.031330
0
LINE
8
Layer 1
10
174.851690
20
3.031330
11
170.694890
21
2.668560
0
LINE
8
Layer 1
10
170.694890
20
2.668560
11
169.591620
21
0.397380
0
LINE
8
Layer 1
10
169.591620
20
0.397380
11
169.592000
21
0.401410
0
LINE
8
Layer 1
10
169.592000
20
0.401410
11
168.488670
21
-1.869770
0
LINE
8
Layer 1
10
168.488670
20
-1.869770
11
170.684000
21
-1.869770
0
LINE
8
Layer 1
10
170.684000
20
-1.869770
11
174.646283
21
-1.668033
0
LINE
8
Layer 1
10
174.646283
20
-1.668033
11
178.792457
21
-1.122350
0
LINE
8
Layer 1
10
178.792457
20
-1.122350
11
182.727578
21
-0.299512
0
LINE
8
Layer 1
10
182.727578
20
-0.299512
11
186.056700
21
0.733690
0
LINE
8
Layer 1
10
186.056700
20
0.733690
11
187.911646
21
1.540590
0
LINE
8
Layer 1
10
187.911646
20
1.540590
11
189.661802
21
2.485281
0
LINE
8
Layer 1
10
189.661802
20
2.485281
11
191.301657
21
3.558279
0
LINE
8
Layer 1
10
191.301657
20
3.558279
11
192.825706
21
4.750098
0
LINE
8
Layer 1
10
192.825706
20
4.750098
11
194.228440
21
6.051255
0
LINE
8
Layer 1
10
194.228440
20
6.051255
11
195.504352
21
7.452264
0
LINE
8
Layer 1
10
195.504352
20
7.452264
11
196.647932
21
8.943640
0
LINE
8
Layer 1
10
196.647932
20
8.943640
11
197.653675
21
10.515900
0
LINE
8
Layer 1
10
197.653675
20
10.515900
11
198.516071
21
12.159558
0
LINE
8
Layer 1
10
198.516071
20
12.159558
11
199.229614
21
13.865129
0
LINE
8
Layer 1
10
199.229614
20
13.865129
11
199.788795
21
15.623128
0
LINE
8
Layer 1
10
199.788795
20
15.623128
11
200.188106
21
17.424072
0
LINE
8
Layer 1
10
200.188106
20
17.424072
11
200.422040
21
19.258475
0
LINE
8
Layer 1
10
200.422040
20
19.258475
11
200.485089
21
21.116852
0
LINE
8
Layer 1
10
200.485089
20
21.116852
11
200.371745
21
22.989718
0
LINE
8
Layer 1
10
200.371745
20
22.989718
11
200.076500
21
24.867590
0
LINE
8
Layer 1
10
200.076500
20
24.867590
11
199.489640
21
27.100246
0
LINE
8
Layer 1
10
199.489640
20
27.100246
11
198.678572
21
29.325268
0
LINE
8
Layer 1
10
198.678572
20
29.325268
11
197.698881
21
31.453257
0
LINE
8
Layer 1
10
197.698881
20
31.453257
11
196.606151
21
33.394813
0
LINE
8
Layer 1
10
196.606151
20
33.394813
11
195.455966
21
35.060534
0
LINE
8
Layer 1
10
195.455966
20
35.060534
11
194.303910
21
36.361020
0
LINE
8
Layer 1
10
194.303910
20
36.361020
11
193.205566
21
37.206873
0
LINE
8
Layer 1
10
193.205566
20
37.206873
11
192.216520
21
37.508690
0
LINE
8
Layer 1
10
192.216520
20
37.508690
11
192.216000
21
37.508800
0
LINE
8
Layer 1
10
113.951000
20
253.312000
11
113.809801
21
254.712664
0
LINE
8
Layer 1
10
113.809801
20
254.712664
11
113.404836
21
256.017248
0
LINE
8
Layer 1
10
113.404836
20
256.017248
11
112.764053
21
257.197804
0
LINE
8
Layer 1
10
112.764053
20
257.197804
11
111.915397
21
258.226384
0
LINE
8
Layer 1
10
111.915397
20
258.226384
11
110.886818
21
259.075040
0
LINE
8
Layer 1
10
110.886818
20
259.075040
11
109.706263
21
259.715825
0
LINE
8
Layer 1
10
109.706263
20
259.715825
11
108.401677
21
260.120791
0
LINE
8
Layer 1
10
108.401677
20
260.120791
11
107.001010
21
260.261990
0
LINE
8
Layer 1
10
107.001010
20
260.261990
11
105.600346
21
260.120791
0
LINE
8
Layer 1
10
105.600346
20
260.120791
11
104.295762
21
259.715825
0
LINE
8
Layer 1
10
104.295762
20
259.715825
11
103.115206
21
259.075040
0
LINE
8
Layer 1
10
103.115206
20
259.075040
11
102.086626
21
258.226384
0
LINE
8
Layer 1
10
102.086626
20
258.226384
11
101.237970
21
257.197804
0
LINE
8
Layer 1
10
101.237970
20
257.197804
11
100.597185
21
256.017248
0
LINE
8
Layer 1
10
100.597185
20
256.017248
11
100.192219
21
254.712664
0
LINE
8
Layer 1
10
100.192219
20
254.712664
11
100.051020
21
253.312000
0
LINE
8
Layer 1
10
100.051020
20
253.312000
11
100.192219
21
251.911332
0
LINE
8
Layer 1
10
100.192219
20
251.911332
11
100.597185
21
250.606746
0
LINE
8
Layer 1
10
100.597185
20
250.606746
11
101.237970
21
249.426188
0
LINE
8
Layer 1
10
101.237970
20
249.426188
11
102.086626
21
248.397608
0
LINE
8
Layer 1
10
102.086626
20
248.397608
11
103.115206
21
247.548951
0
LINE
8
Layer 1
10
103.115206
20
247.548951
11
104.295762
21
246.908165
0
LINE
8
Layer 1
10
104.295762
20
246.908165
11
105.600346
21
246.503199
0
LINE
8
Layer 1
10
105.600346
20
246.503199
11
107.001010
21
246.362000
0
LINE
8
Layer 1
10
107.001010
20
246.362000
11
108.401677
21
246.503199
0
LINE
8
Layer 1
10
108.401677
20
246.503199
11
109.706263
21
246.908165
0
LINE
8
Layer 1
10
109.706263
20
246.908165
11
110.886818
21
247.548951
0
LINE
8
Layer 1
10
110.886818
20
247.548951
11
111.915397
21
248.397608
0
LINE
8
Layer 1
10
111.915397
20
248.397608
11
112.764053
21
249.426188
0
LINE
8
Layer 1
10
112.764053
20
249.426188
11
113.404836
21
250.606746
0
LINE
8
Layer 1
10
113.404836
20
250.606746
11
113.809801
21
251.911332
0
LINE
8
Layer 1
10
113.809801
20
251.911332
11
113.951000
21
253.312000
0
LINE
8
Layer 1
10
113.951000
20
253.312000
11
113.951000
21
253.312000
0
LINE
8
Layer 1
10
113.951000
20
257.312000
11
113.809801
21
258.712664
0
LINE
8
Layer 1
10
113.809801
20
258.712664
11
113.404835
21
260.017248
0
LINE
8
Layer 1
10
113.404835
20
260.017248
11
112.764049
21
261.197804
0
LINE
8
Layer 1
10
112.764049
20
261.197804
11
111.915392
21
262.226384
0
LINE
8
Layer 1
10
111.915392
20
262.226384
11
110.886812
21
263.075040
0
LINE
8
Layer 1
10
110.886812
20
263.075040
11
109.706254
21
263.715825
0
LINE
8
Layer 1
10
109.706254
20
263.715825
11
108.401668
21
264.120791
0
LINE
8
Layer 1
10
108.401668
20
264.120791
11
107.001000
21
264.261990
0
LINE
8
Layer 1
10
107.001000
20
264.261990
11
105.600336
21
264.120791
0
LINE
8
Layer 1
10
105.600336
20
264.120791
11
104.295752
21
263.715825
0
LINE
8
Layer 1
10
104.295752
20
263.715825
11
103.115196
21
263.075040
0
LINE
8
Layer 1
10
103.115196
20
263.075040
11
102.086616
21
262.226384
0
LINE
8
Layer 1
10
102.086616
20
262.226384
11
101.237960
21
261.197804
0
LINE
8
Layer 1
10
101.237960
20
261.197804
11
100.597175
21
260.017248
0
LINE
8
Layer 1
10
100.597175
20
260.017248
11
100.192209
21
258.712664
0
LINE
8
Layer 1
10
100.192209
20
258.712664
11
100.051010
21
257.312000
0
LINE
8
Layer 1
10
100.051010
20
257.312000
11
100.192209
21
255.911336
0
LINE
8
Layer 1
10
100.192209
20
255.911336
11
100.597175
21
254.606752
0
LINE
8
Layer 1
10
100.597175
20
254.606752
11
101.237960
21
253.426196
0
LINE
8
Layer 1
10
101.237960
20
253.426196
11
102.086616
21
252.397616
0
LINE
8
Layer 1
10
102.086616
20
252.397616
11
103.115196
21
251.548960
0
LINE
8
Layer 1
10
103.115196
20
251.548960
11
104.295752
21
250.908175
0
LINE
8
Layer 1
10
104.295752
20
250.908175
11
105.600336
21
250.503209
0
LINE
8
Layer 1
10
105.600336
20
250.503209
11
107.001000
21
250.362010
0
LINE
8
Layer 1
10
107.001000
20
250.362010
11
108.401668
21
250.503209
0
LINE
8
Layer 1
10
108.401668
20
250.503209
11
109.706254
21
250.908175
0
LINE
8
Layer 1
10
109.706254
20
250.908175
11
110.886812
21
251.548960
0
LINE
8
Layer 1
10
110.886812
20
251.548960
11
111.915392
21
252.397616
0
LINE
8
Layer 1
10
111.915392
20
252.397616
11
112.764049
21
253.426196
0
LINE
8
Layer 1
10
112.764049
20
253.426196
11
113.404835
21
254.606752
0
LINE
8
Layer 1
10
113.404835
20
254.606752
11
113.809801
21
255.911336
0
LINE
8
Layer 1
10
113.809801
20
255.911336
11
113.951000
21
257.312000
0
LINE
8
Layer 1
10
113.951000
20
257.312000
11
113.951000
21
257.312000
 0 
ENDSEC
 0 
EOF