999
"DXF R12 Output" (www.mydxf.blogspot.com)
 0 
SECTION
 2 
HEADER
 9 
$ACADVER
 1 
AC1009
 9 
$EXTMIN
 10 
 0 
 20 
 0 
 9 
$EXTMAX
 10 
 8.5 
 20 
 11 
 0 
ENDSEC
 0 
SECTION
 2 
ENTITIES
0
LINE
8
Layer 1
10
-65.973700
20
485.333000
11
149.026000
21
485.333000
0
LINE
8
Layer 1
10
-915.850000
20
1251.160000
11
-916.078000
21
1250.120000
0
LINE
8
Layer 1
10
-916.078000
20
1250.120000
11
-917.164969
21
1245.310000
0
LINE
8
Layer 1
10
-917.164969
20
1245.310000
11
-918.109250
21
1240.140000
0
LINE
8
Layer 1
10
-918.109250
20
1240.140000
11
-918.869406
21
1234.865000
0
LINE
8
Layer 1
10
-918.869406
20
1234.865000
11
-919.404000
21
1229.740000
0
LINE
8
Layer 1
10
-919.404000
20
1229.740000
11
-919.811641
21
1221.951270
0
LINE
8
Layer 1
10
-919.811641
20
1221.951270
11
-919.758313
21
1214.181406
0
LINE
8
Layer 1
10
-919.758313
20
1214.181406
11
-919.246641
21
1206.447402
0
LINE
8
Layer 1
10
-919.246641
20
1206.447402
11
-918.279250
21
1198.766250
0
LINE
8
Layer 1
10
-918.279250
20
1198.766250
11
-916.858766
21
1191.154941
0
LINE
8
Layer 1
10
-916.858766
20
1191.154941
11
-914.987812
21
1183.630469
0
LINE
8
Layer 1
10
-914.987812
20
1183.630469
11
-912.669016
21
1176.209824
0
LINE
8
Layer 1
10
-912.669016
20
1176.209824
11
-909.905000
21
1168.910000
0
LINE
8
Layer 1
10
-909.905000
20
1168.910000
11
-908.090547
21
1164.730898
0
LINE
8
Layer 1
10
-908.090547
20
1164.730898
11
-906.117188
21
1160.594687
0
LINE
8
Layer 1
10
-906.117188
20
1160.594687
11
-903.992422
21
1156.514258
0
LINE
8
Layer 1
10
-903.992422
20
1156.514258
11
-901.723750
21
1152.502500
0
LINE
8
Layer 1
10
-901.723750
20
1152.502500
11
-899.318672
21
1148.572305
0
LINE
8
Layer 1
10
-899.318672
20
1148.572305
11
-896.784688
21
1144.736562
0
LINE
8
Layer 1
10
-896.784688
20
1144.736562
11
-894.129297
21
1141.008164
0
LINE
8
Layer 1
10
-894.129297
20
1141.008164
11
-891.360000
21
1137.400000
0
LINE
8
Layer 1
10
-891.360000
20
1137.400000
11
-887.410062
21
1132.676406
0
LINE
8
Layer 1
10
-887.410062
20
1132.676406
11
-883.222750
21
1128.118750
0
LINE
8
Layer 1
10
-883.222750
20
1128.118750
11
-878.861813
21
1123.791719
0
LINE
8
Layer 1
10
-878.861813
20
1123.791719
11
-874.391000
21
1119.760000
0
LINE
8
Layer 1
10
-874.391000
20
1119.760000
11
-872.802000
21
1118.390000
0
LINE
8
Layer 1
10
-872.802000
20
1118.390000
11
-872.572000
21
1118.190000
0
LINE
8
Layer 1
10
-872.572000
20
1118.190000
11
-871.934000
21
1118.800000
0
LINE
8
Layer 1
10
-871.934000
20
1118.800000
11
-866.735719
21
1124.006094
0
LINE
8
Layer 1
10
-866.735719
20
1124.006094
11
-862.065250
21
1129.113750
0
LINE
8
Layer 1
10
-862.065250
20
1129.113750
11
-857.760406
21
1134.309531
0
LINE
8
Layer 1
10
-857.760406
20
1134.309531
11
-853.659000
21
1139.780000
0
LINE
8
Layer 1
10
-853.659000
20
1139.780000
11
-848.761941
21
1147.104219
0
LINE
8
Layer 1
10
-848.761941
20
1147.104219
11
-844.329156
21
1154.710625
0
LINE
8
Layer 1
10
-844.329156
20
1154.710625
11
-840.371730
21
1162.571094
0
LINE
8
Layer 1
10
-840.371730
20
1162.571094
11
-836.900750
21
1170.657500
0
LINE
8
Layer 1
10
-836.900750
20
1170.657500
11
-833.927301
21
1178.941719
0
LINE
8
Layer 1
10
-833.927301
20
1178.941719
11
-831.462469
21
1187.395625
0
LINE
8
Layer 1
10
-831.462469
20
1187.395625
11
-829.517340
21
1195.991094
0
LINE
8
Layer 1
10
-829.517340
20
1195.991094
11
-828.103000
21
1204.700000
0
LINE
8
Layer 1
10
-828.103000
20
1204.700000
11
-827.550025
21
1209.550820
0
LINE
8
Layer 1
10
-827.550025
20
1209.550820
11
-827.161641
21
1214.387813
0
LINE
8
Layer 1
10
-827.161641
20
1214.387813
11
-826.937904
21
1219.217773
0
LINE
8
Layer 1
10
-826.937904
20
1219.217773
11
-826.878875
21
1224.047500
0
LINE
8
Layer 1
10
-826.878875
20
1224.047500
11
-826.984611
21
1228.883789
0
LINE
8
Layer 1
10
-826.984611
20
1228.883789
11
-827.255172
21
1233.733438
0
LINE
8
Layer 1
10
-827.255172
20
1233.733438
11
-827.690615
21
1238.603242
0
LINE
8
Layer 1
10
-827.690615
20
1238.603242
11
-828.291000
21
1243.500000
0
LINE
8
Layer 1
10
-828.291000
20
1243.500000
11
-828.542000
21
1245.300000
0
LINE
8
Layer 1
10
-828.542000
20
1245.300000
11
-828.543000
21
1245.300000
0
LINE
8
Layer 1
10
-828.543000
20
1245.300000
11
-828.654000
21
1245.390000
0
LINE
8
Layer 1
10
-828.654000
20
1245.390000
11
-829.624000
21
1252.390000
0
LINE
8
Layer 1
10
-829.624000
20
1252.390000
11
-829.811000
21
1252.950000
0
LINE
8
Layer 1
10
-829.811000
20
1252.950000
11
-831.439188
21
1258.600313
0
LINE
8
Layer 1
10
-831.439188
20
1258.600313
11
-833.589000
21
1265.452500
0
LINE
8
Layer 1
10
-833.589000
20
1265.452500
11
-835.531062
21
1271.250938
0
LINE
8
Layer 1
10
-835.531062
20
1271.250938
11
-836.536000
21
1273.740000
0
LINE
8
Layer 1
10
-836.536000
20
1273.740000
11
-836.784000
21
1274.400000
0
LINE
8
Layer 1
10
-836.784000
20
1274.400000
11
-837.601938
21
1276.935000
0
LINE
8
Layer 1
10
-837.601938
20
1276.935000
11
-839.343500
21
1281.405000
0
LINE
8
Layer 1
10
-839.343500
20
1281.405000
11
-843.772000
21
1291.650000
0
LINE
8
Layer 1
10
-843.772000
20
1291.650000
11
-846.357500
21
1296.902500
0
LINE
8
Layer 1
10
-846.357500
20
1296.902500
11
-848.022000
21
1299.980000
0
LINE
8
Layer 1
10
-848.022000
20
1299.980000
11
-848.175000
21
1299.920000
0
LINE
8
Layer 1
10
-848.175000
20
1299.920000
11
-848.288375
21
1299.883750
0
LINE
8
Layer 1
10
-848.288375
20
1299.883750
11
-848.566000
21
1300.440000
0
LINE
8
Layer 1
10
-848.566000
20
1300.440000
11
-848.694000
21
1301.050000
0
LINE
8
Layer 1
10
-848.694000
20
1301.050000
11
-848.851500
21
1301.532500
0
LINE
8
Layer 1
10
-848.851500
20
1301.532500
11
-849.795000
21
1303.170000
0
LINE
8
Layer 1
10
-849.795000
20
1303.170000
11
-853.558000
21
1309.070000
0
LINE
8
Layer 1
10
-853.558000
20
1309.070000
11
-858.979000
21
1304.900000
0
LINE
8
Layer 1
10
-858.979000
20
1304.900000
11
-858.267000
21
1303.860000
0
LINE
8
Layer 1
10
-858.267000
20
1303.860000
11
-855.136469
21
1298.994219
0
LINE
8
Layer 1
10
-855.136469
20
1298.994219
11
-852.065750
21
1293.516250
0
LINE
8
Layer 1
10
-852.065750
20
1293.516250
11
-849.113156
21
1287.537656
0
LINE
8
Layer 1
10
-849.113156
20
1287.537656
11
-846.337000
21
1281.170000
0
LINE
8
Layer 1
10
-846.337000
20
1281.170000
11
-843.641547
21
1274.120000
0
LINE
8
Layer 1
10
-843.641547
20
1274.120000
11
-841.126375
21
1266.635000
0
LINE
8
Layer 1
10
-841.126375
20
1266.635000
11
-838.854766
21
1258.917500
0
LINE
8
Layer 1
10
-838.854766
20
1258.917500
11
-836.890000
21
1251.170000
0
LINE
8
Layer 1
10
-836.890000
20
1251.170000
11
-836.318000
21
1249.220000
0
LINE
8
Layer 1
10
-836.318000
20
1249.220000
11
-836.181000
21
1249.020000
0
LINE
8
Layer 1
10
-836.181000
20
1249.020000
11
-836.276000
21
1248.980000
0
LINE
8
Layer 1
10
-836.276000
20
1248.980000
11
-835.739000
21
1245.850000
0
LINE
8
Layer 1
10
-835.739000
20
1245.850000
11
-835.142000
21
1242.530000
0
LINE
8
Layer 1
10
-835.142000
20
1242.530000
11
-835.009000
21
1241.170000
0
LINE
8
Layer 1
10
-835.009000
20
1241.170000
11
-834.368002
21
1235.372324
0
LINE
8
Layer 1
10
-834.368002
20
1235.372324
11
-833.985391
21
1229.489219
0
LINE
8
Layer 1
10
-833.985391
20
1229.489219
11
-833.859865
21
1223.550566
0
LINE
8
Layer 1
10
-833.859865
20
1223.550566
11
-833.990125
21
1217.586250
0
LINE
8
Layer 1
10
-833.990125
20
1217.586250
11
-834.374869
21
1211.626152
0
LINE
8
Layer 1
10
-834.374869
20
1211.626152
11
-835.012797
21
1205.700156
0
LINE
8
Layer 1
10
-835.012797
20
1205.700156
11
-835.902607
21
1199.838145
0
LINE
8
Layer 1
10
-835.902607
20
1199.838145
11
-837.043000
21
1194.070000
0
LINE
8
Layer 1
10
-837.043000
20
1194.070000
11
-838.420787
21
1188.394062
0
LINE
8
Layer 1
10
-838.420787
20
1188.394062
11
-840.013672
21
1182.840000
0
LINE
8
Layer 1
10
-840.013672
20
1182.840000
11
-841.826939
21
1177.394687
0
LINE
8
Layer 1
10
-841.826939
20
1177.394687
11
-843.865875
21
1172.045000
0
LINE
8
Layer 1
10
-843.865875
20
1172.045000
11
-846.135764
21
1166.777813
0
LINE
8
Layer 1
10
-846.135764
20
1166.777813
11
-848.641891
21
1161.580000
0
LINE
8
Layer 1
10
-848.641891
20
1161.580000
11
-851.389541
21
1156.438437
0
LINE
8
Layer 1
10
-851.389541
20
1156.438437
11
-854.384000
21
1151.340000
0
LINE
8
Layer 1
10
-854.384000
20
1151.340000
11
-859.178000
21
1144.110000
0
LINE
8
Layer 1
10
-859.178000
20
1144.110000
11
-862.219234
21
1140.013281
0
LINE
8
Layer 1
10
-862.219234
20
1140.013281
11
-865.363125
21
1136.078750
0
LINE
8
Layer 1
10
-865.363125
20
1136.078750
11
-868.664703
21
1132.239844
0
LINE
8
Layer 1
10
-868.664703
20
1132.239844
11
-872.179000
21
1128.430000
0
LINE
8
Layer 1
10
-872.179000
20
1128.430000
11
-872.708625
21
1127.920000
0
LINE
8
Layer 1
10
-872.708625
20
1127.920000
11
-872.930000
21
1127.890000
0
LINE
8
Layer 1
10
-872.930000
20
1127.890000
11
-875.643625
21
1130.460000
0
LINE
8
Layer 1
10
-875.643625
20
1130.460000
11
-879.432000
21
1134.320000
0
LINE
8
Layer 1
10
-879.432000
20
1134.320000
11
-884.640734
21
1140.259609
0
LINE
8
Layer 1
10
-884.640734
20
1140.259609
11
-889.440250
21
1146.489375
0
LINE
8
Layer 1
10
-889.440250
20
1146.489375
11
-893.823141
21
1152.995703
0
LINE
8
Layer 1
10
-893.823141
20
1152.995703
11
-897.782000
21
1159.765000
0
LINE
8
Layer 1
10
-897.782000
20
1159.765000
11
-901.309422
21
1166.783672
0
LINE
8
Layer 1
10
-901.309422
20
1166.783672
11
-904.398000
21
1174.038125
0
LINE
8
Layer 1
10
-904.398000
20
1174.038125
11
-907.040328
21
1181.514766
0
LINE
8
Layer 1
10
-907.040328
20
1181.514766
11
-909.229000
21
1189.200000
0
LINE
8
Layer 1
10
-909.229000
20
1189.200000
11
-910.752875
21
1196.398750
0
LINE
8
Layer 1
10
-910.752875
20
1196.398750
11
-911.937000
21
1203.890000
0
LINE
8
Layer 1
10
-911.937000
20
1203.890000
11
-912.458691
21
1208.983105
0
LINE
8
Layer 1
10
-912.458691
20
1208.983105
11
-912.769094
21
1214.076094
0
LINE
8
Layer 1
10
-912.769094
20
1214.076094
11
-912.868324
21
1219.166973
0
LINE
8
Layer 1
10
-912.868324
20
1219.166973
11
-912.756500
21
1224.253750
0
LINE
8
Layer 1
10
-912.756500
20
1224.253750
11
-912.433738
21
1229.334434
0
LINE
8
Layer 1
10
-912.433738
20
1229.334434
11
-911.900156
21
1234.407031
0
LINE
8
Layer 1
10
-911.900156
20
1234.407031
11
-911.155871
21
1239.469551
0
LINE
8
Layer 1
10
-911.155871
20
1239.469551
11
-910.201000
21
1244.520000
0
LINE
8
Layer 1
10
-910.201000
20
1244.520000
11
-909.308000
21
1248.350000
0
LINE
8
Layer 1
10
-909.308000
20
1248.350000
11
-915.850000
21
1251.160000
0
LINE
8
Layer 1
10
-915.850000
20
1251.160000
11
-915.850000
21
1251.160000
0
LINE
8
Layer 1
10
-751.003000
20
1283.180000
11
-755.793000
21
1290.380000
0
LINE
8
Layer 1
10
-755.793000
20
1290.380000
11
-758.875000
21
1294.490000
0
LINE
8
Layer 1
10
-758.875000
20
1294.490000
11
-759.780000
21
1295.630000
0
LINE
8
Layer 1
10
-759.780000
20
1295.630000
11
-762.945375
21
1299.501250
0
LINE
8
Layer 1
10
-762.945375
20
1299.501250
11
-765.858000
21
1302.840000
0
LINE
8
Layer 1
10
-765.858000
20
1302.840000
11
-766.446000
21
1302.410000
0
LINE
8
Layer 1
10
-766.446000
20
1302.410000
11
-768.921000
21
1300.030000
0
LINE
8
Layer 1
10
-768.921000
20
1300.030000
11
-770.579875
21
1298.398750
0
LINE
8
Layer 1
10
-770.579875
20
1298.398750
11
-770.778797
21
1298.132969
0
LINE
8
Layer 1
10
-770.778797
20
1298.132969
11
-770.750000
21
1298.020000
0
LINE
8
Layer 1
10
-770.750000
20
1298.020000
11
-766.604000
21
1293.460000
0
LINE
8
Layer 1
10
-766.604000
20
1293.460000
11
-764.270828
21
1290.576406
0
LINE
8
Layer 1
10
-764.270828
20
1290.576406
11
-762.186375
21
1287.761250
0
LINE
8
Layer 1
10
-762.186375
20
1287.761250
11
-758.005000
21
1281.260000
0
LINE
8
Layer 1
10
-758.005000
20
1281.260000
11
-755.128875
21
1276.237500
0
LINE
8
Layer 1
10
-755.128875
20
1276.237500
11
-752.537000
21
1271.050000
0
LINE
8
Layer 1
10
-752.537000
20
1271.050000
11
-750.130594
21
1265.663594
0
LINE
8
Layer 1
10
-750.130594
20
1265.663594
11
-747.864250
21
1259.938750
0
LINE
8
Layer 1
10
-747.864250
20
1259.938750
11
-745.785031
21
1254.002031
0
LINE
8
Layer 1
10
-745.785031
20
1254.002031
11
-743.940000
21
1247.980000
0
LINE
8
Layer 1
10
-743.940000
20
1247.980000
11
-743.268000
21
1246.090000
0
LINE
8
Layer 1
10
-743.268000
20
1246.090000
11
-743.092875
21
1245.955000
0
LINE
8
Layer 1
10
-743.092875
20
1245.955000
11
-743.214000
21
1245.880000
0
LINE
8
Layer 1
10
-743.214000
20
1245.880000
11
-743.307625
21
1245.755000
0
LINE
8
Layer 1
10
-743.307625
20
1245.755000
11
-743.225000
21
1245.390000
0
LINE
8
Layer 1
10
-743.225000
20
1245.390000
11
-742.397000
21
1242.080000
0
LINE
8
Layer 1
10
-742.397000
20
1242.080000
11
-741.646000
21
1239.110000
0
LINE
8
Layer 1
10
-741.646000
20
1239.110000
11
-740.776000
21
1234.590000
0
LINE
8
Layer 1
10
-740.776000
20
1234.590000
11
-740.017605
21
1229.235117
0
LINE
8
Layer 1
10
-740.017605
20
1229.235117
11
-739.493656
21
1223.873437
0
LINE
8
Layer 1
10
-739.493656
20
1223.873437
11
-739.204129
21
1218.505664
0
LINE
8
Layer 1
10
-739.204129
20
1218.505664
11
-739.149000
21
1213.132500
0
LINE
8
Layer 1
10
-739.149000
20
1213.132500
11
-739.328246
21
1207.754648
0
LINE
8
Layer 1
10
-739.328246
20
1207.754648
11
-739.741844
21
1202.372813
0
LINE
8
Layer 1
10
-739.741844
20
1202.372813
11
-740.389770
21
1196.987695
0
LINE
8
Layer 1
10
-740.389770
20
1196.987695
11
-741.272000
21
1191.600000
0
LINE
8
Layer 1
10
-741.272000
20
1191.600000
11
-742.509125
21
1185.980000
0
LINE
8
Layer 1
10
-742.509125
20
1185.980000
11
-743.918000
21
1180.420000
0
LINE
8
Layer 1
10
-743.918000
20
1180.420000
11
-745.217615
21
1176.206501
0
LINE
8
Layer 1
10
-745.217615
20
1176.206501
11
-746.652639
21
1172.061074
0
LINE
8
Layer 1
10
-746.652639
20
1172.061074
11
-748.221839
21
1167.985696
0
LINE
8
Layer 1
10
-748.221839
20
1167.985696
11
-749.923984
21
1163.982344
0
LINE
8
Layer 1
10
-749.923984
20
1163.982344
11
-751.757843
21
1160.052996
0
LINE
8
Layer 1
10
-751.757843
20
1160.052996
11
-753.722182
21
1156.199629
0
LINE
8
Layer 1
10
-753.722182
20
1156.199629
11
-755.815770
21
1152.424221
0
LINE
8
Layer 1
10
-755.815770
20
1152.424221
11
-758.037375
21
1148.728750
0
LINE
8
Layer 1
10
-758.037375
20
1148.728750
11
-760.385765
21
1145.115193
0
LINE
8
Layer 1
10
-760.385765
20
1145.115193
11
-762.859709
21
1141.585527
0
LINE
8
Layer 1
10
-762.859709
20
1141.585527
11
-765.457974
21
1138.141731
0
LINE
8
Layer 1
10
-765.457974
20
1138.141731
11
-768.179328
21
1134.785781
0
LINE
8
Layer 1
10
-768.179328
20
1134.785781
11
-771.022540
21
1131.519656
0
LINE
8
Layer 1
10
-771.022540
20
1131.519656
11
-773.986377
21
1128.345332
0
LINE
8
Layer 1
10
-773.986377
20
1128.345332
11
-777.069608
21
1125.264788
0
LINE
8
Layer 1
10
-777.069608
20
1125.264788
11
-780.271000
21
1122.280000
0
LINE
8
Layer 1
10
-780.271000
20
1122.280000
11
-782.141500
21
1120.637500
0
LINE
8
Layer 1
10
-782.141500
20
1120.637500
11
-782.635000
21
1120.360000
0
LINE
8
Layer 1
10
-782.635000
20
1120.360000
11
-784.002000
21
1121.940000
0
LINE
8
Layer 1
10
-784.002000
20
1121.940000
11
-787.471719
21
1126.045781
0
LINE
8
Layer 1
10
-787.471719
20
1126.045781
11
-790.692250
21
1130.171250
0
LINE
8
Layer 1
10
-790.692250
20
1130.171250
11
-793.761656
21
1134.448594
0
LINE
8
Layer 1
10
-793.761656
20
1134.448594
11
-796.778000
21
1139.010000
0
LINE
8
Layer 1
10
-796.778000
20
1139.010000
11
-799.788709
21
1143.970176
0
LINE
8
Layer 1
10
-799.788709
20
1143.970176
11
-802.582047
21
1149.051406
0
LINE
8
Layer 1
10
-802.582047
20
1149.051406
11
-805.155330
21
1154.247246
0
LINE
8
Layer 1
10
-805.155330
20
1154.247246
11
-807.505875
21
1159.551250
0
LINE
8
Layer 1
10
-807.505875
20
1159.551250
11
-809.630998
21
1164.956973
0
LINE
8
Layer 1
10
-809.630998
20
1164.956973
11
-811.528016
21
1170.457969
0
LINE
8
Layer 1
10
-811.528016
20
1170.457969
11
-813.194244
21
1176.047793
0
LINE
8
Layer 1
10
-813.194244
20
1176.047793
11
-814.627000
21
1181.720000
0
LINE
8
Layer 1
10
-814.627000
20
1181.720000
11
-815.990537
21
1188.404609
0
LINE
8
Layer 1
10
-815.990537
20
1188.404609
11
-817.017172
21
1195.137500
0
LINE
8
Layer 1
10
-817.017172
20
1195.137500
11
-817.706564
21
1201.906016
0
LINE
8
Layer 1
10
-817.706564
20
1201.906016
11
-818.058375
21
1208.697500
0
LINE
8
Layer 1
10
-818.058375
20
1208.697500
11
-818.072264
21
1215.499297
0
LINE
8
Layer 1
10
-818.072264
20
1215.499297
11
-817.747891
21
1222.298750
0
LINE
8
Layer 1
10
-817.747891
20
1222.298750
11
-817.084916
21
1229.083203
0
LINE
8
Layer 1
10
-817.084916
20
1229.083203
11
-816.083000
21
1235.840000
0
LINE
8
Layer 1
10
-816.083000
20
1235.840000
11
-815.785000
21
1237.320000
0
LINE
8
Layer 1
10
-815.785000
20
1237.320000
11
-815.792000
21
1237.320000
0
LINE
8
Layer 1
10
-815.792000
20
1237.320000
11
-822.551000
21
1239.360000
0
LINE
8
Layer 1
10
-822.551000
20
1239.360000
11
-822.599000
21
1239.050000
0
LINE
8
Layer 1
10
-822.599000
20
1239.050000
11
-823.034000
21
1236.490000
0
LINE
8
Layer 1
10
-823.034000
20
1236.490000
11
-823.750531
21
1231.873572
0
LINE
8
Layer 1
10
-823.750531
20
1231.873572
11
-824.313400
21
1227.237324
0
LINE
8
Layer 1
10
-824.313400
20
1227.237324
11
-824.723027
21
1222.585813
0
LINE
8
Layer 1
10
-824.723027
20
1222.585813
11
-824.979828
21
1217.923594
0
LINE
8
Layer 1
10
-824.979828
20
1217.923594
11
-825.084221
21
1213.255222
0
LINE
8
Layer 1
10
-825.084221
20
1213.255222
11
-825.036623
21
1208.585254
0
LINE
8
Layer 1
10
-825.036623
20
1208.585254
11
-824.837452
21
1203.918245
0
LINE
8
Layer 1
10
-824.837452
20
1203.918245
11
-824.487125
21
1199.258750
0
LINE
8
Layer 1
10
-824.487125
20
1199.258750
11
-823.986060
21
1194.611326
0
LINE
8
Layer 1
10
-823.986060
20
1194.611326
11
-823.334674
21
1189.980527
0
LINE
8
Layer 1
10
-823.334674
20
1189.980527
11
-822.533385
21
1185.370911
0
LINE
8
Layer 1
10
-822.533385
20
1185.370911
11
-821.582609
21
1180.787031
0
LINE
8
Layer 1
10
-821.582609
20
1180.787031
11
-820.482766
21
1176.233445
0
LINE
8
Layer 1
10
-820.482766
20
1176.233445
11
-819.234271
21
1171.714707
0
LINE
8
Layer 1
10
-819.234271
20
1171.714707
11
-817.837544
21
1167.235374
0
LINE
8
Layer 1
10
-817.837544
20
1167.235374
11
-816.293000
21
1162.800000
0
LINE
8
Layer 1
10
-816.293000
20
1162.800000
11
-813.493629
21
1155.742324
0
LINE
8
Layer 1
10
-813.493629
20
1155.742324
11
-810.341781
21
1148.869219
0
LINE
8
Layer 1
10
-810.341781
20
1148.869219
11
-806.841980
21
1142.188066
0
LINE
8
Layer 1
10
-806.841980
20
1142.188066
11
-802.998750
21
1135.706250
0
LINE
8
Layer 1
10
-802.998750
20
1135.706250
11
-798.816613
21
1129.431152
0
LINE
8
Layer 1
10
-798.816613
20
1129.431152
11
-794.300094
21
1123.370156
0
LINE
8
Layer 1
10
-794.300094
20
1123.370156
11
-789.453715
21
1117.530645
0
LINE
8
Layer 1
10
-789.453715
20
1117.530645
11
-784.282000
21
1111.920000
0
LINE
8
Layer 1
10
-784.282000
20
1111.920000
11
-783.137000
21
1110.750000
0
LINE
8
Layer 1
10
-783.137000
20
1110.750000
11
-779.234000
21
1113.870000
0
LINE
8
Layer 1
10
-779.234000
20
1113.870000
11
-775.201803
21
1117.375430
0
LINE
8
Layer 1
10
-775.201803
20
1117.375430
11
-771.333797
21
1121.022187
0
LINE
8
Layer 1
10
-771.333797
20
1121.022187
11
-767.629361
21
1124.810977
0
LINE
8
Layer 1
10
-767.629361
20
1124.810977
11
-764.087875
21
1128.742500
0
LINE
8
Layer 1
10
-764.087875
20
1128.742500
11
-760.708717
21
1132.817461
0
LINE
8
Layer 1
10
-760.708717
20
1132.817461
11
-757.491266
21
1137.036562
0
LINE
8
Layer 1
10
-757.491266
20
1137.036562
11
-754.434900
21
1141.400508
0
LINE
8
Layer 1
10
-754.434900
20
1141.400508
11
-751.539000
21
1145.910000
0
LINE
8
Layer 1
10
-751.539000
20
1145.910000
11
-749.268031
21
1149.750806
0
LINE
8
Layer 1
10
-749.268031
20
1149.750806
11
-747.133564
21
1153.658320
0
LINE
8
Layer 1
10
-747.133564
20
1153.658320
11
-745.136632
21
1157.628940
0
LINE
8
Layer 1
10
-745.136632
20
1157.628940
11
-743.278266
21
1161.659062
0
LINE
8
Layer 1
10
-743.278266
20
1161.659062
11
-741.559499
21
1165.745083
0
LINE
8
Layer 1
10
-741.559499
20
1165.745083
11
-739.981365
21
1169.883398
0
LINE
8
Layer 1
10
-739.981365
20
1169.883398
11
-737.251125
21
1178.302500
0
LINE
8
Layer 1
10
-737.251125
20
1178.302500
11
-735.095807
21
1186.887539
0
LINE
8
Layer 1
10
-735.095807
20
1186.887539
11
-734.236325
21
1191.233276
0
LINE
8
Layer 1
10
-734.236325
20
1191.233276
11
-733.523672
21
1195.609687
0
LINE
8
Layer 1
10
-733.523672
20
1195.609687
11
-732.958880
21
1200.013169
0
LINE
8
Layer 1
10
-732.958880
20
1200.013169
11
-732.542982
21
1204.440117
0
LINE
8
Layer 1
10
-732.542982
20
1204.440117
11
-732.277011
21
1208.886929
0
LINE
8
Layer 1
10
-732.277011
20
1208.886929
11
-732.162000
21
1213.350000
0
LINE
8
Layer 1
10
-732.162000
20
1213.350000
11
-732.288812
21
1220.148281
0
LINE
8
Layer 1
10
-732.288812
20
1220.148281
11
-732.776750
21
1227.033750
0
LINE
8
Layer 1
10
-732.776750
20
1227.033750
11
-733.611562
21
1233.857344
0
LINE
8
Layer 1
10
-733.611562
20
1233.857344
11
-734.779000
21
1240.470000
0
LINE
8
Layer 1
10
-734.779000
20
1240.470000
11
-735.082000
21
1242.090000
0
LINE
8
Layer 1
10
-735.082000
20
1242.090000
11
-735.199000
21
1242.160000
0
LINE
8
Layer 1
10
-735.199000
20
1242.160000
11
-736.668000
21
1249.090000
0
LINE
8
Layer 1
10
-736.668000
20
1249.090000
11
-736.592000
21
1249.210000
0
LINE
8
Layer 1
10
-736.592000
20
1249.210000
11
-736.583000
21
1249.210000
0
LINE
8
Layer 1
10
-736.583000
20
1249.210000
11
-736.856000
21
1250.240000
0
LINE
8
Layer 1
10
-736.856000
20
1250.240000
11
-738.199359
21
1255.070000
0
LINE
8
Layer 1
10
-738.199359
20
1255.070000
11
-739.895875
21
1260.215000
0
LINE
8
Layer 1
10
-739.895875
20
1260.215000
11
-741.770703
21
1265.180000
0
LINE
8
Layer 1
10
-741.770703
20
1265.180000
11
-743.649000
21
1269.470000
0
LINE
8
Layer 1
10
-743.649000
20
1269.470000
11
-744.342000
21
1270.930000
0
LINE
8
Layer 1
10
-744.342000
20
1270.930000
11
-747.398750
21
1276.983750
0
LINE
8
Layer 1
10
-747.398750
20
1276.983750
11
-751.003000
21
1283.180000
0
LINE
8
Layer 1
10
-751.003000
20
1283.180000
11
-751.003000
21
1283.180000
0
LINE
8
Layer 1
10
-751.003000
20
1283.180000
11
-751.003000
21
1283.180000
0
LINE
8
Layer 1
10
-848.933000
20
1340.810000
11
-849.870000
21
1339.950000
0
LINE
8
Layer 1
10
-849.870000
20
1339.950000
11
-857.502000
21
1332.270000
0
LINE
8
Layer 1
10
-857.502000
20
1332.270000
11
-862.505922
21
1326.531094
0
LINE
8
Layer 1
10
-862.505922
20
1326.531094
11
-867.063125
21
1320.753750
0
LINE
8
Layer 1
10
-867.063125
20
1320.753750
11
-871.262016
21
1314.817031
0
LINE
8
Layer 1
10
-871.262016
20
1314.817031
11
-875.191000
21
1308.600000
0
LINE
8
Layer 1
10
-875.191000
20
1308.600000
11
-879.206977
21
1301.433535
0
LINE
8
Layer 1
10
-879.206977
20
1301.433535
11
-882.799250
21
1294.068906
0
LINE
8
Layer 1
10
-882.799250
20
1294.068906
11
-885.961961
21
1286.524512
0
LINE
8
Layer 1
10
-885.961961
20
1286.524512
11
-888.689250
21
1278.818750
0
LINE
8
Layer 1
10
-888.689250
20
1278.818750
11
-890.975258
21
1270.970020
0
LINE
8
Layer 1
10
-890.975258
20
1270.970020
11
-892.814125
21
1262.996719
0
LINE
8
Layer 1
10
-892.814125
20
1262.996719
11
-894.199992
21
1254.917246
0
LINE
8
Layer 1
10
-894.199992
20
1254.917246
11
-895.127000
21
1246.750000
0
LINE
8
Layer 1
10
-895.127000
20
1246.750000
11
-895.498250
21
1241.097500
0
LINE
8
Layer 1
10
-895.498250
20
1241.097500
11
-895.586000
21
1234.650000
0
LINE
8
Layer 1
10
-895.586000
20
1234.650000
11
-895.497750
21
1228.182500
0
LINE
8
Layer 1
10
-895.497750
20
1228.182500
11
-895.126000
21
1222.540000
0
LINE
8
Layer 1
10
-895.126000
20
1222.540000
11
-894.182625
21
1214.272500
0
LINE
8
Layer 1
10
-894.182625
20
1214.272500
11
-892.796000
21
1206.200000
0
LINE
8
Layer 1
10
-892.796000
20
1206.200000
11
-892.510000
21
1204.510000
0
LINE
8
Layer 1
10
-892.510000
20
1204.510000
11
-892.446000
21
1204.440000
0
LINE
8
Layer 1
10
-892.446000
20
1204.440000
11
-891.113000
21
1197.250000
0
LINE
8
Layer 1
10
-891.113000
20
1197.250000
11
-891.145000
21
1197.150000
0
LINE
8
Layer 1
10
-891.145000
20
1197.150000
11
-890.692000
21
1195.550000
0
LINE
8
Layer 1
10
-890.692000
20
1195.550000
11
-888.555000
21
1187.540000
0
LINE
8
Layer 1
10
-888.555000
20
1187.540000
11
-887.760000
21
1184.860000
0
LINE
8
Layer 1
10
-887.760000
20
1184.860000
11
-885.953250
21
1179.548750
0
LINE
8
Layer 1
10
-885.953250
20
1179.548750
11
-884.328000
21
1175.400000
0
LINE
8
Layer 1
10
-884.328000
20
1175.400000
11
-884.080000
21
1174.790000
0
LINE
8
Layer 1
10
-884.080000
20
1174.790000
11
-882.732250
21
1171.403750
0
LINE
8
Layer 1
10
-882.732250
20
1171.403750
11
-879.994000
21
1165.520000
0
LINE
8
Layer 1
10
-879.994000
20
1165.520000
11
-877.508422
21
1160.743125
0
LINE
8
Layer 1
10
-877.508422
20
1160.743125
11
-874.962375
21
1156.337500
0
LINE
8
Layer 1
10
-874.962375
20
1156.337500
11
-872.269891
21
1152.160625
0
LINE
8
Layer 1
10
-872.269891
20
1152.160625
11
-869.345000
21
1148.070000
0
LINE
8
Layer 1
10
-869.345000
20
1148.070000
11
-866.080625
21
1143.945000
0
LINE
8
Layer 1
10
-866.080625
20
1143.945000
11
-864.137000
21
1141.770000
0
LINE
8
Layer 1
10
-864.137000
20
1141.770000
11
-859.253000
21
1147.200000
0
LINE
8
Layer 1
10
-859.253000
20
1147.200000
11
-859.352500
21
1147.542500
0
LINE
8
Layer 1
10
-859.352500
20
1147.542500
11
-860.325000
21
1148.710000
0
LINE
8
Layer 1
10
-860.325000
20
1148.710000
11
-863.422473
21
1152.489824
0
LINE
8
Layer 1
10
-863.422473
20
1152.489824
11
-866.359844
21
1156.516094
0
LINE
8
Layer 1
10
-866.359844
20
1156.516094
11
-869.136668
21
1160.787754
0
LINE
8
Layer 1
10
-869.136668
20
1160.787754
11
-871.752500
21
1165.303750
0
LINE
8
Layer 1
10
-871.752500
20
1165.303750
11
-874.206895
21
1170.063027
0
LINE
8
Layer 1
10
-874.206895
20
1170.063027
11
-876.499406
21
1175.064531
0
LINE
8
Layer 1
10
-876.499406
20
1175.064531
11
-878.629590
21
1180.307207
0
LINE
8
Layer 1
10
-878.629590
20
1180.307207
11
-880.597000
21
1185.790000
0
LINE
8
Layer 1
10
-880.597000
20
1185.790000
11
-882.130437
21
1190.658437
0
LINE
8
Layer 1
10
-882.130437
20
1190.658437
11
-883.521750
21
1195.690000
0
LINE
8
Layer 1
10
-883.521750
20
1195.690000
11
-884.722938
21
1200.699062
0
LINE
8
Layer 1
10
-884.722938
20
1200.699062
11
-885.686000
21
1205.500000
0
LINE
8
Layer 1
10
-885.686000
20
1205.500000
11
-887.505000
21
1216.820000
0
LINE
8
Layer 1
10
-887.505000
20
1216.820000
11
-888.276999
21
1224.355022
0
LINE
8
Layer 1
10
-888.276999
20
1224.355022
11
-888.631664
21
1231.878457
0
LINE
8
Layer 1
10
-888.631664
20
1231.878457
11
-888.573935
21
1239.374734
0
LINE
8
Layer 1
10
-888.573935
20
1239.374734
11
-888.108750
21
1246.828281
0
LINE
8
Layer 1
10
-888.108750
20
1246.828281
11
-887.241050
21
1254.223528
0
LINE
8
Layer 1
10
-887.241050
20
1254.223528
11
-885.975773
21
1261.544902
0
LINE
8
Layer 1
10
-885.975773
20
1261.544902
11
-884.317860
21
1268.776833
0
LINE
8
Layer 1
10
-884.317860
20
1268.776833
11
-882.272250
21
1275.903750
0
LINE
8
Layer 1
10
-882.272250
20
1275.903750
11
-879.843882
21
1282.910081
0
LINE
8
Layer 1
10
-879.843882
20
1282.910081
11
-877.037695
21
1289.780254
0
LINE
8
Layer 1
10
-877.037695
20
1289.780254
11
-873.858630
21
1296.498699
0
LINE
8
Layer 1
10
-873.858630
20
1296.498699
11
-870.311625
21
1303.049844
0
LINE
8
Layer 1
10
-870.311625
20
1303.049844
11
-866.401620
21
1309.418118
0
LINE
8
Layer 1
10
-866.401620
20
1309.418118
11
-862.133555
21
1315.587949
0
LINE
8
Layer 1
10
-862.133555
20
1315.587949
11
-857.512368
21
1321.543767
0
LINE
8
Layer 1
10
-857.512368
20
1321.543767
11
-852.543000
21
1327.270000
0
LINE
8
Layer 1
10
-852.543000
20
1327.270000
11
-848.967000
21
1330.980000
0
LINE
8
Layer 1
10
-848.967000
20
1330.980000
11
-847.735000
21
1329.800000
0
LINE
8
Layer 1
10
-847.735000
20
1329.800000
11
-844.027882
21
1325.803728
0
LINE
8
Layer 1
10
-844.027882
20
1325.803728
11
-840.492977
21
1321.678418
0
LINE
8
Layer 1
10
-840.492977
20
1321.678418
11
-837.132833
21
1317.429329
0
LINE
8
Layer 1
10
-837.132833
20
1317.429329
11
-833.950000
21
1313.061719
0
LINE
8
Layer 1
10
-833.950000
20
1313.061719
11
-830.947026
21
1308.580847
0
LINE
8
Layer 1
10
-830.947026
20
1308.580847
11
-828.126461
21
1303.991973
0
LINE
8
Layer 1
10
-828.126461
20
1303.991973
11
-825.490853
21
1299.300354
0
LINE
8
Layer 1
10
-825.490853
20
1299.300354
11
-823.042750
21
1294.511250
0
LINE
8
Layer 1
10
-823.042750
20
1294.511250
11
-820.784702
21
1289.629919
0
LINE
8
Layer 1
10
-820.784702
20
1289.629919
11
-818.719258
21
1284.661621
0
LINE
8
Layer 1
10
-818.719258
20
1284.661621
11
-816.848966
21
1279.611614
0
LINE
8
Layer 1
10
-816.848966
20
1279.611614
11
-815.176375
21
1274.485156
0
LINE
8
Layer 1
10
-815.176375
20
1274.485156
11
-813.704034
21
1269.287507
0
LINE
8
Layer 1
10
-813.704034
20
1269.287507
11
-812.434492
21
1264.023926
0
LINE
8
Layer 1
10
-812.434492
20
1264.023926
11
-811.370298
21
1258.699670
0
LINE
8
Layer 1
10
-811.370298
20
1258.699670
11
-810.514000
21
1253.320000
0
LINE
8
Layer 1
10
-810.514000
20
1253.320000
11
-809.860277
21
1247.744531
0
LINE
8
Layer 1
10
-809.860277
20
1247.744531
11
-809.438469
21
1242.117500
0
LINE
8
Layer 1
10
-809.438469
20
1242.117500
11
-809.247988
21
1236.460469
0
LINE
8
Layer 1
10
-809.247988
20
1236.460469
11
-809.288250
21
1230.795000
0
LINE
8
Layer 1
10
-809.288250
20
1230.795000
11
-809.558668
21
1225.142656
0
LINE
8
Layer 1
10
-809.558668
20
1225.142656
11
-810.058656
21
1219.525000
0
LINE
8
Layer 1
10
-810.058656
20
1219.525000
11
-810.787629
21
1213.963594
0
LINE
8
Layer 1
10
-810.787629
20
1213.963594
11
-811.745000
21
1208.480000
0
LINE
8
Layer 1
10
-811.745000
20
1208.480000
11
-812.088000
21
1206.810000
0
LINE
8
Layer 1
10
-812.088000
20
1206.810000
11
-812.036000
21
1206.800000
0
LINE
8
Layer 1
10
-812.036000
20
1206.800000
11
-805.388000
21
1204.430000
0
LINE
8
Layer 1
10
-805.388000
20
1204.430000
11
-805.037000
21
1206.490000
0
LINE
8
Layer 1
10
-805.037000
20
1206.490000
11
-803.567000
21
1215.272500
0
LINE
8
Layer 1
10
-803.567000
20
1215.272500
11
-802.637000
21
1224.190000
0
LINE
8
Layer 1
10
-802.637000
20
1224.190000
11
-802.364500
21
1229.022500
0
LINE
8
Layer 1
10
-802.364500
20
1229.022500
11
-802.299000
21
1234.650000
0
LINE
8
Layer 1
10
-802.299000
20
1234.650000
11
-802.362625
21
1240.257500
0
LINE
8
Layer 1
10
-802.362625
20
1240.257500
11
-802.637000
21
1245.100000
0
LINE
8
Layer 1
10
-802.637000
20
1245.100000
11
-803.283202
21
1251.775117
0
LINE
8
Layer 1
10
-803.283202
20
1251.775117
11
-804.232307
21
1258.384375
0
LINE
8
Layer 1
10
-804.232307
20
1258.384375
11
-805.479996
21
1264.918633
0
LINE
8
Layer 1
10
-805.479996
20
1264.918633
11
-807.021953
21
1271.368750
0
LINE
8
Layer 1
10
-807.021953
20
1271.368750
11
-808.853862
21
1277.725586
0
LINE
8
Layer 1
10
-808.853862
20
1277.725586
11
-810.971404
21
1283.980000
0
LINE
8
Layer 1
10
-810.971404
20
1283.980000
11
-813.370264
21
1290.122852
0
LINE
8
Layer 1
10
-813.370264
20
1290.122852
11
-816.046125
21
1296.145000
0
LINE
8
Layer 1
10
-816.046125
20
1296.145000
11
-818.994669
21
1302.037305
0
LINE
8
Layer 1
10
-818.994669
20
1302.037305
11
-822.211580
21
1307.790625
0
LINE
8
Layer 1
10
-822.211580
20
1307.790625
11
-825.692541
21
1313.395820
0
LINE
8
Layer 1
10
-825.692541
20
1313.395820
11
-829.433234
21
1318.843750
0
LINE
8
Layer 1
10
-829.433234
20
1318.843750
11
-833.429344
21
1324.125273
0
LINE
8
Layer 1
10
-833.429344
20
1324.125273
11
-837.676553
21
1329.231250
0
LINE
8
Layer 1
10
-837.676553
20
1329.231250
11
-842.170544
21
1334.152539
0
LINE
8
Layer 1
10
-842.170544
20
1334.152539
11
-846.907000
21
1338.880000
0
LINE
8
Layer 1
10
-846.907000
20
1338.880000
11
-848.933000
21
1340.810000
0
LINE
8
Layer 1
10
-848.933000
20
1340.810000
11
-848.933000
21
1340.810000
0
LINE
8
Layer 1
10
-644.494000
20
1241.420000
11
-645.633000
21
1236.220000
0
LINE
8
Layer 1
10
-645.633000
20
1236.220000
11
-646.832781
21
1228.577656
0
LINE
8
Layer 1
10
-646.832781
20
1228.577656
11
-647.552750
21
1220.891250
0
LINE
8
Layer 1
10
-647.552750
20
1220.891250
11
-647.791594
21
1213.184219
0
LINE
8
Layer 1
10
-647.791594
20
1213.184219
11
-647.548000
21
1205.480000
0
LINE
8
Layer 1
10
-647.548000
20
1205.480000
11
-647.031952
21
1199.560496
0
LINE
8
Layer 1
10
-647.031952
20
1199.560496
11
-646.236287
21
1193.695527
0
LINE
8
Layer 1
10
-646.236287
20
1193.695527
11
-645.165287
21
1187.894163
0
LINE
8
Layer 1
10
-645.165287
20
1187.894163
11
-643.823234
21
1182.165469
0
LINE
8
Layer 1
10
-643.823234
20
1182.165469
11
-642.214410
21
1176.518513
0
LINE
8
Layer 1
10
-642.214410
20
1176.518513
11
-640.343096
21
1170.962363
0
LINE
8
Layer 1
10
-640.343096
20
1170.962363
11
-638.213573
21
1165.506086
0
LINE
8
Layer 1
10
-638.213573
20
1165.506086
11
-635.830125
21
1160.158750
0
LINE
8
Layer 1
10
-635.830125
20
1160.158750
11
-633.197032
21
1154.929421
0
LINE
8
Layer 1
10
-633.197032
20
1154.929421
11
-630.318576
21
1149.827168
0
LINE
8
Layer 1
10
-630.318576
20
1149.827168
11
-627.199039
21
1144.861057
0
LINE
8
Layer 1
10
-627.199039
20
1144.861057
11
-623.842703
21
1140.040156
0
LINE
8
Layer 1
10
-623.842703
20
1140.040156
11
-620.253849
21
1135.373533
0
LINE
8
Layer 1
10
-620.253849
20
1135.373533
11
-616.436760
21
1130.870254
0
LINE
8
Layer 1
10
-616.436760
20
1130.870254
11
-612.395716
21
1126.539387
0
LINE
8
Layer 1
10
-612.395716
20
1126.539387
11
-608.135000
21
1122.390000
0
LINE
8
Layer 1
10
-608.135000
20
1122.390000
11
-606.810000
21
1121.200000
0
LINE
8
Layer 1
10
-606.810000
20
1121.200000
11
-604.414000
21
1123.750000
0
LINE
8
Layer 1
10
-604.414000
20
1123.750000
11
-601.176344
21
1127.442969
0
LINE
8
Layer 1
10
-601.176344
20
1127.442969
11
-598.194250
21
1131.093750
0
LINE
8
Layer 1
10
-598.194250
20
1131.093750
11
-595.382781
21
1134.810156
0
LINE
8
Layer 1
10
-595.382781
20
1134.810156
11
-592.657000
21
1138.700000
0
LINE
8
Layer 1
10
-592.657000
20
1138.700000
11
-588.108000
21
1145.810000
0
LINE
8
Layer 1
10
-588.108000
20
1145.810000
11
-585.021467
21
1151.287207
0
LINE
8
Layer 1
10
-585.021467
20
1151.287207
11
-582.191609
21
1156.895781
0
LINE
8
Layer 1
10
-582.191609
20
1156.895781
11
-579.622916
21
1162.623652
0
LINE
8
Layer 1
10
-579.622916
20
1162.623652
11
-577.319875
21
1168.458750
0
LINE
8
Layer 1
10
-577.319875
20
1168.458750
11
-575.286975
21
1174.389004
0
LINE
8
Layer 1
10
-575.286975
20
1174.389004
11
-573.528703
21
1180.402344
0
LINE
8
Layer 1
10
-573.528703
20
1180.402344
11
-572.049549
21
1186.486699
0
LINE
8
Layer 1
10
-572.049549
20
1186.486699
11
-570.854000
21
1192.630000
0
LINE
8
Layer 1
10
-570.854000
20
1192.630000
11
-570.059693
21
1197.908125
0
LINE
8
Layer 1
10
-570.059693
20
1197.908125
11
-569.470172
21
1203.223750
0
LINE
8
Layer 1
10
-569.470172
20
1203.223750
11
-569.085658
21
1208.560000
0
LINE
8
Layer 1
10
-569.085658
20
1208.560000
11
-568.906375
21
1213.900000
0
LINE
8
Layer 1
10
-568.906375
20
1213.900000
11
-568.932545
21
1219.226875
0
LINE
8
Layer 1
10
-568.932545
20
1219.226875
11
-569.164391
21
1224.523750
0
LINE
8
Layer 1
10
-569.164391
20
1224.523750
11
-569.602135
21
1229.773750
0
LINE
8
Layer 1
10
-569.602135
20
1229.773750
11
-570.246000
21
1234.960000
0
LINE
8
Layer 1
10
-570.246000
20
1234.960000
11
-570.399000
21
1236.390000
0
LINE
8
Layer 1
10
-570.399000
20
1236.390000
11
-571.026000
21
1239.620000
0
LINE
8
Layer 1
10
-571.026000
20
1239.620000
11
-571.584000
21
1242.760000
0
LINE
8
Layer 1
10
-571.584000
20
1242.760000
11
-571.608000
21
1242.840000
0
LINE
8
Layer 1
10
-571.608000
20
1242.840000
11
-572.093000
21
1244.350000
0
LINE
8
Layer 1
10
-572.093000
20
1244.350000
11
-574.001715
21
1251.638633
0
LINE
8
Layer 1
10
-574.001715
20
1251.638633
11
-576.118906
21
1258.722188
0
LINE
8
Layer 1
10
-576.118906
20
1258.722188
11
-578.426645
21
1265.555898
0
LINE
8
Layer 1
10
-578.426645
20
1265.555898
11
-580.907000
21
1272.095000
0
LINE
8
Layer 1
10
-580.907000
20
1272.095000
11
-583.542043
21
1278.294727
0
LINE
8
Layer 1
10
-583.542043
20
1278.294727
11
-586.313844
21
1284.110313
0
LINE
8
Layer 1
10
-586.313844
20
1284.110313
11
-589.204473
21
1289.496992
0
LINE
8
Layer 1
10
-589.204473
20
1289.496992
11
-592.196000
21
1294.410000
0
LINE
8
Layer 1
10
-592.196000
20
1294.410000
11
-594.900000
21
1298.260000
0
LINE
8
Layer 1
10
-594.900000
20
1298.260000
11
-604.542000
21
1289.230000
0
LINE
8
Layer 1
10
-604.542000
20
1289.230000
11
-603.739000
21
1287.810000
0
LINE
8
Layer 1
10
-603.739000
20
1287.810000
11
-600.323000
21
1281.817656
0
LINE
8
Layer 1
10
-600.323000
20
1281.817656
11
-596.876250
21
1274.573750
0
LINE
8
Layer 1
10
-596.876250
20
1274.573750
11
-593.394625
21
1266.067969
0
LINE
8
Layer 1
10
-593.394625
20
1266.067969
11
-589.874000
21
1256.290000
0
LINE
8
Layer 1
10
-589.874000
20
1256.290000
11
-589.107000
21
1254.000000
0
LINE
8
Layer 1
10
-589.107000
20
1254.000000
11
-589.035000
21
1253.930000
0
LINE
8
Layer 1
10
-589.035000
20
1253.930000
11
-585.095000
21
1241.020000
0
LINE
8
Layer 1
10
-585.095000
20
1241.020000
11
-585.106000
21
1240.940000
0
LINE
8
Layer 1
10
-585.106000
20
1240.940000
11
-584.512000
21
1238.800000
0
LINE
8
Layer 1
10
-584.512000
20
1238.800000
11
-583.526000
21
1235.200000
0
LINE
8
Layer 1
10
-583.526000
20
1235.200000
11
-583.109141
21
1233.178906
0
LINE
8
Layer 1
10
-583.109141
20
1233.178906
11
-582.711125
21
1230.386250
0
LINE
8
Layer 1
10
-582.711125
20
1230.386250
11
-582.083000
21
1223.390000
0
LINE
8
Layer 1
10
-582.083000
20
1223.390000
11
-581.890857
21
1218.980549
0
LINE
8
Layer 1
10
-581.890857
20
1218.980549
11
-581.858588
21
1214.571582
0
LINE
8
Layer 1
10
-581.858588
20
1214.571582
11
-581.985123
21
1210.167800
0
LINE
8
Layer 1
10
-581.985123
20
1210.167800
11
-582.269391
21
1205.773906
0
LINE
8
Layer 1
10
-582.269391
20
1205.773906
11
-582.710321
21
1201.394602
0
LINE
8
Layer 1
10
-582.710321
20
1201.394602
11
-583.306842
21
1197.034590
0
LINE
8
Layer 1
10
-583.306842
20
1197.034590
11
-584.057884
21
1192.698572
0
LINE
8
Layer 1
10
-584.057884
20
1192.698572
11
-584.962375
21
1188.391250
0
LINE
8
Layer 1
10
-584.962375
20
1188.391250
11
-586.019245
21
1184.117327
0
LINE
8
Layer 1
10
-586.019245
20
1184.117327
11
-587.227424
21
1179.881504
0
LINE
8
Layer 1
10
-587.227424
20
1179.881504
11
-588.585840
21
1175.688484
0
LINE
8
Layer 1
10
-588.585840
20
1175.688484
11
-590.093422
21
1171.542969
0
LINE
8
Layer 1
10
-590.093422
20
1171.542969
11
-591.749100
21
1167.449661
0
LINE
8
Layer 1
10
-591.749100
20
1167.449661
11
-593.551803
21
1163.413262
0
LINE
8
Layer 1
10
-593.551803
20
1163.413262
11
-595.500460
21
1159.438474
0
LINE
8
Layer 1
10
-595.500460
20
1159.438474
11
-597.594000
21
1155.530000
0
LINE
8
Layer 1
10
-597.594000
20
1155.530000
11
-600.372000
21
1150.840000
0
LINE
8
Layer 1
10
-600.372000
20
1150.840000
11
-600.408000
21
1150.790000
0
LINE
8
Layer 1
10
-600.408000
20
1150.790000
11
-603.784000
21
1145.600000
0
LINE
8
Layer 1
10
-603.784000
20
1145.600000
11
-603.832000
21
1145.530000
0
LINE
8
Layer 1
10
-603.832000
20
1145.530000
11
-607.038000
21
1141.050000
0
LINE
8
Layer 1
10
-607.038000
20
1141.050000
11
-607.615000
21
1140.490000
0
LINE
8
Layer 1
10
-607.615000
20
1140.490000
11
-609.555000
21
1142.751250
0
LINE
8
Layer 1
10
-609.555000
20
1142.751250
11
-612.539000
21
1146.550000
0
LINE
8
Layer 1
10
-612.539000
20
1146.550000
11
-615.702109
21
1150.978125
0
LINE
8
Layer 1
10
-615.702109
20
1150.978125
11
-618.618375
21
1155.515000
0
LINE
8
Layer 1
10
-618.618375
20
1155.515000
11
-621.312453
21
1160.201875
0
LINE
8
Layer 1
10
-621.312453
20
1160.201875
11
-623.809000
21
1165.080000
0
LINE
8
Layer 1
10
-623.809000
20
1165.080000
11
-626.957828
21
1172.237461
0
LINE
8
Layer 1
10
-626.957828
20
1172.237461
11
-629.586812
21
1179.580313
0
LINE
8
Layer 1
10
-629.586812
20
1179.580313
11
-631.690328
21
1187.075508
0
LINE
8
Layer 1
10
-631.690328
20
1187.075508
11
-633.262750
21
1194.690000
0
LINE
8
Layer 1
10
-633.262750
20
1194.690000
11
-634.298453
21
1202.390742
0
LINE
8
Layer 1
10
-634.298453
20
1202.390742
11
-634.791812
21
1210.144687
0
LINE
8
Layer 1
10
-634.791812
20
1210.144687
11
-634.737203
21
1217.918789
0
LINE
8
Layer 1
10
-634.737203
20
1217.918789
11
-634.129000
21
1225.680000
0
LINE
8
Layer 1
10
-634.129000
20
1225.680000
11
-633.408250
21
1230.967500
0
LINE
8
Layer 1
10
-633.408250
20
1230.967500
11
-632.512000
21
1235.790000
0
LINE
8
Layer 1
10
-632.512000
20
1235.790000
11
-632.200000
21
1237.390000
0
LINE
8
Layer 1
10
-632.200000
20
1237.390000
11
-633.021000
21
1237.690000
0
LINE
8
Layer 1
10
-633.021000
20
1237.690000
11
-637.746125
21
1239.123750
0
LINE
8
Layer 1
10
-637.746125
20
1239.123750
11
-642.580000
21
1240.760000
0
LINE
8
Layer 1
10
-642.580000
20
1240.760000
11
-644.494000
21
1241.420000
0
LINE
8
Layer 1
10
-644.494000
20
1241.420000
11
-644.494000
21
1241.420000
0
LINE
8
Layer 1
10
-644.494000
20
1241.420000
11
-644.494000
21
1241.420000
0
LINE
8
Layer 1
10
-511.079000
20
1263.840000
11
-514.049250
21
1267.956250
0
LINE
8
Layer 1
10
-514.049250
20
1267.956250
11
-517.132000
21
1271.780000
0
LINE
8
Layer 1
10
-517.132000
20
1271.780000
11
-519.744250
21
1274.687500
0
LINE
8
Layer 1
10
-519.744250
20
1274.687500
11
-522.262000
21
1277.250000
0
LINE
8
Layer 1
10
-522.262000
20
1277.250000
11
-523.437000
21
1278.380000
0
LINE
8
Layer 1
10
-523.437000
20
1278.380000
11
-523.516000
21
1278.430000
0
LINE
8
Layer 1
10
-523.516000
20
1278.430000
11
-531.783000
21
1268.180000
0
LINE
8
Layer 1
10
-531.783000
20
1268.180000
11
-529.039875
21
1265.377500
0
LINE
8
Layer 1
10
-529.039875
20
1265.377500
11
-526.002000
21
1261.840000
0
LINE
8
Layer 1
10
-526.002000
20
1261.840000
11
-523.471125
21
1258.582500
0
LINE
8
Layer 1
10
-523.471125
20
1258.582500
11
-521.049000
21
1255.160000
0
LINE
8
Layer 1
10
-521.049000
20
1255.160000
11
-518.187453
21
1250.712344
0
LINE
8
Layer 1
10
-518.187453
20
1250.712344
11
-515.558125
21
1246.136250
0
LINE
8
Layer 1
10
-515.558125
20
1246.136250
11
-513.105234
21
1241.307031
0
LINE
8
Layer 1
10
-513.105234
20
1241.307031
11
-510.773000
21
1236.100000
0
LINE
8
Layer 1
10
-510.773000
20
1236.100000
11
-510.740000
21
1236.120000
0
LINE
8
Layer 1
10
-510.740000
20
1236.120000
11
-510.612000
21
1236.060000
0
LINE
8
Layer 1
10
-510.612000
20
1236.060000
11
-505.905000
21
1223.310000
0
LINE
8
Layer 1
10
-505.905000
20
1223.310000
11
-505.907000
21
1223.240000
0
LINE
8
Layer 1
10
-505.907000
20
1223.240000
11
-505.963000
21
1223.180000
0
LINE
8
Layer 1
10
-505.963000
20
1223.180000
11
-505.967000
21
1223.180000
0
LINE
8
Layer 1
10
-505.967000
20
1223.180000
11
-504.811000
21
1219.270000
0
LINE
8
Layer 1
10
-504.811000
20
1219.270000
11
-504.024000
21
1215.990000
0
LINE
8
Layer 1
10
-504.024000
20
1215.990000
11
-503.752375
21
1214.898750
0
LINE
8
Layer 1
10
-503.752375
20
1214.898750
11
-503.288000
21
1212.630000
0
LINE
8
Layer 1
10
-503.288000
20
1212.630000
11
-502.510137
21
1208.301016
0
LINE
8
Layer 1
10
-502.510137
20
1208.301016
11
-501.908594
21
1203.918125
0
LINE
8
Layer 1
10
-501.908594
20
1203.918125
11
-501.483816
21
1199.494922
0
LINE
8
Layer 1
10
-501.483816
20
1199.494922
11
-501.236250
21
1195.045000
0
LINE
8
Layer 1
10
-501.236250
20
1195.045000
11
-501.166340
21
1190.581953
0
LINE
8
Layer 1
10
-501.166340
20
1190.581953
11
-501.274531
21
1186.119375
0
LINE
8
Layer 1
10
-501.274531
20
1186.119375
11
-501.561270
21
1181.670859
0
LINE
8
Layer 1
10
-501.561270
20
1181.670859
11
-502.027000
21
1177.250000
0
LINE
8
Layer 1
10
-502.027000
20
1177.250000
11
-502.640000
21
1173.050000
0
LINE
8
Layer 1
10
-502.640000
20
1173.050000
11
-502.669000
21
1172.970000
0
LINE
8
Layer 1
10
-502.669000
20
1172.970000
11
-502.709000
21
1172.770000
0
LINE
8
Layer 1
10
-502.709000
20
1172.770000
11
-502.692000
21
1172.760000
0
LINE
8
Layer 1
10
-502.692000
20
1172.760000
11
-504.183094
21
1165.414062
0
LINE
8
Layer 1
10
-504.183094
20
1165.414062
11
-506.162250
21
1158.182500
0
LINE
8
Layer 1
10
-506.162250
20
1158.182500
11
-508.616531
21
1151.112187
0
LINE
8
Layer 1
10
-508.616531
20
1151.112187
11
-511.533000
21
1144.250000
0
LINE
8
Layer 1
10
-511.533000
20
1144.250000
11
-513.381500
21
1140.455000
0
LINE
8
Layer 1
10
-513.381500
20
1140.455000
11
-515.515000
21
1136.540000
0
LINE
8
Layer 1
10
-515.515000
20
1136.540000
11
-518.821500
21
1130.996250
0
LINE
8
Layer 1
10
-518.821500
20
1130.996250
11
-522.341000
21
1125.850000
0
LINE
8
Layer 1
10
-522.341000
20
1125.850000
11
-525.258750
21
1122.000000
0
LINE
8
Layer 1
10
-525.258750
20
1122.000000
11
-527.161000
21
1119.710000
0
LINE
8
Layer 1
10
-527.161000
20
1119.710000
11
-527.548500
21
1120.011250
0
LINE
8
Layer 1
10
-527.548500
20
1120.011250
11
-529.190000
21
1122.120000
0
LINE
8
Layer 1
10
-529.190000
20
1122.120000
11
-534.520000
21
1129.850000
0
LINE
8
Layer 1
10
-534.520000
20
1129.850000
11
-534.535000
21
1129.880000
0
LINE
8
Layer 1
10
-534.535000
20
1129.880000
11
-536.302000
21
1132.640000
0
LINE
8
Layer 1
10
-536.302000
20
1132.640000
11
-538.005000
21
1135.570000
0
LINE
8
Layer 1
10
-538.005000
20
1135.570000
11
-540.088881
21
1139.392422
0
LINE
8
Layer 1
10
-540.088881
20
1139.392422
11
-542.042672
21
1143.300625
0
LINE
8
Layer 1
10
-542.042672
20
1143.300625
11
-543.862471
21
1147.284766
0
LINE
8
Layer 1
10
-543.862471
20
1147.284766
11
-545.544375
21
1151.335000
0
LINE
8
Layer 1
10
-545.544375
20
1151.335000
11
-547.084482
21
1155.441484
0
LINE
8
Layer 1
10
-547.084482
20
1155.441484
11
-548.478891
21
1159.594375
0
LINE
8
Layer 1
10
-548.478891
20
1159.594375
11
-549.723697
21
1163.783828
0
LINE
8
Layer 1
10
-549.723697
20
1163.783828
11
-550.815000
21
1168.000000
0
LINE
8
Layer 1
10
-550.815000
20
1168.000000
11
-552.435391
21
1175.913437
0
LINE
8
Layer 1
10
-552.435391
20
1175.913437
11
-553.539125
21
1183.952500
0
LINE
8
Layer 1
10
-553.539125
20
1183.952500
11
-554.119547
21
1192.055313
0
LINE
8
Layer 1
10
-554.119547
20
1192.055313
11
-554.170000
21
1200.160000
0
LINE
8
Layer 1
10
-554.170000
20
1200.160000
11
-553.768750
21
1207.030000
0
LINE
8
Layer 1
10
-553.768750
20
1207.030000
11
-553.024000
21
1213.810000
0
LINE
8
Layer 1
10
-553.024000
20
1213.810000
11
-552.889000
21
1214.760000
0
LINE
8
Layer 1
10
-552.889000
20
1214.760000
11
-555.185000
21
1214.950000
0
LINE
8
Layer 1
10
-555.185000
20
1214.950000
11
-563.869000
21
1215.810000
0
LINE
8
Layer 1
10
-563.869000
20
1215.810000
11
-565.768000
21
1216.020000
0
LINE
8
Layer 1
10
-565.768000
20
1216.020000
11
-565.860000
21
1215.490000
0
LINE
8
Layer 1
10
-565.860000
20
1215.490000
11
-566.534000
21
1209.850000
0
LINE
8
Layer 1
10
-566.534000
20
1209.850000
11
-567.044625
21
1202.465000
0
LINE
8
Layer 1
10
-567.044625
20
1202.465000
11
-567.166000
21
1195.020000
0
LINE
8
Layer 1
10
-567.166000
20
1195.020000
11
-567.033759
21
1190.400974
0
LINE
8
Layer 1
10
-567.033759
20
1190.400974
11
-566.747119
21
1185.800918
0
LINE
8
Layer 1
10
-566.747119
20
1185.800918
11
-566.306955
21
1181.222864
0
LINE
8
Layer 1
10
-566.306955
20
1181.222864
11
-565.714141
21
1176.669844
0
LINE
8
Layer 1
10
-565.714141
20
1176.669844
11
-564.969551
21
1172.144890
0
LINE
8
Layer 1
10
-564.969551
20
1172.144890
11
-564.074061
21
1167.651035
0
LINE
8
Layer 1
10
-564.074061
20
1167.651035
11
-563.028544
21
1163.191311
0
LINE
8
Layer 1
10
-563.028544
20
1163.191311
11
-561.833875
21
1158.768750
0
LINE
8
Layer 1
10
-561.833875
20
1158.768750
11
-560.490929
21
1154.386384
0
LINE
8
Layer 1
10
-560.490929
20
1154.386384
11
-559.000580
21
1150.047246
0
LINE
8
Layer 1
10
-559.000580
20
1150.047246
11
-557.363703
21
1145.754368
0
LINE
8
Layer 1
10
-557.363703
20
1145.754368
11
-555.581172
21
1141.510781
0
LINE
8
Layer 1
10
-555.581172
20
1141.510781
11
-553.653862
21
1137.319519
0
LINE
8
Layer 1
10
-553.653862
20
1137.319519
11
-551.582646
21
1133.183613
0
LINE
8
Layer 1
10
-551.582646
20
1133.183613
11
-549.368401
21
1129.106096
0
LINE
8
Layer 1
10
-549.368401
20
1129.106096
11
-547.012000
21
1125.090000
0
LINE
8
Layer 1
10
-547.012000
20
1125.090000
11
-543.711625
21
1120.072500
0
LINE
8
Layer 1
10
-543.711625
20
1120.072500
11
-540.283000
21
1115.130000
0
LINE
8
Layer 1
10
-540.283000
20
1115.130000
11
-534.896625
21
1108.317500
0
LINE
8
Layer 1
10
-534.896625
20
1108.317500
11
-529.172000
21
1101.940000
0
LINE
8
Layer 1
10
-529.172000
20
1101.940000
11
-527.810500
21
1100.556250
0
LINE
8
Layer 1
10
-527.810500
20
1100.556250
11
-527.594750
21
1100.442344
0
LINE
8
Layer 1
10
-527.594750
20
1100.442344
11
-527.466000
21
1100.530000
0
LINE
8
Layer 1
10
-527.466000
20
1100.530000
11
-525.850000
21
1102.100000
0
LINE
8
Layer 1
10
-525.850000
20
1102.100000
11
-520.536188
21
1107.573437
0
LINE
8
Layer 1
10
-520.536188
20
1107.573437
11
-515.495750
21
1113.480000
0
LINE
8
Layer 1
10
-515.495750
20
1113.480000
11
-510.796938
21
1119.731562
0
LINE
8
Layer 1
10
-510.796938
20
1119.731562
11
-506.508000
21
1126.240000
0
LINE
8
Layer 1
10
-506.508000
20
1126.240000
11
-502.404656
21
1133.460938
0
LINE
8
Layer 1
10
-502.404656
20
1133.460938
11
-498.790500
21
1140.957500
0
LINE
8
Layer 1
10
-498.790500
20
1140.957500
11
-495.679594
21
1148.697813
0
LINE
8
Layer 1
10
-495.679594
20
1148.697813
11
-493.086000
21
1156.650000
0
LINE
8
Layer 1
10
-493.086000
20
1156.650000
11
-491.347465
21
1163.356348
0
LINE
8
Layer 1
10
-491.347465
20
1163.356348
11
-489.989156
21
1170.142031
0
LINE
8
Layer 1
10
-489.989156
20
1170.142031
11
-489.012270
21
1176.987012
0
LINE
8
Layer 1
10
-489.012270
20
1176.987012
11
-488.418000
21
1183.871250
0
LINE
8
Layer 1
10
-488.418000
20
1183.871250
11
-488.207543
21
1190.774707
0
LINE
8
Layer 1
10
-488.207543
20
1190.774707
11
-488.382094
21
1197.677344
0
LINE
8
Layer 1
10
-488.382094
20
1197.677344
11
-488.942848
21
1204.559121
0
LINE
8
Layer 1
10
-488.942848
20
1204.559121
11
-489.891000
21
1211.400000
0
LINE
8
Layer 1
10
-489.891000
20
1211.400000
11
-491.127000
21
1217.760000
0
LINE
8
Layer 1
10
-491.127000
20
1217.760000
11
-491.191250
21
1217.962500
0
LINE
8
Layer 1
10
-491.191250
20
1217.962500
11
-491.464000
21
1218.990000
0
LINE
8
Layer 1
10
-491.464000
20
1218.990000
11
-491.638000
21
1219.690000
0
LINE
8
Layer 1
10
-491.638000
20
1219.690000
11
-491.847000
21
1220.480000
0
LINE
8
Layer 1
10
-491.847000
20
1220.480000
11
-492.094000
21
1221.410000
0
LINE
8
Layer 1
10
-492.094000
20
1221.410000
11
-493.526000
21
1226.410000
0
LINE
8
Layer 1
10
-493.526000
20
1226.410000
11
-493.975000
21
1227.870000
0
LINE
8
Layer 1
10
-493.975000
20
1227.870000
11
-494.026000
21
1228.020000
0
LINE
8
Layer 1
10
-494.026000
20
1228.020000
11
-496.038000
21
1233.870000
0
LINE
8
Layer 1
10
-496.038000
20
1233.870000
11
-499.305172
21
1242.133125
0
LINE
8
Layer 1
10
-499.305172
20
1242.133125
11
-502.917625
21
1249.912500
0
LINE
8
Layer 1
10
-502.917625
20
1249.912500
11
-506.850516
21
1257.163125
0
LINE
8
Layer 1
10
-506.850516
20
1257.163125
11
-511.079000
21
1263.840000
0
LINE
8
Layer 1
10
-511.079000
20
1263.840000
11
-511.079000
21
1263.840000
0
LINE
8
Layer 1
10
-511.079000
20
1263.840000
11
-511.079000
21
1263.840000
0
LINE
8
Layer 1
10
-591.128000
20
1341.110000
11
-591.421000
21
1340.820000
0
LINE
8
Layer 1
10
-591.421000
20
1340.820000
11
-596.185000
21
1335.720000
0
LINE
8
Layer 1
10
-596.185000
20
1335.720000
11
-599.873262
21
1331.390425
0
LINE
8
Layer 1
10
-599.873262
20
1331.390425
11
-603.370020
21
1326.922773
0
LINE
8
Layer 1
10
-603.370020
20
1326.922773
11
-606.672228
21
1322.324282
0
LINE
8
Layer 1
10
-606.672228
20
1322.324282
11
-609.776844
21
1317.602187
0
LINE
8
Layer 1
10
-609.776844
20
1317.602187
11
-612.680823
21
1312.763726
0
LINE
8
Layer 1
10
-612.680823
20
1312.763726
11
-615.381121
21
1307.816133
0
LINE
8
Layer 1
10
-615.381121
20
1307.816133
11
-617.874695
21
1302.766646
0
LINE
8
Layer 1
10
-617.874695
20
1302.766646
11
-620.158500
21
1297.622500
0
LINE
8
Layer 1
10
-620.158500
20
1297.622500
11
-622.229493
21
1292.390933
0
LINE
8
Layer 1
10
-622.229493
20
1292.390933
11
-624.084629
21
1287.079180
0
LINE
8
Layer 1
10
-624.084629
20
1287.079180
11
-625.720865
21
1281.694478
0
LINE
8
Layer 1
10
-625.720865
20
1281.694478
11
-627.135156
21
1276.244062
0
LINE
8
Layer 1
10
-627.135156
20
1276.244062
11
-628.324459
21
1270.735171
0
LINE
8
Layer 1
10
-628.324459
20
1270.735171
11
-629.285730
21
1265.175039
0
LINE
8
Layer 1
10
-629.285730
20
1265.175039
11
-630.015925
21
1259.570903
0
LINE
8
Layer 1
10
-630.015925
20
1259.570903
11
-630.512000
21
1253.930000
0
LINE
8
Layer 1
10
-630.512000
20
1253.930000
11
-630.744969
21
1249.055625
0
LINE
8
Layer 1
10
-630.744969
20
1249.055625
11
-630.808250
21
1244.057500
0
LINE
8
Layer 1
10
-630.808250
20
1244.057500
11
-630.702406
21
1239.085625
0
LINE
8
Layer 1
10
-630.702406
20
1239.085625
11
-630.428000
21
1234.290000
0
LINE
8
Layer 1
10
-630.428000
20
1234.290000
11
-629.725875
21
1227.431250
0
LINE
8
Layer 1
10
-629.725875
20
1227.431250
11
-628.660000
21
1220.400000
0
LINE
8
Layer 1
10
-628.660000
20
1220.400000
11
-628.150000
21
1217.340000
0
LINE
8
Layer 1
10
-628.150000
20
1217.340000
11
-626.550938
21
1209.272813
0
LINE
8
Layer 1
10
-626.550938
20
1209.272813
11
-624.326000
21
1200.892500
0
LINE
8
Layer 1
10
-624.326000
20
1200.892500
11
-621.580563
21
1192.553437
0
LINE
8
Layer 1
10
-621.580563
20
1192.553437
11
-618.420000
21
1184.610000
0
LINE
8
Layer 1
10
-618.420000
20
1184.610000
11
-616.662746
21
1180.782402
0
LINE
8
Layer 1
10
-616.662746
20
1180.782402
11
-614.781156
21
1177.047969
0
LINE
8
Layer 1
10
-614.781156
20
1177.047969
11
-612.790113
21
1173.430488
0
LINE
8
Layer 1
10
-612.790113
20
1173.430488
11
-610.704500
21
1169.953750
0
LINE
8
Layer 1
10
-610.704500
20
1169.953750
11
-608.539199
21
1166.641543
0
LINE
8
Layer 1
10
-608.539199
20
1166.641543
11
-606.309094
21
1163.517656
0
LINE
8
Layer 1
10
-606.309094
20
1163.517656
11
-604.029066
21
1160.605879
0
LINE
8
Layer 1
10
-604.029066
20
1160.605879
11
-601.714000
21
1157.930000
0
LINE
8
Layer 1
10
-601.714000
20
1157.930000
11
-601.381000
21
1157.570000
0
LINE
8
Layer 1
10
-601.381000
20
1157.570000
11
-592.893000
21
1167.710000
0
LINE
8
Layer 1
10
-592.893000
20
1167.710000
11
-594.402000
21
1169.560000
0
LINE
8
Layer 1
10
-594.402000
20
1169.560000
11
-596.365949
21
1172.295586
0
LINE
8
Layer 1
10
-596.365949
20
1172.295586
11
-598.304281
21
1175.287812
0
LINE
8
Layer 1
10
-598.304281
20
1175.287812
11
-602.098000
21
1182.030000
0
LINE
8
Layer 1
10
-602.098000
20
1182.030000
11
-605.770969
21
1189.762187
0
LINE
8
Layer 1
10
-605.770969
20
1189.762187
11
-609.311000
21
1198.460000
0
LINE
8
Layer 1
10
-609.311000
20
1198.460000
11
-610.127000
21
1200.560000
0
LINE
8
Layer 1
10
-610.127000
20
1200.560000
11
-610.149000
21
1200.550000
0
LINE
8
Layer 1
10
-610.149000
20
1200.550000
11
-610.225000
21
1200.560000
0
LINE
8
Layer 1
10
-610.225000
20
1200.560000
11
-610.274000
21
1200.620000
0
LINE
8
Layer 1
10
-610.274000
20
1200.620000
11
-614.176000
21
1213.350000
0
LINE
8
Layer 1
10
-614.176000
20
1213.350000
11
-614.111000
21
1213.470000
0
LINE
8
Layer 1
10
-614.111000
20
1213.470000
11
-614.775000
21
1216.630000
0
LINE
8
Layer 1
10
-614.775000
20
1216.630000
11
-615.459000
21
1220.060000
0
LINE
8
Layer 1
10
-615.459000
20
1220.060000
11
-615.586000
21
1220.960000
0
LINE
8
Layer 1
10
-615.586000
20
1220.960000
11
-616.605375
21
1227.026250
0
LINE
8
Layer 1
10
-616.605375
20
1227.026250
11
-617.396000
21
1233.760000
0
LINE
8
Layer 1
10
-617.396000
20
1233.760000
11
-617.800250
21
1240.877500
0
LINE
8
Layer 1
10
-617.800250
20
1240.877500
11
-617.804000
21
1248.340000
0
LINE
8
Layer 1
10
-617.804000
20
1248.340000
11
-617.801000
21
1248.480000
0
LINE
8
Layer 1
10
-617.801000
20
1248.480000
11
-617.558000
21
1253.510000
0
LINE
8
Layer 1
10
-617.558000
20
1253.510000
11
-616.664049
21
1261.912520
0
LINE
8
Layer 1
10
-616.664049
20
1261.912520
11
-615.196641
21
1270.228906
0
LINE
8
Layer 1
10
-615.196641
20
1270.228906
11
-613.168443
21
1278.423652
0
LINE
8
Layer 1
10
-613.168443
20
1278.423652
11
-610.592125
21
1286.461250
0
LINE
8
Layer 1
10
-610.592125
20
1286.461250
11
-607.480354
21
1294.306191
0
LINE
8
Layer 1
10
-607.480354
20
1294.306191
11
-603.845797
21
1301.922969
0
LINE
8
Layer 1
10
-603.845797
20
1301.922969
11
-599.701123
21
1309.276074
0
LINE
8
Layer 1
10
-599.701123
20
1309.276074
11
-595.059000
21
1316.330000
0
LINE
8
Layer 1
10
-595.059000
20
1316.330000
11
-591.190000
21
1321.490000
0
LINE
8
Layer 1
10
-591.190000
20
1321.490000
11
-590.492016
21
1320.734375
0
LINE
8
Layer 1
10
-590.492016
20
1320.734375
11
-588.949625
21
1318.700000
0
LINE
8
Layer 1
10
-588.949625
20
1318.700000
11
-585.084000
21
1313.180000
0
LINE
8
Layer 1
10
-585.084000
20
1313.180000
11
-580.982937
21
1306.546660
0
LINE
8
Layer 1
10
-580.982937
20
1306.546660
11
-577.315937
21
1299.688906
0
LINE
8
Layer 1
10
-577.315937
20
1299.688906
11
-574.090781
21
1292.628887
0
LINE
8
Layer 1
10
-574.090781
20
1292.628887
11
-571.315250
21
1285.388750
0
LINE
8
Layer 1
10
-571.315250
20
1285.388750
11
-568.997125
21
1277.990645
0
LINE
8
Layer 1
10
-568.997125
20
1277.990645
11
-567.144188
21
1270.456719
0
LINE
8
Layer 1
10
-567.144188
20
1270.456719
11
-565.764219
21
1262.809121
0
LINE
8
Layer 1
10
-565.764219
20
1262.809121
11
-564.865000
21
1255.070000
0
LINE
8
Layer 1
10
-564.865000
20
1255.070000
11
-564.547500
21
1250.272500
0
LINE
8
Layer 1
10
-564.547500
20
1250.272500
11
-564.479000
21
1244.620000
0
LINE
8
Layer 1
10
-564.479000
20
1244.620000
11
-564.639000
21
1237.230000
0
LINE
8
Layer 1
10
-564.639000
20
1237.230000
11
-565.243000
21
1230.440000
0
LINE
8
Layer 1
10
-565.243000
20
1230.440000
11
-566.075375
21
1224.518750
0
LINE
8
Layer 1
10
-566.075375
20
1224.518750
11
-566.856000
21
1220.270000
0
LINE
8
Layer 1
10
-566.856000
20
1220.270000
11
-566.810000
21
1220.147500
0
LINE
8
Layer 1
10
-566.810000
20
1220.147500
11
-566.533000
21
1220.070000
0
LINE
8
Layer 1
10
-566.533000
20
1220.070000
11
-561.535750
21
1218.935000
0
LINE
8
Layer 1
10
-561.535750
20
1218.935000
11
-555.559000
21
1217.260000
0
LINE
8
Layer 1
10
-555.559000
20
1217.260000
11
-554.320000
21
1216.900000
0
LINE
8
Layer 1
10
-554.320000
20
1216.900000
11
-553.131000
21
1223.450000
0
LINE
8
Layer 1
10
-553.131000
20
1223.450000
11
-552.148406
21
1231.058867
0
LINE
8
Layer 1
10
-552.148406
20
1231.058867
11
-551.601000
21
1238.719063
0
LINE
8
Layer 1
10
-551.601000
20
1238.719063
11
-551.487094
21
1246.405977
0
LINE
8
Layer 1
10
-551.487094
20
1246.405977
11
-551.805000
21
1254.095000
0
LINE
8
Layer 1
10
-551.805000
20
1254.095000
11
-552.553031
21
1261.761523
0
LINE
8
Layer 1
10
-552.553031
20
1261.761523
11
-553.729500
21
1269.380938
0
LINE
8
Layer 1
10
-553.729500
20
1269.380938
11
-555.332719
21
1276.928633
0
LINE
8
Layer 1
10
-555.332719
20
1276.928633
11
-557.361000
21
1284.380000
0
LINE
8
Layer 1
10
-557.361000
20
1284.380000
11
-559.919301
21
1292.017168
0
LINE
8
Layer 1
10
-559.919301
20
1292.017168
11
-562.906719
21
1299.457344
0
LINE
8
Layer 1
10
-562.906719
20
1299.457344
11
-566.317652
21
1306.691035
0
LINE
8
Layer 1
10
-566.317652
20
1306.691035
11
-570.146500
21
1313.708750
0
LINE
8
Layer 1
10
-570.146500
20
1313.708750
11
-574.387660
21
1320.500996
0
LINE
8
Layer 1
10
-574.387660
20
1320.500996
11
-579.035531
21
1327.058281
0
LINE
8
Layer 1
10
-579.035531
20
1327.058281
11
-584.084512
21
1333.371113
0
LINE
8
Layer 1
10
-584.084512
20
1333.371113
11
-589.529000
21
1339.430000
0
LINE
8
Layer 1
10
-589.529000
20
1339.430000
11
-591.128000
21
1341.110000
0
LINE
8
Layer 1
10
-591.128000
20
1341.110000
11
-591.128000
21
1341.110000
0
LINE
8
Layer 1
10
-569.534000
20
928.858000
11
-568.975740
21
929.569799
0
LINE
8
Layer 1
10
-568.975740
20
929.569799
11
-566.485960
21
933.055469
0
LINE
8
Layer 1
10
-566.485960
20
933.055469
11
-564.121305
21
936.623490
0
LINE
8
Layer 1
10
-564.121305
20
936.623490
11
-559.773865
21
943.989390
0
LINE
8
Layer 1
10
-559.773865
20
943.989390
11
-555.946419
21
951.633113
0
LINE
8
Layer 1
10
-555.946419
20
951.633113
11
-552.651965
21
959.520274
0
LINE
8
Layer 1
10
-552.651965
20
959.520274
11
-549.903502
21
967.616488
0
LINE
8
Layer 1
10
-549.903502
20
967.616488
11
-547.714027
21
975.887371
0
LINE
8
Layer 1
10
-547.714027
20
975.887371
11
-546.096541
21
984.298536
0
LINE
8
Layer 1
10
-546.096541
20
984.298536
11
-545.064040
21
992.815599
0
LINE
8
Layer 1
10
-545.064040
20
992.815599
11
-544.757306
21
997.382358
0
LINE
8
Layer 1
10
-544.757306
20
997.382358
11
-544.620903
21
1001.958547
0
LINE
8
Layer 1
10
-544.620903
20
1001.958547
11
-544.654512
21
1006.539047
0
LINE
8
Layer 1
10
-544.654512
20
1006.539047
11
-544.857811
21
1011.118736
0
LINE
8
Layer 1
10
-544.857811
20
1011.118736
11
-545.230482
21
1015.692496
0
LINE
8
Layer 1
10
-545.230482
20
1015.692496
11
-545.772204
21
1020.255207
0
LINE
8
Layer 1
10
-545.772204
20
1020.255207
11
-546.482656
21
1024.801748
0
LINE
8
Layer 1
10
-546.482656
20
1024.801748
11
-547.361520
21
1029.326999
0
LINE
8
Layer 1
10
-547.361520
20
1029.326999
11
-547.634197
21
1030.476386
0
LINE
8
Layer 1
10
-547.634197
20
1030.476386
11
-547.810290
21
1030.734969
0
LINE
8
Layer 1
10
-547.810290
20
1030.734969
11
-549.621930
21
1030.396239
0
LINE
8
Layer 1
10
-549.621930
20
1030.396239
11
-556.424420
21
1029.217019
0
LINE
8
Layer 1
10
-556.424420
20
1029.217019
11
-558.552990
21
1028.925729
0
LINE
8
Layer 1
10
-558.552990
20
1028.925729
11
-563.498030
21
1028.384039
0
LINE
8
Layer 1
10
-563.498030
20
1028.384039
11
-568.692678
21
1028.012847
0
LINE
8
Layer 1
10
-568.692678
20
1028.012847
11
-573.978272
21
1027.849924
0
LINE
8
Layer 1
10
-573.978272
20
1027.849924
11
-579.218721
21
1027.896731
0
LINE
8
Layer 1
10
-579.218721
20
1027.896731
11
-584.277930
21
1028.154729
0
LINE
8
Layer 1
10
-584.277930
20
1028.154729
11
-587.697880
21
1028.448589
0
LINE
8
Layer 1
10
-587.697880
20
1028.448589
11
-595.966620
21
1029.577959
0
LINE
8
Layer 1
10
-595.966620
20
1029.577959
11
-596.179195
21
1029.109584
0
LINE
8
Layer 1
10
-596.179195
20
1029.109584
11
-596.617220
21
1026.384429
0
LINE
8
Layer 1
10
-596.617220
20
1026.384429
11
-597.274604
21
1021.335302
0
LINE
8
Layer 1
10
-597.274604
20
1021.335302
11
-597.723180
21
1016.280951
0
LINE
8
Layer 1
10
-597.723180
20
1016.280951
11
-597.963957
21
1011.227033
0
LINE
8
Layer 1
10
-597.963957
20
1011.227033
11
-597.997947
21
1006.179201
0
LINE
8
Layer 1
10
-597.997947
20
1006.179201
11
-597.826162
21
1001.143110
0
LINE
8
Layer 1
10
-597.826162
20
1001.143110
11
-597.449611
21
996.124415
0
LINE
8
Layer 1
10
-597.449611
20
996.124415
11
-596.869306
21
991.128769
0
LINE
8
Layer 1
10
-596.869306
20
991.128769
11
-596.086257
21
986.161829
0
LINE
8
Layer 1
10
-596.086257
20
986.161829
11
-595.101477
21
981.229248
0
LINE
8
Layer 1
10
-595.101477
20
981.229248
11
-593.915974
21
976.336681
0
LINE
8
Layer 1
10
-593.915974
20
976.336681
11
-592.530761
21
971.489782
0
LINE
8
Layer 1
10
-592.530761
20
971.489782
11
-590.946849
21
966.694207
0
LINE
8
Layer 1
10
-590.946849
20
966.694207
11
-589.165247
21
961.955610
0
LINE
8
Layer 1
10
-589.165247
20
961.955610
11
-587.186968
21
957.279644
0
LINE
8
Layer 1
10
-587.186968
20
957.279644
11
-585.013022
21
952.671966
0
LINE
8
Layer 1
10
-585.013022
20
952.671966
11
-582.644420
21
948.138229
0
LINE
8
Layer 1
10
-582.644420
20
948.138229
11
-580.327984
21
944.103840
0
LINE
8
Layer 1
10
-580.327984
20
944.103840
11
-577.833717
21
940.114380
0
LINE
8
Layer 1
10
-577.833717
20
940.114380
11
-575.203352
21
936.233995
0
LINE
8
Layer 1
10
-575.203352
20
936.233995
11
-572.478620
21
932.526829
0
LINE
8
Layer 1
10
-572.478620
20
932.526829
11
-569.533980
21
928.857929
0
LINE
8
Layer 1
10
-569.533980
20
928.857929
11
-569.534000
21
928.858000
0
LINE
8
Layer 1
10
-634.222000
20
899.210000
11
-632.884050
21
899.426827
0
LINE
8
Layer 1
10
-632.884050
20
899.426827
11
-626.763660
21
900.255516
0
LINE
8
Layer 1
10
-626.763660
20
900.255516
11
-622.056960
21
900.650811
0
LINE
8
Layer 1
10
-622.056960
20
900.650811
11
-616.521662
21
900.912879
0
LINE
8
Layer 1
10
-616.521662
20
900.912879
11
-610.462109
21
900.978203
0
LINE
8
Layer 1
10
-610.462109
20
900.978203
11
-604.082206
21
900.847822
0
LINE
8
Layer 1
10
-604.082206
20
900.847822
11
-597.585860
21
900.522774
0
LINE
8
Layer 1
10
-597.585860
20
900.522774
11
-593.000510
21
900.187890
0
LINE
8
Layer 1
10
-593.000510
20
900.187890
11
-588.417990
21
899.770058
0
LINE
8
Layer 1
10
-588.417990
20
899.770058
11
-585.690390
21
899.508919
0
LINE
8
Layer 1
10
-585.690390
20
899.508919
11
-585.129587
21
902.211614
0
LINE
8
Layer 1
10
-585.129587
20
902.211614
11
-584.393600
21
907.548489
0
LINE
8
Layer 1
10
-584.393600
20
907.548489
11
-583.711262
21
916.040510
0
LINE
8
Layer 1
10
-583.711262
20
916.040510
11
-583.615530
21
924.480789
0
LINE
8
Layer 1
10
-583.615530
20
924.480789
11
-584.016161
21
931.947397
0
LINE
8
Layer 1
10
-584.016161
20
931.947397
11
-584.871204
21
939.380231
0
LINE
8
Layer 1
10
-584.871204
20
939.380231
11
-586.172548
21
946.749378
0
LINE
8
Layer 1
10
-586.172548
20
946.749378
11
-587.912082
21
954.024927
0
LINE
8
Layer 1
10
-587.912082
20
954.024927
11
-590.081698
21
961.176964
0
LINE
8
Layer 1
10
-590.081698
20
961.176964
11
-592.673285
21
968.175578
0
LINE
8
Layer 1
10
-592.673285
20
968.175578
11
-595.678732
21
974.990857
0
LINE
8
Layer 1
10
-595.678732
20
974.990857
11
-599.089930
21
981.592889
0
LINE
8
Layer 1
10
-599.089930
20
981.592889
11
-600.180510
21
983.556929
0
LINE
8
Layer 1
10
-600.180510
20
983.556929
11
-606.913480
21
994.006229
0
LINE
8
Layer 1
10
-606.913480
20
994.006229
11
-607.949550
21
995.371159
0
LINE
8
Layer 1
10
-607.949550
20
995.371159
11
-609.038660
21
994.182389
0
LINE
8
Layer 1
10
-609.038660
20
994.182389
11
-612.158319
21
990.447953
0
LINE
8
Layer 1
10
-612.158319
20
990.447953
11
-615.112822
21
986.575003
0
LINE
8
Layer 1
10
-615.112822
20
986.575003
11
-617.896630
21
982.572740
0
LINE
8
Layer 1
10
-617.896630
20
982.572740
11
-620.504199
21
978.450365
0
LINE
8
Layer 1
10
-620.504199
20
978.450365
11
-622.929988
21
974.217081
0
LINE
8
Layer 1
10
-622.929988
20
974.217081
11
-625.168456
21
969.882089
0
LINE
8
Layer 1
10
-625.168456
20
969.882089
11
-627.214060
21
965.454591
0
LINE
8
Layer 1
10
-627.214060
20
965.454591
11
-629.061260
21
960.943789
0
LINE
8
Layer 1
10
-629.061260
20
960.943789
11
-631.639058
21
953.425417
0
LINE
8
Layer 1
10
-631.639058
20
953.425417
11
-633.682253
21
945.716864
0
LINE
8
Layer 1
10
-633.682253
20
945.716864
11
-635.173166
21
937.895998
0
LINE
8
Layer 1
10
-635.173166
20
937.895998
11
-636.094120
21
930.040689
0
LINE
8
Layer 1
10
-636.094120
20
930.040689
11
-636.436853
21
922.695199
0
LINE
8
Layer 1
10
-636.436853
20
922.695199
11
-636.290895
21
915.335200
0
LINE
8
Layer 1
10
-636.290895
20
915.335200
11
-635.658877
21
908.010521
0
LINE
8
Layer 1
10
-635.658877
20
908.010521
11
-634.543430
21
900.770989
0
LINE
8
Layer 1
10
-634.543430
20
900.770989
11
-634.222050
21
899.210079
0
LINE
8
Layer 1
10
-634.222050
20
899.210079
11
-634.222000
21
899.210000
0
LINE
8
Layer 1
10
-546.450000
20
791.618000
11
-545.355670
21
798.185000
0
LINE
8
Layer 1
10
-545.355670
20
798.185000
11
-544.842951
21
803.034916
0
LINE
8
Layer 1
10
-544.842951
20
803.034916
11
-544.495690
21
807.893570
0
LINE
8
Layer 1
10
-544.495690
20
807.893570
11
-544.390665
21
812.584001
0
LINE
8
Layer 1
10
-544.390665
20
812.584001
11
-544.476068
21
817.185350
0
LINE
8
Layer 1
10
-544.476068
20
817.185350
11
-544.755011
21
821.775884
0
LINE
8
Layer 1
10
-544.755011
20
821.775884
11
-545.230610
21
826.433870
0
LINE
8
Layer 1
10
-545.230610
20
826.433870
11
-546.223952
21
832.844140
0
LINE
8
Layer 1
10
-546.223952
20
832.844140
11
-547.637948
21
839.365921
0
LINE
8
Layer 1
10
-547.637948
20
839.365921
11
-549.421944
21
845.794427
0
LINE
8
Layer 1
10
-549.421944
20
845.794427
11
-551.525290
21
851.924870
0
LINE
8
Layer 1
10
-551.525290
20
851.924870
11
-554.710755
21
859.485026
0
LINE
8
Layer 1
10
-554.710755
20
859.485026
11
-558.411137
21
866.747620
0
LINE
8
Layer 1
10
-558.411137
20
866.747620
11
-562.629347
21
873.717639
0
LINE
8
Layer 1
10
-562.629347
20
873.717639
11
-567.368290
21
880.400070
0
LINE
8
Layer 1
10
-567.368290
20
880.400070
11
-572.773380
21
886.917400
0
LINE
8
Layer 1
10
-572.773380
20
886.917400
11
-573.573240
21
887.799205
0
LINE
8
Layer 1
10
-573.573240
20
887.799205
11
-573.748140
21
887.616130
0
LINE
8
Layer 1
10
-573.748140
20
887.616130
11
-575.035610
21
885.810050
0
LINE
8
Layer 1
10
-575.035610
20
885.810050
11
-576.367340
21
883.874700
0
LINE
8
Layer 1
10
-576.367340
20
883.874700
11
-578.638060
21
880.251560
0
LINE
8
Layer 1
10
-578.638060
20
880.251560
11
-581.200011
21
875.983690
0
LINE
8
Layer 1
10
-581.200011
20
875.983690
11
-583.313080
21
872.093400
0
LINE
8
Layer 1
10
-583.313080
20
872.093400
11
-585.507392
21
867.650206
0
LINE
8
Layer 1
10
-585.507392
20
867.650206
11
-587.517234
21
863.139081
0
LINE
8
Layer 1
10
-587.517234
20
863.139081
11
-589.341695
21
858.565590
0
LINE
8
Layer 1
10
-589.341695
20
858.565590
11
-590.979866
21
853.935294
0
LINE
8
Layer 1
10
-590.979866
20
853.935294
11
-592.430836
21
849.253756
0
LINE
8
Layer 1
10
-592.430836
20
849.253756
11
-593.693696
21
844.526541
0
LINE
8
Layer 1
10
-593.693696
20
844.526541
11
-594.767535
21
839.759209
0
LINE
8
Layer 1
10
-594.767535
20
839.759209
11
-595.651442
21
834.957325
0
LINE
8
Layer 1
10
-595.651442
20
834.957325
11
-596.344509
21
830.126451
0
LINE
8
Layer 1
10
-596.344509
20
830.126451
11
-596.845825
21
825.272150
0
LINE
8
Layer 1
10
-596.845825
20
825.272150
11
-597.154480
21
820.399985
0
LINE
8
Layer 1
10
-597.154480
20
820.399985
11
-597.269563
21
815.515519
0
LINE
8
Layer 1
10
-597.269563
20
815.515519
11
-597.190165
21
810.624314
0
LINE
8
Layer 1
10
-597.190165
20
810.624314
11
-596.915375
21
805.731934
0
LINE
8
Layer 1
10
-596.915375
20
805.731934
11
-596.444283
21
800.843942
0
LINE
8
Layer 1
10
-596.444283
20
800.843942
11
-595.775980
21
795.965900
0
LINE
8
Layer 1
10
-595.775980
20
795.965900
11
-595.460210
21
793.961110
0
LINE
8
Layer 1
10
-595.460210
20
793.961110
11
-594.946850
21
794.048510
0
LINE
8
Layer 1
10
-594.946850
20
794.048510
11
-587.884930
21
795.011095
0
LINE
8
Layer 1
10
-587.884930
20
795.011095
11
-584.737410
21
795.281832
0
LINE
8
Layer 1
10
-584.737410
20
795.281832
11
-579.555019
21
795.492415
0
LINE
8
Layer 1
10
-579.555019
20
795.492415
11
-573.731610
21
795.446902
0
LINE
8
Layer 1
10
-573.731610
20
795.446902
11
-565.832844
21
794.899222
0
LINE
8
Layer 1
10
-565.832844
20
794.899222
11
-558.167410
21
793.913122
0
LINE
8
Layer 1
10
-558.167410
20
793.913122
11
-555.239280
21
793.416814
0
LINE
8
Layer 1
10
-555.239280
20
793.416814
11
-548.644430
21
792.048864
0
LINE
8
Layer 1
10
-548.644430
20
792.048864
11
-546.449910
21
791.618017
0
LINE
8
Layer 1
10
-546.449910
20
791.618017
11
-546.450000
21
791.618000
0
LINE
8
Layer 1
10
-574.370000
20
943.434000
11
-574.256917
21
942.530062
0
LINE
8
Layer 1
10
-574.256917
20
942.530062
11
-573.974770
21
941.692315
0
LINE
8
Layer 1
10
-573.974770
20
941.692315
11
-573.542047
21
940.938393
0
LINE
8
Layer 1
10
-573.542047
20
940.938393
11
-572.977238
21
940.285931
0
LINE
8
Layer 1
10
-572.977238
20
940.285931
11
-572.298830
21
939.752564
0
LINE
8
Layer 1
10
-572.298830
20
939.752564
11
-571.525314
21
939.355927
0
LINE
8
Layer 1
10
-571.525314
20
939.355927
11
-570.675177
21
939.113654
0
LINE
8
Layer 1
10
-570.675177
20
939.113654
11
-569.766910
21
939.043380
0
LINE
8
Layer 1
10
-569.766910
20
939.043380
11
-568.862880
21
939.155697
0
LINE
8
Layer 1
10
-568.862880
20
939.155697
11
-568.024897
21
939.437133
0
LINE
8
Layer 1
10
-568.024897
20
939.437133
11
-567.270611
21
939.869214
0
LINE
8
Layer 1
10
-567.270611
20
939.869214
11
-566.617674
21
940.433467
0
LINE
8
Layer 1
10
-566.617674
20
940.433467
11
-566.083734
21
941.111420
0
LINE
8
Layer 1
10
-566.083734
20
941.111420
11
-565.686444
21
941.884598
0
LINE
8
Layer 1
10
-565.686444
20
941.884598
11
-565.443452
21
942.734529
0
LINE
8
Layer 1
10
-565.443452
20
942.734529
11
-565.372410
21
943.642740
0
LINE
8
Layer 1
10
-565.372410
20
943.642740
11
-565.485492
21
944.546678
0
LINE
8
Layer 1
10
-565.485492
20
944.546678
11
-565.767639
21
945.384425
0
LINE
8
Layer 1
10
-565.767639
20
945.384425
11
-566.200360
21
946.138347
0
LINE
8
Layer 1
10
-566.200360
20
946.138347
11
-566.765169
21
946.790809
0
LINE
8
Layer 1
10
-566.765169
20
946.790809
11
-567.443576
21
947.324176
0
LINE
8
Layer 1
10
-567.443576
20
947.324176
11
-568.217092
21
947.720813
0
LINE
8
Layer 1
10
-568.217092
20
947.720813
11
-569.067230
21
947.963086
0
LINE
8
Layer 1
10
-569.067230
20
947.963086
11
-569.975500
21
948.033360
0
LINE
8
Layer 1
10
-569.975500
20
948.033360
11
-570.879530
21
947.921043
0
LINE
8
Layer 1
10
-570.879530
20
947.921043
11
-571.717513
21
947.639607
0
LINE
8
Layer 1
10
-571.717513
20
947.639607
11
-572.471799
21
947.207526
0
LINE
8
Layer 1
10
-572.471799
20
947.207526
11
-573.124736
21
946.643273
0
LINE
8
Layer 1
10
-573.124736
20
946.643273
11
-573.658676
21
945.965320
0
LINE
8
Layer 1
10
-573.658676
20
945.965320
11
-574.055966
21
945.192142
0
LINE
8
Layer 1
10
-574.055966
20
945.192142
11
-574.298958
21
944.342211
0
LINE
8
Layer 1
10
-574.298958
20
944.342211
11
-574.370000
21
943.434000
0
LINE
8
Layer 1
10
-574.370000
20
943.434000
11
-574.370000
21
943.434000
0
LINE
8
Layer 1
10
-844.742000
20
893.593000
11
-841.400704
21
889.805784
0
LINE
8
Layer 1
10
-841.400704
20
889.805784
11
-838.207030
21
885.920130
0
LINE
8
Layer 1
10
-838.207030
20
885.920130
11
-837.385336
21
886.359848
0
LINE
8
Layer 1
10
-837.385336
20
886.359848
11
-836.405070
21
886.659629
0
LINE
8
Layer 1
10
-836.405070
20
886.659629
11
-835.507460
21
886.743774
0
LINE
8
Layer 1
10
-835.507460
20
886.743774
11
-834.550659
21
886.678302
0
LINE
8
Layer 1
10
-834.550659
20
886.678302
11
-832.659580
21
886.126855
0
LINE
8
Layer 1
10
-832.659580
20
886.126855
11
-830.721429
21
885.057570
0
LINE
8
Layer 1
10
-830.721429
20
885.057570
11
-828.897540
21
883.814335
0
LINE
8
Layer 1
10
-828.897540
20
883.814335
11
-827.180142
21
882.276245
0
LINE
8
Layer 1
10
-827.180142
20
882.276245
11
-825.233242
21
880.284001
0
LINE
8
Layer 1
10
-825.233242
20
880.284001
11
-823.450777
21
878.261699
0
LINE
8
Layer 1
10
-823.450777
20
878.261699
11
-822.226680
21
876.633435
0
LINE
8
Layer 1
10
-822.226680
20
876.633435
11
-821.652450
21
875.470478
0
LINE
8
Layer 1
10
-821.652450
20
875.470478
11
-821.016930
21
873.772125
0
LINE
8
Layer 1
10
-821.016930
20
873.772125
11
-820.170964
21
871.549479
0
LINE
8
Layer 1
10
-820.170964
20
871.549479
11
-818.817090
21
869.038075
0
LINE
8
Layer 1
10
-818.817090
20
869.038075
11
-817.499532
21
866.246244
0
LINE
8
Layer 1
10
-817.499532
20
866.246244
11
-816.590350
21
863.134575
0
LINE
8
Layer 1
10
-816.590350
20
863.134575
11
-816.255480
21
861.639585
0
LINE
8
Layer 1
10
-816.255480
20
861.639585
11
-816.305580
21
861.370879
0
LINE
8
Layer 1
10
-816.305580
20
861.370879
11
-816.653471
21
862.034649
0
LINE
8
Layer 1
10
-816.653471
20
862.034649
11
-817.458990
21
864.322099
0
LINE
8
Layer 1
10
-817.458990
20
864.322099
11
-818.571819
21
866.877538
0
LINE
8
Layer 1
10
-818.571819
20
866.877538
11
-820.090840
21
869.445269
0
LINE
8
Layer 1
10
-820.090840
20
869.445269
11
-821.330235
21
871.370004
0
LINE
8
Layer 1
10
-821.330235
20
871.370004
11
-822.119120
21
873.082249
0
LINE
8
Layer 1
10
-822.119120
20
873.082249
11
-822.890630
21
874.997889
0
LINE
8
Layer 1
10
-822.890630
20
874.997889
11
-823.809192
21
876.592119
0
LINE
8
Layer 1
10
-823.809192
20
876.592119
11
-825.327965
21
878.539244
0
LINE
8
Layer 1
10
-825.327965
20
878.539244
11
-827.216466
21
880.570219
0
LINE
8
Layer 1
10
-827.216466
20
880.570219
11
-829.244210
21
882.415999
0
LINE
8
Layer 1
10
-829.244210
20
882.415999
11
-831.699454
21
884.217075
0
LINE
8
Layer 1
10
-831.699454
20
884.217075
11
-833.881830
21
885.372664
0
LINE
8
Layer 1
10
-833.881830
20
885.372664
11
-835.719941
21
885.853740
0
LINE
8
Layer 1
10
-835.719941
20
885.853740
11
-836.487585
21
885.832266
0
LINE
8
Layer 1
10
-836.487585
20
885.832266
11
-837.142390
21
885.631279
0
LINE
8
Layer 1
10
-837.142390
20
885.631279
11
-837.660700
21
885.223017
0
LINE
8
Layer 1
10
-837.660700
20
885.223017
11
-833.796135
21
880.069543
0
LINE
8
Layer 1
10
-833.796135
20
880.069543
11
-830.180570
21
874.770517
0
LINE
8
Layer 1
10
-830.180570
20
874.770517
11
-829.645210
21
874.413951
0
LINE
8
Layer 1
10
-829.645210
20
874.413951
11
-826.838109
21
872.401957
0
LINE
8
Layer 1
10
-826.838109
20
872.401957
11
-825.965992
21
871.501856
0
LINE
8
Layer 1
10
-825.965992
20
871.501856
11
-825.348840
21
870.583711
0
LINE
8
Layer 1
10
-825.348840
20
870.583711
11
-825.028161
21
869.896029
0
LINE
8
Layer 1
10
-825.028161
20
869.896029
11
-825.023015
21
869.631370
0
LINE
8
Layer 1
10
-825.023015
20
869.631370
11
-825.869740
21
870.402316
0
LINE
8
Layer 1
10
-825.869740
20
870.402316
11
-827.260984
21
871.781651
0
LINE
8
Layer 1
10
-827.260984
20
871.781651
11
-829.205450
21
873.257436
0
LINE
8
Layer 1
10
-829.205450
20
873.257436
11
-827.601940
21
870.650366
0
LINE
8
Layer 1
10
-827.601940
20
870.650366
11
-824.807800
21
869.173966
0
LINE
8
Layer 1
10
-824.807800
20
869.173966
11
-824.118440
21
868.701647
0
LINE
8
Layer 1
10
-824.118440
20
868.701647
11
-821.386625
21
866.587583
0
LINE
8
Layer 1
10
-821.386625
20
866.587583
11
-818.979145
21
864.177926
0
LINE
8
Layer 1
10
-818.979145
20
864.177926
11
-816.890430
21
861.466354
0
LINE
8
Layer 1
10
-816.890430
20
861.466354
11
-815.114910
21
858.446547
0
LINE
8
Layer 1
10
-815.114910
20
858.446547
11
-813.850800
21
855.600580
0
LINE
8
Layer 1
10
-813.850800
20
855.600580
11
-812.646330
21
852.443857
0
LINE
8
Layer 1
10
-812.646330
20
852.443857
11
-811.795652
21
849.631236
0
LINE
8
Layer 1
10
-811.795652
20
849.631236
11
-810.960883
21
846.257633
0
LINE
8
Layer 1
10
-810.960883
20
846.257633
11
-809.184040
21
837.143057
0
LINE
8
Layer 1
10
-809.184040
20
837.143057
11
-808.047170
21
830.932607
0
LINE
8
Layer 1
10
-808.047170
20
830.932607
11
-806.794609
21
825.900028
0
LINE
8
Layer 1
10
-806.794609
20
825.900028
11
-806.039485
21
823.664679
0
LINE
8
Layer 1
10
-806.039485
20
823.664679
11
-805.177516
21
821.570326
0
LINE
8
Layer 1
10
-805.177516
20
821.570326
11
-804.192988
21
819.582245
0
LINE
8
Layer 1
10
-804.192988
20
819.582245
11
-803.070188
21
817.665714
0
LINE
8
Layer 1
10
-803.070188
20
817.665714
11
-800.346920
21
813.908407
0
LINE
8
Layer 1
10
-800.346920
20
813.908407
11
-797.747174
21
810.985334
0
LINE
8
Layer 1
10
-797.747174
20
810.985334
11
-795.284603
21
808.815668
0
LINE
8
Layer 1
10
-795.284603
20
808.815668
11
-792.827915
21
807.301025
0
LINE
8
Layer 1
10
-792.827915
20
807.301025
11
-790.245820
21
806.343017
0
LINE
8
Layer 1
10
-790.245820
20
806.343017
11
-788.714095
21
806.010934
0
LINE
8
Layer 1
10
-788.714095
20
806.010934
11
-788.028910
21
806.068086
0
LINE
8
Layer 1
10
-788.028910
20
806.068086
11
-787.400751
21
808.242731
0
LINE
8
Layer 1
10
-787.400751
20
808.242731
11
-787.074970
21
810.494666
0
LINE
8
Layer 1
10
-787.074970
20
810.494666
11
-787.598430
21
810.616614
0
LINE
8
Layer 1
10
-787.598430
20
810.616614
11
-789.384266
21
810.963589
0
LINE
8
Layer 1
10
-789.384266
20
810.963589
11
-791.409540
21
811.716794
0
LINE
8
Layer 1
10
-791.409540
20
811.716794
11
-793.167472
21
812.749115
0
LINE
8
Layer 1
10
-793.167472
20
812.749115
11
-794.856341
21
814.079620
0
LINE
8
Layer 1
10
-794.856341
20
814.079620
11
-796.466167
21
815.694642
0
LINE
8
Layer 1
10
-796.466167
20
815.694642
11
-797.986970
21
817.580515
0
LINE
8
Layer 1
10
-797.986970
20
817.580515
11
-799.408769
21
819.723573
0
LINE
8
Layer 1
10
-799.408769
20
819.723573
11
-800.721584
21
822.110150
0
LINE
8
Layer 1
10
-800.721584
20
822.110150
11
-801.915434
21
824.726579
0
LINE
8
Layer 1
10
-801.915434
20
824.726579
11
-802.980340
21
827.559194
0
LINE
8
Layer 1
10
-802.980340
20
827.559194
11
-804.008876
21
830.800134
0
LINE
8
Layer 1
10
-804.008876
20
830.800134
11
-804.724563
21
833.590488
0
LINE
8
Layer 1
10
-804.724563
20
833.590488
11
-805.169773
21
836.124445
0
LINE
8
Layer 1
10
-805.169773
20
836.124445
11
-805.386880
21
838.596194
0
LINE
8
Layer 1
10
-805.386880
20
838.596194
11
-805.465980
21
840.280844
0
LINE
8
Layer 1
10
-805.465980
20
840.280844
11
-805.163150
21
840.015221
0
LINE
8
Layer 1
10
-805.163150
20
840.015221
11
-803.941154
21
839.059048
0
LINE
8
Layer 1
10
-803.941154
20
839.059048
11
-802.649426
21
838.254654
0
LINE
8
Layer 1
10
-802.649426
20
838.254654
11
-801.377560
21
837.651256
0
LINE
8
Layer 1
10
-801.377560
20
837.651256
11
-800.215150
21
837.298071
0
LINE
8
Layer 1
10
-800.215150
20
837.298071
11
-799.092230
21
837.064492
0
LINE
8
Layer 1
10
-799.092230
20
837.064492
11
-798.812897
21
837.066186
0
LINE
8
Layer 1
10
-798.812897
20
837.066186
11
-798.622514
21
837.305644
0
LINE
8
Layer 1
10
-798.622514
20
837.305644
11
-798.344460
21
838.901062
0
LINE
8
Layer 1
10
-798.344460
20
838.901062
11
-798.176857
21
840.404653
0
LINE
8
Layer 1
10
-798.176857
20
840.404653
11
-798.210291
21
841.153597
0
LINE
8
Layer 1
10
-798.210291
20
841.153597
11
-798.563640
21
841.477779
0
LINE
8
Layer 1
10
-798.563640
20
841.477779
11
-799.355780
21
841.707082
0
LINE
8
Layer 1
10
-799.355780
20
841.707082
11
-800.424579
21
842.065998
0
LINE
8
Layer 1
10
-800.424579
20
842.065998
11
-801.303970
21
842.523904
0
LINE
8
Layer 1
10
-801.303970
20
842.523904
11
-802.104813
21
843.152430
0
LINE
8
Layer 1
10
-802.104813
20
843.152430
11
-802.937970
21
844.023202
0
LINE
8
Layer 1
10
-802.937970
20
844.023202
11
-804.107828
21
845.575000
0
LINE
8
Layer 1
10
-804.107828
20
845.575000
11
-805.091559
21
847.351440
0
LINE
8
Layer 1
10
-805.091559
20
847.351440
11
-805.913813
21
849.404715
0
LINE
8
Layer 1
10
-805.913813
20
849.404715
11
-806.599240
21
851.787022
0
LINE
8
Layer 1
10
-806.599240
20
851.787022
11
-808.115930
21
857.460542
0
LINE
8
Layer 1
10
-808.115930
20
857.460542
11
-809.184590
21
861.486122
0
LINE
8
Layer 1
10
-809.184590
20
861.486122
11
-809.104821
21
861.650189
0
LINE
8
Layer 1
10
-809.104821
20
861.650189
11
-808.825268
21
861.609965
0
LINE
8
Layer 1
10
-808.825268
20
861.609965
11
-807.434320
21
860.829844
0
LINE
8
Layer 1
10
-807.434320
20
860.829844
11
-806.235835
21
860.016429
0
LINE
8
Layer 1
10
-806.235835
20
860.016429
11
-805.215524
21
859.155992
0
LINE
8
Layer 1
10
-805.215524
20
859.155992
11
-803.129680
21
856.743284
0
LINE
8
Layer 1
10
-803.129680
20
856.743284
11
-800.612788
21
853.187409
0
LINE
8
Layer 1
10
-800.612788
20
853.187409
11
-798.821574
21
850.021123
0
LINE
8
Layer 1
10
-798.821574
20
850.021123
11
-797.682445
21
847.091317
0
LINE
8
Layer 1
10
-797.682445
20
847.091317
11
-797.121810
21
844.244884
0
LINE
8
Layer 1
10
-797.121810
20
844.244884
11
-797.043110
21
842.706813
0
LINE
8
Layer 1
10
-797.043110
20
842.706813
11
-797.197810
21
840.717984
0
LINE
8
Layer 1
10
-797.197810
20
840.717984
11
-797.729763
21
836.809537
0
LINE
8
Layer 1
10
-797.729763
20
836.809537
11
-798.477616
21
833.371254
0
LINE
8
Layer 1
10
-798.477616
20
833.371254
11
-799.487836
21
830.229311
0
LINE
8
Layer 1
10
-799.487836
20
830.229311
11
-800.806890
21
827.209884
0
LINE
8
Layer 1
10
-800.806890
20
827.209884
11
-801.433200
21
825.941244
0
LINE
8
Layer 1
10
-801.433200
20
825.941244
11
-800.969150
21
824.833314
0
LINE
8
Layer 1
10
-800.969150
20
824.833314
11
-799.592170
21
821.917889
0
LINE
8
Layer 1
10
-799.592170
20
821.917889
11
-798.273210
21
819.612484
0
LINE
8
Layer 1
10
-798.273210
20
819.612484
11
-796.821620
21
820.623804
0
LINE
8
Layer 1
10
-796.821620
20
820.623804
11
-791.766450
21
824.483379
0
LINE
8
Layer 1
10
-791.766450
20
824.483379
11
-785.377420
21
828.865644
0
LINE
8
Layer 1
10
-785.377420
20
828.865644
11
-781.140870
21
831.474877
0
LINE
8
Layer 1
10
-781.140870
20
831.474877
11
-775.524320
21
834.689044
0
LINE
8
Layer 1
10
-775.524320
20
834.689044
11
-773.361670
21
835.956644
0
LINE
8
Layer 1
10
-773.361670
20
835.956644
11
-773.205090
21
836.838750
0
LINE
8
Layer 1
10
-773.205090
20
836.838750
11
-773.512030
21
840.919110
0
LINE
8
Layer 1
10
-773.512030
20
840.919110
11
-773.915301
21
840.822305
0
LINE
8
Layer 1
10
-773.915301
20
840.822305
11
-774.918640
21
840.269547
0
LINE
8
Layer 1
10
-774.918640
20
840.269547
11
-778.720990
21
838.120327
0
LINE
8
Layer 1
10
-778.720990
20
838.120327
11
-784.840065
21
834.585610
0
LINE
8
Layer 1
10
-784.840065
20
834.585610
11
-789.768290
21
831.197787
0
LINE
8
Layer 1
10
-789.768290
20
831.197787
11
-794.406760
21
827.782517
0
LINE
8
Layer 1
10
-794.406760
20
827.782517
11
-796.372510
21
826.376917
0
LINE
8
Layer 1
10
-796.372510
20
826.376917
11
-796.850500
21
826.144893
0
LINE
8
Layer 1
10
-796.850500
20
826.144893
11
-796.483590
21
827.275043
0
LINE
8
Layer 1
10
-796.483590
20
827.275043
11
-795.639676
21
829.574784
0
LINE
8
Layer 1
10
-795.639676
20
829.574784
11
-794.854581
21
832.173458
0
LINE
8
Layer 1
10
-794.854581
20
832.173458
11
-793.707020
21
837.371543
0
LINE
8
Layer 1
10
-793.707020
20
837.371543
11
-793.415105
21
840.087485
0
LINE
8
Layer 1
10
-793.415105
20
840.087485
11
-793.291756
21
843.127747
0
LINE
8
Layer 1
10
-793.291756
20
843.127747
11
-793.342836
21
846.012082
0
LINE
8
Layer 1
10
-793.342836
20
846.012082
11
-793.574210
21
848.260243
0
LINE
8
Layer 1
10
-793.574210
20
848.260243
11
-794.094215
21
850.512467
0
LINE
8
Layer 1
10
-794.094215
20
850.512467
11
-794.830529
21
852.689877
0
LINE
8
Layer 1
10
-794.830529
20
852.689877
11
-795.820018
21
854.885780
0
LINE
8
Layer 1
10
-795.820018
20
854.885780
11
-797.099550
21
857.193483
0
LINE
8
Layer 1
10
-797.099550
20
857.193483
11
-797.225598
21
857.515678
0
LINE
8
Layer 1
10
-797.225598
20
857.515678
11
-796.913000
21
857.708190
0
LINE
8
Layer 1
10
-796.913000
20
857.708190
11
-795.640747
21
858.414717
0
LINE
8
Layer 1
10
-795.640747
20
858.414717
11
-794.061899
21
859.492781
0
LINE
8
Layer 1
10
-794.061899
20
859.492781
11
-792.608299
21
860.627321
0
LINE
8
Layer 1
10
-792.608299
20
860.627321
11
-791.711790
21
861.503280
0
LINE
8
Layer 1
10
-791.711790
20
861.503280
11
-791.560134
21
861.856290
0
LINE
8
Layer 1
10
-791.560134
20
861.856290
11
-791.883880
21
862.401927
0
LINE
8
Layer 1
10
-791.883880
20
862.401927
11
-793.204828
21
864.131175
0
LINE
8
Layer 1
10
-793.204828
20
864.131175
11
-793.979850
21
864.897887
0
LINE
8
Layer 1
10
-793.979850
20
864.897887
11
-794.498160
21
864.613159
0
LINE
8
Layer 1
10
-794.498160
20
864.613159
11
-795.528468
21
863.964389
0
LINE
8
Layer 1
10
-795.528468
20
863.964389
11
-796.801705
21
863.516163
0
LINE
8
Layer 1
10
-796.801705
20
863.516163
11
-798.176184
21
863.303792
0
LINE
8
Layer 1
10
-798.176184
20
863.303792
11
-799.510220
21
863.362589
0
LINE
8
Layer 1
10
-799.510220
20
863.362589
11
-801.325104
21
863.830107
0
LINE
8
Layer 1
10
-801.325104
20
863.830107
11
-802.910540
21
864.687335
0
LINE
8
Layer 1
10
-802.910540
20
864.687335
11
-804.491439
21
866.095157
0
LINE
8
Layer 1
10
-804.491439
20
866.095157
11
-806.292710
21
868.214459
0
LINE
8
Layer 1
10
-806.292710
20
868.214459
11
-808.064921
21
870.668879
0
LINE
8
Layer 1
10
-808.064921
20
870.668879
11
-809.451080
21
873.034049
0
LINE
8
Layer 1
10
-809.451080
20
873.034049
11
-810.463012
21
875.332942
0
LINE
8
Layer 1
10
-810.463012
20
875.332942
11
-811.112540
21
877.588529
0
LINE
8
Layer 1
10
-811.112540
20
877.588529
11
-811.398830
21
879.535689
0
LINE
8
Layer 1
10
-811.398830
20
879.535689
11
-811.261914
21
879.710198
0
LINE
8
Layer 1
10
-811.261914
20
879.710198
11
-810.993820
21
879.758702
0
LINE
8
Layer 1
10
-810.993820
20
879.758702
11
-810.026310
21
879.476299
0
LINE
8
Layer 1
10
-810.026310
20
879.476299
11
-808.565686
21
878.537468
0
LINE
8
Layer 1
10
-808.565686
20
878.537468
11
-806.698870
21
876.727659
0
LINE
8
Layer 1
10
-806.698870
20
876.727659
11
-802.792568
21
872.828664
0
LINE
8
Layer 1
10
-802.792568
20
872.828664
11
-799.767020
21
870.225249
0
LINE
8
Layer 1
10
-799.767020
20
870.225249
11
-798.763970
21
869.461978
0
LINE
8
Layer 1
10
-798.763970
20
869.461978
11
-797.275180
21
868.338538
0
LINE
8
Layer 1
10
-797.275180
20
868.338538
11
-794.564666
21
866.358671
0
LINE
8
Layer 1
10
-794.564666
20
866.358671
11
-792.749900
21
864.807518
0
LINE
8
Layer 1
10
-792.749900
20
864.807518
11
-791.066624
21
862.921688
0
LINE
8
Layer 1
10
-791.066624
20
862.921688
11
-789.389938
21
860.696672
0
LINE
8
Layer 1
10
-789.389938
20
860.696672
11
-787.942297
21
858.450856
0
LINE
8
Layer 1
10
-787.942297
20
858.450856
11
-786.946160
21
856.502628
0
LINE
8
Layer 1
10
-786.946160
20
856.502628
11
-786.514670
21
855.697517
0
LINE
8
Layer 1
10
-786.514670
20
855.697517
11
-786.279851
21
856.014391
0
LINE
8
Layer 1
10
-786.279851
20
856.014391
11
-785.973994
21
856.854423
0
LINE
8
Layer 1
10
-785.973994
20
856.854423
11
-785.354560
21
859.440417
0
LINE
8
Layer 1
10
-785.354560
20
859.440417
11
-785.104950
21
860.806747
0
LINE
8
Layer 1
10
-785.104950
20
860.806747
11
-785.694060
21
861.893507
0
LINE
8
Layer 1
10
-785.694060
20
861.893507
11
-787.459715
21
864.893270
0
LINE
8
Layer 1
10
-787.459715
20
864.893270
11
-789.352251
21
867.604631
0
LINE
8
Layer 1
10
-789.352251
20
867.604631
11
-791.391916
21
870.054180
0
LINE
8
Layer 1
10
-791.391916
20
870.054180
11
-793.598960
21
872.268507
0
LINE
8
Layer 1
10
-793.598960
20
872.268507
11
-794.950300
21
873.672037
0
LINE
8
Layer 1
10
-794.950300
20
873.672037
11
-795.082258
21
874.009304
0
LINE
8
Layer 1
10
-795.082258
20
874.009304
11
-794.883600
21
874.289557
0
LINE
8
Layer 1
10
-794.883600
20
874.289557
11
-794.463470
21
874.557775
0
LINE
8
Layer 1
10
-794.463470
20
874.557775
11
-787.277380
21
876.873895
0
LINE
8
Layer 1
10
-787.277380
20
876.873895
11
-786.380366
21
877.294864
0
LINE
8
Layer 1
10
-786.380366
20
877.294864
11
-786.117260
21
877.598898
0
LINE
8
Layer 1
10
-786.117260
20
877.598898
11
-786.722303
21
879.388831
0
LINE
8
Layer 1
10
-786.722303
20
879.388831
11
-787.486150
21
880.915988
0
LINE
8
Layer 1
10
-787.486150
20
880.915988
11
-788.999230
21
880.456580
0
LINE
8
Layer 1
10
-788.999230
20
880.456580
11
-791.247771
21
879.680951
0
LINE
8
Layer 1
10
-791.247771
20
879.680951
11
-793.408798
21
879.208349
0
LINE
8
Layer 1
10
-793.408798
20
879.208349
11
-795.402758
21
879.050835
0
LINE
8
Layer 1
10
-795.402758
20
879.050835
11
-797.150100
21
879.220470
0
LINE
8
Layer 1
10
-797.150100
20
879.220470
11
-798.947981
21
879.720971
0
LINE
8
Layer 1
10
-798.947981
20
879.720971
11
-800.430510
21
880.492740
0
LINE
8
Layer 1
10
-800.430510
20
880.492740
11
-801.410791
21
881.247886
0
LINE
8
Layer 1
10
-801.410791
20
881.247886
11
-801.591444
21
881.543920
0
LINE
8
Layer 1
10
-801.591444
20
881.543920
11
-801.591670
21
881.815120
0
LINE
8
Layer 1
10
-801.591670
20
881.815120
11
-799.702390
21
883.839280
0
LINE
8
Layer 1
10
-799.702390
20
883.839280
11
-797.521349
21
886.100009
0
LINE
8
Layer 1
10
-797.521349
20
886.100009
11
-794.372530
21
889.754140
0
LINE
8
Layer 1
10
-794.372530
20
889.754140
11
-791.393430
21
893.548816
0
LINE
8
Layer 1
10
-791.393430
20
893.548816
11
-788.003078
21
898.212508
0
LINE
8
Layer 1
10
-788.003078
20
898.212508
11
-785.238326
21
902.275190
0
LINE
8
Layer 1
10
-785.238326
20
902.275190
11
-784.136030
21
904.266840
0
LINE
8
Layer 1
10
-784.136030
20
904.266840
11
-785.354648
21
905.314945
0
LINE
8
Layer 1
10
-785.354648
20
905.314945
11
-786.806680
21
906.142680
0
LINE
8
Layer 1
10
-786.806680
20
906.142680
11
-787.238284
21
905.762664
0
LINE
8
Layer 1
10
-787.238284
20
905.762664
11
-788.026760
21
904.636830
0
LINE
8
Layer 1
10
-788.026760
20
904.636830
11
-789.907689
21
901.936166
0
LINE
8
Layer 1
10
-789.907689
20
901.936166
11
-792.175034
21
899.001785
0
LINE
8
Layer 1
10
-792.175034
20
899.001785
11
-794.507507
21
896.232127
0
LINE
8
Layer 1
10
-794.507507
20
896.232127
11
-796.583820
21
894.025630
0
LINE
8
Layer 1
10
-796.583820
20
894.025630
11
-799.400886
21
891.617299
0
LINE
8
Layer 1
10
-799.400886
20
891.617299
11
-802.227240
21
889.841909
0
LINE
8
Layer 1
10
-802.227240
20
889.841909
11
-803.617846
21
889.205002
0
LINE
8
Layer 1
10
-803.617846
20
889.205002
11
-804.979509
21
888.742454
0
LINE
8
Layer 1
10
-804.979509
20
888.742454
11
-806.301808
21
888.459639
0
LINE
8
Layer 1
10
-806.301808
20
888.459639
11
-807.574320
21
888.361930
0
LINE
8
Layer 1
10
-807.574320
20
888.361930
11
-809.921128
21
888.596836
0
LINE
8
Layer 1
10
-809.921128
20
888.596836
11
-812.381538
21
889.248807
0
LINE
8
Layer 1
10
-812.381538
20
889.248807
11
-814.671529
21
890.220725
0
LINE
8
Layer 1
10
-814.671529
20
890.220725
11
-816.507080
21
891.415470
0
LINE
8
Layer 1
10
-816.507080
20
891.415470
11
-817.888104
21
892.824669
0
LINE
8
Layer 1
10
-817.888104
20
892.824669
11
-818.692460
21
894.025110
0
LINE
8
Layer 1
10
-818.692460
20
894.025110
11
-818.733778
21
894.509612
0
LINE
8
Layer 1
10
-818.733778
20
894.509612
11
-818.474900
21
895.133040
0
LINE
8
Layer 1
10
-818.474900
20
895.133040
11
-817.309372
21
896.644712
0
LINE
8
Layer 1
10
-817.309372
20
896.644712
11
-815.491909
21
898.109518
0
LINE
8
Layer 1
10
-815.491909
20
898.109518
11
-813.216719
21
899.396855
0
LINE
8
Layer 1
10
-813.216719
20
899.396855
11
-810.678010
21
900.376120
0
LINE
8
Layer 1
10
-810.678010
20
900.376120
11
-808.527336
21
900.828280
0
LINE
8
Layer 1
10
-808.527336
20
900.828280
11
-806.527668
21
900.815140
0
LINE
8
Layer 1
10
-806.527668
20
900.815140
11
-804.559630
21
900.321527
0
LINE
8
Layer 1
10
-804.559630
20
900.321527
11
-802.503850
21
899.332270
0
LINE
8
Layer 1
10
-802.503850
20
899.332270
11
-800.162376
21
897.743832
0
LINE
8
Layer 1
10
-800.162376
20
897.743832
11
-797.860750
21
895.936630
0
LINE
8
Layer 1
10
-797.860750
20
895.936630
11
-796.927980
21
895.259144
0
LINE
8
Layer 1
10
-796.927980
20
895.259144
11
-795.616150
21
896.546685
0
LINE
8
Layer 1
10
-795.616150
20
896.546685
11
-794.517290
21
898.083774
0
LINE
8
Layer 1
10
-794.517290
20
898.083774
11
-795.034849
21
898.927579
0
LINE
8
Layer 1
10
-795.034849
20
898.927579
11
-796.429300
21
900.693414
0
LINE
8
Layer 1
10
-796.429300
20
900.693414
11
-798.270668
21
902.787865
0
LINE
8
Layer 1
10
-798.270668
20
902.787865
11
-799.942250
21
904.361914
0
LINE
8
Layer 1
10
-799.942250
20
904.361914
11
-801.651710
21
905.971614
0
LINE
8
Layer 1
10
-801.651710
20
905.971614
11
-801.638865
21
906.562362
0
LINE
8
Layer 1
10
-801.638865
20
906.562362
11
-801.143200
21
907.326554
0
LINE
8
Layer 1
10
-801.143200
20
907.326554
11
-800.253198
21
908.069039
0
LINE
8
Layer 1
10
-800.253198
20
908.069039
11
-799.004604
21
908.614925
0
LINE
8
Layer 1
10
-799.004604
20
908.614925
11
-797.356932
21
908.976936
0
LINE
8
Layer 1
10
-797.356932
20
908.976936
11
-795.269700
21
909.167794
0
LINE
8
Layer 1
10
-795.269700
20
909.167794
11
-793.340090
21
909.151331
0
LINE
8
Layer 1
10
-793.340090
20
909.151331
11
-791.503491
21
908.900255
0
LINE
8
Layer 1
10
-791.503491
20
908.900255
11
-789.669887
21
908.396026
0
LINE
8
Layer 1
10
-789.669887
20
908.396026
11
-787.749260
21
907.620104
0
LINE
8
Layer 1
10
-787.749260
20
907.620104
11
-785.033298
21
906.033719
0
LINE
8
Layer 1
10
-785.033298
20
906.033719
11
-782.231280
21
903.982094
0
LINE
8
Layer 1
10
-782.231280
20
903.982094
11
-781.165700
21
903.083446
0
LINE
8
Layer 1
10
-781.165700
20
903.083446
11
-779.943570
21
904.591376
0
LINE
8
Layer 1
10
-779.943570
20
904.591376
11
-778.720920
21
906.276026
0
LINE
8
Layer 1
10
-778.720920
20
906.276026
11
-779.721526
21
907.419969
0
LINE
8
Layer 1
10
-779.721526
20
907.419969
11
-781.635460
21
909.156966
0
LINE
8
Layer 1
10
-781.635460
20
909.156966
11
-784.481166
21
911.055670
0
LINE
8
Layer 1
10
-784.481166
20
911.055670
11
-787.647970
21
912.654936
0
LINE
8
Layer 1
10
-787.647970
20
912.654936
11
-790.368358
21
913.566047
0
LINE
8
Layer 1
10
-790.368358
20
913.566047
11
-793.263630
21
914.163866
0
LINE
8
Layer 1
10
-793.263630
20
914.163866
11
-794.234081
21
914.358308
0
LINE
8
Layer 1
10
-794.234081
20
914.358308
11
-794.579820
21
914.543686
0
LINE
8
Layer 1
10
-794.579820
20
914.543686
11
-794.352886
21
915.031581
0
LINE
8
Layer 1
10
-794.352886
20
915.031581
11
-793.762400
21
915.821604
0
LINE
8
Layer 1
10
-793.762400
20
915.821604
11
-792.032680
21
917.647366
0
LINE
8
Layer 1
10
-792.032680
20
917.647366
11
-790.761970
21
918.899466
0
LINE
8
Layer 1
10
-790.761970
20
918.899466
11
-792.310673
21
920.575934
0
LINE
8
Layer 1
10
-792.310673
20
920.575934
11
-794.039780
21
922.094086
0
LINE
8
Layer 1
10
-794.039780
20
922.094086
11
-794.930680
21
921.584048
0
LINE
8
Layer 1
10
-794.930680
20
921.584048
11
-798.153200
21
919.265858
0
LINE
8
Layer 1
10
-798.153200
20
919.265858
11
-800.987561
21
917.205778
0
LINE
8
Layer 1
10
-800.987561
20
917.205778
11
-803.197736
21
915.419483
0
LINE
8
Layer 1
10
-803.197736
20
915.419483
11
-805.093768
21
913.637508
0
LINE
8
Layer 1
10
-805.093768
20
913.637508
11
-806.985700
21
911.590388
0
LINE
8
Layer 1
10
-806.985700
20
911.590388
11
-808.853264
21
909.675942
0
LINE
8
Layer 1
10
-808.853264
20
909.675942
11
-809.554029
21
909.179984
0
LINE
8
Layer 1
10
-809.554029
20
909.179984
11
-810.207700
21
908.901158
0
LINE
8
Layer 1
10
-810.207700
20
908.901158
11
-810.723721
21
908.793104
0
LINE
8
Layer 1
10
-810.723721
20
908.793104
11
-810.983983
21
908.925535
0
LINE
8
Layer 1
10
-810.983983
20
908.925535
11
-811.042138
21
909.400795
0
LINE
8
Layer 1
10
-811.042138
20
909.400795
11
-810.951840
21
910.321228
0
LINE
8
Layer 1
10
-810.951840
20
910.321228
11
-810.590403
21
912.166471
0
LINE
8
Layer 1
10
-810.590403
20
912.166471
11
-809.941815
21
914.027898
0
LINE
8
Layer 1
10
-809.941815
20
914.027898
11
-808.959147
21
916.016091
0
LINE
8
Layer 1
10
-808.959147
20
916.016091
11
-807.595470
21
918.241628
0
LINE
8
Layer 1
10
-807.595470
20
918.241628
11
-805.876203
21
920.603531
0
LINE
8
Layer 1
10
-805.876203
20
920.603531
11
-803.965730
21
922.487848
0
LINE
8
Layer 1
10
-803.965730
20
922.487848
11
-802.081358
21
923.892751
0
LINE
8
Layer 1
10
-802.081358
20
923.892751
11
-800.247900
21
924.762249
0
LINE
8
Layer 1
10
-800.247900
20
924.762249
11
-798.491047
21
925.087789
0
LINE
8
Layer 1
10
-798.491047
20
925.087789
11
-796.836490
21
924.860818
0
LINE
8
Layer 1
10
-796.836490
20
924.860818
11
-795.528411
21
924.352240
0
LINE
8
Layer 1
10
-795.528411
20
924.352240
11
-794.242916
21
923.589369
0
LINE
8
Layer 1
10
-794.242916
20
923.589369
11
-792.687123
21
922.367592
0
LINE
8
Layer 1
10
-792.687123
20
922.367592
11
-790.568150
21
920.482298
0
LINE
8
Layer 1
10
-790.568150
20
920.482298
11
-787.810200
21
918.070568
0
LINE
8
Layer 1
10
-787.810200
20
918.070568
11
-786.141581
21
916.899327
0
LINE
8
Layer 1
10
-786.141581
20
916.899327
11
-785.002140
21
916.267078
0
LINE
8
Layer 1
10
-785.002140
20
916.267078
11
-784.757720
21
916.765244
0
LINE
8
Layer 1
10
-784.757720
20
916.765244
11
-784.403644
21
918.788618
0
LINE
8
Layer 1
10
-784.403644
20
918.788618
11
-784.275580
21
920.308684
0
LINE
8
Layer 1
10
-784.275580
20
920.308684
11
-785.389190
21
921.388724
0
LINE
8
Layer 1
10
-785.389190
20
921.388724
11
-788.750230
21
924.475344
0
LINE
8
Layer 1
10
-788.750230
20
924.475344
11
-792.072480
21
927.525774
0
LINE
8
Layer 1
10
-792.072480
20
927.525774
11
-794.507719
21
929.212182
0
LINE
8
Layer 1
10
-794.507719
20
929.212182
11
-796.623600
21
930.366394
0
LINE
8
Layer 1
10
-796.623600
20
930.366394
11
-797.150180
21
930.704374
0
LINE
8
Layer 1
10
-797.150180
20
930.704374
11
-796.670630
21
931.580286
0
LINE
8
Layer 1
10
-796.670630
20
931.580286
11
-795.643671
21
933.399099
0
LINE
8
Layer 1
10
-795.643671
20
933.399099
11
-794.781716
21
935.542355
0
LINE
8
Layer 1
10
-794.781716
20
935.542355
11
-794.105876
21
937.947576
0
LINE
8
Layer 1
10
-794.105876
20
937.947576
11
-793.637260
21
940.552286
0
LINE
8
Layer 1
10
-793.637260
20
940.552286
11
-793.392660
21
943.243336
0
LINE
8
Layer 1
10
-793.392660
20
943.243336
11
-793.448097
21
943.980473
0
LINE
8
Layer 1
10
-793.448097
20
943.980473
11
-793.621760
21
944.385636
0
LINE
8
Layer 1
10
-793.621760
20
944.385636
11
-795.180091
21
945.290676
0
LINE
8
Layer 1
10
-795.180091
20
945.290676
11
-796.899050
21
946.038246
0
LINE
8
Layer 1
10
-796.899050
20
946.038246
11
-797.169644
21
945.978942
0
LINE
8
Layer 1
10
-797.169644
20
945.978942
11
-797.242710
21
945.402110
0
LINE
8
Layer 1
10
-797.242710
20
945.402110
11
-797.404522
21
943.591410
0
LINE
8
Layer 1
10
-797.404522
20
943.591410
11
-797.742906
21
941.822451
0
LINE
8
Layer 1
10
-797.742906
20
941.822451
11
-798.277807
21
940.013856
0
LINE
8
Layer 1
10
-798.277807
20
940.013856
11
-799.029170
21
938.084250
0
LINE
8
Layer 1
10
-799.029170
20
938.084250
11
-800.831846
21
934.580121
0
LINE
8
Layer 1
10
-800.831846
20
934.580121
11
-803.101780
21
931.363760
0
LINE
8
Layer 1
10
-803.101780
20
931.363760
11
-805.320195
21
928.924119
0
LINE
8
Layer 1
10
-805.320195
20
928.924119
11
-807.387800
21
927.377450
0
LINE
8
Layer 1
10
-807.387800
20
927.377450
11
-808.576164
21
926.753556
0
LINE
8
Layer 1
10
-808.576164
20
926.753556
11
-808.848425
21
926.702511
0
LINE
8
Layer 1
10
-808.848425
20
926.702511
11
-808.934450
21
926.815228
0
LINE
8
Layer 1
10
-808.934450
20
926.815228
11
-808.421300
21
929.000608
0
LINE
8
Layer 1
10
-808.421300
20
929.000608
11
-806.856550
21
935.318018
0
LINE
8
Layer 1
10
-806.856550
20
935.318018
11
-805.555944
21
940.045458
0
LINE
8
Layer 1
10
-805.555944
20
940.045458
11
-804.993596
21
941.493267
0
LINE
8
Layer 1
10
-804.993596
20
941.493267
11
-804.359040
21
942.718558
0
LINE
8
Layer 1
10
-804.359040
20
942.718558
11
-803.215020
21
944.351515
0
LINE
8
Layer 1
10
-803.215020
20
944.351515
11
-801.906276
21
945.600878
0
LINE
8
Layer 1
10
-801.906276
20
945.600878
11
-800.442742
21
946.459011
0
LINE
8
Layer 1
10
-800.442742
20
946.459011
11
-798.834350
21
946.918278
0
LINE
8
Layer 1
10
-798.834350
20
946.918278
11
-797.132705
21
946.949722
0
LINE
8
Layer 1
10
-797.132705
20
946.949722
11
-795.431230
21
946.517013
0
LINE
8
Layer 1
10
-795.431230
20
946.517013
11
-793.716053
21
945.614700
0
LINE
8
Layer 1
10
-793.716053
20
945.614700
11
-791.973300
21
944.237328
0
LINE
8
Layer 1
10
-791.973300
20
944.237328
11
-790.569526
21
942.749283
0
LINE
8
Layer 1
10
-790.569526
20
942.749283
11
-789.240110
21
940.965383
0
LINE
8
Layer 1
10
-789.240110
20
940.965383
11
-788.075169
21
939.020413
0
LINE
8
Layer 1
10
-788.075169
20
939.020413
11
-787.164820
21
937.049158
0
LINE
8
Layer 1
10
-787.164820
20
937.049158
11
-786.611380
21
935.895228
0
LINE
8
Layer 1
10
-786.611380
20
935.895228
11
-785.797560
21
937.634312
0
LINE
8
Layer 1
10
-785.797560
20
937.634312
11
-785.114840
21
939.707378
0
LINE
8
Layer 1
10
-785.114840
20
939.707378
11
-785.582272
21
940.966243
0
LINE
8
Layer 1
10
-785.582272
20
940.966243
11
-786.734040
21
943.068227
0
LINE
8
Layer 1
10
-786.734040
20
943.068227
11
-788.194350
21
945.378557
0
LINE
8
Layer 1
10
-788.194350
20
945.378557
11
-789.587410
21
947.262458
0
LINE
8
Layer 1
10
-789.587410
20
947.262458
11
-790.881935
21
948.632126
0
LINE
8
Layer 1
10
-790.881935
20
948.632126
11
-792.238961
21
949.753258
0
LINE
8
Layer 1
10
-792.238961
20
949.753258
11
-793.661464
21
950.628022
0
LINE
8
Layer 1
10
-793.661464
20
950.628022
11
-795.152420
21
951.258588
0
LINE
8
Layer 1
10
-795.152420
20
951.258588
11
-796.503863
21
951.546325
0
LINE
8
Layer 1
10
-796.503863
20
951.546325
11
-798.092971
21
951.642169
0
LINE
8
Layer 1
10
-798.092971
20
951.642169
11
-799.667134
21
951.546222
0
LINE
8
Layer 1
10
-799.667134
20
951.546222
11
-800.973740
21
951.258588
0
LINE
8
Layer 1
10
-800.973740
20
951.258588
11
-802.881986
21
950.362590
0
LINE
8
Layer 1
10
-802.881986
20
950.362590
11
-804.482020
21
949.168268
0
LINE
8
Layer 1
10
-804.482020
20
949.168268
11
-805.324330
21
948.469603
0
LINE
8
Layer 1
10
-805.324330
20
948.469603
11
-805.345120
21
950.102222
0
LINE
8
Layer 1
10
-805.345120
20
950.102222
11
-805.030300
21
953.217073
0
LINE
8
Layer 1
10
-805.030300
20
953.217073
11
-804.428638
21
956.397863
0
LINE
8
Layer 1
10
-804.428638
20
956.397863
11
-803.322390
21
960.771603
0
LINE
8
Layer 1
10
-803.322390
20
960.771603
11
-802.710550
21
963.029343
0
LINE
8
Layer 1
10
-802.710550
20
963.029343
11
-803.357520
21
963.779153
0
LINE
8
Layer 1
10
-803.357520
20
963.779153
11
-804.608090
21
965.694793
0
LINE
8
Layer 1
10
-804.608090
20
965.694793
11
-805.335170
21
966.767083
0
LINE
8
Layer 1
10
-805.335170
20
966.767083
11
-806.108326
21
964.968292
0
LINE
8
Layer 1
10
-806.108326
20
964.968292
11
-807.165020
21
961.848563
0
LINE
8
Layer 1
10
-807.165020
20
961.848563
11
-808.298639
21
957.462810
0
LINE
8
Layer 1
10
-808.298639
20
957.462810
11
-809.380890
21
952.168583
0
LINE
8
Layer 1
10
-809.380890
20
952.168583
11
-811.103075
21
943.487218
0
LINE
8
Layer 1
10
-811.103075
20
943.487218
11
-812.769820
21
937.331283
0
LINE
8
Layer 1
10
-812.769820
20
937.331283
11
-814.466675
21
932.686781
0
LINE
8
Layer 1
10
-814.466675
20
932.686781
11
-816.456169
21
928.646123
0
LINE
8
Layer 1
10
-816.456169
20
928.646123
11
-818.740973
21
925.204745
0
LINE
8
Layer 1
10
-818.740973
20
925.204745
11
-819.994951
21
923.707360
0
LINE
8
Layer 1
10
-819.994951
20
923.707360
11
-821.323760
21
922.358083
0
LINE
8
Layer 1
10
-821.323760
20
922.358083
11
-823.687373
21
920.404128
0
LINE
8
Layer 1
10
-823.687373
20
920.404128
11
-826.192180
21
918.906653
0
LINE
8
Layer 1
10
-826.192180
20
918.906653
11
-827.083070
21
917.396683
0
LINE
8
Layer 1
10
-827.083070
20
917.396683
11
-827.049970
21
917.407583
0
LINE
8
Layer 1
10
-827.049970
20
917.407583
11
-824.959970
21
917.746540
0
LINE
8
Layer 1
10
-824.959970
20
917.746540
11
-821.928360
21
917.646321
0
LINE
8
Layer 1
10
-821.928360
20
917.646321
11
-819.652415
21
917.526200
0
LINE
8
Layer 1
10
-819.652415
20
917.526200
11
-818.144620
21
917.636311
0
LINE
8
Layer 1
10
-818.144620
20
917.636311
11
-815.292410
21
918.227723
0
LINE
8
Layer 1
10
-815.292410
20
918.227723
11
-813.136680
21
918.903911
0
LINE
8
Layer 1
10
-813.136680
20
918.903911
11
-811.614094
21
920.011132
0
LINE
8
Layer 1
10
-811.614094
20
920.011132
11
-809.964270
21
921.894921
0
LINE
8
Layer 1
10
-809.964270
20
921.894921
11
-808.882670
21
923.156361
0
LINE
8
Layer 1
10
-808.882670
20
923.156361
11
-809.533901
21
921.828234
0
LINE
8
Layer 1
10
-809.533901
20
921.828234
11
-810.861880
21
919.903321
0
LINE
8
Layer 1
10
-810.861880
20
919.903321
11
-812.093739
21
918.771897
0
LINE
8
Layer 1
10
-812.093739
20
918.771897
11
-813.722384
21
917.790320
0
LINE
8
Layer 1
10
-813.722384
20
917.790320
11
-815.585785
21
917.038946
0
LINE
8
Layer 1
10
-815.585785
20
917.038946
11
-817.521910
21
916.598131
0
LINE
8
Layer 1
10
-817.521910
20
916.598131
11
-821.157850
21
916.612631
0
LINE
8
Layer 1
10
-821.157850
20
916.612631
11
-824.012371
21
916.621106
0
LINE
8
Layer 1
10
-824.012371
20
916.621106
11
-824.632892
21
916.383274
0
LINE
8
Layer 1
10
-824.632892
20
916.383274
11
-825.021180
21
915.929987
0
LINE
8
Layer 1
10
-825.021180
20
915.929987
11
-825.193393
21
915.550796
0
LINE
8
Layer 1
10
-825.193393
20
915.550796
11
-825.115780
21
915.284055
0
LINE
8
Layer 1
10
-825.115780
20
915.284055
11
-821.988840
21
912.982405
0
LINE
8
Layer 1
10
-821.988840
20
912.982405
11
-819.634970
21
911.016135
0
LINE
8
Layer 1
10
-819.634970
20
911.016135
11
-818.223517
21
909.789588
0
LINE
8
Layer 1
10
-818.223517
20
909.789588
11
-816.770845
21
908.853039
0
LINE
8
Layer 1
10
-816.770845
20
908.853039
11
-815.224236
21
908.178065
0
LINE
8
Layer 1
10
-815.224236
20
908.178065
11
-813.530970
21
907.736245
0
LINE
8
Layer 1
10
-813.530970
20
907.736245
11
-811.936223
21
907.562216
0
LINE
8
Layer 1
10
-811.936223
20
907.562216
11
-810.374055
21
907.629884
0
LINE
8
Layer 1
10
-810.374055
20
907.629884
11
-808.915635
21
907.930565
0
LINE
8
Layer 1
10
-808.915635
20
907.930565
11
-807.632130
21
908.455572
0
LINE
8
Layer 1
10
-807.632130
20
908.455572
11
-807.631610
21
908.456091
0
LINE
8
Layer 1
10
-807.631610
20
908.456091
11
-806.909170
21
908.721195
0
LINE
8
Layer 1
10
-806.909170
20
908.721195
11
-807.263351
21
908.133732
0
LINE
8
Layer 1
10
-807.263351
20
908.133732
11
-808.057940
21
907.373485
0
LINE
8
Layer 1
10
-808.057940
20
907.373485
11
-809.640011
21
906.707079
0
LINE
8
Layer 1
10
-809.640011
20
906.707079
11
-811.664168
21
906.405186
0
LINE
8
Layer 1
10
-811.664168
20
906.405186
11
-813.919440
21
906.479051
0
LINE
8
Layer 1
10
-813.919440
20
906.479051
11
-816.194860
21
906.939923
0
LINE
8
Layer 1
10
-816.194860
20
906.939923
11
-817.800531
21
907.559690
0
LINE
8
Layer 1
10
-817.800531
20
907.559690
11
-819.402400
21
908.683473
0
LINE
8
Layer 1
10
-819.402400
20
908.683473
11
-821.808089
21
910.303284
0
LINE
8
Layer 1
10
-821.808089
20
910.303284
11
-824.563810
21
911.671373
0
LINE
8
Layer 1
10
-824.563810
20
911.671373
11
-826.702113
21
912.460394
0
LINE
8
Layer 1
10
-826.702113
20
912.460394
11
-828.891700
21
912.957593
0
LINE
8
Layer 1
10
-828.891700
20
912.957593
11
-829.716980
21
913.134319
0
LINE
8
Layer 1
10
-829.716980
20
913.134319
11
-831.276060
21
910.735499
0
LINE
8
Layer 1
10
-831.276060
20
910.735499
11
-829.973434
21
910.327990
0
LINE
8
Layer 1
10
-829.973434
20
910.327990
11
-828.518235
21
909.631857
0
LINE
8
Layer 1
10
-828.518235
20
909.631857
11
-823.602660
21
906.665999
0
LINE
8
Layer 1
10
-823.602660
20
906.665999
11
-821.628769
21
905.519256
0
LINE
8
Layer 1
10
-821.628769
20
905.519256
11
-819.966151
21
904.739380
0
LINE
8
Layer 1
10
-819.966151
20
904.739380
11
-818.534685
21
904.294689
0
LINE
8
Layer 1
10
-818.534685
20
904.294689
11
-817.254250
21
904.153499
0
LINE
8
Layer 1
10
-817.254250
20
904.153499
11
-816.603153
21
904.008576
0
LINE
8
Layer 1
10
-816.603153
20
904.008576
11
-817.289350
21
903.760771
0
LINE
8
Layer 1
10
-817.289350
20
903.760771
11
-818.652797
21
903.715469
0
LINE
8
Layer 1
10
-818.652797
20
903.715469
11
-820.120210
21
904.037167
0
LINE
8
Layer 1
10
-820.120210
20
904.037167
11
-821.867298
21
904.784194
0
LINE
8
Layer 1
10
-821.867298
20
904.784194
11
-824.069770
21
906.014881
0
LINE
8
Layer 1
10
-824.069770
20
906.014881
11
-826.088183
21
907.167864
0
LINE
8
Layer 1
10
-826.088183
20
907.167864
11
-827.888289
21
908.036936
0
LINE
8
Layer 1
10
-827.888289
20
908.036936
11
-829.797743
21
908.760036
0
LINE
8
Layer 1
10
-829.797743
20
908.760036
11
-832.144200
21
909.475101
0
LINE
8
Layer 1
10
-832.144200
20
909.475101
11
-834.156970
21
906.606551
0
LINE
8
Layer 1
10
-834.156970
20
906.606551
11
-832.211880
21
906.068590
0
LINE
8
Layer 1
10
-832.211880
20
906.068590
11
-829.168750
21
905.152776
0
LINE
8
Layer 1
10
-829.168750
20
905.152776
11
-825.846410
21
903.765380
0
LINE
8
Layer 1
10
-825.846410
20
903.765380
11
-822.099373
21
902.282130
0
LINE
8
Layer 1
10
-822.099373
20
902.282130
11
-820.519865
21
901.899798
0
LINE
8
Layer 1
10
-820.519865
20
901.899798
11
-819.035178
21
901.755181
0
LINE
8
Layer 1
10
-819.035178
20
901.755181
11
-817.569419
21
901.846918
0
LINE
8
Layer 1
10
-817.569419
20
901.846918
11
-816.046698
21
902.173648
0
LINE
8
Layer 1
10
-816.046698
20
902.173648
11
-814.391125
21
902.734009
0
LINE
8
Layer 1
10
-814.391125
20
902.734009
11
-812.526810
21
903.526642
0
LINE
8
Layer 1
10
-812.526810
20
903.526642
11
-808.927040
21
904.997862
0
LINE
8
Layer 1
10
-808.927040
20
904.997862
11
-807.434393
21
905.709899
0
LINE
8
Layer 1
10
-807.434393
20
905.709899
11
-806.106040
21
906.818932
0
LINE
8
Layer 1
10
-806.106040
20
906.818932
11
-803.710265
21
909.149959
0
LINE
8
Layer 1
10
-803.710265
20
909.149959
11
-802.950072
21
909.725848
0
LINE
8
Layer 1
10
-802.950072
20
909.725848
11
-802.665960
21
909.751562
0
LINE
8
Layer 1
10
-802.665960
20
909.751562
11
-805.326780
21
906.120292
0
LINE
8
Layer 1
10
-805.326780
20
906.120292
11
-807.767973
21
903.810416
0
LINE
8
Layer 1
10
-807.767973
20
903.810416
11
-810.814790
21
901.361952
0
LINE
8
Layer 1
10
-810.814790
20
901.361952
11
-812.940934
21
900.013922
0
LINE
8
Layer 1
10
-812.940934
20
900.013922
11
-814.291540
21
899.307302
0
LINE
8
Layer 1
10
-814.291540
20
899.307302
11
-814.217026
21
899.544438
0
LINE
8
Layer 1
10
-814.217026
20
899.544438
11
-813.817145
21
899.969832
0
LINE
8
Layer 1
10
-813.817145
20
899.969832
11
-812.237940
21
901.203812
0
LINE
8
Layer 1
10
-812.237940
20
901.203812
11
-810.496228
21
902.553846
0
LINE
8
Layer 1
10
-810.496228
20
902.553846
11
-810.169568
21
902.934558
0
LINE
8
Layer 1
10
-810.169568
20
902.934558
11
-810.253570
21
903.073982
0
LINE
8
Layer 1
10
-810.253570
20
903.073982
11
-812.823440
21
902.108685
0
LINE
8
Layer 1
10
-812.823440
20
902.108685
11
-816.546855
21
900.688549
0
LINE
8
Layer 1
10
-816.546855
20
900.688549
11
-817.650961
21
900.504259
0
LINE
8
Layer 1
10
-817.650961
20
900.504259
11
-818.838550
21
900.514485
0
LINE
8
Layer 1
10
-818.838550
20
900.514485
11
-820.085417
21
900.639342
0
LINE
8
Layer 1
10
-820.085417
20
900.639342
11
-821.385178
21
900.926555
0
LINE
8
Layer 1
10
-821.385178
20
900.926555
11
-825.043320
21
902.237895
0
LINE
8
Layer 1
10
-825.043320
20
902.237895
11
-829.498830
21
903.764405
0
LINE
8
Layer 1
10
-829.498830
20
903.764405
11
-834.829220
21
905.691395
0
LINE
8
Layer 1
10
-834.829220
20
905.691395
11
-835.597130
21
904.647025
0
LINE
8
Layer 1
10
-835.597130
20
904.647025
11
-833.255680
21
902.396025
0
LINE
8
Layer 1
10
-833.255680
20
902.396025
11
-831.543358
21
901.063727
0
LINE
8
Layer 1
10
-831.543358
20
901.063727
11
-829.369110
21
900.016335
0
LINE
8
Layer 1
10
-829.369110
20
900.016335
11
-825.298973
21
898.388988
0
LINE
8
Layer 1
10
-825.298973
20
898.388988
11
-823.806476
21
897.625999
0
LINE
8
Layer 1
10
-823.806476
20
897.625999
11
-822.535664
21
896.791813
0
LINE
8
Layer 1
10
-822.535664
20
896.791813
11
-821.381513
21
895.807691
0
LINE
8
Layer 1
10
-821.381513
20
895.807691
11
-820.239002
21
894.594895
0
LINE
8
Layer 1
10
-820.239002
20
894.594895
11
-817.568810
21
891.168325
0
LINE
8
Layer 1
10
-817.568810
20
891.168325
11
-816.430227
21
889.711712
0
LINE
8
Layer 1
10
-816.430227
20
889.711712
11
-815.426670
21
888.649370
0
LINE
8
Layer 1
10
-815.426670
20
888.649370
11
-814.424486
21
887.857681
0
LINE
8
Layer 1
10
-814.424486
20
887.857681
11
-813.290020
21
887.213025
0
LINE
8
Layer 1
10
-813.290020
20
887.213025
11
-812.258383
21
886.782135
0
LINE
8
Layer 1
10
-812.258383
20
886.782135
11
-811.205939
21
886.513393
0
LINE
8
Layer 1
10
-811.205939
20
886.513393
11
-808.669660
21
886.397568
0
LINE
8
Layer 1
10
-808.669660
20
886.397568
11
-807.019640
21
886.470478
0
LINE
8
Layer 1
10
-807.019640
20
886.470478
11
-807.506940
21
886.161977
0
LINE
8
Layer 1
10
-807.506940
20
886.161977
11
-808.821021
21
885.628708
0
LINE
8
Layer 1
10
-808.821021
20
885.628708
11
-810.524840
21
885.448327
0
LINE
8
Layer 1
10
-810.524840
20
885.448327
11
-812.460174
21
885.659894
0
LINE
8
Layer 1
10
-812.460174
20
885.659894
11
-814.490591
21
886.347888
0
LINE
8
Layer 1
10
-814.490591
20
886.347888
11
-816.770026
21
887.580999
0
LINE
8
Layer 1
10
-816.770026
20
887.580999
11
-819.452410
21
889.427917
0
LINE
8
Layer 1
10
-819.452410
20
889.427917
11
-821.955396
21
891.064512
0
LINE
8
Layer 1
10
-821.955396
20
891.064512
11
-822.844894
21
891.458832
0
LINE
8
Layer 1
10
-822.844894
20
891.458832
11
-823.454740
21
891.550247
0
LINE
8
Layer 1
10
-823.454740
20
891.550247
11
-823.747676
21
891.418157
0
LINE
8
Layer 1
10
-823.747676
20
891.418157
11
-823.683666
21
891.125036
0
LINE
8
Layer 1
10
-823.683666
20
891.125036
11
-822.377290
21
889.889887
0
LINE
8
Layer 1
10
-822.377290
20
889.889887
11
-820.254893
21
887.925012
0
LINE
8
Layer 1
10
-820.254893
20
887.925012
11
-818.570158
21
885.805194
0
LINE
8
Layer 1
10
-818.570158
20
885.805194
11
-817.223330
21
883.380851
0
LINE
8
Layer 1
10
-817.223330
20
883.380851
11
-816.114660
21
880.502397
0
LINE
8
Layer 1
10
-816.114660
20
880.502397
11
-815.093348
21
877.961101
0
LINE
8
Layer 1
10
-815.093348
20
877.961101
11
-813.696459
21
875.247760
0
LINE
8
Layer 1
10
-813.696459
20
875.247760
11
-812.188088
21
872.828946
0
LINE
8
Layer 1
10
-812.188088
20
872.828946
11
-810.832330
21
871.171237
0
LINE
8
Layer 1
10
-810.832330
20
871.171237
11
-809.169995
21
869.773806
0
LINE
8
Layer 1
10
-809.169995
20
869.773806
11
-807.524550
21
868.597247
0
LINE
8
Layer 1
10
-807.524550
20
868.597247
11
-807.195273
21
868.280343
0
LINE
8
Layer 1
10
-807.195273
20
868.280343
11
-807.186248
21
868.164023
0
LINE
8
Layer 1
10
-807.186248
20
868.164023
11
-807.300800
21
868.118184
0
LINE
8
Layer 1
10
-807.300800
20
868.118184
11
-808.631669
21
868.667471
0
LINE
8
Layer 1
10
-808.631669
20
868.667471
11
-810.382260
21
869.635904
0
LINE
8
Layer 1
10
-810.382260
20
869.635904
11
-811.688408
21
870.594956
0
LINE
8
Layer 1
10
-811.688408
20
870.594956
11
-812.753901
21
871.712240
0
LINE
8
Layer 1
10
-812.753901
20
871.712240
11
-813.881684
21
873.371229
0
LINE
8
Layer 1
10
-813.881684
20
873.371229
11
-815.374700
21
875.955394
0
LINE
8
Layer 1
10
-815.374700
20
875.955394
11
-816.700131
21
878.155350
0
LINE
8
Layer 1
10
-816.700131
20
878.155350
11
-817.995720
21
879.948934
0
LINE
8
Layer 1
10
-817.995720
20
879.948934
11
-820.907140
21
883.679444
0
LINE
8
Layer 1
10
-820.907140
20
883.679444
11
-823.665090
21
886.842024
0
LINE
8
Layer 1
10
-823.665090
20
886.842024
11
-825.733690
21
888.817604
0
LINE
8
Layer 1
10
-825.733690
20
888.817604
11
-828.558978
21
891.415437
0
LINE
8
Layer 1
10
-828.558978
20
891.415437
11
-829.458928
21
891.936475
0
LINE
8
Layer 1
10
-829.458928
20
891.936475
11
-830.297200
21
892.142964
0
LINE
8
Layer 1
10
-830.297200
20
892.142964
11
-831.097718
21
892.112443
0
LINE
8
Layer 1
10
-831.097718
20
892.112443
11
-831.212331
21
891.946882
0
LINE
8
Layer 1
10
-831.212331
20
891.946882
11
-831.171560
21
891.661857
0
LINE
8
Layer 1
10
-831.171560
20
891.661857
11
-830.099096
21
890.445476
0
LINE
8
Layer 1
10
-830.099096
20
890.445476
11
-827.989840
21
888.418647
0
LINE
8
Layer 1
10
-827.989840
20
888.418647
11
-826.408030
21
886.811017
0
LINE
8
Layer 1
10
-826.408030
20
886.811017
11
-824.131700
21
884.416867
0
LINE
8
Layer 1
10
-824.131700
20
884.416867
11
-822.640602
21
882.803486
0
LINE
8
Layer 1
10
-822.640602
20
882.803486
11
-821.456839
21
881.160757
0
LINE
8
Layer 1
10
-821.456839
20
881.160757
11
-820.176623
21
878.839263
0
LINE
8
Layer 1
10
-820.176623
20
878.839263
11
-818.396170
21
875.189587
0
LINE
8
Layer 1
10
-818.396170
20
875.189587
11
-817.407396
21
873.306597
0
LINE
8
Layer 1
10
-817.407396
20
873.306597
11
-816.400450
21
871.816157
0
LINE
8
Layer 1
10
-816.400450
20
871.816157
11
-814.050274
21
868.529883
0
LINE
8
Layer 1
10
-814.050274
20
868.529883
11
-813.562954
21
867.476634
0
LINE
8
Layer 1
10
-813.562954
20
867.476634
11
-813.262160
21
866.342097
0
LINE
8
Layer 1
10
-813.262160
20
866.342097
11
-812.774340
21
864.537567
0
LINE
8
Layer 1
10
-812.774340
20
864.537567
11
-811.890160
21
861.788407
0
LINE
8
Layer 1
10
-811.890160
20
861.788407
11
-811.159801
21
859.212212
0
LINE
8
Layer 1
10
-811.159801
20
859.212212
11
-810.688535
21
856.855403
0
LINE
8
Layer 1
10
-810.688535
20
856.855403
11
-810.483092
21
854.762401
0
LINE
8
Layer 1
10
-810.483092
20
854.762401
11
-810.550200
21
852.977627
0
LINE
8
Layer 1
10
-810.550200
20
852.977627
11
-810.859828
21
851.278123
0
LINE
8
Layer 1
10
-810.859828
20
851.278123
11
-811.200280
21
850.265147
0
LINE
8
Layer 1
10
-811.200280
20
850.265147
11
-811.257943
21
850.727325
0
LINE
8
Layer 1
10
-811.257943
20
850.727325
11
-811.235880
21
852.105347
0
LINE
8
Layer 1
10
-811.235880
20
852.105347
11
-811.230633
21
854.096886
0
LINE
8
Layer 1
10
-811.230633
20
854.096886
11
-811.445943
21
856.011827
0
LINE
8
Layer 1
10
-811.445943
20
856.011827
11
-811.978161
21
858.405021
0
LINE
8
Layer 1
10
-811.978161
20
858.405021
11
-812.923640
21
861.831317
0
LINE
8
Layer 1
10
-812.923640
20
861.831317
11
-813.752530
21
865.192837
0
LINE
8
Layer 1
10
-813.752530
20
865.192837
11
-814.109034
21
866.752215
0
LINE
8
Layer 1
10
-814.109034
20
866.752215
11
-814.535048
21
867.905720
0
LINE
8
Layer 1
10
-814.535048
20
867.905720
11
-815.208775
21
869.021173
0
LINE
8
Layer 1
10
-815.208775
20
869.021173
11
-816.308420
21
870.466397
0
LINE
8
Layer 1
10
-816.308420
20
870.466397
11
-817.733531
21
872.349637
0
LINE
8
Layer 1
10
-817.733531
20
872.349637
11
-818.749661
21
873.929467
0
LINE
8
Layer 1
10
-818.749661
20
873.929467
11
-819.496010
21
875.450909
0
LINE
8
Layer 1
10
-819.496010
20
875.450909
11
-820.111780
21
877.158987
0
LINE
8
Layer 1
10
-820.111780
20
877.158987
11
-820.665560
21
878.435136
0
LINE
8
Layer 1
10
-820.665560
20
878.435136
11
-821.556949
21
879.958892
0
LINE
8
Layer 1
10
-821.556949
20
879.958892
11
-822.669489
21
881.549263
0
LINE
8
Layer 1
10
-822.669489
20
881.549263
11
-823.886720
21
883.025257
0
LINE
8
Layer 1
10
-823.886720
20
883.025257
11
-826.800920
21
886.083391
0
LINE
8
Layer 1
10
-826.800920
20
886.083391
11
-829.745240
21
888.957137
0
LINE
8
Layer 1
10
-829.745240
20
888.957137
11
-832.440660
21
891.448457
0
LINE
8
Layer 1
10
-832.440660
20
891.448457
11
-834.415415
21
893.164916
0
LINE
8
Layer 1
10
-834.415415
20
893.164916
11
-836.577850
21
894.802227
0
LINE
8
Layer 1
10
-836.577850
20
894.802227
11
-839.335800
21
896.791777
0
LINE
8
Layer 1
10
-839.335800
20
896.791777
11
-840.939310
21
897.934837
0
LINE
8
Layer 1
10
-840.939310
20
897.934837
11
-842.562960
21
896.045567
0
LINE
8
Layer 1
10
-842.562960
20
896.045567
11
-841.542525
21
894.941459
0
LINE
8
Layer 1
10
-841.542525
20
894.941459
11
-841.204380
21
894.380047
0
LINE
8
Layer 1
10
-841.204380
20
894.380047
11
-842.056520
21
894.966043
0
LINE
8
Layer 1
10
-842.056520
20
894.966043
11
-842.907620
21
895.657477
0
LINE
8
Layer 1
10
-842.907620
20
895.657477
11
-844.741630
21
893.593007
0
LINE
8
Layer 1
10
-844.741630
20
893.593007
11
-844.742000
21
893.593000
0
LINE
8
Layer 1
10
-840.188000
20
898.835000
11
-837.392067
21
897.265581
0
LINE
8
Layer 1
10
-837.392067
20
897.265581
11
-835.697330
21
895.987110
0
LINE
8
Layer 1
10
-835.697330
20
895.987110
11
-834.593901
21
895.031090
0
LINE
8
Layer 1
10
-834.593901
20
895.031090
11
-833.692424
21
894.430300
0
LINE
8
Layer 1
10
-833.692424
20
894.430300
11
-832.762977
21
894.063247
0
LINE
8
Layer 1
10
-832.762977
20
894.063247
11
-831.575640
21
893.808440
0
LINE
8
Layer 1
10
-831.575640
20
893.808440
11
-829.358220
21
893.342835
0
LINE
8
Layer 1
10
-829.358220
20
893.342835
11
-827.337453
21
892.895530
0
LINE
8
Layer 1
10
-827.337453
20
892.895530
11
-825.372950
21
892.735630
0
LINE
8
Layer 1
10
-825.372950
20
892.735630
11
-822.863291
21
892.414068
0
LINE
8
Layer 1
10
-822.863291
20
892.414068
11
-820.476640
21
891.649390
0
LINE
8
Layer 1
10
-820.476640
20
891.649390
11
-819.467400
21
891.272652
0
LINE
8
Layer 1
10
-819.467400
20
891.272652
11
-819.357728
21
891.365952
0
LINE
8
Layer 1
10
-819.357728
20
891.365952
11
-819.350771
21
891.605941
0
LINE
8
Layer 1
10
-819.350771
20
891.605941
11
-819.611040
21
892.286532
0
LINE
8
Layer 1
10
-819.611040
20
892.286532
11
-820.966057
21
893.982626
0
LINE
8
Layer 1
10
-820.966057
20
893.982626
11
-822.834123
21
895.662344
0
LINE
8
Layer 1
10
-822.834123
20
895.662344
11
-824.907197
21
897.083256
0
LINE
8
Layer 1
10
-824.907197
20
897.083256
11
-826.877240
21
898.002932
0
LINE
8
Layer 1
10
-826.877240
20
898.002932
11
-829.475010
21
898.481445
0
LINE
8
Layer 1
10
-829.475010
20
898.481445
11
-831.708600
21
898.920274
0
LINE
8
Layer 1
10
-831.708600
20
898.920274
11
-834.070050
21
900.007955
0
LINE
8
Layer 1
10
-834.070050
20
900.007955
11
-836.891050
21
901.477095
0
LINE
8
Layer 1
10
-836.891050
20
901.477095
11
-837.704950
21
901.906018
0
LINE
8
Layer 1
10
-837.704950
20
901.906018
11
-840.188000
21
898.834898
0
LINE
8
Layer 1
10
-840.188000
20
898.834898
11
-840.188000
21
898.835000
0
LINE
8
Layer 1
10
-837.211000
20
902.536000
11
-834.976310
21
901.571064
0
LINE
8
Layer 1
10
-834.976310
20
901.571064
11
-833.558520
21
901.086480
0
LINE
8
Layer 1
10
-833.558520
20
901.086480
11
-833.380760
21
901.236352
0
LINE
8
Layer 1
10
-833.380760
20
901.236352
11
-833.585436
21
901.577826
0
LINE
8
Layer 1
10
-833.585436
20
901.577826
11
-834.175340
21
902.104298
0
LINE
8
Layer 1
10
-834.175340
20
902.104298
11
-836.366090
21
903.614482
0
LINE
8
Layer 1
10
-836.366090
20
903.614482
11
-837.211000
21
902.535992
0
LINE
8
Layer 1
10
-837.211000
20
902.535992
11
-837.211000
21
902.536000
0
LINE
8
Layer 1
10
-834.727000
20
883.521000
11
-834.684100
21
883.716861
0
LINE
8
Layer 1
10
-834.684100
20
883.716861
11
-834.409324
21
883.939352
0
LINE
8
Layer 1
10
-834.409324
20
883.939352
11
-833.931446
21
884.034448
0
LINE
8
Layer 1
10
-833.931446
20
884.034448
11
-832.713680
21
883.823825
0
LINE
8
Layer 1
10
-832.713680
20
883.823825
11
-831.164084
21
882.947434
0
LINE
8
Layer 1
10
-831.164084
20
882.947434
11
-829.291959
21
881.476648
0
LINE
8
Layer 1
10
-829.291959
20
881.476648
11
-827.252394
21
879.546356
0
LINE
8
Layer 1
10
-827.252394
20
879.546356
11
-825.200480
21
877.291445
0
LINE
8
Layer 1
10
-825.200480
20
877.291445
11
-824.010027
21
875.772214
0
LINE
8
Layer 1
10
-824.010027
20
875.772214
11
-823.850424
21
875.431369
0
LINE
8
Layer 1
10
-823.850424
20
875.431369
11
-823.953020
21
875.325175
0
LINE
8
Layer 1
10
-823.953020
20
875.325175
11
-826.422640
21
877.757045
0
LINE
8
Layer 1
10
-826.422640
20
877.757045
11
-828.099458
21
879.458549
0
LINE
8
Layer 1
10
-828.099458
20
879.458549
11
-829.897070
21
880.984552
0
LINE
8
Layer 1
10
-829.897070
20
880.984552
11
-831.534362
21
882.117522
0
LINE
8
Layer 1
10
-831.534362
20
882.117522
11
-832.730220
21
882.639925
0
LINE
8
Layer 1
10
-832.730220
20
882.639925
11
-833.189692
21
882.652086
0
LINE
8
Layer 1
10
-833.189692
20
882.652086
11
-833.255280
21
882.220311
0
LINE
8
Layer 1
10
-833.255280
20
882.220311
11
-832.889432
21
880.902071
0
LINE
8
Layer 1
10
-832.889432
20
880.902071
11
-831.929020
21
879.146671
0
LINE
8
Layer 1
10
-831.929020
20
879.146671
11
-830.579740
21
877.277039
0
LINE
8
Layer 1
10
-830.579740
20
877.277039
11
-829.047290
21
875.616101
0
LINE
8
Layer 1
10
-829.047290
20
875.616101
11
-827.864400
21
874.384141
0
LINE
8
Layer 1
10
-827.864400
20
874.384141
11
-828.519670
21
874.557785
0
LINE
8
Layer 1
10
-828.519670
20
874.557785
11
-829.981539
21
875.561026
0
LINE
8
Layer 1
10
-829.981539
20
875.561026
11
-831.450631
21
877.186022
0
LINE
8
Layer 1
10
-831.450631
20
877.186022
11
-832.875213
21
879.364864
0
LINE
8
Layer 1
10
-832.875213
20
879.364864
11
-834.203550
21
882.029645
0
LINE
8
Layer 1
10
-834.203550
20
882.029645
11
-834.727010
21
883.521035
0
LINE
8
Layer 1
10
-834.727010
20
883.521035
11
-834.727000
21
883.521000
0
LINE
8
Layer 1
10
-829.027000
20
914.204000
11
-829.004800
21
914.200000
0
LINE
8
Layer 1
10
-829.004800
20
914.200000
11
-826.483400
21
913.476132
0
LINE
8
Layer 1
10
-826.483400
20
913.476132
11
-823.476480
21
912.051820
0
LINE
8
Layer 1
10
-823.476480
20
912.051820
11
-820.036920
21
910.288090
0
LINE
8
Layer 1
10
-820.036920
20
910.288090
11
-820.008457
21
910.373628
0
LINE
8
Layer 1
10
-820.008457
20
910.373628
11
-820.201625
21
910.608116
0
LINE
8
Layer 1
10
-820.201625
20
910.608116
11
-821.089369
21
911.391172
0
LINE
8
Layer 1
10
-821.089369
20
911.391172
11
-823.726080
21
913.284260
0
LINE
8
Layer 1
10
-823.726080
20
913.284260
11
-825.430106
21
914.511024
0
LINE
8
Layer 1
10
-825.430106
20
914.511024
11
-825.846732
21
914.989494
0
LINE
8
Layer 1
10
-825.846732
20
914.989494
11
-825.983820
21
915.388010
0
LINE
8
Layer 1
10
-825.983820
20
915.388010
11
-825.670650
21
916.205511
0
LINE
8
Layer 1
10
-825.670650
20
916.205511
11
-825.356960
21
916.786349
0
LINE
8
Layer 1
10
-825.356960
20
916.786349
11
-826.986840
21
916.558445
0
LINE
8
Layer 1
10
-826.986840
20
916.558445
11
-827.791430
21
916.220495
0
LINE
8
Layer 1
10
-827.791430
20
916.220495
11
-829.026990
21
914.204085
0
LINE
8
Layer 1
10
-829.026990
20
914.204085
11
-829.027000
21
914.204000
0
LINE
8
Layer 1
10
-827.112000
20
891.383000
11
-826.695345
21
890.712341
0
LINE
8
Layer 1
10
-826.695345
20
890.712341
11
-825.482640
21
889.501480
0
LINE
8
Layer 1
10
-825.482640
20
889.501480
11
-823.503196
21
887.555819
0
LINE
8
Layer 1
10
-823.503196
20
887.555819
11
-820.969240
21
884.683690
0
LINE
8
Layer 1
10
-820.969240
20
884.683690
11
-818.821784
21
882.264785
0
LINE
8
Layer 1
10
-818.821784
20
882.264785
11
-818.368509
21
881.877422
0
LINE
8
Layer 1
10
-818.368509
20
881.877422
11
-818.164780
21
881.873550
0
LINE
8
Layer 1
10
-818.164780
20
881.873550
11
-818.100530
21
882.290160
0
LINE
8
Layer 1
10
-818.100530
20
882.290160
11
-818.257990
21
883.013181
0
LINE
8
Layer 1
10
-818.257990
20
883.013181
11
-819.106300
21
884.948790
0
LINE
8
Layer 1
10
-819.106300
20
884.948790
11
-819.982564
21
886.269356
0
LINE
8
Layer 1
10
-819.982564
20
886.269356
11
-821.214835
21
887.742280
0
LINE
8
Layer 1
10
-821.214835
20
887.742280
11
-824.547280
21
890.925140
0
LINE
8
Layer 1
10
-824.547280
20
890.925140
11
-825.798010
21
891.610821
0
LINE
8
Layer 1
10
-825.798010
20
891.610821
11
-826.414212
21
891.775255
0
LINE
8
Layer 1
10
-826.414212
20
891.775255
11
-826.822600
21
891.747829
0
LINE
8
Layer 1
10
-826.822600
20
891.747829
11
-827.111970
21
891.382993
0
LINE
8
Layer 1
10
-827.111970
20
891.382993
11
-827.112000
21
891.383000
0
LINE
8
Layer 1
10
-822.411000
20
920.567000
11
-822.097310
21
920.888440
0
LINE
8
Layer 1
10
-822.097310
20
920.888440
11
-820.647761
21
921.894615
0
LINE
8
Layer 1
10
-820.647761
20
921.894615
11
-818.441230
21
923.073820
0
LINE
8
Layer 1
10
-818.441230
20
923.073820
11
-817.071132
21
923.824814
0
LINE
8
Layer 1
10
-817.071132
20
923.824814
11
-816.006025
21
924.668679
0
LINE
8
Layer 1
10
-816.006025
20
924.668679
11
-815.191021
21
925.658852
0
LINE
8
Layer 1
10
-815.191021
20
925.658852
11
-814.571230
21
926.848770
0
LINE
8
Layer 1
10
-814.571230
20
926.848770
11
-813.255103
21
931.456112
0
LINE
8
Layer 1
10
-813.255103
20
931.456112
11
-812.001870
21
936.585600
0
LINE
8
Layer 1
10
-812.001870
20
936.585600
11
-811.107155
21
940.954845
0
LINE
8
Layer 1
10
-811.107155
20
940.954845
11
-810.379750
21
943.142790
0
LINE
8
Layer 1
10
-810.379750
20
943.142790
11
-810.217663
21
943.384328
0
LINE
8
Layer 1
10
-810.217663
20
943.384328
11
-810.200430
21
943.175380
0
LINE
8
Layer 1
10
-810.200430
20
943.175380
11
-810.328600
21
942.268464
0
LINE
8
Layer 1
10
-810.328600
20
942.268464
11
-810.889300
21
938.435114
0
LINE
8
Layer 1
10
-810.889300
20
938.435114
11
-811.692850
21
933.352774
0
LINE
8
Layer 1
10
-811.692850
20
933.352774
11
-812.790640
21
928.786835
0
LINE
8
Layer 1
10
-812.790640
20
928.786835
11
-813.884950
21
925.470614
0
LINE
8
Layer 1
10
-813.884950
20
925.470614
11
-814.679255
21
924.213523
0
LINE
8
Layer 1
10
-814.679255
20
924.213523
11
-815.739711
21
923.225185
0
LINE
8
Layer 1
10
-815.739711
20
923.225185
11
-817.205125
21
922.406267
0
LINE
8
Layer 1
10
-817.205125
20
922.406267
11
-819.214300
21
921.657434
0
LINE
8
Layer 1
10
-819.214300
20
921.657434
11
-821.784170
21
920.800657
0
LINE
8
Layer 1
10
-821.784170
20
920.800657
11
-822.411000
21
920.567000
0
LINE
8
Layer 1
10
-815.567000
20
884.299000
11
-815.448690
21
884.679857
0
LINE
8
Layer 1
10
-815.448690
20
884.679857
11
-814.852860
21
884.394611
0
LINE
8
Layer 1
10
-814.852860
20
884.394611
11
-811.379190
21
882.920801
0
LINE
8
Layer 1
10
-811.379190
20
882.920801
11
-808.711074
21
881.811048
0
LINE
8
Layer 1
10
-808.711074
20
881.811048
11
-806.877581
21
880.874673
0
LINE
8
Layer 1
10
-806.877581
20
880.874673
11
-805.539713
21
879.908206
0
LINE
8
Layer 1
10
-805.539713
20
879.908206
11
-804.358470
21
878.708171
0
LINE
8
Layer 1
10
-804.358470
20
878.708171
11
-802.587714
21
876.382311
0
LINE
8
Layer 1
10
-802.587714
20
876.382311
11
-800.595400
21
872.955061
0
LINE
8
Layer 1
10
-800.595400
20
872.955061
11
-799.155710
21
870.203821
0
LINE
8
Layer 1
10
-799.155710
20
870.203821
11
-799.291407
21
870.139722
0
LINE
8
Layer 1
10
-799.291407
20
870.139722
11
-799.711571
21
870.582726
0
LINE
8
Layer 1
10
-799.711571
20
870.582726
11
-801.483730
21
873.086831
0
LINE
8
Layer 1
10
-801.483730
20
873.086831
11
-803.320402
21
875.728950
0
LINE
8
Layer 1
10
-803.320402
20
875.728950
11
-804.773083
21
877.537564
0
LINE
8
Layer 1
10
-804.773083
20
877.537564
11
-806.077890
21
878.773413
0
LINE
8
Layer 1
10
-806.077890
20
878.773413
11
-807.470940
21
879.697241
0
LINE
8
Layer 1
10
-807.470940
20
879.697241
11
-810.490648
21
881.001343
0
LINE
8
Layer 1
10
-810.490648
20
881.001343
11
-813.122770
21
881.919301
0
LINE
8
Layer 1
10
-813.122770
20
881.919301
11
-813.266173
21
881.831215
0
LINE
8
Layer 1
10
-813.266173
20
881.831215
11
-813.186619
21
881.408496
0
LINE
8
Layer 1
10
-813.186619
20
881.408496
11
-812.051000
21
878.608401
0
LINE
8
Layer 1
10
-812.051000
20
878.608401
11
-810.940470
21
875.868031
0
LINE
8
Layer 1
10
-810.940470
20
875.868031
11
-811.100232
21
875.919400
0
LINE
8
Layer 1
10
-811.100232
20
875.919400
11
-811.527325
21
876.491040
0
LINE
8
Layer 1
10
-811.527325
20
876.491040
11
-812.870336
21
878.659863
0
LINE
8
Layer 1
10
-812.870336
20
878.659863
11
-814.343175
21
881.303967
0
LINE
8
Layer 1
10
-814.343175
20
881.303967
11
-815.319510
21
883.352821
0
LINE
8
Layer 1
10
-815.319510
20
883.352821
11
-815.567030
21
884.299013
0
LINE
8
Layer 1
10
-815.567030
20
884.299013
11
-815.567000
21
884.299000
0
LINE
8
Layer 1
10
-807.999000
20
1008.400000
11
-807.267250
21
1000.803610
0
LINE
8
Layer 1
10
-807.267250
20
1000.803610
11
-806.016613
21
997.600002
0
LINE
8
Layer 1
10
-806.016613
20
997.600002
11
-805.080353
21
993.988492
0
LINE
8
Layer 1
10
-805.080353
20
993.988492
11
-804.496378
21
990.103642
0
LINE
8
Layer 1
10
-804.496378
20
990.103642
11
-804.302600
21
986.080010
0
LINE
8
Layer 1
10
-804.302600
20
986.080010
11
-804.392845
21
983.349009
0
LINE
8
Layer 1
10
-804.392845
20
983.349009
11
-804.856560
21
978.675320
0
LINE
8
Layer 1
10
-804.856560
20
978.675320
11
-805.123672
21
975.600341
0
LINE
8
Layer 1
10
-805.123672
20
975.600341
11
-805.139730
21
972.771820
0
LINE
8
Layer 1
10
-805.139730
20
972.771820
11
-805.043857
21
970.322710
0
LINE
8
Layer 1
10
-805.043857
20
970.322710
11
-804.803850
21
968.937970
0
LINE
8
Layer 1
10
-804.803850
20
968.937970
11
-803.934476
21
966.552764
0
LINE
8
Layer 1
10
-803.934476
20
966.552764
11
-802.506840
21
964.216840
0
LINE
8
Layer 1
10
-802.506840
20
964.216840
11
-800.758130
21
961.500750
0
LINE
8
Layer 1
10
-800.758130
20
961.500750
11
-799.913549
21
959.731254
0
LINE
8
Layer 1
10
-799.913549
20
959.731254
11
-799.149905
21
957.737761
0
LINE
8
Layer 1
10
-799.149905
20
957.737761
11
-798.529173
21
955.700696
0
LINE
8
Layer 1
10
-798.529173
20
955.700696
11
-798.113330
21
953.800480
0
LINE
8
Layer 1
10
-798.113330
20
953.800480
11
-797.954190
21
952.837228
0
LINE
8
Layer 1
10
-797.954190
20
952.837228
11
-797.126340
21
952.736459
0
LINE
8
Layer 1
10
-797.126340
20
952.736459
11
-795.207100
21
952.227978
0
LINE
8
Layer 1
10
-795.207100
20
952.227978
11
-794.057290
21
951.892072
0
LINE
8
Layer 1
10
-794.057290
20
951.892072
11
-795.041730
21
956.747062
0
LINE
8
Layer 1
10
-795.041730
20
956.747062
11
-796.948580
21
962.267632
0
LINE
8
Layer 1
10
-796.948580
20
962.267632
11
-797.274239
21
963.155533
0
LINE
8
Layer 1
10
-797.274239
20
963.155533
11
-797.225191
21
963.277397
0
LINE
8
Layer 1
10
-797.225191
20
963.277397
11
-797.033280
21
963.167832
0
LINE
8
Layer 1
10
-797.033280
20
963.167832
11
-790.878245
21
958.196622
0
LINE
8
Layer 1
10
-790.878245
20
958.196622
11
-788.045796
21
956.163605
0
LINE
8
Layer 1
10
-788.045796
20
956.163605
11
-785.738380
21
954.703272
0
LINE
8
Layer 1
10
-785.738380
20
954.703272
11
-783.213622
21
953.310841
0
LINE
8
Layer 1
10
-783.213622
20
953.310841
11
-782.888595
21
953.216696
0
LINE
8
Layer 1
10
-782.888595
20
953.216696
11
-782.810930
21
953.349372
0
LINE
8
Layer 1
10
-782.810930
20
953.349372
11
-782.772730
21
955.765742
0
LINE
8
Layer 1
10
-782.772730
20
955.765742
11
-782.828839
21
957.482014
0
LINE
8
Layer 1
10
-782.828839
20
957.482014
11
-782.962400
21
958.173322
0
LINE
8
Layer 1
10
-782.962400
20
958.173322
11
-785.474900
21
959.865202
0
LINE
8
Layer 1
10
-785.474900
20
959.865202
11
-789.553184
21
962.507643
0
LINE
8
Layer 1
10
-789.553184
20
962.507643
11
-793.278510
21
965.254522
0
LINE
8
Layer 1
10
-793.278510
20
965.254522
11
-796.831839
21
968.174690
0
LINE
8
Layer 1
10
-796.831839
20
968.174690
11
-798.927220
21
970.267622
0
LINE
8
Layer 1
10
-798.927220
20
970.267622
11
-799.534027
21
971.144197
0
LINE
8
Layer 1
10
-799.534027
20
971.144197
11
-800.046873
21
972.154525
0
LINE
8
Layer 1
10
-800.046873
20
972.154525
11
-800.783415
21
974.541390
0
LINE
8
Layer 1
10
-800.783415
20
974.541390
11
-801.122314
21
977.358120
0
LINE
8
Layer 1
10
-801.122314
20
977.358120
11
-801.049040
21
980.534622
0
LINE
8
Layer 1
10
-801.049040
20
980.534622
11
-800.509308
21
985.662522
0
LINE
8
Layer 1
10
-800.509308
20
985.662522
11
-799.972110
21
989.033262
0
LINE
8
Layer 1
10
-799.972110
20
989.033262
11
-799.244173
21
991.034641
0
LINE
8
Layer 1
10
-799.244173
20
991.034641
11
-798.304000
21
992.502822
0
LINE
8
Layer 1
10
-798.304000
20
992.502822
11
-797.499086
21
993.063715
0
LINE
8
Layer 1
10
-797.499086
20
993.063715
11
-796.477341
21
993.374691
0
LINE
8
Layer 1
10
-796.477341
20
993.374691
11
-795.346255
21
993.418064
0
LINE
8
Layer 1
10
-795.346255
20
993.418064
11
-794.213320
21
993.176152
0
LINE
8
Layer 1
10
-794.213320
20
993.176152
11
-793.349104
21
992.747101
0
LINE
8
Layer 1
10
-793.349104
20
992.747101
11
-792.470163
21
992.081380
0
LINE
8
Layer 1
10
-792.470163
20
992.081380
11
-790.739301
21
990.137698
0
LINE
8
Layer 1
10
-790.739301
20
990.137698
11
-789.163129
21
987.540649
0
LINE
8
Layer 1
10
-789.163129
20
987.540649
11
-787.884040
21
984.485772
0
LINE
8
Layer 1
10
-787.884040
20
984.485772
11
-787.645820
21
983.778832
0
LINE
8
Layer 1
10
-787.645820
20
983.778832
11
-785.471300
21
983.699232
0
LINE
8
Layer 1
10
-785.471300
20
983.699232
11
-783.248200
21
983.672932
0
LINE
8
Layer 1
10
-783.248200
20
983.672932
11
-783.682966
21
985.411661
0
LINE
8
Layer 1
10
-783.682966
20
985.411661
11
-784.673940
21
988.259182
0
LINE
8
Layer 1
10
-784.673940
20
988.259182
11
-786.038991
21
991.197363
0
LINE
8
Layer 1
10
-786.038991
20
991.197363
11
-787.642220
21
993.624202
0
LINE
8
Layer 1
10
-787.642220
20
993.624202
11
-789.443694
21
995.641661
0
LINE
8
Layer 1
10
-789.443694
20
995.641661
11
-791.383070
21
997.138162
0
LINE
8
Layer 1
10
-791.383070
20
997.138162
11
-792.650133
21
997.840995
0
LINE
8
Layer 1
10
-792.650133
20
997.840995
11
-794.023711
21
998.362106
0
LINE
8
Layer 1
10
-794.023711
20
998.362106
11
-795.740559
21
998.772890
0
LINE
8
Layer 1
10
-795.740559
20
998.772890
11
-798.037430
21
999.144742
0
LINE
8
Layer 1
10
-798.037430
20
999.144742
11
-800.372815
21
999.553116
0
LINE
8
Layer 1
10
-800.372815
20
999.553116
11
-802.080816
21
1000.062331
0
LINE
8
Layer 1
10
-802.080816
20
1000.062331
11
-803.344670
21
1000.745911
0
LINE
8
Layer 1
10
-803.344670
20
1000.745911
11
-804.347610
21
1001.677382
0
LINE
8
Layer 1
10
-804.347610
20
1001.677382
11
-805.070946
21
1002.740994
0
LINE
8
Layer 1
10
-805.070946
20
1002.740994
11
-805.925300
21
1004.687012
0
LINE
8
Layer 1
10
-805.925300
20
1004.687012
11
-806.806893
21
1006.684417
0
LINE
8
Layer 1
10
-806.806893
20
1006.684417
11
-807.645600
21
1007.976732
0
LINE
8
Layer 1
10
-807.645600
20
1007.976732
11
-807.999080
21
1008.399942
0
LINE
8
Layer 1
10
-807.999080
20
1008.399942
11
-807.999000
21
1008.400000
0
LINE
8
Layer 1
10
-807.802000
20
780.365000
11
-807.564820
21
780.643014
0
LINE
8
Layer 1
10
-807.564820
20
780.643014
11
-806.753768
21
781.910462
0
LINE
8
Layer 1
10
-806.753768
20
781.910462
11
-805.922030
21
783.850544
0
LINE
8
Layer 1
10
-805.922030
20
783.850544
11
-805.154999
21
785.651693
0
LINE
8
Layer 1
10
-805.154999
20
785.651693
11
-804.551070
21
786.651924
0
LINE
8
Layer 1
10
-804.551070
20
786.651924
11
-803.379849
21
787.739950
0
LINE
8
Layer 1
10
-803.379849
20
787.739950
11
-801.819301
21
788.527453
0
LINE
8
Layer 1
10
-801.819301
20
788.527453
11
-799.704611
21
789.074301
0
LINE
8
Layer 1
10
-799.704611
20
789.074301
11
-796.870960
21
789.440364
0
LINE
8
Layer 1
10
-796.870960
20
789.440364
11
-794.165830
21
789.918915
0
LINE
8
Layer 1
10
-794.165830
20
789.918915
11
-793.038085
21
790.338327
0
LINE
8
Layer 1
10
-793.038085
20
790.338327
11
-791.946730
21
790.911574
0
LINE
8
Layer 1
10
-791.946730
20
790.911574
11
-790.018841
21
792.347021
0
LINE
8
Layer 1
10
-790.018841
20
792.347021
11
-788.178500
21
794.385254
0
LINE
8
Layer 1
10
-788.178500
20
794.385254
11
-786.633393
21
796.715270
0
LINE
8
Layer 1
10
-786.633393
20
796.715270
11
-785.223164
21
799.544148
0
LINE
8
Layer 1
10
-785.223164
20
799.544148
11
-784.018980
21
802.708754
0
LINE
8
Layer 1
10
-784.018980
20
802.708754
11
-783.092010
21
806.045954
0
LINE
8
Layer 1
10
-783.092010
20
806.045954
11
-780.981330
21
816.679193
0
LINE
8
Layer 1
10
-780.981330
20
816.679193
11
-779.110890
21
829.015554
0
LINE
8
Layer 1
10
-779.110890
20
829.015554
11
-779.112000
21
829.016000
0
LINE
8
Layer 1
10
-779.112000
20
829.016000
11
-778.861360
21
831.206050
0
LINE
8
Layer 1
10
-778.861360
20
831.206050
11
-778.846360
21
831.633416
0
LINE
8
Layer 1
10
-778.846360
20
831.633416
11
-780.068490
21
830.840177
0
LINE
8
Layer 1
10
-780.068490
20
830.840177
11
-782.370346
21
829.302778
0
LINE
8
Layer 1
10
-782.370346
20
829.302778
11
-782.907070
21
828.745217
0
LINE
8
Layer 1
10
-782.907070
20
828.745217
11
-783.174250
21
827.098807
0
LINE
8
Layer 1
10
-783.174250
20
827.098807
11
-784.503860
21
818.818207
0
LINE
8
Layer 1
10
-784.503860
20
818.818207
11
-785.924290
21
811.350080
0
LINE
8
Layer 1
10
-785.924290
20
811.350080
11
-787.079661
21
806.276094
0
LINE
8
Layer 1
10
-787.079661
20
806.276094
11
-788.174315
21
802.821790
0
LINE
8
Layer 1
10
-788.174315
20
802.821790
11
-789.412590
21
800.212707
0
LINE
8
Layer 1
10
-789.412590
20
800.212707
11
-790.671400
21
798.272230
0
LINE
8
Layer 1
10
-790.671400
20
798.272230
11
-792.030640
21
796.735142
0
LINE
8
Layer 1
10
-792.030640
20
796.735142
11
-793.484643
21
795.606819
0
LINE
8
Layer 1
10
-793.484643
20
795.606819
11
-795.027740
21
794.892637
0
LINE
8
Layer 1
10
-795.027740
20
794.892637
11
-796.055197
21
794.712625
0
LINE
8
Layer 1
10
-796.055197
20
794.712625
11
-797.012171
21
794.857912
0
LINE
8
Layer 1
10
-797.012171
20
794.857912
11
-797.917180
21
795.334624
0
LINE
8
Layer 1
10
-797.917180
20
795.334624
11
-798.788740
21
796.148887
0
LINE
8
Layer 1
10
-798.788740
20
796.148887
11
-799.494708
21
797.191000
0
LINE
8
Layer 1
10
-799.494708
20
797.191000
11
-800.081092
21
798.596068
0
LINE
8
Layer 1
10
-800.081092
20
798.596068
11
-800.572681
21
800.438809
0
LINE
8
Layer 1
10
-800.572681
20
800.438809
11
-800.994260
21
802.793937
0
LINE
8
Layer 1
10
-800.994260
20
802.793937
11
-801.219410
21
807.297282
0
LINE
8
Layer 1
10
-801.219410
20
807.297282
11
-801.163139
21
809.746662
0
LINE
8
Layer 1
10
-801.163139
20
809.746662
11
-800.994260
21
811.506537
0
LINE
8
Layer 1
10
-800.994260
20
811.506537
11
-800.785490
21
812.847017
0
LINE
8
Layer 1
10
-800.785490
20
812.847017
11
-801.694480
21
814.315667
0
LINE
8
Layer 1
10
-801.694480
20
814.315667
11
-804.558360
21
818.473517
0
LINE
8
Layer 1
10
-804.558360
20
818.473517
11
-805.043620
21
819.048680
0
LINE
8
Layer 1
10
-805.043620
20
819.048680
11
-805.367620
21
817.571790
0
LINE
8
Layer 1
10
-805.367620
20
817.571790
11
-805.513406
21
814.413602
0
LINE
8
Layer 1
10
-805.513406
20
814.413602
11
-805.122140
21
810.307670
0
LINE
8
Layer 1
10
-805.122140
20
810.307670
11
-804.503488
21
804.236666
0
LINE
8
Layer 1
10
-804.503488
20
804.236666
11
-804.454538
21
801.581927
0
LINE
8
Layer 1
10
-804.454538
20
801.581927
11
-804.588472
21
799.082855
0
LINE
8
Layer 1
10
-804.588472
20
799.082855
11
-804.912267
21
796.665816
0
LINE
8
Layer 1
10
-804.912267
20
796.665816
11
-805.432896
21
794.257177
0
LINE
8
Layer 1
10
-805.432896
20
794.257177
11
-806.157335
21
791.783306
0
LINE
8
Layer 1
10
-806.157335
20
791.783306
11
-807.092560
21
789.170570
0
LINE
8
Layer 1
10
-807.092560
20
789.170570
11
-807.802580
21
780.365470
0
LINE
8
Layer 1
10
-807.802580
20
780.365470
11
-807.802000
21
780.365000
0
LINE
8
Layer 1
10
-799.946000
20
975.271000
11
-799.657130
21
974.252460
0
LINE
8
Layer 1
10
-799.657130
20
974.252460
11
-798.956954
21
972.232161
0
LINE
8
Layer 1
10
-798.956954
20
972.232161
11
-798.413820
21
971.164310
0
LINE
8
Layer 1
10
-798.413820
20
971.164310
11
-797.862950
21
971.892420
0
LINE
8
Layer 1
10
-797.862950
20
971.892420
11
-796.526777
21
973.666095
0
LINE
8
Layer 1
10
-796.526777
20
973.666095
11
-794.953050
21
975.259620
0
LINE
8
Layer 1
10
-794.953050
20
975.259620
11
-793.196730
21
976.515140
0
LINE
8
Layer 1
10
-793.196730
20
976.515140
11
-791.364895
21
977.441826
0
LINE
8
Layer 1
10
-791.364895
20
977.441826
11
-789.447545
21
978.043771
0
LINE
8
Layer 1
10
-789.447545
20
978.043771
11
-787.434680
21
978.325070
0
LINE
8
Layer 1
10
-787.434680
20
978.325070
11
-785.750985
21
978.305287
0
LINE
8
Layer 1
10
-785.750985
20
978.305287
11
-784.136653
21
978.043350
0
LINE
8
Layer 1
10
-784.136653
20
978.043350
11
-782.594119
21
977.540727
0
LINE
8
Layer 1
10
-782.594119
20
977.540727
11
-781.125819
21
976.798884
0
LINE
8
Layer 1
10
-781.125819
20
976.798884
11
-779.734189
21
975.819289
0
LINE
8
Layer 1
10
-779.734189
20
975.819289
11
-778.421665
21
974.603408
0
LINE
8
Layer 1
10
-778.421665
20
974.603408
11
-777.190684
21
973.152710
0
LINE
8
Layer 1
10
-777.190684
20
973.152710
11
-776.043680
21
971.468660
0
LINE
8
Layer 1
10
-776.043680
20
971.468660
11
-775.133337
21
969.711644
0
LINE
8
Layer 1
10
-775.133337
20
969.711644
11
-774.304125
21
967.573069
0
LINE
8
Layer 1
10
-774.304125
20
967.573069
11
-773.592153
21
965.159436
0
LINE
8
Layer 1
10
-773.592153
20
965.159436
11
-773.033530
21
962.577250
0
LINE
8
Layer 1
10
-773.033530
20
962.577250
11
-772.565300
21
958.792649
0
LINE
8
Layer 1
10
-772.565300
20
958.792649
11
-772.327110
21
955.150870
0
LINE
8
Layer 1
10
-772.327110
20
955.150870
11
-772.325110
21
954.373134
0
LINE
8
Layer 1
10
-772.325110
20
954.373134
11
-770.727800
21
953.299804
0
LINE
8
Layer 1
10
-770.727800
20
953.299804
11
-768.974940
21
952.177404
0
LINE
8
Layer 1
10
-768.974940
20
952.177404
11
-768.851889
21
952.825161
0
LINE
8
Layer 1
10
-768.851889
20
952.825161
11
-768.817706
21
954.522242
0
LINE
8
Layer 1
10
-768.817706
20
954.522242
11
-769.006440
21
958.973334
0
LINE
8
Layer 1
10
-769.006440
20
958.973334
11
-769.674090
21
964.150007
0
LINE
8
Layer 1
10
-769.674090
20
964.150007
11
-770.737804
21
968.668227
0
LINE
8
Layer 1
10
-770.737804
20
968.668227
11
-772.224771
21
972.618175
0
LINE
8
Layer 1
10
-772.224771
20
972.618175
11
-773.135471
21
974.408229
0
LINE
8
Layer 1
10
-773.135471
20
974.408229
11
-774.162180
21
976.090034
0
LINE
8
Layer 1
10
-774.162180
20
976.090034
11
-775.886475
21
978.193470
0
LINE
8
Layer 1
10
-775.886475
20
978.193470
11
-778.012110
21
979.973535
0
LINE
8
Layer 1
10
-778.012110
20
979.973535
11
-780.449715
21
981.368080
0
LINE
8
Layer 1
10
-780.449715
20
981.368080
11
-783.109920
21
982.314954
0
LINE
8
Layer 1
10
-783.109920
20
982.314954
11
-784.640890
21
982.533787
0
LINE
8
Layer 1
10
-784.640890
20
982.533787
11
-786.631514
21
982.603677
0
LINE
8
Layer 1
10
-786.631514
20
982.603677
11
-788.616518
21
982.525579
0
LINE
8
Layer 1
10
-788.616518
20
982.525579
11
-790.130630
21
982.300454
0
LINE
8
Layer 1
10
-790.130630
20
982.300454
11
-791.771435
21
981.772329
0
LINE
8
Layer 1
10
-791.771435
20
981.772329
11
-793.354320
21
981.077345
0
LINE
8
Layer 1
10
-793.354320
20
981.077345
11
-794.861050
21
980.224586
0
LINE
8
Layer 1
10
-794.861050
20
980.224586
11
-796.273390
21
979.223134
0
LINE
8
Layer 1
10
-796.273390
20
979.223134
11
-798.234928
21
977.405434
0
LINE
8
Layer 1
10
-798.234928
20
977.405434
11
-799.660770
21
975.760324
0
LINE
8
Layer 1
10
-799.660770
20
975.760324
11
-799.946000
21
975.271000
0
LINE
8
Layer 1
10
-768.975000
20
952.178000
11
-768.975000
21
952.177000
0
LINE
8
Layer 1
10
-768.975000
20
952.177000
11
-768.974000
21
952.177000
0
LINE
8
Layer 1
10
-768.974000
20
952.177000
11
-768.975000
21
952.177518
0
LINE
8
Layer 1
10
-768.975000
20
952.177518
11
-768.975000
21
952.178000
0
LINE
8
Layer 1
10
-792.691000
20
838.549000
11
-792.245588
21
838.775944
0
LINE
8
Layer 1
10
-792.245588
20
838.775944
11
-791.305723
21
839.604192
0
LINE
8
Layer 1
10
-791.305723
20
839.604192
11
-789.056100
21
842.005620
0
LINE
8
Layer 1
10
-789.056100
20
842.005620
11
-787.401222
21
844.222704
0
LINE
8
Layer 1
10
-787.401222
20
844.222704
11
-785.875375
21
846.661523
0
LINE
8
Layer 1
10
-785.875375
20
846.661523
11
-784.493819
21
849.284112
0
LINE
8
Layer 1
10
-784.493819
20
849.284112
11
-783.271817
21
852.052506
0
LINE
8
Layer 1
10
-783.271817
20
852.052506
11
-782.224633
21
854.928739
0
LINE
8
Layer 1
10
-782.224633
20
854.928739
11
-781.367527
21
857.874846
0
LINE
8
Layer 1
10
-781.367527
20
857.874846
11
-780.715762
21
860.852861
0
LINE
8
Layer 1
10
-780.715762
20
860.852861
11
-780.284600
21
863.824820
0
LINE
8
Layer 1
10
-780.284600
20
863.824820
11
-780.112990
21
867.254230
0
LINE
8
Layer 1
10
-780.112990
20
867.254230
11
-780.250500
21
869.191890
0
LINE
8
Layer 1
10
-780.250500
20
869.191890
11
-781.591743
21
868.744207
0
LINE
8
Layer 1
10
-781.591743
20
868.744207
11
-783.203270
21
868.015230
0
LINE
8
Layer 1
10
-783.203270
20
868.015230
11
-783.784535
21
867.551060
0
LINE
8
Layer 1
10
-783.784535
20
867.551060
11
-783.873500
21
866.997720
0
LINE
8
Layer 1
10
-783.873500
20
866.997720
11
-784.292590
21
861.484900
0
LINE
8
Layer 1
10
-784.292590
20
861.484900
11
-784.664788
21
859.161219
0
LINE
8
Layer 1
10
-784.664788
20
859.161219
11
-785.204640
21
856.849804
0
LINE
8
Layer 1
10
-785.204640
20
856.849804
11
-785.902632
21
854.573285
0
LINE
8
Layer 1
10
-785.902632
20
854.573285
11
-786.749249
21
852.354293
0
LINE
8
Layer 1
10
-786.749249
20
852.354293
11
-787.734975
21
850.215457
0
LINE
8
Layer 1
10
-787.734975
20
850.215457
11
-788.850295
21
848.179410
0
LINE
8
Layer 1
10
-788.850295
20
848.179410
11
-790.085696
21
846.268780
0
LINE
8
Layer 1
10
-790.085696
20
846.268780
11
-791.431660
21
844.506200
0
LINE
8
Layer 1
10
-791.431660
20
844.506200
11
-792.386120
21
843.358470
0
LINE
8
Layer 1
10
-792.386120
20
843.358470
11
-792.394120
21
842.436051
0
LINE
8
Layer 1
10
-792.394120
20
842.436051
11
-792.563090
21
840.056881
0
LINE
8
Layer 1
10
-792.563090
20
840.056881
11
-792.690740
21
838.548951
0
LINE
8
Layer 1
10
-792.690740
20
838.548951
11
-792.691000
21
838.549000
0
LINE
8
Layer 1
10
-792.661000
20
890.344000
11
-791.677090
21
889.041240
0
LINE
8
Layer 1
10
-791.677090
20
889.041240
11
-788.260270
21
884.142340
0
LINE
8
Layer 1
10
-788.260270
20
884.142340
11
-786.892679
21
881.698181
0
LINE
8
Layer 1
10
-786.892679
20
881.698181
11
-785.836870
21
879.272200
0
LINE
8
Layer 1
10
-785.836870
20
879.272200
11
-785.061681
21
876.780939
0
LINE
8
Layer 1
10
-785.061681
20
876.780939
11
-784.535950
21
874.140940
0
LINE
8
Layer 1
10
-784.535950
20
874.140940
11
-784.437790
21
873.885117
0
LINE
8
Layer 1
10
-784.437790
20
873.885117
11
-784.160770
21
873.951305
0
LINE
8
Layer 1
10
-784.160770
20
873.951305
11
-782.689030
21
874.489266
0
LINE
8
Layer 1
10
-782.689030
20
874.489266
11
-781.367170
21
874.951239
0
LINE
8
Layer 1
10
-781.367170
20
874.951239
11
-781.244586
21
875.210280
0
LINE
8
Layer 1
10
-781.244586
20
875.210280
11
-781.266400
21
875.980619
0
LINE
8
Layer 1
10
-781.266400
20
875.980619
11
-781.702165
21
878.237277
0
LINE
8
Layer 1
10
-781.702165
20
878.237277
11
-782.657477
21
880.988691
0
LINE
8
Layer 1
10
-782.657477
20
880.988691
11
-784.058391
21
884.052545
0
LINE
8
Layer 1
10
-784.058391
20
884.052545
11
-785.830960
21
887.246519
0
LINE
8
Layer 1
10
-785.830960
20
887.246519
11
-788.424222
21
891.018041
0
LINE
8
Layer 1
10
-788.424222
20
891.018041
11
-789.662370
21
892.611301
0
LINE
8
Layer 1
10
-789.662370
20
892.611301
11
-790.308690
21
893.266269
0
LINE
8
Layer 1
10
-790.308690
20
893.266269
11
-791.558220
21
891.804879
0
LINE
8
Layer 1
10
-791.558220
20
891.804879
11
-792.661000
21
890.344000
0
LINE
8
Layer 1
10
-789.663000
20
926.824000
11
-789.238230
21
926.334622
0
LINE
8
Layer 1
10
-789.238230
20
926.334622
11
-788.013510
21
925.011202
0
LINE
8
Layer 1
10
-788.013510
20
925.011202
11
-787.214070
21
924.177680
0
LINE
8
Layer 1
10
-787.214070
20
924.177680
11
-786.908130
21
924.631383
0
LINE
8
Layer 1
10
-786.908130
20
924.631383
11
-784.849471
21
928.100647
0
LINE
8
Layer 1
10
-784.849471
20
928.100647
11
-782.575090
21
932.828763
0
LINE
8
Layer 1
10
-782.575090
20
932.828763
11
-780.891566
21
936.297594
0
LINE
8
Layer 1
10
-780.891566
20
936.297594
11
-780.297293
21
937.164348
0
LINE
8
Layer 1
10
-780.297293
20
937.164348
11
-779.696750
21
937.745243
0
LINE
8
Layer 1
10
-779.696750
20
937.745243
11
-778.112931
21
938.652639
0
LINE
8
Layer 1
10
-778.112931
20
938.652639
11
-776.376540
21
939.195793
0
LINE
8
Layer 1
10
-776.376540
20
939.195793
11
-775.606040
21
939.474325
0
LINE
8
Layer 1
10
-775.606040
20
939.474325
11
-775.213830
21
940.900585
0
LINE
8
Layer 1
10
-775.213830
20
940.900585
11
-774.767330
21
942.740785
0
LINE
8
Layer 1
10
-774.767330
20
942.740785
11
-774.589560
21
943.678188
0
LINE
8
Layer 1
10
-774.589560
20
943.678188
11
-774.695911
21
943.970435
0
LINE
8
Layer 1
10
-774.695911
20
943.970435
11
-775.304770
21
944.025447
0
LINE
8
Layer 1
10
-775.304770
20
944.025447
11
-776.680688
21
944.227334
0
LINE
8
Layer 1
10
-776.680688
20
944.227334
11
-777.906140
21
944.747885
0
LINE
8
Layer 1
10
-777.906140
20
944.747885
11
-778.407380
21
945.065694
0
LINE
8
Layer 1
10
-778.407380
20
945.065694
11
-778.368080
21
948.186404
0
LINE
8
Layer 1
10
-778.368080
20
948.186404
11
-778.413896
21
953.152921
0
LINE
8
Layer 1
10
-778.413896
20
953.152921
11
-778.683820
21
957.998696
0
LINE
8
Layer 1
10
-778.683820
20
957.998696
11
-779.183964
21
962.800151
0
LINE
8
Layer 1
10
-779.183964
20
962.800151
11
-779.920440
21
967.633704
0
LINE
8
Layer 1
10
-779.920440
20
967.633704
11
-780.911313
21
972.575379
0
LINE
8
Layer 1
10
-780.911313
20
972.575379
11
-781.691360
21
975.741174
0
LINE
8
Layer 1
10
-781.691360
20
975.741174
11
-782.411935
21
976.373316
0
LINE
8
Layer 1
10
-782.411935
20
976.373316
11
-783.686729
21
976.973915
0
LINE
8
Layer 1
10
-783.686729
20
976.973915
11
-785.108206
21
977.389379
0
LINE
8
Layer 1
10
-785.108206
20
977.389379
11
-786.268830
21
977.466114
0
LINE
8
Layer 1
10
-786.268830
20
977.466114
11
-785.999600
21
976.416554
0
LINE
8
Layer 1
10
-785.999600
20
976.416554
11
-784.157931
21
970.202838
0
LINE
8
Layer 1
10
-784.157931
20
970.202838
11
-782.868030
21
964.051454
0
LINE
8
Layer 1
10
-782.868030
20
964.051454
11
-782.269815
21
959.301491
0
LINE
8
Layer 1
10
-782.269815
20
959.301491
11
-782.023778
21
954.742549
0
LINE
8
Layer 1
10
-782.023778
20
954.742549
11
-782.134992
21
950.341963
0
LINE
8
Layer 1
10
-782.134992
20
950.341963
11
-782.608529
21
946.067067
0
LINE
8
Layer 1
10
-782.608529
20
946.067067
11
-783.449462
21
941.885193
0
LINE
8
Layer 1
10
-783.449462
20
941.885193
11
-784.662865
21
937.763677
0
LINE
8
Layer 1
10
-784.662865
20
937.763677
11
-786.253810
21
933.669853
0
LINE
8
Layer 1
10
-786.253810
20
933.669853
11
-788.227370
21
929.571054
0
LINE
8
Layer 1
10
-788.227370
20
929.571054
11
-789.425760
21
927.284384
0
LINE
8
Layer 1
10
-789.425760
20
927.284384
11
-789.663000
21
926.824000
0
LINE
8
Layer 1
10
-789.477000
20
869.317000
11
-788.418170
21
867.529530
0
LINE
8
Layer 1
10
-788.418170
20
867.529530
11
-787.430536
21
866.211751
0
LINE
8
Layer 1
10
-787.430536
20
866.211751
11
-787.231243
21
866.122010
0
LINE
8
Layer 1
10
-787.231243
20
866.122010
11
-787.064750
21
866.257780
0
LINE
8
Layer 1
10
-787.064750
20
866.257780
11
-785.853019
21
867.307408
0
LINE
8
Layer 1
10
-785.853019
20
867.307408
11
-784.174510
21
868.462300
0
LINE
8
Layer 1
10
-784.174510
20
868.462300
11
-782.124948
21
869.504950
0
LINE
8
Layer 1
10
-782.124948
20
869.504950
11
-779.835288
21
870.271117
0
LINE
8
Layer 1
10
-779.835288
20
870.271117
11
-777.326120
21
870.755447
0
LINE
8
Layer 1
10
-777.326120
20
870.755447
11
-774.618040
21
870.952580
0
LINE
8
Layer 1
10
-774.618040
20
870.952580
11
-772.332920
21
870.994480
0
LINE
8
Layer 1
10
-772.332920
20
870.994480
11
-771.633250
21
871.776336
0
LINE
8
Layer 1
10
-771.633250
20
871.776336
11
-770.188890
21
873.274436
0
LINE
8
Layer 1
10
-770.188890
20
873.274436
11
-769.529366
21
873.990062
0
LINE
8
Layer 1
10
-769.529366
20
873.990062
11
-769.490220
21
874.251635
0
LINE
8
Layer 1
10
-769.490220
20
874.251635
11
-770.587290
21
874.472306
0
LINE
8
Layer 1
10
-770.587290
20
874.472306
11
-773.839734
21
874.912196
0
LINE
8
Layer 1
10
-773.839734
20
874.912196
11
-776.909890
21
874.877455
0
LINE
8
Layer 1
10
-776.909890
20
874.877455
11
-779.196191
21
874.543084
0
LINE
8
Layer 1
10
-779.196191
20
874.543084
11
-781.321993
21
874.004257
0
LINE
8
Layer 1
10
-781.321993
20
874.004257
11
-783.382555
21
873.231141
0
LINE
8
Layer 1
10
-783.382555
20
873.231141
11
-785.473140
21
872.193905
0
LINE
8
Layer 1
10
-785.473140
20
872.193905
11
-788.105914
21
870.519133
0
LINE
8
Layer 1
10
-788.105914
20
870.519133
11
-789.073397
21
869.769749
0
LINE
8
Layer 1
10
-789.073397
20
869.769749
11
-789.477000
21
869.317085
0
LINE
8
Layer 1
10
-789.477000
20
869.317085
11
-789.477000
21
869.317000
0
LINE
8
Layer 1
10
-784.863000
20
912.646000
11
-783.352053
21
911.514255
0
LINE
8
Layer 1
10
-783.352053
20
911.514255
11
-781.672010
21
910.647170
0
LINE
8
Layer 1
10
-781.672010
20
910.647170
11
-781.367697
21
911.406885
0
LINE
8
Layer 1
10
-781.367697
20
911.406885
11
-780.949153
21
913.134398
0
LINE
8
Layer 1
10
-780.949153
20
913.134398
11
-780.228170
21
917.359910
0
LINE
8
Layer 1
10
-780.228170
20
917.359910
11
-780.156685
21
921.816665
0
LINE
8
Layer 1
10
-780.156685
20
921.816665
11
-780.391470
21
926.235290
0
LINE
8
Layer 1
10
-780.391470
20
926.235290
11
-781.646160
21
931.858190
0
LINE
8
Layer 1
10
-781.646160
20
931.858190
11
-781.785960
21
931.868681
0
LINE
8
Layer 1
10
-781.785960
20
931.868681
11
-781.994149
21
931.633104
0
LINE
8
Layer 1
10
-781.994149
20
931.633104
11
-782.635260
21
930.395240
0
LINE
8
Layer 1
10
-782.635260
20
930.395240
11
-783.389230
21
928.765370
0
LINE
8
Layer 1
10
-783.389230
20
928.765370
11
-783.817473
21
927.619177
0
LINE
8
Layer 1
10
-783.817473
20
927.619177
11
-783.684820
21
926.045140
0
LINE
8
Layer 1
10
-783.684820
20
926.045140
11
-783.396452
21
922.457737
0
LINE
8
Layer 1
10
-783.396452
20
922.457737
11
-783.530830
21
919.104500
0
LINE
8
Layer 1
10
-783.530830
20
919.104500
11
-784.014759
21
915.963934
0
LINE
8
Layer 1
10
-784.014759
20
915.963934
11
-784.622220
21
913.526560
0
LINE
8
Layer 1
10
-784.622220
20
913.526560
11
-784.863030
21
912.646011
0
LINE
8
Layer 1
10
-784.863030
20
912.646011
11
-784.863000
21
912.646000
0
LINE
8
Layer 1
10
-784.548000
20
894.683000
11
-784.455338
21
893.915106
0
LINE
8
Layer 1
10
-784.455338
20
893.915106
11
-784.056053
21
892.753700
0
LINE
8
Layer 1
10
-784.056053
20
892.753700
11
-782.678911
21
889.878354
0
LINE
8
Layer 1
10
-782.678911
20
889.878354
11
-781.099182
21
887.312966
0
LINE
8
Layer 1
10
-781.099182
20
887.312966
11
-780.446661
21
886.539008
0
LINE
8
Layer 1
10
-780.446661
20
886.539008
11
-779.999470
21
886.313540
0
LINE
8
Layer 1
10
-779.999470
20
886.313540
11
-778.653712
21
887.413212
0
LINE
8
Layer 1
10
-778.653712
20
887.413212
11
-777.496280
21
888.622430
0
LINE
8
Layer 1
10
-777.496280
20
888.622430
11
-778.002200
21
889.542774
0
LINE
8
Layer 1
10
-778.002200
20
889.542774
11
-779.180384
21
891.345460
0
LINE
8
Layer 1
10
-779.180384
20
891.345460
11
-780.048570
21
893.188024
0
LINE
8
Layer 1
10
-780.048570
20
893.188024
11
-780.320344
21
894.011301
0
LINE
8
Layer 1
10
-780.320344
20
894.011301
11
-780.364495
21
894.671588
0
LINE
8
Layer 1
10
-780.364495
20
894.671588
11
-780.149266
21
895.432800
0
LINE
8
Layer 1
10
-780.149266
20
895.432800
11
-779.642900
21
896.558854
0
LINE
8
Layer 1
10
-779.642900
20
896.558854
11
-778.307303
21
899.005841
0
LINE
8
Layer 1
10
-778.307303
20
899.005841
11
-776.722205
21
901.273306
0
LINE
8
Layer 1
10
-776.722205
20
901.273306
11
-774.943435
21
903.290126
0
LINE
8
Layer 1
10
-774.943435
20
903.290126
11
-773.026820
21
904.985174
0
LINE
8
Layer 1
10
-773.026820
20
904.985174
11
-771.884549
21
905.744413
0
LINE
8
Layer 1
10
-771.884549
20
905.744413
11
-770.916099
21
906.093100
0
LINE
8
Layer 1
10
-770.916099
20
906.093100
11
-770.019227
21
906.047888
0
LINE
8
Layer 1
10
-770.019227
20
906.047888
11
-769.091690
21
905.625430
0
LINE
8
Layer 1
10
-769.091690
20
905.625430
11
-768.290831
21
904.951905
0
LINE
8
Layer 1
10
-768.290831
20
904.951905
11
-767.714321
21
904.092504
0
LINE
8
Layer 1
10
-767.714321
20
904.092504
11
-767.392933
21
903.110348
0
LINE
8
Layer 1
10
-767.392933
20
903.110348
11
-767.357440
21
902.068560
0
LINE
8
Layer 1
10
-767.357440
20
902.068560
11
-767.702772
21
900.557296
0
LINE
8
Layer 1
10
-767.702772
20
900.557296
11
-768.253500
21
899.222750
0
LINE
8
Layer 1
10
-768.253500
20
899.222750
11
-768.766130
21
898.362342
0
LINE
8
Layer 1
10
-768.766130
20
898.362342
11
-768.865226
21
898.140979
0
LINE
8
Layer 1
10
-768.865226
20
898.140979
11
-768.802243
21
897.894498
0
LINE
8
Layer 1
10
-768.802243
20
897.894498
11
-767.871080
21
896.752122
0
LINE
8
Layer 1
10
-767.871080
20
896.752122
11
-766.521300
21
895.490192
0
LINE
8
Layer 1
10
-766.521300
20
895.490192
11
-766.085552
21
895.892260
0
LINE
8
Layer 1
10
-766.085552
20
895.892260
11
-765.453141
21
896.887891
0
LINE
8
Layer 1
10
-765.453141
20
896.887891
11
-764.312660
21
899.396392
0
LINE
8
Layer 1
10
-764.312660
20
899.396392
11
-763.816050
21
901.429342
0
LINE
8
Layer 1
10
-763.816050
20
901.429342
11
-763.699207
21
903.460572
0
LINE
8
Layer 1
10
-763.699207
20
903.460572
11
-763.980390
21
905.163452
0
LINE
8
Layer 1
10
-763.980390
20
905.163452
11
-764.528829
21
906.580650
0
LINE
8
Layer 1
10
-764.528829
20
906.580650
11
-765.259724
21
907.797274
0
LINE
8
Layer 1
10
-765.259724
20
907.797274
11
-766.147904
21
908.798165
0
LINE
8
Layer 1
10
-766.147904
20
908.798165
11
-767.168203
21
909.568161
0
LINE
8
Layer 1
10
-767.168203
20
909.568161
11
-768.295450
21
910.092102
0
LINE
8
Layer 1
10
-768.295450
20
910.092102
11
-769.504478
21
910.354828
0
LINE
8
Layer 1
10
-769.504478
20
910.354828
11
-770.770117
21
910.341178
0
LINE
8
Layer 1
10
-770.770117
20
910.341178
11
-772.067200
21
910.035992
0
LINE
8
Layer 1
10
-772.067200
20
910.035992
11
-773.540640
21
909.320096
0
LINE
8
Layer 1
10
-773.540640
20
909.320096
11
-775.135075
21
908.192177
0
LINE
8
Layer 1
10
-775.135075
20
908.192177
11
-776.789790
21
906.721303
0
LINE
8
Layer 1
10
-776.789790
20
906.721303
11
-778.444073
21
904.976543
0
LINE
8
Layer 1
10
-778.444073
20
904.976543
11
-780.037208
21
903.026964
0
LINE
8
Layer 1
10
-780.037208
20
903.026964
11
-781.508484
21
900.941634
0
LINE
8
Layer 1
10
-781.508484
20
900.941634
11
-782.797186
21
898.789621
0
LINE
8
Layer 1
10
-782.797186
20
898.789621
11
-783.842600
21
896.639992
0
LINE
8
Layer 1
10
-783.842600
20
896.639992
11
-784.547980
21
894.683002
0
LINE
8
Layer 1
10
-784.547980
20
894.683002
11
-784.548000
21
894.683000
0
LINE
8
Layer 1
10
-783.881000
20
848.333000
11
-783.432970
21
846.993560
0
LINE
8
Layer 1
10
-783.432970
20
846.993560
11
-782.684279
21
844.026474
0
LINE
8
Layer 1
10
-782.684279
20
844.026474
11
-782.327110
21
840.248780
0
LINE
8
Layer 1
10
-782.327110
20
840.248780
11
-782.078550
21
837.450000
0
LINE
8
Layer 1
10
-782.078550
20
837.450000
11
-780.322746
21
838.466586
0
LINE
8
Layer 1
10
-780.322746
20
838.466586
11
-778.604870
21
839.659160
0
LINE
8
Layer 1
10
-778.604870
20
839.659160
11
-778.485804
21
840.277366
0
LINE
8
Layer 1
10
-778.485804
20
840.277366
11
-778.486010
21
841.853850
0
LINE
8
Layer 1
10
-778.486010
20
841.853850
11
-778.532510
21
843.804620
0
LINE
8
Layer 1
10
-778.532510
20
843.804620
11
-777.776990
21
844.046989
0
LINE
8
Layer 1
10
-777.776990
20
844.046989
11
-774.443931
21
845.431644
0
LINE
8
Layer 1
10
-774.443931
20
845.431644
11
-771.090078
21
847.384864
0
LINE
8
Layer 1
10
-771.090078
20
847.384864
11
-768.019556
21
849.704414
0
LINE
8
Layer 1
10
-768.019556
20
849.704414
11
-765.536490
21
852.188059
0
LINE
8
Layer 1
10
-765.536490
20
852.188059
11
-764.495005
21
853.627728
0
LINE
8
Layer 1
10
-764.495005
20
853.627728
11
-764.173280
21
854.845239
0
LINE
8
Layer 1
10
-764.173280
20
854.845239
11
-764.156671
21
857.187671
0
LINE
8
Layer 1
10
-764.156671
20
857.187671
11
-764.288510
21
858.950899
0
LINE
8
Layer 1
10
-764.288510
20
858.950899
11
-765.621240
21
857.570109
0
LINE
8
Layer 1
10
-765.621240
20
857.570109
11
-767.370942
21
855.611096
0
LINE
8
Layer 1
10
-767.370942
20
855.611096
11
-769.066885
21
853.986232
0
LINE
8
Layer 1
10
-769.066885
20
853.986232
11
-770.826061
21
852.593331
0
LINE
8
Layer 1
10
-770.826061
20
852.593331
11
-772.765460
21
851.330209
0
LINE
8
Layer 1
10
-772.765460
20
851.330209
11
-774.345454
21
850.455574
0
LINE
8
Layer 1
10
-774.345454
20
850.455574
11
-775.567064
21
849.966739
0
LINE
8
Layer 1
10
-775.567064
20
849.966739
11
-776.618541
21
849.810177
0
LINE
8
Layer 1
10
-776.618541
20
849.810177
11
-777.688140
21
849.932359
0
LINE
8
Layer 1
10
-777.688140
20
849.932359
11
-778.821375
21
850.307584
0
LINE
8
Layer 1
10
-778.821375
20
850.307584
11
-779.819374
21
850.915132
0
LINE
8
Layer 1
10
-779.819374
20
850.915132
11
-780.667971
21
851.744036
0
LINE
8
Layer 1
10
-780.667971
20
851.744036
11
-781.353000
21
852.783329
0
LINE
8
Layer 1
10
-781.353000
20
852.783329
11
-781.758670
21
853.556915
0
LINE
8
Layer 1
10
-781.758670
20
853.556915
11
-782.820100
21
850.945205
0
LINE
8
Layer 1
10
-782.820100
20
850.945205
11
-783.881000
21
848.333000
0
LINE
8
Layer 1
10
-782.848000
20
883.386000
11
-782.598920
21
882.920914
0
LINE
8
Layer 1
10
-782.598920
20
882.920914
11
-781.765400
21
881.191304
0
LINE
8
Layer 1
10
-781.765400
20
881.191304
11
-781.077080
21
879.926264
0
LINE
8
Layer 1
10
-781.077080
20
879.926264
11
-779.628897
21
880.757215
0
LINE
8
Layer 1
10
-779.628897
20
880.757215
11
-777.593090
21
882.189164
0
LINE
8
Layer 1
10
-777.593090
20
882.189164
11
-775.928815
21
883.647778
0
LINE
8
Layer 1
10
-775.928815
20
883.647778
11
-774.232739
21
885.396084
0
LINE
8
Layer 1
10
-774.232739
20
885.396084
11
-772.544468
21
887.390292
0
LINE
8
Layer 1
10
-772.544468
20
887.390292
11
-770.903610
21
889.586614
0
LINE
8
Layer 1
10
-770.903610
20
889.586614
11
-770.199780
21
890.688354
0
LINE
8
Layer 1
10
-770.199780
20
890.688354
11
-770.989285
21
892.007990
0
LINE
8
Layer 1
10
-770.989285
20
892.007990
11
-772.027040
21
893.368274
0
LINE
8
Layer 1
10
-772.027040
20
893.368274
11
-772.356750
21
893.632341
0
LINE
8
Layer 1
10
-772.356750
20
893.632341
11
-772.925200
21
892.797781
0
LINE
8
Layer 1
10
-772.925200
20
892.797781
11
-775.440216
21
889.617198
0
LINE
8
Layer 1
10
-775.440216
20
889.617198
11
-778.139320
21
886.722741
0
LINE
8
Layer 1
10
-778.139320
20
886.722741
11
-779.588891
21
885.531641
0
LINE
8
Layer 1
10
-779.588891
20
885.531641
11
-781.174760
21
884.429871
0
LINE
8
Layer 1
10
-781.174760
20
884.429871
11
-782.848000
21
883.386000
0
LINE
8
Layer 1
10
-781.974000
20
806.620000
11
-781.941677
21
806.394133
0
LINE
8
Layer 1
10
-781.941677
20
806.394133
11
-781.823120
21
806.368353
0
LINE
8
Layer 1
10
-781.823120
20
806.368353
11
-780.266640
21
807.130556
0
LINE
8
Layer 1
10
-780.266640
20
807.130556
11
-778.527342
21
808.082373
0
LINE
8
Layer 1
10
-778.527342
20
808.082373
11
-777.021054
21
809.139282
0
LINE
8
Layer 1
10
-777.021054
20
809.139282
11
-775.700576
21
810.338911
0
LINE
8
Layer 1
10
-775.700576
20
810.338911
11
-774.518710
21
811.718886
0
LINE
8
Layer 1
10
-774.518710
20
811.718886
11
-773.432448
21
813.325044
0
LINE
8
Layer 1
10
-773.432448
20
813.325044
11
-772.432743
21
815.162982
0
LINE
8
Layer 1
10
-772.432743
20
815.162982
11
-771.529657
21
817.201652
0
LINE
8
Layer 1
10
-771.529657
20
817.201652
11
-770.733254
21
819.410005
0
LINE
8
Layer 1
10
-770.733254
20
819.410005
11
-770.053597
21
821.756993
0
LINE
8
Layer 1
10
-770.053597
20
821.756993
11
-769.500750
21
824.211568
0
LINE
8
Layer 1
10
-769.500750
20
824.211568
11
-769.084777
21
826.742682
0
LINE
8
Layer 1
10
-769.084777
20
826.742682
11
-768.815740
21
829.319286
0
LINE
8
Layer 1
10
-768.815740
20
829.319286
11
-768.767695
21
833.685084
0
LINE
8
Layer 1
10
-768.767695
20
833.685084
11
-769.003330
21
838.282526
0
LINE
8
Layer 1
10
-769.003330
20
838.282526
11
-769.725669
21
843.380096
0
LINE
8
Layer 1
10
-769.725669
20
843.380096
11
-770.123516
21
845.399878
0
LINE
8
Layer 1
10
-770.123516
20
845.399878
11
-770.423910
21
846.372416
0
LINE
8
Layer 1
10
-770.423910
20
846.372416
11
-771.386650
21
845.953839
0
LINE
8
Layer 1
10
-771.386650
20
845.953839
11
-772.871290
21
845.161118
0
LINE
8
Layer 1
10
-772.871290
20
845.161118
11
-773.265907
21
844.969061
0
LINE
8
Layer 1
10
-773.265907
20
844.969061
11
-773.411097
21
844.660251
0
LINE
8
Layer 1
10
-773.411097
20
844.660251
11
-773.019090
21
842.509608
0
LINE
8
Layer 1
10
-773.019090
20
842.509608
11
-772.686978
21
840.568326
0
LINE
8
Layer 1
10
-772.686978
20
840.568326
11
-772.469538
21
838.326704
0
LINE
8
Layer 1
10
-772.469538
20
838.326704
11
-772.367450
21
832.772778
0
LINE
8
Layer 1
10
-772.367450
20
832.772778
11
-772.486360
21
829.433971
0
LINE
8
Layer 1
10
-772.486360
20
829.433971
11
-772.735781
21
826.730567
0
LINE
8
Layer 1
10
-772.735781
20
826.730567
11
-773.157471
21
824.345618
0
LINE
8
Layer 1
10
-773.157471
20
824.345618
11
-773.793190
21
821.962178
0
LINE
8
Layer 1
10
-773.793190
20
821.962178
11
-774.418039
21
820.162054
0
LINE
8
Layer 1
10
-774.418039
20
820.162054
11
-775.154965
21
818.501210
0
LINE
8
Layer 1
10
-775.154965
20
818.501210
11
-776.001908
21
816.983876
0
LINE
8
Layer 1
10
-776.001908
20
816.983876
11
-776.956810
21
815.614278
0
LINE
8
Layer 1
10
-776.956810
20
815.614278
11
-778.265607
21
814.229828
0
LINE
8
Layer 1
10
-778.265607
20
814.229828
11
-780.369510
21
812.531288
0
LINE
8
Layer 1
10
-780.369510
20
812.531288
11
-780.777015
21
811.972335
0
LINE
8
Layer 1
10
-780.777015
20
811.972335
11
-781.181340
21
810.231188
0
LINE
8
Layer 1
10
-781.181340
20
810.231188
11
-781.782840
21
807.566778
0
LINE
8
Layer 1
10
-781.782840
20
807.566778
11
-781.974030
21
806.620066
0
LINE
8
Layer 1
10
-781.974030
20
806.620066
11
-781.974000
21
806.620000
0
LINE
8
Layer 1
10
-779.788000
20
914.608000
11
-779.508838
21
914.432021
0
LINE
8
Layer 1
10
-779.508838
20
914.432021
11
-778.625280
21
914.255585
0
LINE
8
Layer 1
10
-778.625280
20
914.255585
11
-774.897360
21
914.047334
0
LINE
8
Layer 1
10
-774.897360
20
914.047334
11
-771.506157
21
914.281017
0
LINE
8
Layer 1
10
-771.506157
20
914.281017
11
-770.114245
21
914.603987
0
LINE
8
Layer 1
10
-770.114245
20
914.603987
11
-768.747370
21
915.094814
0
LINE
8
Layer 1
10
-768.747370
20
915.094814
11
-767.242662
21
915.849820
0
LINE
8
Layer 1
10
-767.242662
20
915.849820
11
-765.869486
21
916.795646
0
LINE
8
Layer 1
10
-765.869486
20
916.795646
11
-764.644640
21
917.908172
0
LINE
8
Layer 1
10
-764.644640
20
917.908172
11
-763.584920
21
919.163274
0
LINE
8
Layer 1
10
-763.584920
20
919.163274
11
-763.585000
21
928.654000
0
LINE
8
Layer 1
10
-763.585000
20
928.654000
11
-763.609300
21
928.687110
0
LINE
8
Layer 1
10
-763.609300
20
928.687110
11
-764.000229
21
929.077569
0
LINE
8
Layer 1
10
-764.000229
20
929.077569
11
-764.181870
21
928.993536
0
LINE
8
Layer 1
10
-764.181870
20
928.993536
11
-764.301770
21
928.305215
0
LINE
8
Layer 1
10
-764.301770
20
928.305215
11
-764.603419
21
926.592289
0
LINE
8
Layer 1
10
-764.603419
20
926.592289
11
-765.314620
21
924.422785
0
LINE
8
Layer 1
10
-765.314620
20
924.422785
11
-766.094906
21
922.872213
0
LINE
8
Layer 1
10
-766.094906
20
922.872213
11
-767.099508
21
921.503455
0
LINE
8
Layer 1
10
-767.099508
20
921.503455
11
-768.302424
21
920.331690
0
LINE
8
Layer 1
10
-768.302424
20
920.331690
11
-769.677651
21
919.372101
0
LINE
8
Layer 1
10
-769.677651
20
919.372101
11
-771.199187
21
918.639870
0
LINE
8
Layer 1
10
-771.199187
20
918.639870
11
-772.841029
21
918.150177
0
LINE
8
Layer 1
10
-772.841029
20
918.150177
11
-774.577174
21
917.918205
0
LINE
8
Layer 1
10
-774.577174
20
917.918205
11
-776.381620
21
917.959135
0
LINE
8
Layer 1
10
-776.381620
20
917.959135
11
-778.423360
21
918.265561
0
LINE
8
Layer 1
10
-778.423360
20
918.265561
11
-779.165753
21
918.330792
0
LINE
8
Layer 1
10
-779.165753
20
918.330792
11
-779.308454
21
918.155054
0
LINE
8
Layer 1
10
-779.308454
20
918.155054
11
-779.347850
21
917.816497
0
LINE
8
Layer 1
10
-779.347850
20
917.816497
11
-779.784530
21
914.792407
0
LINE
8
Layer 1
10
-779.784530
20
914.792407
11
-779.788530
21
914.607929
0
LINE
8
Layer 1
10
-779.788530
20
914.607929
11
-779.788000
21
914.608000
0
LINE
8
Layer 1
10
-777.718000
20
950.673000
11
-776.997110
21
950.397551
0
LINE
8
Layer 1
10
-776.997110
20
950.397551
11
-774.630851
21
949.335186
0
LINE
8
Layer 1
10
-774.630851
20
949.335186
11
-772.349706
21
948.000950
0
LINE
8
Layer 1
10
-772.349706
20
948.000950
11
-770.220446
21
946.438621
0
LINE
8
Layer 1
10
-770.220446
20
946.438621
11
-768.309840
21
944.691981
0
LINE
8
Layer 1
10
-768.309840
20
944.691981
11
-766.304281
21
942.196560
0
LINE
8
Layer 1
10
-766.304281
20
942.196560
11
-764.713180
21
939.311971
0
LINE
8
Layer 1
10
-764.713180
20
939.311971
11
-764.214154
21
938.367380
0
LINE
8
Layer 1
10
-764.214154
20
938.367380
11
-763.585100
21
937.626311
0
LINE
8
Layer 1
10
-763.585100
20
937.626311
11
-763.585000
21
945.162000
0
LINE
8
Layer 1
10
-763.585000
20
945.162000
11
-765.071620
21
947.142013
0
LINE
8
Layer 1
10
-765.071620
20
947.142013
11
-766.807559
21
948.984618
0
LINE
8
Layer 1
10
-766.807559
20
948.984618
11
-768.757290
21
950.654171
0
LINE
8
Layer 1
10
-768.757290
20
950.654171
11
-770.885290
21
952.115030
0
LINE
8
Layer 1
10
-770.885290
20
952.115030
11
-774.717281
21
954.159440
0
LINE
8
Layer 1
10
-774.717281
20
954.159440
11
-777.512240
21
955.370630
0
LINE
8
Layer 1
10
-777.512240
20
955.370630
11
-777.620983
21
955.295385
0
LINE
8
Layer 1
10
-777.620983
20
955.295385
11
-777.683178
21
954.974255
0
LINE
8
Layer 1
10
-777.683178
20
954.974255
11
-777.717930
21
953.021950
0
LINE
8
Layer 1
10
-777.717930
20
953.021950
11
-777.718000
21
950.673000
0
LINE
8
Layer 1
10
-776.693000
20
899.498000
11
-775.460520
21
898.180780
0
LINE
8
Layer 1
10
-775.460520
20
898.180780
11
-772.689857
21
895.330335
0
LINE
8
Layer 1
10
-772.689857
20
895.330335
11
-770.313476
21
892.326736
0
LINE
8
Layer 1
10
-770.313476
20
892.326736
11
-768.549247
21
889.477984
0
LINE
8
Layer 1
10
-768.549247
20
889.477984
11
-767.964774
21
888.207926
0
LINE
8
Layer 1
10
-767.964774
20
888.207926
11
-767.615040
21
887.092080
0
LINE
8
Layer 1
10
-767.615040
20
887.092080
11
-767.455189
21
885.937219
0
LINE
8
Layer 1
10
-767.455189
20
885.937219
11
-767.522050
21
884.946051
0
LINE
8
Layer 1
10
-767.522050
20
884.946051
11
-767.821441
21
884.089586
0
LINE
8
Layer 1
10
-767.821441
20
884.089586
11
-768.359180
21
883.338830
0
LINE
8
Layer 1
10
-768.359180
20
883.338830
11
-769.295064
21
882.686745
0
LINE
8
Layer 1
10
-769.295064
20
882.686745
11
-770.489780
21
882.559048
0
LINE
8
Layer 1
10
-770.489780
20
882.559048
11
-771.195032
21
882.708834
0
LINE
8
Layer 1
10
-771.195032
20
882.708834
11
-771.959472
21
883.031275
0
LINE
8
Layer 1
10
-771.959472
20
883.031275
11
-773.380550
21
884.047318
0
LINE
8
Layer 1
10
-773.380550
20
884.047318
11
-773.821294
21
884.408396
0
LINE
8
Layer 1
10
-773.821294
20
884.408396
11
-774.088000
21
884.336683
0
LINE
8
Layer 1
10
-774.088000
20
884.336683
11
-776.463570
21
881.913603
0
LINE
8
Layer 1
10
-776.463570
20
881.913603
11
-775.583916
21
881.027867
0
LINE
8
Layer 1
10
-775.583916
20
881.027867
11
-773.987750
21
879.896153
0
LINE
8
Layer 1
10
-773.987750
20
879.896153
11
-772.848874
21
879.312472
0
LINE
8
Layer 1
10
-772.848874
20
879.312472
11
-771.784484
21
878.936154
0
LINE
8
Layer 1
10
-771.784484
20
878.936154
11
-770.734071
21
878.751096
0
LINE
8
Layer 1
10
-770.734071
20
878.751096
11
-769.637130
21
878.741193
0
LINE
8
Layer 1
10
-769.637130
20
878.741193
11
-768.505037
21
878.903750
0
LINE
8
Layer 1
10
-768.505037
20
878.903750
11
-767.484226
21
879.238125
0
LINE
8
Layer 1
10
-767.484226
20
879.238125
11
-766.578824
21
879.740070
0
LINE
8
Layer 1
10
-766.578824
20
879.740070
11
-765.792960
21
880.405338
0
LINE
8
Layer 1
10
-765.792960
20
880.405338
11
-765.130761
21
881.229682
0
LINE
8
Layer 1
10
-765.130761
20
881.229682
11
-764.596357
21
882.208855
0
LINE
8
Layer 1
10
-764.596357
20
882.208855
11
-764.193873
21
883.338611
0
LINE
8
Layer 1
10
-764.193873
20
883.338611
11
-763.927440
21
884.614703
0
LINE
8
Layer 1
10
-763.927440
20
884.614703
11
-763.861706
21
886.390722
0
LINE
8
Layer 1
10
-763.861706
20
886.390722
11
-764.142389
21
888.293591
0
LINE
8
Layer 1
10
-764.142389
20
888.293591
11
-764.748517
21
890.232343
0
LINE
8
Layer 1
10
-764.748517
20
890.232343
11
-765.659120
21
892.116013
0
LINE
8
Layer 1
10
-765.659120
20
892.116013
11
-768.074464
21
895.549044
0
LINE
8
Layer 1
10
-768.074464
20
895.549044
11
-770.902690
21
898.884043
0
LINE
8
Layer 1
10
-770.902690
20
898.884043
11
-773.287522
21
901.150587
0
LINE
8
Layer 1
10
-773.287522
20
901.150587
11
-774.612020
21
902.160303
0
LINE
8
Layer 1
10
-774.612020
20
902.160303
11
-775.766551
21
900.927481
0
LINE
8
Layer 1
10
-775.766551
20
900.927481
11
-776.693030
21
899.497933
0
LINE
8
Layer 1
10
-776.693030
20
899.497933
11
-776.693000
21
899.498000
0
LINE
8
Layer 1
10
-775.760000
20
930.069000
11
-775.706906
21
927.050317
0
LINE
8
Layer 1
10
-775.706906
20
927.050317
11
-775.431850
21
925.297200
0
LINE
8
Layer 1
10
-775.431850
20
925.297200
11
-774.697310
21
922.760022
0
LINE
8
Layer 1
10
-774.697310
20
922.760022
11
-773.814390
21
920.821030
0
LINE
8
Layer 1
10
-773.814390
20
920.821030
11
-772.938582
21
919.578684
0
LINE
8
Layer 1
10
-772.938582
20
919.578684
11
-772.385020
21
919.181850
0
LINE
8
Layer 1
10
-772.385020
20
919.181850
11
-771.374822
21
919.498708
0
LINE
8
Layer 1
10
-771.374822
20
919.498708
11
-769.885420
21
920.253620
0
LINE
8
Layer 1
10
-769.885420
20
920.253620
11
-769.885000
21
920.253000
0
LINE
8
Layer 1
10
-769.885000
20
920.253000
11
-769.068010
21
920.814734
0
LINE
8
Layer 1
10
-769.068010
20
920.814734
11
-769.887070
21
921.981564
0
LINE
8
Layer 1
10
-769.887070
20
921.981564
11
-770.575559
21
923.041417
0
LINE
8
Layer 1
10
-770.575559
20
923.041417
11
-771.193085
21
924.288994
0
LINE
8
Layer 1
10
-771.193085
20
924.288994
11
-772.098300
21
927.078404
0
LINE
8
Layer 1
10
-772.098300
20
927.078404
11
-772.317116
21
928.548619
0
LINE
8
Layer 1
10
-772.317116
20
928.548619
11
-772.365480
21
930.835254
0
LINE
8
Layer 1
10
-772.365480
20
930.835254
11
-772.252210
21
933.621144
0
LINE
8
Layer 1
10
-772.252210
20
933.621144
11
-771.910175
21
936.356287
0
LINE
8
Layer 1
10
-771.910175
20
936.356287
11
-771.329287
21
939.101138
0
LINE
8
Layer 1
10
-771.329287
20
939.101138
11
-770.499460
21
941.916154
0
LINE
8
Layer 1
10
-770.499460
20
941.916154
11
-769.742420
21
943.952184
0
LINE
8
Layer 1
10
-769.742420
20
943.952184
11
-769.601859
21
944.327831
0
LINE
8
Layer 1
10
-769.601859
20
944.327831
11
-769.772420
21
944.659121
0
LINE
8
Layer 1
10
-769.772420
20
944.659121
11
-771.276880
21
946.024087
0
LINE
8
Layer 1
10
-771.276880
20
946.024087
11
-772.699860
21
946.935961
0
LINE
8
Layer 1
10
-772.699860
20
946.935961
11
-772.823962
21
946.854792
0
LINE
8
Layer 1
10
-772.823962
20
946.854792
11
-772.984071
21
946.452733
0
LINE
8
Layer 1
10
-772.984071
20
946.452733
11
-773.713220
21
943.734621
0
LINE
8
Layer 1
10
-773.713220
20
943.734621
11
-774.757039
21
939.269930
0
LINE
8
Layer 1
10
-774.757039
20
939.269930
11
-775.487260
21
935.228711
0
LINE
8
Layer 1
10
-775.487260
20
935.228711
11
-775.711136
21
933.096377
0
LINE
8
Layer 1
10
-775.711136
20
933.096377
11
-775.760120
21
930.068341
0
LINE
8
Layer 1
10
-775.760120
20
930.068341
11
-775.760000
21
930.069000
0
LINE
8
Layer 1
10
-775.702000
20
857.134000
11
-775.456520
21
853.886150
0
LINE
8
Layer 1
10
-775.456520
20
853.886150
11
-775.074130
21
851.534870
0
LINE
8
Layer 1
10
-775.074130
20
851.534870
11
-774.876427
21
851.443702
0
LINE
8
Layer 1
10
-774.876427
20
851.443702
11
-774.465254
21
851.536503
0
LINE
8
Layer 1
10
-774.465254
20
851.536503
11
-772.986400
21
852.279526
0
LINE
8
Layer 1
10
-772.986400
20
852.279526
11
-772.047960
21
852.824200
0
LINE
8
Layer 1
10
-772.047960
20
852.824200
11
-772.122860
21
853.685647
0
LINE
8
Layer 1
10
-772.122860
20
853.685647
11
-772.268507
21
856.675859
0
LINE
8
Layer 1
10
-772.268507
20
856.675859
11
-772.149671
21
859.381258
0
LINE
8
Layer 1
10
-772.149671
20
859.381258
11
-771.752712
21
861.836695
0
LINE
8
Layer 1
10
-771.752712
20
861.836695
11
-771.063990
21
864.077021
0
LINE
8
Layer 1
10
-771.063990
20
864.077021
11
-770.069864
21
866.137088
0
LINE
8
Layer 1
10
-770.069864
20
866.137088
11
-768.756694
21
868.051747
0
LINE
8
Layer 1
10
-768.756694
20
868.051747
11
-767.110839
21
869.855849
0
LINE
8
Layer 1
10
-767.110839
20
869.855849
11
-765.118660
21
871.584247
0
LINE
8
Layer 1
10
-765.118660
20
871.584247
11
-763.584910
21
872.805367
0
LINE
8
Layer 1
10
-763.584910
20
872.805367
11
-763.585000
21
877.833000
0
LINE
8
Layer 1
10
-763.585000
20
877.833000
11
-765.745570
21
876.016570
0
LINE
8
Layer 1
10
-765.745570
20
876.016570
11
-769.064630
21
873.200496
0
LINE
8
Layer 1
10
-769.064630
20
873.200496
11
-771.040320
21
871.115080
0
LINE
8
Layer 1
10
-771.040320
20
871.115080
11
-773.070160
21
868.360093
0
LINE
8
Layer 1
10
-773.070160
20
868.360093
11
-773.850555
21
866.925761
0
LINE
8
Layer 1
10
-773.850555
20
866.925761
11
-774.483666
21
865.428765
0
LINE
8
Layer 1
10
-774.483666
20
865.428765
11
-774.976294
21
863.850527
0
LINE
8
Layer 1
10
-774.976294
20
863.850527
11
-775.335237
21
862.172469
0
LINE
8
Layer 1
10
-775.335237
20
862.172469
11
-775.679270
21
858.442580
0
LINE
8
Layer 1
10
-775.679270
20
858.442580
11
-775.701970
21
857.134150
0
LINE
8
Layer 1
10
-775.701970
20
857.134150
11
-775.702000
21
857.134000
0
LINE
8
Layer 1
10
-770.948000
20
937.437000
11
-770.728360
21
937.167256
0
LINE
8
Layer 1
10
-770.728360
20
937.167256
11
-769.173976
21
935.926328
0
LINE
8
Layer 1
10
-769.173976
20
935.926328
11
-767.061420
21
934.002076
0
LINE
8
Layer 1
10
-767.061420
20
934.002076
11
-764.413550
21
930.995556
0
LINE
8
Layer 1
10
-764.413550
20
930.995556
11
-763.584660
21
929.913466
0
LINE
8
Layer 1
10
-763.584660
20
929.913466
11
-763.585000
21
936.474000
0
LINE
8
Layer 1
10
-763.585000
20
936.474000
11
-765.677551
21
938.427648
0
LINE
8
Layer 1
10
-765.677551
20
938.427648
11
-767.968680
21
940.251020
0
LINE
8
Layer 1
10
-767.968680
20
940.251020
11
-769.516820
21
941.298615
0
LINE
8
Layer 1
10
-769.516820
20
941.298615
11
-769.843270
21
941.395283
0
LINE
8
Layer 1
10
-769.843270
20
941.395283
11
-770.002630
21
941.273170
0
LINE
8
Layer 1
10
-770.002630
20
941.273170
11
-770.948310
21
937.437250
0
LINE
8
Layer 1
10
-770.948310
20
937.437250
11
-770.948000
21
937.437000
0
LINE
8
Layer 1
10
-768.508000
20
843.352000
11
-768.388620
21
842.341200
0
LINE
8
Layer 1
10
-768.388620
20
842.341200
11
-768.189130
21
840.268460
0
LINE
8
Layer 1
10
-768.189130
20
840.268460
11
-768.071820
21
839.525849
0
LINE
8
Layer 1
10
-768.071820
20
839.525849
11
-767.589680
21
839.853446
0
LINE
8
Layer 1
10
-767.589680
20
839.853446
11
-766.633654
21
840.817694
0
LINE
8
Layer 1
10
-766.633654
20
840.817694
11
-764.575410
21
843.284769
0
LINE
8
Layer 1
10
-764.575410
20
843.284769
11
-763.584260
21
844.794739
0
LINE
8
Layer 1
10
-763.584260
20
844.794739
11
-763.585000
21
854.261000
0
LINE
8
Layer 1
10
-763.585000
20
854.261000
11
-764.361406
21
851.131886
0
LINE
8
Layer 1
10
-764.361406
20
851.131886
11
-765.592620
21
848.228320
0
LINE
8
Layer 1
10
-765.592620
20
848.228320
11
-766.873381
21
846.200470
0
LINE
8
Layer 1
10
-766.873381
20
846.200470
11
-768.072040
21
844.740700
0
LINE
8
Layer 1
10
-768.072040
20
844.740700
11
-768.455934
21
844.228473
0
LINE
8
Layer 1
10
-768.455934
20
844.228473
11
-768.508710
21
843.351640
0
LINE
8
Layer 1
10
-768.508710
20
843.351640
11
-768.508000
21
843.352000
0
LINE
8
Layer 1
10
-767.735000
20
914.274000
11
-766.936600
21
913.813066
0
LINE
8
Layer 1
10
-766.936600
20
913.813066
11
-764.491270
21
912.285516
0
LINE
8
Layer 1
10
-764.491270
20
912.285516
11
-763.584350
21
911.590482
0
LINE
8
Layer 1
10
-763.584350
20
911.590482
11
-763.585000
21
916.279000
0
LINE
8
Layer 1
10
-763.585000
20
916.279000
11
-764.134830
21
916.582863
0
LINE
8
Layer 1
10
-764.134830
20
916.582863
11
-764.474035
21
916.582214
0
LINE
8
Layer 1
10
-764.474035
20
916.582214
11
-764.992130
21
916.253672
0
LINE
8
Layer 1
10
-764.992130
20
916.253672
11
-766.712950
21
915.101822
0
LINE
8
Layer 1
10
-766.712950
20
915.101822
11
-767.735620
21
914.274495
0
LINE
8
Layer 1
10
-767.735620
20
914.274495
11
-767.735000
21
914.274000
0
LINE
8
Layer 1
10
-767.438000
20
868.213000
11
-766.925890
21
867.420798
0
LINE
8
Layer 1
10
-766.925890
20
867.420798
11
-765.997119
21
866.169613
0
LINE
8
Layer 1
10
-765.997119
20
866.169613
11
-765.151546
21
864.738879
0
LINE
8
Layer 1
10
-765.151546
20
864.738879
11
-764.442805
21
863.229952
0
LINE
8
Layer 1
10
-764.442805
20
863.229952
11
-763.924530
21
861.744188
0
LINE
8
Layer 1
10
-763.924530
20
861.744188
11
-763.585020
21
859.917938
0
LINE
8
Layer 1
10
-763.585020
20
859.917938
11
-763.585000
21
869.600000
0
LINE
8
Layer 1
10
-763.585000
20
869.600000
11
-763.772590
21
869.914177
0
LINE
8
Layer 1
10
-763.772590
20
869.914177
11
-764.145366
21
870.411423
0
LINE
8
Layer 1
10
-764.145366
20
870.411423
11
-764.464815
21
870.630276
0
LINE
8
Layer 1
10
-764.464815
20
870.630276
11
-764.812937
21
870.593137
0
LINE
8
Layer 1
10
-764.812937
20
870.593137
11
-765.271730
21
870.322408
0
LINE
8
Layer 1
10
-765.271730
20
870.322408
11
-766.665149
21
869.134304
0
LINE
8
Layer 1
10
-766.665149
20
869.134304
11
-767.437980
21
868.212988
0
LINE
8
Layer 1
10
-767.437980
20
868.212988
11
-767.438000
21
868.213000
0
LINE
8
Layer 1
10
-606.693000
20
895.336000
11
-612.374352
21
895.114630
0
LINE
8
Layer 1
10
-612.374352
20
895.114630
11
-617.657200
21
894.556199
0
LINE
8
Layer 1
10
-617.657200
20
894.556199
11
-621.982490
21
893.818772
0
LINE
8
Layer 1
10
-621.982490
20
893.818772
11
-619.881350
21
888.166932
0
LINE
8
Layer 1
10
-619.881350
20
888.166932
11
-616.448669
21
880.206365
0
LINE
8
Layer 1
10
-616.448669
20
880.206365
11
-612.893767
21
873.098444
0
LINE
8
Layer 1
10
-612.893767
20
873.098444
11
-609.266457
21
866.935243
0
LINE
8
Layer 1
10
-609.266457
20
866.935243
11
-607.441215
21
864.236684
0
LINE
8
Layer 1
10
-607.441215
20
864.236684
11
-605.616550
21
861.808832
0
LINE
8
Layer 1
10
-605.616550
20
861.808832
11
-604.745280
21
860.835260
0
LINE
8
Layer 1
10
-604.745280
20
860.835260
11
-603.201180
21
862.724540
0
LINE
8
Layer 1
10
-603.201180
20
862.724540
11
-598.363497
21
869.037904
0
LINE
8
Layer 1
10
-598.363497
20
869.037904
11
-594.094234
21
874.987269
0
LINE
8
Layer 1
10
-594.094234
20
874.987269
11
-590.393169
21
880.573145
0
LINE
8
Layer 1
10
-590.393169
20
880.573145
11
-587.260080
21
885.796040
0
LINE
8
Layer 1
10
-587.260080
20
885.796040
11
-584.901473
21
890.323399
0
LINE
8
Layer 1
10
-584.901473
20
890.323399
11
-583.598790
21
893.208520
0
LINE
8
Layer 1
10
-583.598790
20
893.208520
11
-590.437140
21
894.342810
0
LINE
8
Layer 1
10
-590.437140
20
894.342810
11
-594.655442
21
894.841350
0
LINE
8
Layer 1
10
-594.655442
20
894.841350
11
-598.644927
21
895.165372
0
LINE
8
Layer 1
10
-598.644927
20
895.165372
11
-602.594495
21
895.326420
0
LINE
8
Layer 1
10
-602.594495
20
895.326420
11
-606.693040
21
895.336036
0
LINE
8
Layer 1
10
-606.693040
20
895.336036
11
-606.693000
21
895.336000
0
LINE
8
Layer 1
10
-513.232000
20
789.353000
11
-514.302419
21
789.136890
0
LINE
8
Layer 1
10
-514.302419
20
789.136890
11
-515.176539
21
788.547539
0
LINE
8
Layer 1
10
-515.176539
20
788.547539
11
-515.765890
21
787.673419
0
LINE
8
Layer 1
10
-515.765890
20
787.673419
11
-515.982000
21
786.603000
0
LINE
8
Layer 1
10
-515.982000
20
786.603000
11
-515.765890
21
785.532581
0
LINE
8
Layer 1
10
-515.765890
20
785.532581
11
-515.176539
21
784.658461
0
LINE
8
Layer 1
10
-515.176539
20
784.658461
11
-514.302419
21
784.069110
0
LINE
8
Layer 1
10
-514.302419
20
784.069110
11
-513.232000
21
783.853000
0
LINE
8
Layer 1
10
-513.232000
20
783.853000
11
-512.161569
21
784.069110
0
LINE
8
Layer 1
10
-512.161569
20
784.069110
11
-511.287450
21
784.658461
0
LINE
8
Layer 1
10
-511.287450
20
784.658461
11
-510.698106
21
785.532581
0
LINE
8
Layer 1
10
-510.698106
20
785.532581
11
-510.482000
21
786.603000
0
LINE
8
Layer 1
10
-510.482000
20
786.603000
11
-510.698106
21
787.673419
0
LINE
8
Layer 1
10
-510.698106
20
787.673419
11
-511.287450
21
788.547539
0
LINE
8
Layer 1
10
-511.287450
20
788.547539
11
-512.161569
21
789.136890
0
LINE
8
Layer 1
10
-512.161569
20
789.136890
11
-513.232000
21
789.353000
0
LINE
8
Layer 1
10
-513.232000
20
789.353000
11
-513.232000
21
789.353000
0
LINE
8
Layer 1
10
-513.232000
20
1021.780000
11
-514.302431
21
1021.563890
0
LINE
8
Layer 1
10
-514.302431
20
1021.563890
11
-515.176550
21
1020.974539
0
LINE
8
Layer 1
10
-515.176550
20
1020.974539
11
-515.765894
21
1020.100419
0
LINE
8
Layer 1
10
-515.765894
20
1020.100419
11
-515.982000
21
1019.030000
0
LINE
8
Layer 1
10
-515.982000
20
1019.030000
11
-515.765894
21
1017.959581
0
LINE
8
Layer 1
10
-515.765894
20
1017.959581
11
-515.176550
21
1017.085461
0
LINE
8
Layer 1
10
-515.176550
20
1017.085461
11
-514.302431
21
1016.496110
0
LINE
8
Layer 1
10
-514.302431
20
1016.496110
11
-513.232000
21
1016.280000
0
LINE
8
Layer 1
10
-513.232000
20
1016.280000
11
-512.161581
21
1016.496110
0
LINE
8
Layer 1
10
-512.161581
20
1016.496110
11
-511.287461
21
1017.085461
0
LINE
8
Layer 1
10
-511.287461
20
1017.085461
11
-510.698110
21
1017.959581
0
LINE
8
Layer 1
10
-510.698110
20
1017.959581
11
-510.482000
21
1019.030000
0
LINE
8
Layer 1
10
-510.482000
20
1019.030000
11
-510.698110
21
1020.100419
0
LINE
8
Layer 1
10
-510.698110
20
1020.100419
11
-511.287461
21
1020.974539
0
LINE
8
Layer 1
10
-511.287461
20
1020.974539
11
-512.161581
21
1021.563890
0
LINE
8
Layer 1
10
-512.161581
20
1021.563890
11
-513.232000
21
1021.780000
0
LINE
8
Layer 1
10
-513.232000
20
1021.780000
11
-513.232000
21
1021.780000
0
LINE
8
Layer 1
10
-546.394000
20
772.547000
11
-499.233900
21
772.626310
0
LINE
8
Layer 1
10
-499.233900
20
772.626310
11
-499.233930
21
1033.037310
0
LINE
8
Layer 1
10
-499.233930
20
1033.037310
11
-546.394030
21
1033.108410
0
LINE
8
Layer 1
10
-546.394030
20
1033.108410
11
-544.622969
21
1024.388484
0
LINE
8
Layer 1
10
-544.622969
20
1024.388484
11
-543.399986
21
1015.635862
0
LINE
8
Layer 1
10
-543.399986
20
1015.635862
11
-542.718946
21
1006.874047
0
LINE
8
Layer 1
10
-542.718946
20
1006.874047
11
-542.573716
21
998.126540
0
LINE
8
Layer 1
10
-542.573716
20
998.126540
11
-542.958162
21
989.416844
0
LINE
8
Layer 1
10
-542.958162
20
989.416844
11
-543.866151
21
980.768462
0
LINE
8
Layer 1
10
-543.866151
20
980.768462
11
-545.291550
21
972.204895
0
LINE
8
Layer 1
10
-545.291550
20
972.204895
11
-547.228225
21
963.749647
0
LINE
8
Layer 1
10
-547.228225
20
963.749647
11
-549.670042
21
955.426220
0
LINE
8
Layer 1
10
-549.670042
20
955.426220
11
-552.610868
21
947.258116
0
LINE
8
Layer 1
10
-552.610868
20
947.258116
11
-556.044569
21
939.268837
0
LINE
8
Layer 1
10
-556.044569
20
939.268837
11
-559.965012
21
931.481887
0
LINE
8
Layer 1
10
-559.965012
20
931.481887
11
-564.366063
21
923.920766
0
LINE
8
Layer 1
10
-564.366063
20
923.920766
11
-569.241589
21
916.608978
0
LINE
8
Layer 1
10
-569.241589
20
916.608978
11
-574.585456
21
909.570025
0
LINE
8
Layer 1
10
-574.585456
20
909.570025
11
-580.391530
21
902.827410
0
LINE
8
Layer 1
10
-580.391530
20
902.827410
11
-574.585451
21
896.084848
0
LINE
8
Layer 1
10
-574.585451
20
896.084848
11
-569.241579
21
889.045942
0
LINE
8
Layer 1
10
-569.241579
20
889.045942
11
-564.366046
21
881.734198
0
LINE
8
Layer 1
10
-564.366046
20
881.734198
11
-559.964988
21
874.173118
0
LINE
8
Layer 1
10
-559.964988
20
874.173118
11
-556.044537
21
866.386207
0
LINE
8
Layer 1
10
-556.044537
20
866.386207
11
-552.610827
21
858.396968
0
LINE
8
Layer 1
10
-552.610827
20
858.396968
11
-549.669993
21
850.228905
0
LINE
8
Layer 1
10
-549.669993
20
850.228905
11
-547.228167
21
841.905522
0
LINE
8
Layer 1
10
-547.228167
20
841.905522
11
-545.291485
21
833.450324
0
LINE
8
Layer 1
10
-545.291485
20
833.450324
11
-543.866078
21
824.886813
0
LINE
8
Layer 1
10
-543.866078
20
824.886813
11
-542.958081
21
816.238494
0
LINE
8
Layer 1
10
-542.958081
20
816.238494
11
-542.573628
21
807.528871
0
LINE
8
Layer 1
10
-542.573628
20
807.528871
11
-542.718853
21
798.781447
0
LINE
8
Layer 1
10
-542.718853
20
798.781447
11
-543.399889
21
790.019726
0
LINE
8
Layer 1
10
-543.399889
20
790.019726
11
-544.622870
21
781.267213
0
LINE
8
Layer 1
10
-544.622870
20
781.267213
11
-546.393930
21
772.547410
0
LINE
8
Layer 1
10
-546.393930
20
772.547410
11
-546.394000
21
772.547000
0
LINE
8
Layer 1
10
-580.391000
20
902.827000
11
-577.049689
21
899.039764
0
LINE
8
Layer 1
10
-577.049689
20
899.039764
11
-573.856000
21
895.154090
0
LINE
8
Layer 1
10
-573.856000
20
895.154090
11
-573.034316
21
895.593810
0
LINE
8
Layer 1
10
-573.034316
20
895.593810
11
-572.054060
21
895.893592
0
LINE
8
Layer 1
10
-572.054060
20
895.893592
11
-571.156431
21
895.977737
0
LINE
8
Layer 1
10
-571.156431
20
895.977737
11
-570.199628
21
895.912265
0
LINE
8
Layer 1
10
-570.199628
20
895.912265
11
-568.308550
21
895.360816
0
LINE
8
Layer 1
10
-568.308550
20
895.360816
11
-566.370366
21
894.291525
0
LINE
8
Layer 1
10
-566.370366
20
894.291525
11
-564.546490
21
893.048286
0
LINE
8
Layer 1
10
-564.546490
20
893.048286
11
-562.829083
21
891.510187
0
LINE
8
Layer 1
10
-562.829083
20
891.510187
11
-560.882173
21
889.517932
0
LINE
8
Layer 1
10
-560.882173
20
889.517932
11
-559.099696
21
887.495619
0
LINE
8
Layer 1
10
-559.099696
20
887.495619
11
-557.875590
21
885.867346
0
LINE
8
Layer 1
10
-557.875590
20
885.867346
11
-557.301358
21
884.704382
0
LINE
8
Layer 1
10
-557.301358
20
884.704382
11
-556.665850
21
883.006016
0
LINE
8
Layer 1
10
-556.665850
20
883.006016
11
-555.819851
21
880.783360
0
LINE
8
Layer 1
10
-555.819851
20
880.783360
11
-554.465990
21
878.271946
0
LINE
8
Layer 1
10
-554.465990
20
878.271946
11
-553.148405
21
875.480100
0
LINE
8
Layer 1
10
-553.148405
20
875.480100
11
-552.239240
21
872.368416
0
LINE
8
Layer 1
10
-552.239240
20
872.368416
11
-551.904370
21
870.873416
0
LINE
8
Layer 1
10
-551.904370
20
870.873416
11
-551.954470
21
870.604709
0
LINE
8
Layer 1
10
-551.954470
20
870.604709
11
-552.302376
21
871.268481
0
LINE
8
Layer 1
10
-552.302376
20
871.268481
11
-553.107910
21
873.555939
0
LINE
8
Layer 1
10
-553.107910
20
873.555939
11
-554.220749
21
876.111393
0
LINE
8
Layer 1
10
-554.220749
20
876.111393
11
-555.739780
21
878.679139
0
LINE
8
Layer 1
10
-555.739780
20
878.679139
11
-556.979203
21
880.603883
0
LINE
8
Layer 1
10
-556.979203
20
880.603883
11
-557.768100
21
882.316129
0
LINE
8
Layer 1
10
-557.768100
20
882.316129
11
-558.539610
21
884.231779
0
LINE
8
Layer 1
10
-558.539610
20
884.231779
11
-559.458192
21
885.826016
0
LINE
8
Layer 1
10
-559.458192
20
885.826016
11
-560.976983
21
887.773150
0
LINE
8
Layer 1
10
-560.976983
20
887.773150
11
-562.865497
21
889.804136
0
LINE
8
Layer 1
10
-562.865497
20
889.804136
11
-564.893250
21
891.649929
0
LINE
8
Layer 1
10
-564.893250
20
891.649929
11
-567.348509
21
893.451017
0
LINE
8
Layer 1
10
-567.348509
20
893.451017
11
-569.530899
21
894.606612
0
LINE
8
Layer 1
10
-569.530899
20
894.606612
11
-571.369021
21
895.087690
0
LINE
8
Layer 1
10
-571.369021
20
895.087690
11
-572.136671
21
895.066216
0
LINE
8
Layer 1
10
-572.136671
20
895.066216
11
-572.791480
21
894.865229
0
LINE
8
Layer 1
10
-572.791480
20
894.865229
11
-573.309790
21
894.456965
0
LINE
8
Layer 1
10
-573.309790
20
894.456965
11
-569.445205
21
889.303460
0
LINE
8
Layer 1
10
-569.445205
20
889.303460
11
-565.829620
21
884.004365
0
LINE
8
Layer 1
10
-565.829620
20
884.004365
11
-565.294250
21
883.647797
0
LINE
8
Layer 1
10
-565.294250
20
883.647797
11
-562.487144
21
881.635793
0
LINE
8
Layer 1
10
-562.487144
20
881.635793
11
-561.615023
21
880.735688
0
LINE
8
Layer 1
10
-561.615023
20
880.735688
11
-560.997870
21
879.817537
0
LINE
8
Layer 1
10
-560.997870
20
879.817537
11
-560.677190
21
879.129849
0
LINE
8
Layer 1
10
-560.677190
20
879.129849
11
-560.672049
21
878.865189
0
LINE
8
Layer 1
10
-560.672049
20
878.865189
11
-561.518770
21
879.636141
0
LINE
8
Layer 1
10
-561.518770
20
879.636141
11
-562.910015
21
881.015483
0
LINE
8
Layer 1
10
-562.910015
20
881.015483
11
-564.854460
21
882.491271
0
LINE
8
Layer 1
10
-564.854460
20
882.491271
11
-563.250950
21
879.884181
0
LINE
8
Layer 1
10
-563.250950
20
879.884181
11
-560.456790
21
878.407771
0
LINE
8
Layer 1
10
-560.456790
20
878.407771
11
-559.767430
21
877.935450
0
LINE
8
Layer 1
10
-559.767430
20
877.935450
11
-557.035596
21
875.821376
0
LINE
8
Layer 1
10
-557.035596
20
875.821376
11
-554.628104
21
873.411701
0
LINE
8
Layer 1
10
-554.628104
20
873.411701
11
-552.539382
21
870.700101
0
LINE
8
Layer 1
10
-552.539382
20
870.700101
11
-550.763860
21
867.680250
0
LINE
8
Layer 1
10
-550.763860
20
867.680250
11
-549.499733
21
864.834268
0
LINE
8
Layer 1
10
-549.499733
20
864.834268
11
-548.295260
21
861.677530
0
LINE
8
Layer 1
10
-548.295260
20
861.677530
11
-547.444576
21
858.864894
0
LINE
8
Layer 1
10
-547.444576
20
858.864894
11
-546.609803
21
855.491271
0
LINE
8
Layer 1
10
-546.609803
20
855.491271
11
-544.832950
21
846.376630
0
LINE
8
Layer 1
10
-544.832950
20
846.376630
11
-543.696080
21
840.166150
0
LINE
8
Layer 1
10
-543.696080
20
840.166150
11
-542.443498
21
835.133539
0
LINE
8
Layer 1
10
-542.443498
20
835.133539
11
-541.688369
21
832.898173
0
LINE
8
Layer 1
10
-541.688369
20
832.898173
11
-540.826395
21
830.803804
0
LINE
8
Layer 1
10
-540.826395
20
830.803804
11
-539.841862
21
828.815709
0
LINE
8
Layer 1
10
-539.841862
20
828.815709
11
-538.719055
21
826.899167
0
LINE
8
Layer 1
10
-538.719055
20
826.899167
11
-535.995760
21
823.141850
0
LINE
8
Layer 1
10
-535.995760
20
823.141850
11
-533.395998
21
820.218762
0
LINE
8
Layer 1
10
-533.395998
20
820.218762
11
-530.933408
21
818.049084
0
LINE
8
Layer 1
10
-530.933408
20
818.049084
11
-528.476693
21
816.534431
0
LINE
8
Layer 1
10
-528.476693
20
816.534431
11
-525.894560
21
815.576420
0
LINE
8
Layer 1
10
-525.894560
20
815.576420
11
-524.362835
21
815.244335
0
LINE
8
Layer 1
10
-524.362835
20
815.244335
11
-523.677650
21
815.301487
0
LINE
8
Layer 1
10
-523.677650
20
815.301487
11
-523.049501
21
817.476142
0
LINE
8
Layer 1
10
-523.049501
20
817.476142
11
-522.723730
21
819.728087
0
LINE
8
Layer 1
10
-522.723730
20
819.728087
11
-523.247200
21
819.850036
0
LINE
8
Layer 1
10
-523.247200
20
819.850036
11
-525.033056
21
820.197013
0
LINE
8
Layer 1
10
-525.033056
20
820.197013
11
-527.058350
21
820.950226
0
LINE
8
Layer 1
10
-527.058350
20
820.950226
11
-528.816293
21
821.982552
0
LINE
8
Layer 1
10
-528.816293
20
821.982552
11
-530.505172
21
823.313062
0
LINE
8
Layer 1
10
-530.505172
20
823.313062
11
-532.115009
21
824.928089
0
LINE
8
Layer 1
10
-532.115009
20
824.928089
11
-533.635823
21
826.813966
0
LINE
8
Layer 1
10
-533.635823
20
826.813966
11
-535.057633
21
828.957026
0
LINE
8
Layer 1
10
-535.057633
20
828.957026
11
-536.370462
21
831.343600
0
LINE
8
Layer 1
10
-536.370462
20
831.343600
11
-537.564327
21
833.960023
0
LINE
8
Layer 1
10
-537.564327
20
833.960023
11
-538.629250
21
836.792626
0
LINE
8
Layer 1
10
-538.629250
20
836.792626
11
-539.657809
21
840.033583
0
LINE
8
Layer 1
10
-539.657809
20
840.033583
11
-540.373509
21
842.823942
0
LINE
8
Layer 1
10
-540.373509
20
842.823942
11
-540.818726
21
845.357894
0
LINE
8
Layer 1
10
-540.818726
20
845.357894
11
-541.035840
21
847.829626
0
LINE
8
Layer 1
10
-541.035840
20
847.829626
11
-541.114940
21
849.514286
0
LINE
8
Layer 1
10
-541.114940
20
849.514286
11
-540.812120
21
849.248661
0
LINE
8
Layer 1
10
-540.812120
20
849.248661
11
-539.590117
21
848.292480
0
LINE
8
Layer 1
10
-539.590117
20
848.292480
11
-538.298381
21
847.488081
0
LINE
8
Layer 1
10
-538.298381
20
847.488081
11
-537.026508
21
846.884682
0
LINE
8
Layer 1
10
-537.026508
20
846.884682
11
-535.864090
21
846.531501
0
LINE
8
Layer 1
10
-535.864090
20
846.531501
11
-534.741160
21
846.297919
0
LINE
8
Layer 1
10
-534.741160
20
846.297919
11
-534.461828
21
846.299613
0
LINE
8
Layer 1
10
-534.461828
20
846.299613
11
-534.271448
21
846.539073
0
LINE
8
Layer 1
10
-534.271448
20
846.539073
11
-533.993420
21
848.134499
0
LINE
8
Layer 1
10
-533.993420
20
848.134499
11
-533.825817
21
849.638095
0
LINE
8
Layer 1
10
-533.825817
20
849.638095
11
-533.859248
21
850.387043
0
LINE
8
Layer 1
10
-533.859248
20
850.387043
11
-534.212587
21
850.711226
0
LINE
8
Layer 1
10
-534.212587
20
850.711226
11
-535.004710
21
850.940529
0
LINE
8
Layer 1
10
-535.004710
20
850.940529
11
-536.073528
21
851.299446
0
LINE
8
Layer 1
10
-536.073528
20
851.299446
11
-536.952923
21
851.757355
0
LINE
8
Layer 1
10
-536.952923
20
851.757355
11
-537.753766
21
852.385883
0
LINE
8
Layer 1
10
-537.753766
20
852.385883
11
-538.586930
21
853.256659
0
LINE
8
Layer 1
10
-538.586930
20
853.256659
11
-539.756792
21
854.808464
0
LINE
8
Layer 1
10
-539.756792
20
854.808464
11
-540.740531
21
856.584913
0
LINE
8
Layer 1
10
-540.740531
20
856.584913
11
-541.562790
21
858.638199
0
LINE
8
Layer 1
10
-541.562790
20
858.638199
11
-542.248210
21
861.020519
0
LINE
8
Layer 1
10
-542.248210
20
861.020519
11
-543.764900
21
866.694069
0
LINE
8
Layer 1
10
-543.764900
20
866.694069
11
-544.833600
21
870.719669
0
LINE
8
Layer 1
10
-544.833600
20
870.719669
11
-544.753824
21
870.883737
0
LINE
8
Layer 1
10
-544.753824
20
870.883737
11
-544.474269
21
870.843513
0
LINE
8
Layer 1
10
-544.474269
20
870.843513
11
-543.083290
21
870.063388
0
LINE
8
Layer 1
10
-543.083290
20
870.063388
11
-541.884820
21
869.249967
0
LINE
8
Layer 1
10
-541.884820
20
869.249967
11
-540.864515
21
868.389526
0
LINE
8
Layer 1
10
-540.864515
20
868.389526
11
-538.778670
21
865.976808
0
LINE
8
Layer 1
10
-538.778670
20
865.976808
11
-536.261748
21
862.420912
0
LINE
8
Layer 1
10
-536.261748
20
862.420912
11
-534.470525
21
859.254604
0
LINE
8
Layer 1
10
-534.470525
20
859.254604
11
-533.331398
21
856.324773
0
LINE
8
Layer 1
10
-533.331398
20
856.324773
11
-532.770760
21
853.478308
0
LINE
8
Layer 1
10
-532.770760
20
853.478308
11
-532.692064
21
851.940231
0
LINE
8
Layer 1
10
-532.692064
20
851.940231
11
-532.846760
21
849.951388
0
LINE
8
Layer 1
10
-532.846760
20
849.951388
11
-533.378719
21
846.042921
0
LINE
8
Layer 1
10
-533.378719
20
846.042921
11
-534.126576
21
842.604619
0
LINE
8
Layer 1
10
-534.126576
20
842.604619
11
-535.136800
21
839.462652
0
LINE
8
Layer 1
10
-535.136800
20
839.462652
11
-536.455860
21
836.443188
0
LINE
8
Layer 1
10
-536.455860
20
836.443188
11
-537.082180
21
835.174538
0
LINE
8
Layer 1
10
-537.082180
20
835.174538
11
-536.618130
21
834.066598
0
LINE
8
Layer 1
10
-536.618130
20
834.066598
11
-535.241114
21
831.151162
0
LINE
8
Layer 1
10
-535.241114
20
831.151162
11
-533.922170
21
828.845738
0
LINE
8
Layer 1
10
-533.922170
20
828.845738
11
-532.470570
21
829.857058
0
LINE
8
Layer 1
10
-532.470570
20
829.857058
11
-527.415393
21
833.716649
0
LINE
8
Layer 1
10
-527.415393
20
833.716649
11
-521.026370
21
838.098938
0
LINE
8
Layer 1
10
-521.026370
20
838.098938
11
-516.789780
21
840.708182
0
LINE
8
Layer 1
10
-516.789780
20
840.708182
11
-511.173220
21
843.922368
0
LINE
8
Layer 1
10
-511.173220
20
843.922368
11
-509.010560
21
845.189978
0
LINE
8
Layer 1
10
-509.010560
20
845.189978
11
-508.853970
21
846.072088
0
LINE
8
Layer 1
10
-508.853970
20
846.072088
11
-509.160920
21
850.152468
0
LINE
8
Layer 1
10
-509.160920
20
850.152468
11
-509.564208
21
850.055662
0
LINE
8
Layer 1
10
-509.564208
20
850.055662
11
-510.567570
21
849.502901
0
LINE
8
Layer 1
10
-510.567570
20
849.502901
11
-514.369900
21
847.353671
0
LINE
8
Layer 1
10
-514.369900
20
847.353671
11
-520.489025
21
843.818934
0
LINE
8
Layer 1
10
-520.489025
20
843.818934
11
-525.417300
21
840.431091
0
LINE
8
Layer 1
10
-525.417300
20
840.431091
11
-530.055760
21
837.015811
0
LINE
8
Layer 1
10
-530.055760
20
837.015811
11
-532.021550
21
835.610201
0
LINE
8
Layer 1
10
-532.021550
20
835.610201
11
-532.499540
21
835.378176
0
LINE
8
Layer 1
10
-532.499540
20
835.378176
11
-532.132660
21
836.508336
0
LINE
8
Layer 1
10
-532.132660
20
836.508336
11
-531.288732
21
838.808091
0
LINE
8
Layer 1
10
-531.288732
20
838.808091
11
-530.503635
21
841.406774
0
LINE
8
Layer 1
10
-530.503635
20
841.406774
11
-529.356080
21
846.604836
0
LINE
8
Layer 1
10
-529.356080
20
846.604836
11
-529.064164
21
849.320794
0
LINE
8
Layer 1
10
-529.064164
20
849.320794
11
-528.940813
21
852.361075
0
LINE
8
Layer 1
10
-528.940813
20
852.361075
11
-528.991892
21
855.245436
0
LINE
8
Layer 1
10
-528.991892
20
855.245436
11
-529.223270
21
857.493636
0
LINE
8
Layer 1
10
-529.223270
20
857.493636
11
-529.743264
21
859.745873
0
LINE
8
Layer 1
10
-529.743264
20
859.745873
11
-530.479584
21
861.923295
0
LINE
8
Layer 1
10
-530.479584
20
861.923295
11
-531.469086
21
864.119210
0
LINE
8
Layer 1
10
-531.469086
20
864.119210
11
-532.748630
21
866.426926
0
LINE
8
Layer 1
10
-532.748630
20
866.426926
11
-532.874676
21
866.749123
0
LINE
8
Layer 1
10
-532.874676
20
866.749123
11
-532.562070
21
866.941636
0
LINE
8
Layer 1
10
-532.562070
20
866.941636
11
-531.289827
21
867.648166
0
LINE
8
Layer 1
10
-531.289827
20
867.648166
11
-529.710970
21
868.726233
0
LINE
8
Layer 1
10
-529.710970
20
868.726233
11
-528.257356
21
869.860776
0
LINE
8
Layer 1
10
-528.257356
20
869.860776
11
-527.360840
21
870.736736
0
LINE
8
Layer 1
10
-527.360840
20
870.736736
11
-527.209191
21
871.089748
0
LINE
8
Layer 1
10
-527.209191
20
871.089748
11
-527.532930
21
871.635387
0
LINE
8
Layer 1
10
-527.532930
20
871.635387
11
-528.853909
21
873.364643
0
LINE
8
Layer 1
10
-528.853909
20
873.364643
11
-529.628940
21
874.131357
0
LINE
8
Layer 1
10
-529.628940
20
874.131357
11
-530.147280
21
873.846628
0
LINE
8
Layer 1
10
-530.147280
20
873.846628
11
-531.177591
21
873.197854
0
LINE
8
Layer 1
10
-531.177591
20
873.197854
11
-532.450828
21
872.749624
0
LINE
8
Layer 1
10
-532.450828
20
872.749624
11
-533.825310
21
872.537251
0
LINE
8
Layer 1
10
-533.825310
20
872.537251
11
-535.159360
21
872.596048
0
LINE
8
Layer 1
10
-535.159360
20
872.596048
11
-536.974245
21
873.063569
0
LINE
8
Layer 1
10
-536.974245
20
873.063569
11
-538.559694
21
873.920802
0
LINE
8
Layer 1
10
-538.559694
20
873.920802
11
-540.140611
21
875.328633
0
LINE
8
Layer 1
10
-540.140611
20
875.328633
11
-541.941900
21
877.447948
0
LINE
8
Layer 1
10
-541.941900
20
877.447948
11
-543.714117
21
879.902377
0
LINE
8
Layer 1
10
-543.714117
20
879.902377
11
-545.100280
21
882.267558
0
LINE
8
Layer 1
10
-545.100280
20
882.267558
11
-546.112216
21
884.566461
0
LINE
8
Layer 1
10
-546.112216
20
884.566461
11
-546.761750
21
886.822058
0
LINE
8
Layer 1
10
-546.761750
20
886.822058
11
-547.048040
21
888.769228
0
LINE
8
Layer 1
10
-547.048040
20
888.769228
11
-546.911123
21
888.943738
0
LINE
8
Layer 1
10
-546.911123
20
888.943738
11
-546.643025
21
888.992243
0
LINE
8
Layer 1
10
-546.643025
20
888.992243
11
-545.675510
21
888.709838
0
LINE
8
Layer 1
10
-545.675510
20
888.709838
11
-544.214880
21
887.771000
0
LINE
8
Layer 1
10
-544.214880
20
887.771000
11
-542.348050
21
885.961178
0
LINE
8
Layer 1
10
-542.348050
20
885.961178
11
-538.441736
21
882.062164
0
LINE
8
Layer 1
10
-538.441736
20
882.062164
11
-535.416200
21
879.458738
0
LINE
8
Layer 1
10
-535.416200
20
879.458738
11
-534.413150
21
878.695463
0
LINE
8
Layer 1
10
-534.413150
20
878.695463
11
-532.924350
21
877.572023
0
LINE
8
Layer 1
10
-532.924350
20
877.572023
11
-530.213823
21
875.592146
0
LINE
8
Layer 1
10
-530.213823
20
875.592146
11
-528.399050
21
874.040983
0
LINE
8
Layer 1
10
-528.399050
20
874.040983
11
-526.715761
21
872.155144
0
LINE
8
Layer 1
10
-526.715761
20
872.155144
11
-525.039054
21
869.930117
0
LINE
8
Layer 1
10
-525.039054
20
869.930117
11
-523.591395
21
867.684290
0
LINE
8
Layer 1
10
-523.591395
20
867.684290
11
-522.595250
21
865.736053
0
LINE
8
Layer 1
10
-522.595250
20
865.736053
11
-522.163730
21
864.930939
0
LINE
8
Layer 1
10
-522.163730
20
864.930939
11
-521.928905
21
865.247815
0
LINE
8
Layer 1
10
-521.928905
20
865.247815
11
-521.623044
21
866.087852
0
LINE
8
Layer 1
10
-521.623044
20
866.087852
11
-521.003600
21
868.673859
0
LINE
8
Layer 1
10
-521.003600
20
868.673859
11
-520.754000
21
870.040189
0
LINE
8
Layer 1
10
-520.754000
20
870.040189
11
-521.343110
21
871.126949
0
LINE
8
Layer 1
10
-521.343110
20
871.126949
11
-523.108790
21
874.126732
0
LINE
8
Layer 1
10
-523.108790
20
874.126732
11
-525.001344
21
876.838112
0
LINE
8
Layer 1
10
-525.001344
20
876.838112
11
-527.041023
21
879.287685
0
LINE
8
Layer 1
10
-527.041023
20
879.287685
11
-529.248080
21
881.502049
0
LINE
8
Layer 1
10
-529.248080
20
881.502049
11
-530.599430
21
882.905579
0
LINE
8
Layer 1
10
-530.599430
20
882.905579
11
-530.731384
21
883.242847
0
LINE
8
Layer 1
10
-530.731384
20
883.242847
11
-530.532730
21
883.523102
0
LINE
8
Layer 1
10
-530.532730
20
883.523102
11
-530.112590
21
883.791321
0
LINE
8
Layer 1
10
-530.112590
20
883.791321
11
-522.926460
21
886.107451
0
LINE
8
Layer 1
10
-522.926460
20
886.107451
11
-522.029446
21
886.528423
0
LINE
8
Layer 1
10
-522.029446
20
886.528423
11
-521.766340
21
886.832457
0
LINE
8
Layer 1
10
-521.766340
20
886.832457
11
-522.371375
21
888.622401
0
LINE
8
Layer 1
10
-522.371375
20
888.622401
11
-523.135230
21
890.149567
0
LINE
8
Layer 1
10
-523.135230
20
890.149567
11
-524.648330
21
889.690155
0
LINE
8
Layer 1
10
-524.648330
20
889.690155
11
-526.896891
21
888.914524
0
LINE
8
Layer 1
10
-526.896891
20
888.914524
11
-529.057929
21
888.441919
0
LINE
8
Layer 1
10
-529.057929
20
888.441919
11
-531.051902
21
888.284401
0
LINE
8
Layer 1
10
-531.051902
20
888.284401
11
-532.799270
21
888.454035
0
LINE
8
Layer 1
10
-532.799270
20
888.454035
11
-534.597145
21
888.954539
0
LINE
8
Layer 1
10
-534.597145
20
888.954539
11
-536.079690
21
889.726315
0
LINE
8
Layer 1
10
-536.079690
20
889.726315
11
-537.059969
21
890.481466
0
LINE
8
Layer 1
10
-537.059969
20
890.481466
11
-537.240621
21
890.777502
0
LINE
8
Layer 1
10
-537.240621
20
890.777502
11
-537.240860
21
891.048705
0
LINE
8
Layer 1
10
-537.240860
20
891.048705
11
-535.351540
21
893.072875
0
LINE
8
Layer 1
10
-535.351540
20
893.072875
11
-533.170488
21
895.333615
0
LINE
8
Layer 1
10
-533.170488
20
895.333615
11
-530.021650
21
898.987765
0
LINE
8
Layer 1
10
-530.021650
20
898.987765
11
-527.042518
21
902.782455
0
LINE
8
Layer 1
10
-527.042518
20
902.782455
11
-523.652133
21
907.446156
0
LINE
8
Layer 1
10
-523.652133
20
907.446156
11
-520.887356
21
911.508862
0
LINE
8
Layer 1
10
-520.887356
20
911.508862
11
-519.785050
21
913.500565
0
LINE
8
Layer 1
10
-519.785050
20
913.500565
11
-521.003664
21
914.548677
0
LINE
8
Layer 1
10
-521.003664
20
914.548677
11
-522.455670
21
915.376425
0
LINE
8
Layer 1
10
-522.455670
20
915.376425
11
-522.887279
21
914.996406
0
LINE
8
Layer 1
10
-522.887279
20
914.996406
11
-523.675760
21
913.870565
0
LINE
8
Layer 1
10
-523.675760
20
913.870565
11
-525.556690
21
911.169887
0
LINE
8
Layer 1
10
-525.556690
20
911.169887
11
-527.824046
21
908.235498
0
LINE
8
Layer 1
10
-527.824046
20
908.235498
11
-530.156535
21
905.465842
0
LINE
8
Layer 1
10
-530.156535
20
905.465842
11
-532.232860
21
903.259365
0
LINE
8
Layer 1
10
-532.232860
20
903.259365
11
-535.049935
21
900.851017
0
LINE
8
Layer 1
10
-535.049935
20
900.851017
11
-537.876291
21
899.075618
0
LINE
8
Layer 1
10
-537.876291
20
899.075618
11
-539.266896
21
898.438709
0
LINE
8
Layer 1
10
-539.266896
20
898.438709
11
-540.628556
21
897.976160
0
LINE
8
Layer 1
10
-540.628556
20
897.976160
11
-541.950852
21
897.693344
0
LINE
8
Layer 1
10
-541.950852
20
897.693344
11
-543.223360
21
897.595635
0
LINE
8
Layer 1
10
-543.223360
20
897.595635
11
-545.570176
21
897.830541
0
LINE
8
Layer 1
10
-545.570176
20
897.830541
11
-548.030594
21
898.482515
0
LINE
8
Layer 1
10
-548.030594
20
898.482515
11
-550.320587
21
899.454439
0
LINE
8
Layer 1
10
-550.320587
20
899.454439
11
-552.156130
21
900.649195
0
LINE
8
Layer 1
10
-552.156130
20
900.649195
11
-553.537179
21
902.058405
0
LINE
8
Layer 1
10
-553.537179
20
902.058405
11
-554.341560
21
903.258855
0
LINE
8
Layer 1
10
-554.341560
20
903.258855
11
-554.382863
21
903.743358
0
LINE
8
Layer 1
10
-554.382863
20
903.743358
11
-554.124000
21
904.366785
0
LINE
8
Layer 1
10
-554.124000
20
904.366785
11
-552.958454
21
905.878468
0
LINE
8
Layer 1
10
-552.958454
20
905.878468
11
-551.140973
21
907.343281
0
LINE
8
Layer 1
10
-551.140973
20
907.343281
11
-548.865770
21
908.630624
0
LINE
8
Layer 1
10
-548.865770
20
908.630624
11
-546.327060
21
909.609895
0
LINE
8
Layer 1
10
-546.327060
20
909.609895
11
-544.176373
21
910.062057
0
LINE
8
Layer 1
10
-544.176373
20
910.062057
11
-542.176686
21
910.048917
0
LINE
8
Layer 1
10
-542.176686
20
910.048917
11
-540.208636
21
909.555304
0
LINE
8
Layer 1
10
-540.208636
20
909.555304
11
-538.152860
21
908.566045
0
LINE
8
Layer 1
10
-538.152860
20
908.566045
11
-535.811376
21
906.977603
0
LINE
8
Layer 1
10
-535.811376
20
906.977603
11
-533.509740
21
905.170385
0
LINE
8
Layer 1
10
-533.509740
20
905.170385
11
-532.577000
21
904.492894
0
LINE
8
Layer 1
10
-532.577000
20
904.492894
11
-531.265145
21
905.780445
0
LINE
8
Layer 1
10
-531.265145
20
905.780445
11
-530.166290
21
907.317544
0
LINE
8
Layer 1
10
-530.166290
20
907.317544
11
-530.683854
21
908.161355
0
LINE
8
Layer 1
10
-530.683854
20
908.161355
11
-532.078310
21
909.927194
0
LINE
8
Layer 1
10
-532.078310
20
909.927194
11
-533.919688
21
912.021655
0
LINE
8
Layer 1
10
-533.919688
20
912.021655
11
-535.591280
21
913.595714
0
LINE
8
Layer 1
10
-535.591280
20
913.595714
11
-537.300720
21
915.205424
0
LINE
8
Layer 1
10
-537.300720
20
915.205424
11
-537.287879
21
915.796175
0
LINE
8
Layer 1
10
-537.287879
20
915.796175
11
-536.792240
21
916.560374
0
LINE
8
Layer 1
10
-536.792240
20
916.560374
11
-535.902218
21
917.302869
0
LINE
8
Layer 1
10
-535.902218
20
917.302869
11
-534.653616
21
917.848757
0
LINE
8
Layer 1
10
-534.653616
20
917.848757
11
-533.005941
21
918.210763
0
LINE
8
Layer 1
10
-533.005941
20
918.210763
11
-530.918700
21
918.401614
0
LINE
8
Layer 1
10
-530.918700
20
918.401614
11
-528.989086
21
918.385159
0
LINE
8
Layer 1
10
-528.989086
20
918.385159
11
-527.152480
21
918.134085
0
LINE
8
Layer 1
10
-527.152480
20
918.134085
11
-525.318866
21
917.629855
0
LINE
8
Layer 1
10
-525.318866
20
917.629855
11
-523.398230
21
916.853934
0
LINE
8
Layer 1
10
-523.398230
20
916.853934
11
-520.682253
21
915.267531
0
LINE
8
Layer 1
10
-520.682253
20
915.267531
11
-517.880220
21
913.215884
0
LINE
8
Layer 1
10
-517.880220
20
913.215884
11
-516.814640
21
912.317240
0
LINE
8
Layer 1
10
-516.814640
20
912.317240
11
-515.592500
21
913.825180
0
LINE
8
Layer 1
10
-515.592500
20
913.825180
11
-514.369840
21
915.509840
0
LINE
8
Layer 1
10
-514.369840
20
915.509840
11
-515.370453
21
916.653789
0
LINE
8
Layer 1
10
-515.370453
20
916.653789
11
-517.284400
21
918.390790
0
LINE
8
Layer 1
10
-517.284400
20
918.390790
11
-520.130118
21
920.289508
0
LINE
8
Layer 1
10
-520.130118
20
920.289508
11
-523.296940
21
921.888780
0
LINE
8
Layer 1
10
-523.296940
20
921.888780
11
-526.017313
21
922.799898
0
LINE
8
Layer 1
10
-526.017313
20
922.799898
11
-528.912600
21
923.397720
0
LINE
8
Layer 1
10
-528.912600
20
923.397720
11
-529.883051
21
923.592160
0
LINE
8
Layer 1
10
-529.883051
20
923.592160
11
-530.228790
21
923.777542
0
LINE
8
Layer 1
10
-530.228790
20
923.777542
11
-530.001855
21
924.265439
0
LINE
8
Layer 1
10
-530.001855
20
924.265439
11
-529.411369
21
925.055467
0
LINE
8
Layer 1
10
-529.411369
20
925.055467
11
-527.681670
21
926.881242
0
LINE
8
Layer 1
10
-527.681670
20
926.881242
11
-526.410950
21
928.133342
0
LINE
8
Layer 1
10
-526.410950
20
928.133342
11
-527.959663
21
929.809826
0
LINE
8
Layer 1
10
-527.959663
20
929.809826
11
-529.688780
21
931.327992
0
LINE
8
Layer 1
10
-529.688780
20
931.327992
11
-530.579680
21
930.817952
0
LINE
8
Layer 1
10
-530.579680
20
930.817952
11
-533.802220
21
928.499742
0
LINE
8
Layer 1
10
-533.802220
20
928.499742
11
-536.636599
21
926.439658
0
LINE
8
Layer 1
10
-536.636599
20
926.439658
11
-538.846785
21
924.653355
0
LINE
8
Layer 1
10
-538.846785
20
924.653355
11
-540.742826
21
922.871367
0
LINE
8
Layer 1
10
-540.742826
20
922.871367
11
-542.634770
21
920.824232
0
LINE
8
Layer 1
10
-542.634770
20
920.824232
11
-544.502316
21
918.909777
0
LINE
8
Layer 1
10
-544.502316
20
918.909777
11
-545.203090
21
918.413818
0
LINE
8
Layer 1
10
-545.203090
20
918.413818
11
-545.856780
21
918.134992
0
LINE
8
Layer 1
10
-545.856780
20
918.134992
11
-546.372811
21
918.026937
0
LINE
8
Layer 1
10
-546.372811
20
918.026937
11
-546.633081
21
918.159368
0
LINE
8
Layer 1
10
-546.633081
20
918.159368
11
-546.691236
21
918.634628
0
LINE
8
Layer 1
10
-546.691236
20
918.634628
11
-546.600920
21
919.555062
0
LINE
8
Layer 1
10
-546.600920
20
919.555062
11
-546.239483
21
921.400309
0
LINE
8
Layer 1
10
-546.239483
20
921.400309
11
-545.590894
21
923.261748
0
LINE
8
Layer 1
10
-545.590894
20
923.261748
11
-544.608223
21
925.249954
0
LINE
8
Layer 1
10
-544.608223
20
925.249954
11
-543.244540
21
927.475502
0
LINE
8
Layer 1
10
-543.244540
20
927.475502
11
-541.525278
21
929.837416
0
LINE
8
Layer 1
10
-541.525278
20
929.837416
11
-539.614810
21
931.721752
0
LINE
8
Layer 1
10
-539.614810
20
931.721752
11
-537.730429
21
933.126663
0
LINE
8
Layer 1
10
-537.730429
20
933.126663
11
-535.896961
21
933.996167
0
LINE
8
Layer 1
10
-535.896961
20
933.996167
11
-534.140100
21
934.321711
0
LINE
8
Layer 1
10
-534.140100
20
934.321711
11
-532.485540
21
934.094742
0
LINE
8
Layer 1
10
-532.485540
20
934.094742
11
-531.177450
21
933.586162
0
LINE
8
Layer 1
10
-531.177450
20
933.586162
11
-529.891948
21
932.823289
0
LINE
8
Layer 1
10
-529.891948
20
932.823289
11
-528.336149
21
931.601507
0
LINE
8
Layer 1
10
-528.336149
20
931.601507
11
-526.217170
21
929.716202
0
LINE
8
Layer 1
10
-526.217170
20
929.716202
11
-523.459200
21
927.304462
0
LINE
8
Layer 1
10
-523.459200
20
927.304462
11
-521.790588
21
926.133215
0
LINE
8
Layer 1
10
-521.790588
20
926.133215
11
-520.651130
21
925.500962
0
LINE
8
Layer 1
10
-520.651130
20
925.500962
11
-520.406680
21
925.999131
0
LINE
8
Layer 1
10
-520.406680
20
925.999131
11
-520.052595
21
928.022516
0
LINE
8
Layer 1
10
-520.052595
20
928.022516
11
-519.924530
21
929.542591
0
LINE
8
Layer 1
10
-519.924530
20
929.542591
11
-521.038180
21
930.622631
0
LINE
8
Layer 1
10
-521.038180
20
930.622631
11
-524.399200
21
933.709271
0
LINE
8
Layer 1
10
-524.399200
20
933.709271
11
-527.721470
21
936.759721
0
LINE
8
Layer 1
10
-527.721470
20
936.759721
11
-530.156735
21
938.446137
0
LINE
8
Layer 1
10
-530.156735
20
938.446137
11
-532.272620
21
939.600361
0
LINE
8
Layer 1
10
-532.272620
20
939.600361
11
-532.799200
21
939.938343
0
LINE
8
Layer 1
10
-532.799200
20
939.938343
11
-532.319640
21
940.814259
0
LINE
8
Layer 1
10
-532.319640
20
940.814259
11
-531.292692
21
942.633081
0
LINE
8
Layer 1
10
-531.292692
20
942.633081
11
-530.430740
21
944.776348
0
LINE
8
Layer 1
10
-530.430740
20
944.776348
11
-529.754893
21
947.181580
0
LINE
8
Layer 1
10
-529.754893
20
947.181580
11
-529.286260
21
949.786299
0
LINE
8
Layer 1
10
-529.286260
20
949.786299
11
-529.041660
21
952.477364
0
LINE
8
Layer 1
10
-529.041660
20
952.477364
11
-529.097097
21
953.214509
0
LINE
8
Layer 1
10
-529.097097
20
953.214509
11
-529.270760
21
953.619679
0
LINE
8
Layer 1
10
-529.270760
20
953.619679
11
-530.829106
21
954.524725
0
LINE
8
Layer 1
10
-530.829106
20
954.524725
11
-532.548080
21
955.272299
0
LINE
8
Layer 1
10
-532.548080
20
955.272299
11
-532.818666
21
955.212994
0
LINE
8
Layer 1
10
-532.818666
20
955.212994
11
-532.891710
21
954.636160
0
LINE
8
Layer 1
10
-532.891710
20
954.636160
11
-533.053522
21
952.825451
0
LINE
8
Layer 1
10
-533.053522
20
952.825451
11
-533.391906
21
951.056481
0
LINE
8
Layer 1
10
-533.391906
20
951.056481
11
-533.926807
21
949.247875
0
LINE
8
Layer 1
10
-533.926807
20
949.247875
11
-534.678170
21
947.318260
0
LINE
8
Layer 1
10
-534.678170
20
947.318260
11
-536.480846
21
943.814112
0
LINE
8
Layer 1
10
-536.480846
20
943.814112
11
-538.750780
21
940.597740
0
LINE
8
Layer 1
10
-538.750780
20
940.597740
11
-540.969201
21
938.158085
0
LINE
8
Layer 1
10
-540.969201
20
938.158085
11
-543.036820
21
936.611410
0
LINE
8
Layer 1
10
-543.036820
20
936.611410
11
-544.225193
21
935.987513
0
LINE
8
Layer 1
10
-544.225193
20
935.987513
11
-544.497455
21
935.936468
0
LINE
8
Layer 1
10
-544.497455
20
935.936468
11
-544.583480
21
936.049185
0
LINE
8
Layer 1
10
-544.583480
20
936.049185
11
-544.070360
21
938.234575
0
LINE
8
Layer 1
10
-544.070360
20
938.234575
11
-542.505600
21
944.552015
0
LINE
8
Layer 1
10
-542.505600
20
944.552015
11
-541.204980
21
949.279477
0
LINE
8
Layer 1
10
-541.204980
20
949.279477
11
-540.642628
21
950.727292
0
LINE
8
Layer 1
10
-540.642628
20
950.727292
11
-540.008070
21
951.952585
0
LINE
8
Layer 1
10
-540.008070
20
951.952585
11
-538.864047
21
953.585553
0
LINE
8
Layer 1
10
-538.864047
20
953.585553
11
-537.555295
21
954.834922
0
LINE
8
Layer 1
10
-537.555295
20
954.834922
11
-536.091751
21
955.693058
0
LINE
8
Layer 1
10
-536.091751
20
955.693058
11
-534.483350
21
956.152325
0
LINE
8
Layer 1
10
-534.483350
20
956.152325
11
-532.781693
21
956.183770
0
LINE
8
Layer 1
10
-532.781693
20
956.183770
11
-531.080204
21
955.751058
0
LINE
8
Layer 1
10
-531.080204
20
955.751058
11
-529.365018
21
954.848737
0
LINE
8
Layer 1
10
-529.365018
20
954.848737
11
-527.622270
21
953.471355
0
LINE
8
Layer 1
10
-527.622270
20
953.471355
11
-526.218488
21
951.983302
0
LINE
8
Layer 1
10
-526.218488
20
951.983302
11
-524.889065
21
950.199395
0
LINE
8
Layer 1
10
-524.889065
20
950.199395
11
-523.724117
21
948.254418
0
LINE
8
Layer 1
10
-523.724117
20
948.254418
11
-522.813760
21
946.283155
0
LINE
8
Layer 1
10
-522.813760
20
946.283155
11
-522.260300
21
945.129225
0
LINE
8
Layer 1
10
-522.260300
20
945.129225
11
-521.446471
21
946.868314
0
LINE
8
Layer 1
10
-521.446471
20
946.868314
11
-520.763750
21
948.941385
0
LINE
8
Layer 1
10
-520.763750
20
948.941385
11
-521.231188
21
950.200256
0
LINE
8
Layer 1
10
-521.231188
20
950.200256
11
-522.382968
21
952.302252
0
LINE
8
Layer 1
10
-522.382968
20
952.302252
11
-523.843286
21
954.612594
0
LINE
8
Layer 1
10
-523.843286
20
954.612594
11
-525.236340
21
956.496505
0
LINE
8
Layer 1
10
-525.236340
20
956.496505
11
-526.530884
21
957.866181
0
LINE
8
Layer 1
10
-526.530884
20
957.866181
11
-527.887913
21
958.987319
0
LINE
8
Layer 1
10
-527.887913
20
958.987319
11
-529.310412
21
959.862087
0
LINE
8
Layer 1
10
-529.310412
20
959.862087
11
-530.801370
21
960.492655
0
LINE
8
Layer 1
10
-530.801370
20
960.492655
11
-532.152822
21
960.780395
0
LINE
8
Layer 1
10
-532.152822
20
960.780395
11
-533.741940
21
960.876239
0
LINE
8
Layer 1
10
-533.741940
20
960.876239
11
-535.316110
21
960.780291
0
LINE
8
Layer 1
10
-535.316110
20
960.780291
11
-536.622720
21
960.492655
0
LINE
8
Layer 1
10
-536.622720
20
960.492655
11
-538.530980
21
959.596650
0
LINE
8
Layer 1
10
-538.530980
20
959.596650
11
-540.131020
21
958.402325
0
LINE
8
Layer 1
10
-540.131020
20
958.402325
11
-540.973370
21
957.703655
0
LINE
8
Layer 1
10
-540.973370
20
957.703655
11
-540.994159
21
959.336285
0
LINE
8
Layer 1
10
-540.994159
20
959.336285
11
-540.679330
21
962.451155
0
LINE
8
Layer 1
10
-540.679330
20
962.451155
11
-540.077671
21
965.631956
0
LINE
8
Layer 1
10
-540.077671
20
965.631956
11
-538.971420
21
970.005715
0
LINE
8
Layer 1
10
-538.971420
20
970.005715
11
-538.359570
21
972.263465
0
LINE
8
Layer 1
10
-538.359570
20
972.263465
11
-539.006540
21
973.013285
0
LINE
8
Layer 1
10
-539.006540
20
973.013285
11
-540.257120
21
974.928935
0
LINE
8
Layer 1
10
-540.257120
20
974.928935
11
-540.984200
21
976.001225
0
LINE
8
Layer 1
10
-540.984200
20
976.001225
11
-541.757366
21
974.202426
0
LINE
8
Layer 1
10
-541.757366
20
974.202426
11
-542.814070
21
971.082675
0
LINE
8
Layer 1
10
-542.814070
20
971.082675
11
-543.947690
21
966.696911
0
LINE
8
Layer 1
10
-543.947690
20
966.696911
11
-545.029950
21
961.402665
0
LINE
8
Layer 1
10
-545.029950
20
961.402665
11
-546.752153
21
952.721247
0
LINE
8
Layer 1
10
-546.752153
20
952.721247
11
-548.418900
21
946.565365
0
LINE
8
Layer 1
10
-548.418900
20
946.565365
11
-550.115759
21
941.920850
0
LINE
8
Layer 1
10
-550.115759
20
941.920850
11
-552.105265
21
937.880194
0
LINE
8
Layer 1
10
-552.105265
20
937.880194
11
-554.390091
21
934.438823
0
LINE
8
Layer 1
10
-554.390091
20
934.438823
11
-555.644084
21
932.941440
0
LINE
8
Layer 1
10
-555.644084
20
932.941440
11
-556.972910
21
931.592165
0
LINE
8
Layer 1
10
-556.972910
20
931.592165
11
-559.336521
21
929.638204
0
LINE
8
Layer 1
10
-559.336521
20
929.638204
11
-561.841350
21
928.140715
0
LINE
8
Layer 1
10
-561.841350
20
928.140715
11
-562.732250
21
926.630735
0
LINE
8
Layer 1
10
-562.732250
20
926.630735
11
-562.699150
21
926.641635
0
LINE
8
Layer 1
10
-562.699150
20
926.641635
11
-560.609139
21
926.980593
0
LINE
8
Layer 1
10
-560.609139
20
926.980593
11
-557.577510
21
926.880374
0
LINE
8
Layer 1
10
-557.577510
20
926.880374
11
-555.301544
21
926.760253
0
LINE
8
Layer 1
10
-555.301544
20
926.760253
11
-553.793750
21
926.870364
0
LINE
8
Layer 1
10
-553.793750
20
926.870364
11
-550.941541
21
927.461779
0
LINE
8
Layer 1
10
-550.941541
20
927.461779
11
-548.785790
21
928.137974
0
LINE
8
Layer 1
10
-548.785790
20
928.137974
11
-547.263199
21
929.245202
0
LINE
8
Layer 1
10
-547.263199
20
929.245202
11
-545.613400
21
931.129004
0
LINE
8
Layer 1
10
-545.613400
20
931.129004
11
-544.531790
21
932.390444
0
LINE
8
Layer 1
10
-544.531790
20
932.390444
11
-545.183034
21
931.062312
0
LINE
8
Layer 1
10
-545.183034
20
931.062312
11
-546.511010
21
929.137394
0
LINE
8
Layer 1
10
-546.511010
20
929.137394
11
-547.742871
21
928.005968
0
LINE
8
Layer 1
10
-547.742871
20
928.005968
11
-549.371521
21
927.024388
0
LINE
8
Layer 1
10
-549.371521
20
927.024388
11
-551.234923
21
926.273010
0
LINE
8
Layer 1
10
-551.234923
20
926.273010
11
-553.171040
21
925.832194
0
LINE
8
Layer 1
10
-553.171040
20
925.832194
11
-556.807030
21
925.846684
0
LINE
8
Layer 1
10
-556.807030
20
925.846684
11
-559.661560
21
925.855162
0
LINE
8
Layer 1
10
-559.661560
20
925.855162
11
-560.282073
21
925.617330
0
LINE
8
Layer 1
10
-560.282073
20
925.617330
11
-560.670340
21
925.164037
0
LINE
8
Layer 1
10
-560.670340
20
925.164037
11
-560.842553
21
924.784847
0
LINE
8
Layer 1
10
-560.842553
20
924.784847
11
-560.764940
21
924.518101
0
LINE
8
Layer 1
10
-560.764940
20
924.518101
11
-557.637980
21
922.216431
0
LINE
8
Layer 1
10
-557.637980
20
922.216431
11
-555.284130
21
920.250141
0
LINE
8
Layer 1
10
-555.284130
20
920.250141
11
-553.872665
21
919.023590
0
LINE
8
Layer 1
10
-553.872665
20
919.023590
11
-552.419979
21
918.087040
0
LINE
8
Layer 1
10
-552.419979
20
918.087040
11
-550.873361
21
917.412066
0
LINE
8
Layer 1
10
-550.873361
20
917.412066
11
-549.180100
21
916.970241
0
LINE
8
Layer 1
10
-549.180100
20
916.970241
11
-547.585358
21
916.796211
0
LINE
8
Layer 1
10
-547.585358
20
916.796211
11
-546.023185
21
916.863880
0
LINE
8
Layer 1
10
-546.023185
20
916.863880
11
-544.564759
21
917.164562
0
LINE
8
Layer 1
10
-544.564759
20
917.164562
11
-543.281260
21
917.689571
0
LINE
8
Layer 1
10
-543.281260
20
917.689571
11
-543.280740
21
917.690097
0
LINE
8
Layer 1
10
-543.280740
20
917.690097
11
-542.558300
21
917.955196
0
LINE
8
Layer 1
10
-542.558300
20
917.955196
11
-542.912478
21
917.367724
0
LINE
8
Layer 1
10
-542.912478
20
917.367724
11
-543.707070
21
916.607466
0
LINE
8
Layer 1
10
-543.707070
20
916.607466
11
-545.289145
21
915.941061
0
LINE
8
Layer 1
10
-545.289145
20
915.941061
11
-547.313304
21
915.639168
0
LINE
8
Layer 1
10
-547.313304
20
915.639168
11
-549.568589
21
915.713035
0
LINE
8
Layer 1
10
-549.568589
20
915.713035
11
-551.844040
21
916.173910
0
LINE
8
Layer 1
10
-551.844040
20
916.173910
11
-553.449701
21
916.793683
0
LINE
8
Layer 1
10
-553.449701
20
916.793683
11
-555.051590
21
917.917470
0
LINE
8
Layer 1
10
-555.051590
20
917.917470
11
-557.457293
21
919.537291
0
LINE
8
Layer 1
10
-557.457293
20
919.537291
11
-560.213020
21
920.905390
0
LINE
8
Layer 1
10
-560.213020
20
920.905390
11
-562.351334
21
921.694411
0
LINE
8
Layer 1
10
-562.351334
20
921.694411
11
-564.540940
21
922.191610
0
LINE
8
Layer 1
10
-564.540940
20
922.191610
11
-565.366190
21
922.368338
0
LINE
8
Layer 1
10
-565.366190
20
922.368338
11
-566.925270
21
919.969498
0
LINE
8
Layer 1
10
-566.925270
20
919.969498
11
-565.622643
21
919.561993
0
LINE
8
Layer 1
10
-565.622643
20
919.561993
11
-564.167441
21
918.865863
0
LINE
8
Layer 1
10
-564.167441
20
918.865863
11
-559.251840
21
915.899998
0
LINE
8
Layer 1
10
-559.251840
20
915.899998
11
-557.277937
21
914.753243
0
LINE
8
Layer 1
10
-557.277937
20
914.753243
11
-555.615311
21
913.973362
0
LINE
8
Layer 1
10
-555.615311
20
913.973362
11
-554.183837
21
913.528668
0
LINE
8
Layer 1
10
-554.183837
20
913.528668
11
-552.903390
21
913.387478
0
LINE
8
Layer 1
10
-552.903390
20
913.387478
11
-552.252300
21
913.242554
0
LINE
8
Layer 1
10
-552.252300
20
913.242554
11
-552.938490
21
912.994748
0
LINE
8
Layer 1
10
-552.938490
20
912.994748
11
-554.301944
21
912.949445
0
LINE
8
Layer 1
10
-554.301944
20
912.949445
11
-555.769366
21
913.271142
0
LINE
8
Layer 1
10
-555.769366
20
913.271142
11
-557.516465
21
914.018172
0
LINE
8
Layer 1
10
-557.516465
20
914.018172
11
-559.718950
21
915.248868
0
LINE
8
Layer 1
10
-559.718950
20
915.248868
11
-561.737375
21
916.401862
0
LINE
8
Layer 1
10
-561.737375
20
916.401862
11
-563.537495
21
917.270941
0
LINE
8
Layer 1
10
-563.537495
20
917.270941
11
-565.446958
21
917.994042
0
LINE
8
Layer 1
10
-565.446958
20
917.994042
11
-567.793410
21
918.709108
0
LINE
8
Layer 1
10
-567.793410
20
918.709108
11
-569.806200
21
915.840548
0
LINE
8
Layer 1
10
-569.806200
20
915.840548
11
-567.861100
21
915.302584
0
LINE
8
Layer 1
10
-567.861100
20
915.302584
11
-564.817946
21
914.386768
0
LINE
8
Layer 1
10
-564.817946
20
914.386768
11
-561.495590
21
912.999364
0
LINE
8
Layer 1
10
-561.495590
20
912.999364
11
-557.748539
21
911.516104
0
LINE
8
Layer 1
10
-557.748539
20
911.516104
11
-556.169026
21
911.133771
0
LINE
8
Layer 1
10
-556.169026
20
911.133771
11
-554.684335
21
910.989154
0
LINE
8
Layer 1
10
-554.684335
20
910.989154
11
-553.218576
21
911.080892
0
LINE
8
Layer 1
10
-553.218576
20
911.080892
11
-551.695858
21
911.407624
0
LINE
8
Layer 1
10
-551.695858
20
911.407624
11
-550.040293
21
911.967989
0
LINE
8
Layer 1
10
-550.040293
20
911.967989
11
-548.175990
21
912.760625
0
LINE
8
Layer 1
10
-548.175990
20
912.760625
11
-544.576220
21
914.231845
0
LINE
8
Layer 1
10
-544.576220
20
914.231845
11
-543.083571
21
914.943888
0
LINE
8
Layer 1
10
-543.083571
20
914.943888
11
-541.755210
21
916.052925
0
LINE
8
Layer 1
10
-541.755210
20
916.052925
11
-539.359426
21
918.383963
0
LINE
8
Layer 1
10
-539.359426
20
918.383963
11
-538.599232
21
918.959855
0
LINE
8
Layer 1
10
-538.599232
20
918.959855
11
-538.315120
21
918.985575
0
LINE
8
Layer 1
10
-538.315120
20
918.985575
11
-540.975910
21
915.354285
0
LINE
8
Layer 1
10
-540.975910
20
915.354285
11
-543.417121
21
913.044397
0
LINE
8
Layer 1
10
-543.417121
20
913.044397
11
-546.463950
21
910.595925
0
LINE
8
Layer 1
10
-546.463950
20
910.595925
11
-548.590139
21
909.247888
0
LINE
8
Layer 1
10
-548.590139
20
909.247888
11
-549.940760
21
908.541265
0
LINE
8
Layer 1
10
-549.940760
20
908.541265
11
-549.866240
21
908.778403
0
LINE
8
Layer 1
10
-549.866240
20
908.778403
11
-549.466355
21
909.203799
0
LINE
8
Layer 1
10
-549.466355
20
909.203799
11
-547.887140
21
910.437785
0
LINE
8
Layer 1
10
-547.887140
20
910.437785
11
-546.145408
21
911.787814
0
LINE
8
Layer 1
10
-546.145408
20
911.787814
11
-545.818754
21
912.168523
0
LINE
8
Layer 1
10
-545.818754
20
912.168523
11
-545.902760
21
912.307945
0
LINE
8
Layer 1
10
-545.902760
20
912.307945
11
-548.472620
21
911.342651
0
LINE
8
Layer 1
10
-548.472620
20
911.342651
11
-552.196049
21
909.922507
0
LINE
8
Layer 1
10
-552.196049
20
909.922507
11
-553.300160
21
909.738220
0
LINE
8
Layer 1
10
-553.300160
20
909.738220
11
-554.487750
21
909.748451
0
LINE
8
Layer 1
10
-554.487750
20
909.748451
11
-555.734629
21
909.873303
0
LINE
8
Layer 1
10
-555.734629
20
909.873303
11
-557.034398
21
910.160514
0
LINE
8
Layer 1
10
-557.034398
20
910.160514
11
-560.692560
21
911.471851
0
LINE
8
Layer 1
10
-560.692560
20
911.471851
11
-565.148090
21
912.998371
0
LINE
8
Layer 1
10
-565.148090
20
912.998371
11
-570.478510
21
914.925391
0
LINE
8
Layer 1
10
-570.478510
20
914.925391
11
-571.246420
21
913.881011
0
LINE
8
Layer 1
10
-571.246420
20
913.881011
11
-568.904960
21
911.630001
0
LINE
8
Layer 1
10
-568.904960
20
911.630001
11
-567.192626
21
910.297696
0
LINE
8
Layer 1
10
-567.192626
20
910.297696
11
-565.018360
21
909.250301
0
LINE
8
Layer 1
10
-565.018360
20
909.250301
11
-560.948206
21
907.622948
0
LINE
8
Layer 1
10
-560.948206
20
907.622948
11
-559.455705
21
906.859955
0
LINE
8
Layer 1
10
-559.455705
20
906.859955
11
-558.184891
21
906.025765
0
LINE
8
Layer 1
10
-558.184891
20
906.025765
11
-557.030742
21
905.041638
0
LINE
8
Layer 1
10
-557.030742
20
905.041638
11
-555.888235
21
903.828835
0
LINE
8
Layer 1
10
-555.888235
20
903.828835
11
-553.218060
21
900.402241
0
LINE
8
Layer 1
10
-553.218060
20
900.402241
11
-552.079471
21
898.945622
0
LINE
8
Layer 1
10
-552.079471
20
898.945622
11
-551.075910
21
897.883276
0
LINE
8
Layer 1
10
-551.075910
20
897.883276
11
-550.073722
21
897.091583
0
LINE
8
Layer 1
10
-550.073722
20
897.091583
11
-548.939250
21
896.446921
0
LINE
8
Layer 1
10
-548.939250
20
896.446921
11
-547.907602
21
896.016029
0
LINE
8
Layer 1
10
-547.907602
20
896.016029
11
-546.855143
21
895.747286
0
LINE
8
Layer 1
10
-546.855143
20
895.747286
11
-544.318860
21
895.631461
0
LINE
8
Layer 1
10
-544.318860
20
895.631461
11
-542.668840
21
895.704371
0
LINE
8
Layer 1
10
-542.668840
20
895.704371
11
-543.156140
21
895.395869
0
LINE
8
Layer 1
10
-543.156140
20
895.395869
11
-544.470226
21
894.862597
0
LINE
8
Layer 1
10
-544.470226
20
894.862597
11
-546.174050
21
894.682215
0
LINE
8
Layer 1
10
-546.174050
20
894.682215
11
-548.109389
21
894.893782
0
LINE
8
Layer 1
10
-548.109389
20
894.893782
11
-550.139811
21
895.581779
0
LINE
8
Layer 1
10
-550.139811
20
895.581779
11
-552.419258
21
896.814896
0
LINE
8
Layer 1
10
-552.419258
20
896.814896
11
-555.101670
21
898.661825
0
LINE
8
Layer 1
10
-555.101670
20
898.661825
11
-557.604663
21
900.298429
0
LINE
8
Layer 1
10
-557.604663
20
900.298429
11
-558.494167
21
900.692750
0
LINE
8
Layer 1
10
-558.494167
20
900.692750
11
-559.104020
21
900.784165
0
LINE
8
Layer 1
10
-559.104020
20
900.784165
11
-559.396952
21
900.652074
0
LINE
8
Layer 1
10
-559.396952
20
900.652074
11
-559.332930
21
900.358952
0
LINE
8
Layer 1
10
-559.332930
20
900.358952
11
-558.026530
21
899.123795
0
LINE
8
Layer 1
10
-558.026530
20
899.123795
11
-555.904126
21
897.158907
0
LINE
8
Layer 1
10
-555.904126
20
897.158907
11
-554.219383
21
895.039078
0
LINE
8
Layer 1
10
-554.219383
20
895.039078
11
-552.872548
21
892.614722
0
LINE
8
Layer 1
10
-552.872548
20
892.614722
11
-551.763870
21
889.736255
0
LINE
8
Layer 1
10
-551.763870
20
889.736255
11
-550.742555
21
887.194949
0
LINE
8
Layer 1
10
-550.742555
20
887.194949
11
-549.345659
21
884.481593
0
LINE
8
Layer 1
10
-549.345659
20
884.481593
11
-547.837281
21
882.062765
0
LINE
8
Layer 1
10
-547.837281
20
882.062765
11
-546.481520
21
880.405045
0
LINE
8
Layer 1
10
-546.481520
20
880.405045
11
-544.819156
21
879.007606
0
LINE
8
Layer 1
10
-544.819156
20
879.007606
11
-543.173690
21
877.831035
0
LINE
8
Layer 1
10
-543.173690
20
877.831035
11
-542.844419
21
877.514129
0
LINE
8
Layer 1
10
-542.844419
20
877.514129
11
-542.835393
21
877.397809
0
LINE
8
Layer 1
10
-542.835393
20
877.397809
11
-542.949930
21
877.351970
0
LINE
8
Layer 1
10
-542.949930
20
877.351970
11
-544.280824
21
877.901260
0
LINE
8
Layer 1
10
-544.280824
20
877.901260
11
-546.031410
21
878.869700
0
LINE
8
Layer 1
10
-546.031410
20
878.869700
11
-547.337569
21
879.828758
0
LINE
8
Layer 1
10
-547.337569
20
879.828758
11
-548.403066
21
880.946048
0
LINE
8
Layer 1
10
-548.403066
20
880.946048
11
-549.530853
21
882.605043
0
LINE
8
Layer 1
10
-549.530853
20
882.605043
11
-551.023880
21
885.189220
0
LINE
8
Layer 1
10
-551.023880
20
885.189220
11
-552.349294
21
887.389190
0
LINE
8
Layer 1
10
-552.349294
20
887.389190
11
-553.644910
21
889.182780
0
LINE
8
Layer 1
10
-553.644910
20
889.182780
11
-556.556350
21
892.913310
0
LINE
8
Layer 1
10
-556.556350
20
892.913310
11
-559.314310
21
896.075910
0
LINE
8
Layer 1
10
-559.314310
20
896.075910
11
-561.382950
21
898.051500
0
LINE
8
Layer 1
10
-561.382950
20
898.051500
11
-564.208240
21
900.649343
0
LINE
8
Layer 1
10
-564.208240
20
900.649343
11
-565.108193
21
901.170385
0
LINE
8
Layer 1
10
-565.108193
20
901.170385
11
-565.946480
21
901.376880
0
LINE
8
Layer 1
10
-565.946480
20
901.376880
11
-566.746990
21
901.346359
0
LINE
8
Layer 1
10
-566.746990
20
901.346359
11
-566.861600
21
901.180797
0
LINE
8
Layer 1
10
-566.861600
20
901.180797
11
-566.820840
21
900.895770
0
LINE
8
Layer 1
10
-566.820840
20
900.895770
11
-565.748375
21
899.679382
0
LINE
8
Layer 1
10
-565.748375
20
899.679382
11
-563.639110
21
897.652540
0
LINE
8
Layer 1
10
-563.639110
20
897.652540
11
-562.057290
21
896.044910
0
LINE
8
Layer 1
10
-562.057290
20
896.044910
11
-559.780960
21
893.650740
0
LINE
8
Layer 1
10
-559.780960
20
893.650740
11
-558.289849
21
892.037347
0
LINE
8
Layer 1
10
-558.289849
20
892.037347
11
-557.106075
21
890.394609
0
LINE
8
Layer 1
10
-557.106075
20
890.394609
11
-555.825851
21
888.073104
0
LINE
8
Layer 1
10
-555.825851
20
888.073104
11
-554.045390
21
884.423410
0
LINE
8
Layer 1
10
-554.045390
20
884.423410
11
-553.056615
21
882.540411
0
LINE
8
Layer 1
10
-553.056615
20
882.540411
11
-552.049660
21
881.049970
0
LINE
8
Layer 1
10
-552.049660
20
881.049970
11
-549.699460
21
877.763678
0
LINE
8
Layer 1
10
-549.699460
20
877.763678
11
-549.212129
21
876.710423
0
LINE
8
Layer 1
10
-549.212129
20
876.710423
11
-548.911330
21
875.575880
0
LINE
8
Layer 1
10
-548.911330
20
875.575880
11
-548.423500
21
873.771350
0
LINE
8
Layer 1
10
-548.423500
20
873.771350
11
-547.539320
21
871.022170
0
LINE
8
Layer 1
10
-547.539320
20
871.022170
11
-546.808955
21
868.445962
0
LINE
8
Layer 1
10
-546.808955
20
868.445962
11
-546.337686
21
866.089142
0
LINE
8
Layer 1
10
-546.337686
20
866.089142
11
-546.132242
21
863.996132
0
LINE
8
Layer 1
10
-546.132242
20
863.996132
11
-546.199350
21
862.211350
0
LINE
8
Layer 1
10
-546.199350
20
862.211350
11
-546.508979
21
860.511838
0
LINE
8
Layer 1
10
-546.508979
20
860.511838
11
-546.849440
21
859.498860
0
LINE
8
Layer 1
10
-546.849440
20
859.498860
11
-546.907103
21
859.961041
0
LINE
8
Layer 1
10
-546.907103
20
859.961041
11
-546.885040
21
861.339070
0
LINE
8
Layer 1
10
-546.885040
20
861.339070
11
-546.879786
21
863.330616
0
LINE
8
Layer 1
10
-546.879786
20
863.330616
11
-547.095098
21
865.245566
0
LINE
8
Layer 1
10
-547.095098
20
865.245566
11
-547.627318
21
867.638770
0
LINE
8
Layer 1
10
-547.627318
20
867.638770
11
-548.572790
21
871.065080
0
LINE
8
Layer 1
10
-548.572790
20
871.065080
11
-549.401670
21
874.426620
0
LINE
8
Layer 1
10
-549.401670
20
874.426620
11
-549.758185
21
875.986006
0
LINE
8
Layer 1
10
-549.758185
20
875.986006
11
-550.184213
21
877.139518
0
LINE
8
Layer 1
10
-550.184213
20
877.139518
11
-550.857946
21
878.254978
0
LINE
8
Layer 1
10
-550.857946
20
878.254978
11
-551.957580
21
879.700210
0
LINE
8
Layer 1
10
-551.957580
20
879.700210
11
-553.382699
21
881.583458
0
LINE
8
Layer 1
10
-553.382699
20
881.583458
11
-554.398839
21
883.163296
0
LINE
8
Layer 1
10
-554.398839
20
883.163296
11
-555.145201
21
884.684749
0
LINE
8
Layer 1
10
-555.145201
20
884.684749
11
-555.760990
21
886.392840
0
LINE
8
Layer 1
10
-555.760990
20
886.392840
11
-556.314771
21
887.668992
0
LINE
8
Layer 1
10
-556.314771
20
887.668992
11
-557.206158
21
889.192756
0
LINE
8
Layer 1
10
-557.206158
20
889.192756
11
-558.318700
21
890.783137
0
LINE
8
Layer 1
10
-558.318700
20
890.783137
11
-559.535950
21
892.259140
0
LINE
8
Layer 1
10
-559.535950
20
892.259140
11
-562.450169
21
895.317294
0
LINE
8
Layer 1
10
-562.450169
20
895.317294
11
-565.394500
21
898.191060
0
LINE
8
Layer 1
10
-565.394500
20
898.191060
11
-568.089940
21
900.682390
0
LINE
8
Layer 1
10
-568.089940
20
900.682390
11
-570.064728
21
902.398869
0
LINE
8
Layer 1
10
-570.064728
20
902.398869
11
-572.227180
21
904.036200
0
LINE
8
Layer 1
10
-572.227180
20
904.036200
11
-574.985140
21
906.025760
0
LINE
8
Layer 1
10
-574.985140
20
906.025760
11
-576.588660
21
907.168820
0
LINE
8
Layer 1
10
-576.588660
20
907.168820
11
-578.212340
21
905.279550
0
LINE
8
Layer 1
10
-578.212340
20
905.279550
11
-577.191905
21
904.175434
0
LINE
8
Layer 1
10
-577.191905
20
904.175434
11
-576.853760
21
903.614030
0
LINE
8
Layer 1
10
-576.853760
20
903.614030
11
-577.705900
21
904.200021
0
LINE
8
Layer 1
10
-577.705900
20
904.200021
11
-578.557040
21
904.891458
0
LINE
8
Layer 1
10
-578.557040
20
904.891458
11
-580.391020
21
902.826968
0
LINE
8
Layer 1
10
-580.391020
20
902.826968
11
-580.391000
21
902.827000
0
LINE
8
Layer 1
10
-575.837000
20
908.069000
11
-573.041061
21
906.499572
0
LINE
8
Layer 1
10
-573.041061
20
906.499572
11
-571.346340
21
905.221100
0
LINE
8
Layer 1
10
-571.346340
20
905.221100
11
-570.242906
21
904.265074
0
LINE
8
Layer 1
10
-570.242906
20
904.265074
11
-569.341425
21
903.664281
0
LINE
8
Layer 1
10
-569.341425
20
903.664281
11
-568.411969
21
903.297228
0
LINE
8
Layer 1
10
-568.411969
20
903.297228
11
-567.224610
21
903.042420
0
LINE
8
Layer 1
10
-567.224610
20
903.042420
11
-565.007170
21
902.576813
0
LINE
8
Layer 1
10
-565.007170
20
902.576813
11
-562.986392
21
902.129499
0
LINE
8
Layer 1
10
-562.986392
20
902.129499
11
-561.021880
21
901.969597
0
LINE
8
Layer 1
10
-561.021880
20
901.969597
11
-558.512211
21
901.648038
0
LINE
8
Layer 1
10
-558.512211
20
901.648038
11
-556.125550
21
900.883357
0
LINE
8
Layer 1
10
-556.125550
20
900.883357
11
-555.116300
21
900.506617
0
LINE
8
Layer 1
10
-555.116300
20
900.506617
11
-555.006629
21
900.599917
0
LINE
8
Layer 1
10
-555.006629
20
900.599917
11
-554.999676
21
900.839908
0
LINE
8
Layer 1
10
-554.999676
20
900.839908
11
-555.259980
21
901.520507
0
LINE
8
Layer 1
10
-555.259980
20
901.520507
11
-556.614983
21
903.216616
0
LINE
8
Layer 1
10
-556.614983
20
903.216616
11
-558.483048
21
904.896347
0
LINE
8
Layer 1
10
-558.483048
20
904.896347
11
-560.556128
21
906.317268
0
LINE
8
Layer 1
10
-560.556128
20
906.317268
11
-562.526180
21
907.236947
0
LINE
8
Layer 1
10
-562.526180
20
907.236947
11
-565.123960
21
907.715455
0
LINE
8
Layer 1
10
-565.123960
20
907.715455
11
-567.357583
21
908.154295
0
LINE
8
Layer 1
10
-567.357583
20
908.154295
11
-569.719050
21
909.241975
0
LINE
8
Layer 1
10
-569.719050
20
909.241975
11
-572.540040
21
910.711125
0
LINE
8
Layer 1
10
-572.540040
20
910.711125
11
-573.353970
21
911.140057
0
LINE
8
Layer 1
10
-573.353970
20
911.140057
11
-575.837000
21
908.068917
0
LINE
8
Layer 1
10
-575.837000
20
908.068917
11
-575.837000
21
908.069000
0
LINE
8
Layer 1
10
-572.861000
20
911.770000
11
-570.626311
21
910.805063
0
LINE
8
Layer 1
10
-570.626311
20
910.805063
11
-569.208500
21
910.320480
0
LINE
8
Layer 1
10
-569.208500
20
910.320480
11
-569.030740
21
910.470352
0
LINE
8
Layer 1
10
-569.030740
20
910.470352
11
-569.235418
21
910.811823
0
LINE
8
Layer 1
10
-569.235418
20
910.811823
11
-569.825326
21
911.338297
0
LINE
8
Layer 1
10
-569.825326
20
911.338297
11
-572.016090
21
912.848492
0
LINE
8
Layer 1
10
-572.016090
20
912.848492
11
-572.861000
21
911.770002
0
LINE
8
Layer 1
10
-572.861000
20
911.770002
11
-572.861000
21
911.770000
0
LINE
8
Layer 1
10
-570.377000
20
892.755000
11
-570.334100
21
892.950861
0
LINE
8
Layer 1
10
-570.334100
20
892.950861
11
-570.059323
21
893.173354
0
LINE
8
Layer 1
10
-570.059323
20
893.173354
11
-569.581445
21
893.268450
0
LINE
8
Layer 1
10
-569.581445
20
893.268450
11
-568.363670
21
893.057825
0
LINE
8
Layer 1
10
-568.363670
20
893.057825
11
-566.814065
21
892.181431
0
LINE
8
Layer 1
10
-566.814065
20
892.181431
11
-564.941929
21
890.710640
0
LINE
8
Layer 1
10
-564.941929
20
890.710640
11
-562.902353
21
888.780339
0
LINE
8
Layer 1
10
-562.902353
20
888.780339
11
-560.850430
21
886.525415
0
LINE
8
Layer 1
10
-560.850430
20
886.525415
11
-559.659961
21
885.006175
0
LINE
8
Layer 1
10
-559.659961
20
885.006175
11
-559.500364
21
884.665329
0
LINE
8
Layer 1
10
-559.500364
20
884.665329
11
-559.602960
21
884.559135
0
LINE
8
Layer 1
10
-559.602960
20
884.559135
11
-562.072570
21
886.991015
0
LINE
8
Layer 1
10
-562.072570
20
886.991015
11
-563.749397
21
888.692526
0
LINE
8
Layer 1
10
-563.749397
20
888.692526
11
-565.547020
21
890.218536
0
LINE
8
Layer 1
10
-565.547020
20
890.218536
11
-567.184331
21
891.351511
0
LINE
8
Layer 1
10
-567.184331
20
891.351511
11
-568.380220
21
891.873915
0
LINE
8
Layer 1
10
-568.380220
20
891.873915
11
-568.839657
21
891.886075
0
LINE
8
Layer 1
10
-568.839657
20
891.886075
11
-568.905240
21
891.454298
0
LINE
8
Layer 1
10
-568.905240
20
891.454298
11
-568.539396
21
890.136055
0
LINE
8
Layer 1
10
-568.539396
20
890.136055
11
-567.578989
21
888.380645
0
LINE
8
Layer 1
10
-567.578989
20
888.380645
11
-566.229705
21
886.511000
0
LINE
8
Layer 1
10
-566.229705
20
886.511000
11
-564.697230
21
884.850048
0
LINE
8
Layer 1
10
-564.697230
20
884.850048
11
-563.514340
21
883.618088
0
LINE
8
Layer 1
10
-563.514340
20
883.618088
11
-564.169610
21
883.791733
0
LINE
8
Layer 1
10
-564.169610
20
883.791733
11
-565.631486
21
884.794979
0
LINE
8
Layer 1
10
-565.631486
20
884.794979
11
-567.100585
21
886.419982
0
LINE
8
Layer 1
10
-567.100585
20
886.419982
11
-568.525171
21
888.598833
0
LINE
8
Layer 1
10
-568.525171
20
888.598833
11
-569.853510
21
891.263623
0
LINE
8
Layer 1
10
-569.853510
20
891.263623
11
-570.376980
21
892.755013
0
LINE
8
Layer 1
10
-570.376980
20
892.755013
11
-570.377000
21
892.755000
0
LINE
8
Layer 1
10
-564.677000
20
923.438000
11
-564.654800
21
923.434000
0
LINE
8
Layer 1
10
-564.654800
20
923.434000
11
-562.133393
21
922.710133
0
LINE
8
Layer 1
10
-562.133393
20
922.710133
11
-559.126450
21
921.285810
0
LINE
8
Layer 1
10
-559.126450
20
921.285810
11
-555.686880
21
919.522080
0
LINE
8
Layer 1
10
-555.686880
20
919.522080
11
-555.658406
21
919.607619
0
LINE
8
Layer 1
10
-555.658406
20
919.607619
11
-555.851570
21
919.842107
0
LINE
8
Layer 1
10
-555.851570
20
919.842107
11
-556.739320
21
920.625169
0
LINE
8
Layer 1
10
-556.739320
20
920.625169
11
-559.376060
21
922.518270
0
LINE
8
Layer 1
10
-559.376060
20
922.518270
11
-561.080080
21
923.745040
0
LINE
8
Layer 1
10
-561.080080
20
923.745040
11
-561.496716
21
924.223513
0
LINE
8
Layer 1
10
-561.496716
20
924.223513
11
-561.633810
21
924.622030
0
LINE
8
Layer 1
10
-561.633810
20
924.622030
11
-561.320640
21
925.439535
0
LINE
8
Layer 1
10
-561.320640
20
925.439535
11
-561.006950
21
926.020376
0
LINE
8
Layer 1
10
-561.006950
20
926.020376
11
-562.636830
21
925.792471
0
LINE
8
Layer 1
10
-562.636830
20
925.792471
11
-563.441450
21
925.454519
0
LINE
8
Layer 1
10
-563.441450
20
925.454519
11
-564.677020
21
923.438099
0
LINE
8
Layer 1
10
-564.677020
20
923.438099
11
-564.677000
21
923.438000
0
LINE
8
Layer 1
10
-562.762000
20
900.617000
11
-562.345345
21
899.946338
0
LINE
8
Layer 1
10
-562.345345
20
899.946338
11
-561.132640
21
898.735470
0
LINE
8
Layer 1
10
-561.132640
20
898.735470
11
-559.153177
21
896.789799
0
LINE
8
Layer 1
10
-559.153177
20
896.789799
11
-556.619210
21
893.917660
0
LINE
8
Layer 1
10
-556.619210
20
893.917660
11
-554.471744
21
891.498742
0
LINE
8
Layer 1
10
-554.471744
20
891.498742
11
-554.018465
21
891.111378
0
LINE
8
Layer 1
10
-554.018465
20
891.111378
11
-553.814730
21
891.107510
0
LINE
8
Layer 1
10
-553.814730
20
891.107510
11
-553.750485
21
891.524122
0
LINE
8
Layer 1
10
-553.750485
20
891.524122
11
-553.907949
21
892.247148
0
LINE
8
Layer 1
10
-553.907949
20
892.247148
11
-554.756290
21
894.182770
0
LINE
8
Layer 1
10
-554.756290
20
894.182770
11
-555.632544
21
895.503343
0
LINE
8
Layer 1
10
-555.632544
20
895.503343
11
-556.864814
21
896.976275
0
LINE
8
Layer 1
10
-556.864814
20
896.976275
11
-560.197300
21
900.159150
0
LINE
8
Layer 1
10
-560.197300
20
900.159150
11
-561.448020
21
900.844833
0
LINE
8
Layer 1
10
-561.448020
20
900.844833
11
-562.064215
21
901.009267
0
LINE
8
Layer 1
10
-562.064215
20
901.009267
11
-562.472600
21
900.981843
0
LINE
8
Layer 1
10
-562.472600
20
900.981843
11
-562.762000
21
900.617005
0
LINE
8
Layer 1
10
-562.762000
20
900.617005
11
-562.762000
21
900.617000
0
LINE
8
Layer 1
10
-558.061000
20
929.801000
11
-557.747310
21
930.122442
0
LINE
8
Layer 1
10
-557.747310
20
930.122442
11
-556.297751
21
931.128619
0
LINE
8
Layer 1
10
-556.297751
20
931.128619
11
-554.091210
21
932.307832
0
LINE
8
Layer 1
10
-554.091210
20
932.307832
11
-552.721104
21
933.058829
0
LINE
8
Layer 1
10
-552.721104
20
933.058829
11
-551.655988
21
933.902698
0
LINE
8
Layer 1
10
-551.655988
20
933.902698
11
-550.840970
21
934.892873
0
LINE
8
Layer 1
10
-550.840970
20
934.892873
11
-550.221160
21
936.082792
0
LINE
8
Layer 1
10
-550.221160
20
936.082792
11
-548.905039
21
940.690157
0
LINE
8
Layer 1
10
-548.905039
20
940.690157
11
-547.651820
21
945.819672
0
LINE
8
Layer 1
10
-547.651820
20
945.819672
11
-546.757096
21
950.188936
0
LINE
8
Layer 1
10
-546.757096
20
950.188936
11
-546.029690
21
952.376892
0
LINE
8
Layer 1
10
-546.029690
20
952.376892
11
-545.867599
21
952.618431
0
LINE
8
Layer 1
10
-545.867599
20
952.618431
11
-545.850370
21
952.409482
0
LINE
8
Layer 1
10
-545.850370
20
952.409482
11
-545.978510
21
951.502560
0
LINE
8
Layer 1
10
-545.978510
20
951.502560
11
-546.539210
21
947.669190
0
LINE
8
Layer 1
10
-546.539210
20
947.669190
11
-547.342800
21
942.586820
0
LINE
8
Layer 1
10
-547.342800
20
942.586820
11
-548.440584
21
938.020861
0
LINE
8
Layer 1
10
-548.440584
20
938.020861
11
-549.534910
21
934.704620
0
LINE
8
Layer 1
10
-549.534910
20
934.704620
11
-550.329211
21
933.447527
0
LINE
8
Layer 1
10
-550.329211
20
933.447527
11
-551.389663
21
932.459185
0
LINE
8
Layer 1
10
-551.389663
20
932.459185
11
-552.855080
21
931.640261
0
LINE
8
Layer 1
10
-552.855080
20
931.640261
11
-554.864280
21
930.891420
0
LINE
8
Layer 1
10
-554.864280
20
930.891420
11
-557.434170
21
930.034639
0
LINE
8
Layer 1
10
-557.434170
20
930.034639
11
-558.061000
21
929.801000
0
LINE
8
Layer 1
10
-551.216000
20
893.533000
11
-551.097650
21
893.913859
0
LINE
8
Layer 1
10
-551.097650
20
893.913859
11
-550.501820
21
893.628612
0
LINE
8
Layer 1
10
-550.501820
20
893.628612
11
-547.028130
21
892.154792
0
LINE
8
Layer 1
10
-547.028130
20
892.154792
11
-544.360001
21
891.045033
0
LINE
8
Layer 1
10
-544.360001
20
891.045033
11
-542.526499
21
890.108654
0
LINE
8
Layer 1
10
-542.526499
20
890.108654
11
-541.188625
21
889.142183
0
LINE
8
Layer 1
10
-541.188625
20
889.142183
11
-540.007380
21
887.942142
0
LINE
8
Layer 1
10
-540.007380
20
887.942142
11
-538.236610
21
885.616274
0
LINE
8
Layer 1
10
-538.236610
20
885.616274
11
-536.244290
21
882.189002
0
LINE
8
Layer 1
10
-536.244290
20
882.189002
11
-534.804590
21
879.437752
0
LINE
8
Layer 1
10
-534.804590
20
879.437752
11
-534.940285
21
879.373653
0
LINE
8
Layer 1
10
-534.940285
20
879.373653
11
-535.360445
21
879.816658
0
LINE
8
Layer 1
10
-535.360445
20
879.816658
11
-537.132620
21
882.320782
0
LINE
8
Layer 1
10
-537.132620
20
882.320782
11
-538.969287
21
884.962912
0
LINE
8
Layer 1
10
-538.969287
20
884.962912
11
-540.421970
21
886.771533
0
LINE
8
Layer 1
10
-540.421970
20
886.771533
11
-541.726782
21
888.007388
0
LINE
8
Layer 1
10
-541.726782
20
888.007388
11
-543.119840
21
888.931222
0
LINE
8
Layer 1
10
-543.119840
20
888.931222
11
-546.139569
21
890.235335
0
LINE
8
Layer 1
10
-546.139569
20
890.235335
11
-548.771690
21
891.153302
0
LINE
8
Layer 1
10
-548.771690
20
891.153302
11
-548.915080
21
891.065215
0
LINE
8
Layer 1
10
-548.915080
20
891.065215
11
-548.835526
21
890.642495
0
LINE
8
Layer 1
10
-548.835526
20
890.642495
11
-547.699910
21
887.842392
0
LINE
8
Layer 1
10
-547.699910
20
887.842392
11
-546.589380
21
885.102002
0
LINE
8
Layer 1
10
-546.589380
20
885.102002
11
-546.749143
21
885.153372
0
LINE
8
Layer 1
10
-546.749143
20
885.153372
11
-547.176237
21
885.725014
0
LINE
8
Layer 1
10
-547.176237
20
885.725014
11
-548.519252
21
887.893849
0
LINE
8
Layer 1
10
-548.519252
20
887.893849
11
-549.992097
21
890.537967
0
LINE
8
Layer 1
10
-549.992097
20
890.537967
11
-550.968440
21
892.586832
0
LINE
8
Layer 1
10
-550.968440
20
892.586832
11
-551.215970
21
893.533030
0
LINE
8
Layer 1
10
-551.215970
20
893.533030
11
-551.216000
21
893.533000
0
LINE
8
Layer 1
10
-543.648000
20
1017.640000
11
-542.916280
21
1010.043570
0
LINE
8
Layer 1
10
-542.916280
20
1010.043570
11
-541.665637
21
1006.839946
0
LINE
8
Layer 1
10
-541.665637
20
1006.839946
11
-540.729370
21
1003.228417
0
LINE
8
Layer 1
10
-540.729370
20
1003.228417
11
-540.145385
21
999.343540
0
LINE
8
Layer 1
10
-540.145385
20
999.343540
11
-539.951590
21
995.319870
0
LINE
8
Layer 1
10
-539.951590
20
995.319870
11
-540.041839
21
992.588865
0
LINE
8
Layer 1
10
-540.041839
20
992.588865
11
-540.505580
21
987.915150
0
LINE
8
Layer 1
10
-540.505580
20
987.915150
11
-540.772696
21
984.840156
0
LINE
8
Layer 1
10
-540.772696
20
984.840156
11
-540.788750
21
982.011620
0
LINE
8
Layer 1
10
-540.788750
20
982.011620
11
-540.692878
21
979.562500
0
LINE
8
Layer 1
10
-540.692878
20
979.562500
11
-540.452870
21
978.177750
0
LINE
8
Layer 1
10
-540.452870
20
978.177750
11
-539.583484
21
975.792532
0
LINE
8
Layer 1
10
-539.583484
20
975.792532
11
-538.155850
21
973.456590
0
LINE
8
Layer 1
10
-538.155850
20
973.456590
11
-536.407100
21
970.740500
0
LINE
8
Layer 1
10
-536.407100
20
970.740500
11
-535.562514
21
968.970994
0
LINE
8
Layer 1
10
-535.562514
20
968.970994
11
-534.798866
21
966.977490
0
LINE
8
Layer 1
10
-534.798866
20
966.977490
11
-534.178133
21
964.940411
0
LINE
8
Layer 1
10
-534.178133
20
964.940411
11
-533.762290
21
963.040180
0
LINE
8
Layer 1
10
-533.762290
20
963.040180
11
-533.603140
21
962.076930
0
LINE
8
Layer 1
10
-533.603140
20
962.076930
11
-532.775260
21
961.976160
0
LINE
8
Layer 1
10
-532.775260
20
961.976160
11
-530.856010
21
961.467670
0
LINE
8
Layer 1
10
-530.856010
20
961.467670
11
-529.706200
21
961.131770
0
LINE
8
Layer 1
10
-529.706200
20
961.131770
11
-530.690640
21
965.986780
0
LINE
8
Layer 1
10
-530.690640
20
965.986780
11
-532.597500
21
971.507380
0
LINE
8
Layer 1
10
-532.597500
20
971.507380
11
-532.923178
21
972.395286
0
LINE
8
Layer 1
10
-532.923178
20
972.395286
11
-532.874121
21
972.517150
0
LINE
8
Layer 1
10
-532.874121
20
972.517150
11
-532.682200
21
972.407590
0
LINE
8
Layer 1
10
-532.682200
20
972.407590
11
-526.527131
21
967.436352
0
LINE
8
Layer 1
10
-526.527131
20
967.436352
11
-523.694683
21
965.403326
0
LINE
8
Layer 1
10
-523.694683
20
965.403326
11
-521.387300
21
963.942990
0
LINE
8
Layer 1
10
-521.387300
20
963.942990
11
-518.862530
21
962.550545
0
LINE
8
Layer 1
10
-518.862530
20
962.550545
11
-518.537492
21
962.456398
0
LINE
8
Layer 1
10
-518.537492
20
962.456398
11
-518.459810
21
962.589070
0
LINE
8
Layer 1
10
-518.459810
20
962.589070
11
-518.421610
21
965.005460
0
LINE
8
Layer 1
10
-518.421610
20
965.005460
11
-518.477719
21
966.721741
0
LINE
8
Layer 1
10
-518.477719
20
966.721741
11
-518.611280
21
967.413050
0
LINE
8
Layer 1
10
-518.611280
20
967.413050
11
-521.123760
21
969.104940
0
LINE
8
Layer 1
10
-521.123760
20
969.104940
11
-525.202071
21
971.747396
0
LINE
8
Layer 1
10
-525.202071
20
971.747396
11
-528.927440
21
974.494290
0
LINE
8
Layer 1
10
-528.927440
20
974.494290
11
-532.480781
21
977.414471
0
LINE
8
Layer 1
10
-532.480781
20
977.414471
11
-534.576190
21
979.507410
0
LINE
8
Layer 1
10
-534.576190
20
979.507410
11
-535.182997
21
980.383989
0
LINE
8
Layer 1
10
-535.182997
20
980.383989
11
-535.695843
21
981.394322
0
LINE
8
Layer 1
10
-535.695843
20
981.394322
11
-536.432385
21
983.781201
0
LINE
8
Layer 1
10
-536.432385
20
983.781201
11
-536.771284
21
986.597960
0
LINE
8
Layer 1
10
-536.771284
20
986.597960
11
-536.698010
21
989.774510
0
LINE
8
Layer 1
10
-536.698010
20
989.774510
11
-536.158285
21
994.902442
0
LINE
8
Layer 1
10
-536.158285
20
994.902442
11
-535.621080
21
998.273200
0
LINE
8
Layer 1
10
-535.621080
20
998.273200
11
-534.893156
21
1000.274592
0
LINE
8
Layer 1
10
-534.893156
20
1000.274592
11
-533.952990
21
1001.742780
0
LINE
8
Layer 1
10
-533.952990
20
1001.742780
11
-533.148074
21
1002.303675
0
LINE
8
Layer 1
10
-533.148074
20
1002.303675
11
-532.126321
21
1002.614654
0
LINE
8
Layer 1
10
-532.126321
20
1002.614654
11
-530.995220
21
1002.658031
0
LINE
8
Layer 1
10
-530.995220
20
1002.658031
11
-529.862260
21
1002.416120
0
LINE
8
Layer 1
10
-529.862260
20
1002.416120
11
-528.998046
21
1001.987065
0
LINE
8
Layer 1
10
-528.998046
20
1001.987065
11
-528.119102
21
1001.321338
0
LINE
8
Layer 1
10
-528.119102
20
1001.321338
11
-526.388229
21
999.377645
0
LINE
8
Layer 1
10
-526.388229
20
999.377645
11
-524.812041
21
996.780582
0
LINE
8
Layer 1
10
-524.812041
20
996.780582
11
-523.532940
21
993.725690
0
LINE
8
Layer 1
10
-523.532940
20
993.725690
11
-523.294690
21
993.018750
0
LINE
8
Layer 1
10
-523.294690
20
993.018750
11
-521.120160
21
992.939150
0
LINE
8
Layer 1
10
-521.120160
20
992.939150
11
-518.897050
21
992.912850
0
LINE
8
Layer 1
10
-518.897050
20
992.912850
11
-519.331810
21
994.651594
0
LINE
8
Layer 1
10
-519.331810
20
994.651594
11
-520.322800
21
997.499130
0
LINE
8
Layer 1
10
-520.322800
20
997.499130
11
-521.687849
21
1000.437326
0
LINE
8
Layer 1
10
-521.687849
20
1000.437326
11
-523.291090
21
1002.864180
0
LINE
8
Layer 1
10
-523.291090
20
1002.864180
11
-525.092570
21
1004.881644
0
LINE
8
Layer 1
10
-525.092570
20
1004.881644
11
-527.031930
21
1006.378150
0
LINE
8
Layer 1
10
-527.031930
20
1006.378150
11
-528.299000
21
1007.080989
0
LINE
8
Layer 1
10
-528.299000
20
1007.080989
11
-529.672586
21
1007.602104
0
LINE
8
Layer 1
10
-529.672586
20
1007.602104
11
-531.389442
21
1008.012892
0
LINE
8
Layer 1
10
-531.389442
20
1008.012892
11
-533.686320
21
1008.384750
0
LINE
8
Layer 1
10
-533.686320
20
1008.384750
11
-536.021718
21
1008.793120
0
LINE
8
Layer 1
10
-536.021718
20
1008.793120
11
-537.729725
21
1009.302336
0
LINE
8
Layer 1
10
-537.729725
20
1009.302336
11
-538.993575
21
1009.985922
0
LINE
8
Layer 1
10
-538.993575
20
1009.985922
11
-539.996500
21
1010.917400
0
LINE
8
Layer 1
10
-539.996500
20
1010.917400
11
-540.719856
21
1011.981017
0
LINE
8
Layer 1
10
-540.719856
20
1011.981017
11
-541.574200
21
1013.927040
0
LINE
8
Layer 1
10
-541.574200
20
1013.927040
11
-542.455813
21
1015.924455
0
LINE
8
Layer 1
10
-542.455813
20
1015.924455
11
-543.294510
21
1017.216780
0
LINE
8
Layer 1
10
-543.294510
20
1017.216780
11
-543.647960
21
1017.639990
0
LINE
8
Layer 1
10
-543.647960
20
1017.639990
11
-543.648000
21
1017.640000
0
LINE
8
Layer 1
10
-543.452000
20
789.599000
11
-543.214820
21
789.877015
0
LINE
8
Layer 1
10
-543.214820
20
789.877015
11
-542.403767
21
791.144471
0
LINE
8
Layer 1
10
-542.403767
20
791.144471
11
-541.572030
21
793.084565
0
LINE
8
Layer 1
10
-541.572030
20
793.084565
11
-540.804994
21
794.885722
0
LINE
8
Layer 1
10
-540.804994
20
794.885722
11
-540.201060
21
795.885955
0
LINE
8
Layer 1
10
-540.201060
20
795.885955
11
-539.029831
21
796.973989
0
LINE
8
Layer 1
10
-539.029831
20
796.973989
11
-537.469275
21
797.761496
0
LINE
8
Layer 1
10
-537.469275
20
797.761496
11
-535.354574
21
798.308346
0
LINE
8
Layer 1
10
-535.354574
20
798.308346
11
-532.520910
21
798.674405
0
LINE
8
Layer 1
10
-532.520910
20
798.674405
11
-529.815770
21
799.152959
0
LINE
8
Layer 1
10
-529.815770
20
799.152959
11
-528.688021
21
799.572374
0
LINE
8
Layer 1
10
-528.688021
20
799.572374
11
-527.596660
21
800.145625
0
LINE
8
Layer 1
10
-527.596660
20
800.145625
11
-525.668750
21
801.581078
0
LINE
8
Layer 1
10
-525.668750
20
801.581078
11
-523.828410
21
803.619315
0
LINE
8
Layer 1
10
-523.828410
20
803.619315
11
-522.283283
21
805.949347
0
LINE
8
Layer 1
10
-522.283283
20
805.949347
11
-520.873047
21
808.778244
0
LINE
8
Layer 1
10
-520.873047
20
808.778244
11
-519.668863
21
811.942876
0
LINE
8
Layer 1
10
-519.668863
20
811.942876
11
-518.741890
21
815.280115
0
LINE
8
Layer 1
10
-518.741890
20
815.280115
11
-516.631200
21
825.913381
0
LINE
8
Layer 1
10
-516.631200
20
825.913381
11
-514.760720
21
838.249815
0
LINE
8
Layer 1
10
-514.760720
20
838.249815
11
-514.761000
21
838.250000
0
LINE
8
Layer 1
10
-514.761000
20
838.250000
11
-514.510360
21
840.440060
0
LINE
8
Layer 1
10
-514.510360
20
840.440060
11
-514.495360
21
840.867428
0
LINE
8
Layer 1
10
-514.495360
20
840.867428
11
-515.717500
21
840.074184
0
LINE
8
Layer 1
10
-515.717500
20
840.074184
11
-518.019365
21
838.536777
0
LINE
8
Layer 1
10
-518.019365
20
838.536777
11
-518.556090
21
837.979214
0
LINE
8
Layer 1
10
-518.556090
20
837.979214
11
-518.823240
21
836.332794
0
LINE
8
Layer 1
10
-518.823240
20
836.332794
11
-520.152890
21
828.052154
0
LINE
8
Layer 1
10
-520.152890
20
828.052154
11
-521.573326
21
820.583970
0
LINE
8
Layer 1
10
-521.573326
20
820.583970
11
-522.728703
21
815.509954
0
LINE
8
Layer 1
10
-522.728703
20
815.509954
11
-523.823363
21
812.055638
0
LINE
8
Layer 1
10
-523.823363
20
812.055638
11
-525.061650
21
809.446554
0
LINE
8
Layer 1
10
-525.061650
20
809.446554
11
-526.320448
21
807.506069
0
LINE
8
Layer 1
10
-526.320448
20
807.506069
11
-527.679691
21
805.968974
0
LINE
8
Layer 1
10
-527.679691
20
805.968974
11
-529.133699
21
804.840644
0
LINE
8
Layer 1
10
-529.133699
20
804.840644
11
-530.676790
21
804.126454
0
LINE
8
Layer 1
10
-530.676790
20
804.126454
11
-531.704267
21
803.946441
0
LINE
8
Layer 1
10
-531.704267
20
803.946441
11
-532.661246
21
804.091729
0
LINE
8
Layer 1
10
-532.661246
20
804.091729
11
-533.566253
21
804.568445
0
LINE
8
Layer 1
10
-533.566253
20
804.568445
11
-534.437810
21
805.382714
0
LINE
8
Layer 1
10
-534.437810
20
805.382714
11
-535.143783
21
806.424830
0
LINE
8
Layer 1
10
-535.143783
20
806.424830
11
-535.730171
21
807.829907
0
LINE
8
Layer 1
10
-535.730171
20
807.829907
11
-536.221769
21
809.672657
0
LINE
8
Layer 1
10
-536.221769
20
809.672657
11
-536.643370
21
812.027794
0
LINE
8
Layer 1
10
-536.643370
20
812.027794
11
-536.868520
21
816.531164
0
LINE
8
Layer 1
10
-536.868520
20
816.531164
11
-536.812249
21
818.980558
0
LINE
8
Layer 1
10
-536.812249
20
818.980558
11
-536.643370
21
820.740444
0
LINE
8
Layer 1
10
-536.643370
20
820.740444
11
-536.434600
21
822.080934
0
LINE
8
Layer 1
10
-536.434600
20
822.080934
11
-537.343600
21
823.549594
0
LINE
8
Layer 1
10
-537.343600
20
823.549594
11
-540.207490
21
827.707464
0
LINE
8
Layer 1
10
-540.207490
20
827.707464
11
-540.692750
21
828.282628
0
LINE
8
Layer 1
10
-540.692750
20
828.282628
11
-541.016750
21
826.805728
0
LINE
8
Layer 1
10
-541.016750
20
826.805728
11
-541.162540
21
823.647524
0
LINE
8
Layer 1
10
-541.162540
20
823.647524
11
-540.771300
21
819.541568
0
LINE
8
Layer 1
10
-540.771300
20
819.541568
11
-540.152648
21
813.470527
0
LINE
8
Layer 1
10
-540.152648
20
813.470527
11
-540.103698
21
810.815772
0
LINE
8
Layer 1
10
-540.103698
20
810.815772
11
-540.237634
21
808.316684
0
LINE
8
Layer 1
10
-540.237634
20
808.316684
11
-540.561429
21
805.899632
0
LINE
8
Layer 1
10
-540.561429
20
805.899632
11
-541.082060
21
803.490983
0
LINE
8
Layer 1
10
-541.082060
20
803.490983
11
-541.806502
21
801.017106
0
LINE
8
Layer 1
10
-541.806502
20
801.017106
11
-542.741730
21
798.404368
0
LINE
8
Layer 1
10
-542.741730
20
798.404368
11
-543.451750
21
789.599228
0
LINE
8
Layer 1
10
-543.451750
20
789.599228
11
-543.452000
21
789.599000
0
LINE
8
Layer 1
10
-535.595000
20
984.506000
11
-535.306120
21
983.487450
0
LINE
8
Layer 1
10
-535.306120
20
983.487450
11
-534.605928
21
981.467141
0
LINE
8
Layer 1
10
-534.605928
20
981.467141
11
-534.062770
21
980.399280
0
LINE
8
Layer 1
10
-534.062770
20
980.399280
11
-533.511900
21
981.127400
0
LINE
8
Layer 1
10
-533.511900
20
981.127400
11
-532.175749
21
982.901085
0
LINE
8
Layer 1
10
-532.175749
20
982.901085
11
-530.602020
21
984.494620
0
LINE
8
Layer 1
10
-530.602020
20
984.494620
11
-528.845680
21
985.750146
0
LINE
8
Layer 1
10
-528.845680
20
985.750146
11
-527.013839
21
986.676835
0
LINE
8
Layer 1
10
-527.013839
20
986.676835
11
-525.096488
21
987.278781
0
LINE
8
Layer 1
10
-525.096488
20
987.278781
11
-523.083620
21
987.560080
0
LINE
8
Layer 1
10
-523.083620
20
987.560080
11
-521.399906
21
987.540296
0
LINE
8
Layer 1
10
-521.399906
20
987.540296
11
-519.785559
21
987.278358
0
LINE
8
Layer 1
10
-519.785559
20
987.278358
11
-518.243014
21
986.775732
0
LINE
8
Layer 1
10
-518.243014
20
986.775732
11
-516.774705
21
986.033885
0
LINE
8
Layer 1
10
-516.774705
20
986.033885
11
-515.383067
21
985.054284
0
LINE
8
Layer 1
10
-515.383067
20
985.054284
11
-514.070533
21
983.838397
0
LINE
8
Layer 1
10
-514.070533
20
983.838397
11
-512.839540
21
982.387690
0
LINE
8
Layer 1
10
-512.839540
20
982.387690
11
-511.692520
21
980.703630
0
LINE
8
Layer 1
10
-511.692520
20
980.703630
11
-510.782171
21
978.946611
0
LINE
8
Layer 1
10
-510.782171
20
978.946611
11
-509.952959
21
976.808026
0
LINE
8
Layer 1
10
-509.952959
20
976.808026
11
-509.240992
21
974.394381
0
LINE
8
Layer 1
10
-509.240992
20
974.394381
11
-508.682380
21
971.812180
0
LINE
8
Layer 1
10
-508.682380
20
971.812180
11
-508.214139
21
968.027562
0
LINE
8
Layer 1
10
-508.214139
20
968.027562
11
-507.975960
21
964.385760
0
LINE
8
Layer 1
10
-507.975960
20
964.385760
11
-507.973960
21
963.608020
0
LINE
8
Layer 1
10
-507.973960
20
963.608020
11
-506.376640
21
962.534690
0
LINE
8
Layer 1
10
-506.376640
20
962.534690
11
-504.623800
21
961.412280
0
LINE
8
Layer 1
10
-504.623800
20
961.412280
11
-504.500750
21
962.060045
0
LINE
8
Layer 1
10
-504.500750
20
962.060045
11
-504.466570
21
963.757132
0
LINE
8
Layer 1
10
-504.466570
20
963.757132
11
-504.655300
21
968.208240
0
LINE
8
Layer 1
10
-504.655300
20
968.208240
11
-505.322944
21
973.384945
0
LINE
8
Layer 1
10
-505.322944
20
973.384945
11
-506.386668
21
977.903198
0
LINE
8
Layer 1
10
-506.386668
20
977.903198
11
-507.873649
21
981.853171
0
LINE
8
Layer 1
10
-507.873649
20
981.853171
11
-508.784356
21
983.643233
0
LINE
8
Layer 1
10
-508.784356
20
983.643233
11
-509.811070
21
985.325040
0
LINE
8
Layer 1
10
-509.811070
20
985.325040
11
-511.535360
21
987.428488
0
LINE
8
Layer 1
10
-511.535360
20
987.428488
11
-513.661001
21
989.208560
0
LINE
8
Layer 1
10
-513.661001
20
989.208560
11
-516.098615
21
990.603110
0
LINE
8
Layer 1
10
-516.098615
20
990.603110
11
-518.758820
21
991.549990
0
LINE
8
Layer 1
10
-518.758820
20
991.549990
11
-520.289800
21
991.768829
0
LINE
8
Layer 1
10
-520.289800
20
991.768829
11
-522.280438
21
991.838720
0
LINE
8
Layer 1
10
-522.280438
20
991.838720
11
-524.265462
21
991.760621
0
LINE
8
Layer 1
10
-524.265462
20
991.760621
11
-525.779600
21
991.535490
0
LINE
8
Layer 1
10
-525.779600
20
991.535490
11
-527.420412
21
991.007359
0
LINE
8
Layer 1
10
-527.420412
20
991.007359
11
-529.003301
21
990.312373
0
LINE
8
Layer 1
10
-529.003301
20
990.312373
11
-530.510030
21
989.459612
0
LINE
8
Layer 1
10
-530.510030
20
989.459612
11
-531.922360
21
988.458160
0
LINE
8
Layer 1
10
-531.922360
20
988.458160
11
-533.883906
21
986.640446
0
LINE
8
Layer 1
10
-533.883906
20
986.640446
11
-535.309750
21
984.995330
0
LINE
8
Layer 1
10
-535.309750
20
984.995330
11
-535.595000
21
984.506000
0
LINE
8
Layer 1
10
-504.624000
20
961.412000
11
-504.624000
21
961.412000
0
LINE
8
Layer 1
10
-504.624000
20
961.412000
11
-504.623000
21
961.412000
0
LINE
8
Layer 1
10
-504.623000
20
961.412000
11
-504.624000
21
961.412520
0
LINE
8
Layer 1
10
-504.624000
20
961.412520
11
-504.624000
21
961.412000
0
LINE
8
Layer 1
10
-528.340000
20
847.783000
11
-527.894586
21
848.009945
0
LINE
8
Layer 1
10
-527.894586
20
848.009945
11
-526.954724
21
848.838197
0
LINE
8
Layer 1
10
-526.954724
20
848.838197
11
-524.705080
21
851.239630
0
LINE
8
Layer 1
10
-524.705080
20
851.239630
11
-523.050197
21
853.456727
0
LINE
8
Layer 1
10
-523.050197
20
853.456727
11
-521.524345
21
855.895562
0
LINE
8
Layer 1
10
-521.524345
20
855.895562
11
-520.142788
21
858.518167
0
LINE
8
Layer 1
10
-520.142788
20
858.518167
11
-518.920784
21
861.286578
0
LINE
8
Layer 1
10
-518.920784
20
861.286578
11
-517.873595
21
864.162826
0
LINE
8
Layer 1
10
-517.873595
20
864.162826
11
-517.016483
21
867.108945
0
LINE
8
Layer 1
10
-517.016483
20
867.108945
11
-516.364707
21
870.086968
0
LINE
8
Layer 1
10
-516.364707
20
870.086968
11
-515.933530
21
873.058930
0
LINE
8
Layer 1
10
-515.933530
20
873.058930
11
-515.761924
21
876.488359
0
LINE
8
Layer 1
10
-515.761924
20
876.488359
11
-515.899430
21
878.426030
0
LINE
8
Layer 1
10
-515.899430
20
878.426030
11
-517.240668
21
877.978344
0
LINE
8
Layer 1
10
-517.240668
20
877.978344
11
-518.852220
21
877.249360
0
LINE
8
Layer 1
10
-518.852220
20
877.249360
11
-519.433480
21
876.785188
0
LINE
8
Layer 1
10
-519.433480
20
876.785188
11
-519.522440
21
876.231840
0
LINE
8
Layer 1
10
-519.522440
20
876.231840
11
-519.941540
21
870.718990
0
LINE
8
Layer 1
10
-519.941540
20
870.718990
11
-520.313739
21
868.395296
0
LINE
8
Layer 1
10
-520.313739
20
868.395296
11
-520.853593
21
866.083866
0
LINE
8
Layer 1
10
-520.853593
20
866.083866
11
-521.551589
21
863.807330
0
LINE
8
Layer 1
10
-521.551589
20
863.807330
11
-522.398210
21
861.588321
0
LINE
8
Layer 1
10
-522.398210
20
861.588321
11
-523.383941
21
859.449471
0
LINE
8
Layer 1
10
-523.383941
20
859.449471
11
-524.499267
21
857.413411
0
LINE
8
Layer 1
10
-524.499267
20
857.413411
11
-525.734671
21
855.502773
0
LINE
8
Layer 1
10
-525.734671
20
855.502773
11
-527.080640
21
853.740190
0
LINE
8
Layer 1
10
-527.080640
20
853.740190
11
-528.035080
21
852.592450
0
LINE
8
Layer 1
10
-528.035080
20
852.592450
11
-528.043080
21
851.670025
0
LINE
8
Layer 1
10
-528.043080
20
851.670025
11
-528.212060
21
849.290845
0
LINE
8
Layer 1
10
-528.212060
20
849.290845
11
-528.339710
21
847.782915
0
LINE
8
Layer 1
10
-528.339710
20
847.782915
11
-528.340000
21
847.783000
0
LINE
8
Layer 1
10
-528.310000
20
899.578000
11
-527.326080
21
898.275240
0
LINE
8
Layer 1
10
-527.326080
20
898.275240
11
-523.909210
21
893.376310
0
LINE
8
Layer 1
10
-523.909210
20
893.376310
11
-522.541618
21
890.932141
0
LINE
8
Layer 1
10
-522.541618
20
890.932141
11
-521.485809
21
888.506143
0
LINE
8
Layer 1
10
-521.485809
20
888.506143
11
-520.710625
21
886.014853
0
LINE
8
Layer 1
10
-520.710625
20
886.014853
11
-520.184910
21
883.374810
0
LINE
8
Layer 1
10
-520.184910
20
883.374810
11
-520.086749
21
883.118985
0
LINE
8
Layer 1
10
-520.086749
20
883.118985
11
-519.809720
21
883.185174
0
LINE
8
Layer 1
10
-519.809720
20
883.185174
11
-518.337980
21
883.723138
0
LINE
8
Layer 1
10
-518.337980
20
883.723138
11
-517.016120
21
884.185113
0
LINE
8
Layer 1
10
-517.016120
20
884.185113
11
-516.893529
21
884.444156
0
LINE
8
Layer 1
10
-516.893529
20
884.444156
11
-516.915350
21
885.214503
0
LINE
8
Layer 1
10
-516.915350
20
885.214503
11
-517.351098
21
887.471173
0
LINE
8
Layer 1
10
-517.351098
20
887.471173
11
-518.306414
21
890.222607
0
LINE
8
Layer 1
10
-518.306414
20
890.222607
11
-519.707340
21
893.286489
0
LINE
8
Layer 1
10
-519.707340
20
893.286489
11
-521.479920
21
896.480503
0
LINE
8
Layer 1
10
-521.479920
20
896.480503
11
-524.073200
21
900.252044
0
LINE
8
Layer 1
10
-524.073200
20
900.252044
11
-525.311352
21
901.845312
0
LINE
8
Layer 1
10
-525.311352
20
901.845312
11
-525.957670
21
902.500283
0
LINE
8
Layer 1
10
-525.957670
20
902.500283
11
-527.207190
21
901.038883
0
LINE
8
Layer 1
10
-527.207190
20
901.038883
11
-528.310000
21
899.578000
0
LINE
8
Layer 1
10
-525.312000
20
936.058000
11
-524.887220
21
935.568621
0
LINE
8
Layer 1
10
-524.887220
20
935.568621
11
-523.662490
21
934.245191
0
LINE
8
Layer 1
10
-523.662490
20
934.245191
11
-522.863080
21
933.411665
0
LINE
8
Layer 1
10
-522.863080
20
933.411665
11
-522.557150
21
933.865369
0
LINE
8
Layer 1
10
-522.557150
20
933.865369
11
-520.498472
21
937.334653
0
LINE
8
Layer 1
10
-520.498472
20
937.334653
11
-518.224080
21
942.062789
0
LINE
8
Layer 1
10
-518.224080
20
942.062789
11
-516.540546
21
945.531634
0
LINE
8
Layer 1
10
-516.540546
20
945.531634
11
-515.946269
21
946.398393
0
LINE
8
Layer 1
10
-515.946269
20
946.398393
11
-515.345720
21
946.979289
0
LINE
8
Layer 1
10
-515.345720
20
946.979289
11
-513.761896
21
947.886691
0
LINE
8
Layer 1
10
-513.761896
20
947.886691
11
-512.025500
21
948.429849
0
LINE
8
Layer 1
10
-512.025500
20
948.429849
11
-511.255020
21
948.708383
0
LINE
8
Layer 1
10
-511.255020
20
948.708383
11
-510.862780
21
950.134653
0
LINE
8
Layer 1
10
-510.862780
20
950.134653
11
-510.416310
21
951.974863
0
LINE
8
Layer 1
10
-510.416310
20
951.974863
11
-510.238540
21
952.912271
0
LINE
8
Layer 1
10
-510.238540
20
952.912271
11
-510.344891
21
953.204519
0
LINE
8
Layer 1
10
-510.344891
20
953.204519
11
-510.953750
21
953.259530
0
LINE
8
Layer 1
10
-510.953750
20
953.259530
11
-512.329676
21
953.461419
0
LINE
8
Layer 1
10
-512.329676
20
953.461419
11
-513.555130
21
953.981973
0
LINE
8
Layer 1
10
-513.555130
20
953.981973
11
-514.056410
21
954.299783
0
LINE
8
Layer 1
10
-514.056410
20
954.299783
11
-514.017110
21
957.420513
0
LINE
8
Layer 1
10
-514.017110
20
957.420513
11
-514.062926
21
962.387044
0
LINE
8
Layer 1
10
-514.062926
20
962.387044
11
-514.332851
21
967.232829
0
LINE
8
Layer 1
10
-514.332851
20
967.232829
11
-514.832998
21
972.034307
0
LINE
8
Layer 1
10
-514.832998
20
972.034307
11
-515.569480
21
976.867913
0
LINE
8
Layer 1
10
-515.569480
20
976.867913
11
-516.560335
21
981.809620
0
LINE
8
Layer 1
10
-516.560335
20
981.809620
11
-517.340410
21
984.975433
0
LINE
8
Layer 1
10
-517.340410
20
984.975433
11
-518.060986
21
985.607575
0
LINE
8
Layer 1
10
-518.060986
20
985.607575
11
-519.335784
21
986.208174
0
LINE
8
Layer 1
10
-519.335784
20
986.208174
11
-520.757264
21
986.623638
0
LINE
8
Layer 1
10
-520.757264
20
986.623638
11
-521.917890
21
986.700373
0
LINE
8
Layer 1
10
-521.917890
20
986.700373
11
-521.648670
21
985.650813
0
LINE
8
Layer 1
10
-521.648670
20
985.650813
11
-519.806999
21
979.437074
0
LINE
8
Layer 1
10
-519.806999
20
979.437074
11
-518.517080
21
973.285713
0
LINE
8
Layer 1
10
-518.517080
20
973.285713
11
-517.918864
21
968.535745
0
LINE
8
Layer 1
10
-517.918864
20
968.535745
11
-517.672829
21
963.976791
0
LINE
8
Layer 1
10
-517.672829
20
963.976791
11
-517.784047
21
959.576185
0
LINE
8
Layer 1
10
-517.784047
20
959.576185
11
-518.257590
21
955.301263
0
LINE
8
Layer 1
10
-518.257590
20
955.301263
11
-519.098530
21
951.119359
0
LINE
8
Layer 1
10
-519.098530
20
951.119359
11
-520.311939
21
946.997810
0
LINE
8
Layer 1
10
-520.311939
20
946.997810
11
-521.902888
21
942.903949
0
LINE
8
Layer 1
10
-521.902888
20
942.903949
11
-523.876450
21
938.805113
0
LINE
8
Layer 1
10
-523.876450
20
938.805113
11
-525.074820
21
936.518433
0
LINE
8
Layer 1
10
-525.074820
20
936.518433
11
-525.312000
21
936.058000
0
LINE
8
Layer 1
10
-525.126000
20
878.551000
11
-524.067170
21
876.763520
0
LINE
8
Layer 1
10
-524.067170
20
876.763520
11
-523.079516
21
875.445733
0
LINE
8
Layer 1
10
-523.079516
20
875.445733
11
-522.880229
21
875.355990
0
LINE
8
Layer 1
10
-522.880229
20
875.355990
11
-522.713740
21
875.491760
0
LINE
8
Layer 1
10
-522.713740
20
875.491760
11
-521.502014
21
876.541394
0
LINE
8
Layer 1
10
-521.502014
20
876.541394
11
-519.823480
21
877.696290
0
LINE
8
Layer 1
10
-519.823480
20
877.696290
11
-517.773928
21
878.738941
0
LINE
8
Layer 1
10
-517.773928
20
878.738941
11
-515.484255
21
879.505112
0
LINE
8
Layer 1
10
-515.484255
20
879.505112
11
-512.975065
21
879.989445
0
LINE
8
Layer 1
10
-512.975065
20
879.989445
11
-510.266960
21
880.186580
0
LINE
8
Layer 1
10
-510.266960
20
880.186580
11
-507.981840
21
880.228480
0
LINE
8
Layer 1
10
-507.981840
20
880.228480
11
-507.282130
21
881.010340
0
LINE
8
Layer 1
10
-507.282130
20
881.010340
11
-505.837760
21
882.508450
0
LINE
8
Layer 1
10
-505.837760
20
882.508450
11
-505.178238
21
883.224080
0
LINE
8
Layer 1
10
-505.178238
20
883.224080
11
-505.139100
21
883.485654
0
LINE
8
Layer 1
10
-505.139100
20
883.485654
11
-506.236200
21
883.706326
0
LINE
8
Layer 1
10
-506.236200
20
883.706326
11
-509.488655
21
884.146218
0
LINE
8
Layer 1
10
-509.488655
20
884.146218
11
-512.558800
21
884.111478
0
LINE
8
Layer 1
10
-512.558800
20
884.111478
11
-514.845113
21
883.777104
0
LINE
8
Layer 1
10
-514.845113
20
883.777104
11
-516.970924
21
883.238274
0
LINE
8
Layer 1
10
-516.970924
20
883.238274
11
-519.031497
21
882.465155
0
LINE
8
Layer 1
10
-519.031497
20
882.465155
11
-521.122100
21
881.427918
0
LINE
8
Layer 1
10
-521.122100
20
881.427918
11
-523.754883
21
879.753135
0
LINE
8
Layer 1
10
-523.754883
20
879.753135
11
-524.722378
21
879.003749
0
LINE
8
Layer 1
10
-524.722378
20
879.003749
11
-525.126000
21
878.551088
0
LINE
8
Layer 1
10
-525.126000
20
878.551088
11
-525.126000
21
878.551000
0
LINE
8
Layer 1
10
-520.513000
20
921.880000
11
-519.002046
21
920.748255
0
LINE
8
Layer 1
10
-519.002046
20
920.748255
11
-517.321990
21
919.881170
0
LINE
8
Layer 1
10
-517.321990
20
919.881170
11
-517.017677
21
920.640881
0
LINE
8
Layer 1
10
-517.017677
20
920.640881
11
-516.599132
21
922.368397
0
LINE
8
Layer 1
10
-516.599132
20
922.368397
11
-515.878150
21
926.593920
0
LINE
8
Layer 1
10
-515.878150
20
926.593920
11
-515.806661
21
931.050709
0
LINE
8
Layer 1
10
-515.806661
20
931.050709
11
-516.041450
21
935.469360
0
LINE
8
Layer 1
10
-516.041450
20
935.469360
11
-517.296150
21
941.092290
0
LINE
8
Layer 1
10
-517.296150
20
941.092290
11
-517.435945
21
941.102781
0
LINE
8
Layer 1
10
-517.435945
20
941.102781
11
-517.644131
21
940.867204
0
LINE
8
Layer 1
10
-517.644131
20
940.867204
11
-518.285220
21
939.629340
0
LINE
8
Layer 1
10
-518.285220
20
939.629340
11
-519.039190
21
937.999460
0
LINE
8
Layer 1
10
-519.039190
20
937.999460
11
-519.467432
21
936.853263
0
LINE
8
Layer 1
10
-519.467432
20
936.853263
11
-519.334780
21
935.279220
0
LINE
8
Layer 1
10
-519.334780
20
935.279220
11
-519.046424
21
931.691799
0
LINE
8
Layer 1
10
-519.046424
20
931.691799
11
-519.180790
21
928.338550
0
LINE
8
Layer 1
10
-519.180790
20
928.338550
11
-519.664727
21
925.197965
0
LINE
8
Layer 1
10
-519.664727
20
925.197965
11
-520.272190
21
922.760580
0
LINE
8
Layer 1
10
-520.272190
20
922.760580
11
-520.513000
21
921.880025
0
LINE
8
Layer 1
10
-520.513000
20
921.880025
11
-520.513000
21
921.880000
0
LINE
8
Layer 1
10
-520.197000
20
903.917000
11
-520.104347
21
903.149103
0
LINE
8
Layer 1
10
-520.104347
20
903.149103
11
-519.705066
21
901.987692
0
LINE
8
Layer 1
10
-519.705066
20
901.987692
11
-518.327924
21
899.112328
0
LINE
8
Layer 1
10
-518.327924
20
899.112328
11
-516.748182
21
896.546920
0
LINE
8
Layer 1
10
-516.748182
20
896.546920
11
-516.095651
21
895.772953
0
LINE
8
Layer 1
10
-516.095651
20
895.772953
11
-515.648450
21
895.547480
0
LINE
8
Layer 1
10
-515.648450
20
895.547480
11
-514.302694
21
896.647158
0
LINE
8
Layer 1
10
-514.302694
20
896.647158
11
-513.145240
21
897.856380
0
LINE
8
Layer 1
10
-513.145240
20
897.856380
11
-513.651160
21
898.776729
0
LINE
8
Layer 1
10
-513.651160
20
898.776729
11
-514.829365
21
900.579424
0
LINE
8
Layer 1
10
-514.829365
20
900.579424
11
-515.697550
21
902.421989
0
LINE
8
Layer 1
10
-515.697550
20
902.421989
11
-515.969325
21
903.245275
0
LINE
8
Layer 1
10
-515.969325
20
903.245275
11
-516.013479
21
903.905570
0
LINE
8
Layer 1
10
-516.013479
20
903.905570
11
-515.798259
21
904.666787
0
LINE
8
Layer 1
10
-515.798259
20
904.666787
11
-515.291910
21
905.792839
0
LINE
8
Layer 1
10
-515.291910
20
905.792839
11
-513.956305
21
908.239845
0
LINE
8
Layer 1
10
-513.956305
20
908.239845
11
-512.371195
21
910.507325
0
LINE
8
Layer 1
10
-512.371195
20
910.507325
11
-510.592405
21
912.524157
0
LINE
8
Layer 1
10
-510.592405
20
912.524157
11
-508.675760
21
914.219219
0
LINE
8
Layer 1
10
-508.675760
20
914.219219
11
-507.533483
21
914.978456
0
LINE
8
Layer 1
10
-507.533483
20
914.978456
11
-506.565029
21
915.327139
0
LINE
8
Layer 1
10
-506.565029
20
915.327139
11
-505.668153
21
915.281923
0
LINE
8
Layer 1
10
-505.668153
20
915.281923
11
-504.740610
21
914.859462
0
LINE
8
Layer 1
10
-504.740610
20
914.859462
11
-503.939742
21
914.185941
0
LINE
8
Layer 1
10
-503.939742
20
914.185941
11
-503.363223
21
913.326540
0
LINE
8
Layer 1
10
-503.363223
20
913.326540
11
-503.041835
21
912.344380
0
LINE
8
Layer 1
10
-503.041835
20
912.344380
11
-503.006360
21
911.302582
0
LINE
8
Layer 1
10
-503.006360
20
911.302582
11
-503.351691
21
909.791310
0
LINE
8
Layer 1
10
-503.351691
20
909.791310
11
-503.902410
21
908.456752
0
LINE
8
Layer 1
10
-503.902410
20
908.456752
11
-504.415050
21
907.596347
0
LINE
8
Layer 1
10
-504.415050
20
907.596347
11
-504.514146
21
907.374983
0
LINE
8
Layer 1
10
-504.514146
20
907.374983
11
-504.451166
21
907.128501
0
LINE
8
Layer 1
10
-504.451166
20
907.128501
11
-503.520030
21
905.986117
0
LINE
8
Layer 1
10
-503.520030
20
905.986117
11
-502.170240
21
904.724187
0
LINE
8
Layer 1
10
-502.170240
20
904.724187
11
-501.734490
21
905.126257
0
LINE
8
Layer 1
10
-501.734490
20
905.126257
11
-501.102076
21
906.121892
0
LINE
8
Layer 1
10
-501.102076
20
906.121892
11
-499.961590
21
908.630407
0
LINE
8
Layer 1
10
-499.961590
20
908.630407
11
-499.464970
21
910.663367
0
LINE
8
Layer 1
10
-499.464970
20
910.663367
11
-499.348116
21
912.694607
0
LINE
8
Layer 1
10
-499.348116
20
912.694607
11
-499.629310
21
914.397497
0
LINE
8
Layer 1
10
-499.629310
20
914.397497
11
-500.177754
21
915.814702
0
LINE
8
Layer 1
10
-500.177754
20
915.814702
11
-500.908653
21
917.031332
0
LINE
8
Layer 1
10
-500.908653
20
917.031332
11
-501.796839
21
918.032228
0
LINE
8
Layer 1
10
-501.796839
20
918.032228
11
-502.817143
21
918.802227
0
LINE
8
Layer 1
10
-502.817143
20
918.802227
11
-503.944395
21
919.326170
0
LINE
8
Layer 1
10
-503.944395
20
919.326170
11
-505.153428
21
919.588897
0
LINE
8
Layer 1
10
-505.153428
20
919.588897
11
-506.419073
21
919.575246
0
LINE
8
Layer 1
10
-506.419073
20
919.575246
11
-507.716160
21
919.270057
0
LINE
8
Layer 1
10
-507.716160
20
919.270057
11
-509.189608
21
918.554156
0
LINE
8
Layer 1
10
-509.189608
20
918.554156
11
-510.784052
21
917.426232
0
LINE
8
Layer 1
10
-510.784052
20
917.426232
11
-512.438777
21
915.955351
0
LINE
8
Layer 1
10
-512.438777
20
915.955351
11
-514.093071
21
914.210581
0
LINE
8
Layer 1
10
-514.093071
20
914.210581
11
-515.686220
21
912.260989
0
LINE
8
Layer 1
10
-515.686220
20
912.260989
11
-517.157510
21
910.175643
0
LINE
8
Layer 1
10
-517.157510
20
910.175643
11
-518.446228
21
908.023610
0
LINE
8
Layer 1
10
-518.446228
20
908.023610
11
-519.491660
21
905.873957
0
LINE
8
Layer 1
10
-519.491660
20
905.873957
11
-520.197040
21
903.916957
0
LINE
8
Layer 1
10
-520.197040
20
903.916957
11
-520.197000
21
903.917000
0
LINE
8
Layer 1
10
-519.530000
20
857.566000
11
-519.081970
21
856.226550
0
LINE
8
Layer 1
10
-519.081970
20
856.226550
11
-518.333264
21
853.259449
0
LINE
8
Layer 1
10
-518.333264
20
853.259449
11
-517.976080
21
849.481740
0
LINE
8
Layer 1
10
-517.976080
20
849.481740
11
-517.727510
21
846.682940
0
LINE
8
Layer 1
10
-517.727510
20
846.682940
11
-515.971716
21
847.699531
0
LINE
8
Layer 1
10
-515.971716
20
847.699531
11
-514.253820
21
848.892110
0
LINE
8
Layer 1
10
-514.253820
20
848.892110
11
-514.134764
21
849.510319
0
LINE
8
Layer 1
10
-514.134764
20
849.510319
11
-514.134950
21
851.086810
0
LINE
8
Layer 1
10
-514.134950
20
851.086810
11
-514.181450
21
853.037590
0
LINE
8
Layer 1
10
-514.181450
20
853.037590
11
-513.425930
21
853.279961
0
LINE
8
Layer 1
10
-513.425930
20
853.279961
11
-510.092865
21
854.664625
0
LINE
8
Layer 1
10
-510.092865
20
854.664625
11
-506.738994
21
856.617856
0
LINE
8
Layer 1
10
-506.738994
20
856.617856
11
-503.668441
21
858.937417
0
LINE
8
Layer 1
10
-503.668441
20
858.937417
11
-501.185330
21
861.421071
0
LINE
8
Layer 1
10
-501.185330
20
861.421071
11
-500.143821
21
862.860746
0
LINE
8
Layer 1
10
-500.143821
20
862.860746
11
-499.822080
21
864.078271
0
LINE
8
Layer 1
10
-499.822080
20
864.078271
11
-499.805471
21
866.420715
0
LINE
8
Layer 1
10
-499.805471
20
866.420715
11
-499.937310
21
868.183951
0
LINE
8
Layer 1
10
-499.937310
20
868.183951
11
-501.270040
21
866.803151
0
LINE
8
Layer 1
10
-501.270040
20
866.803151
11
-503.019751
21
864.844126
0
LINE
8
Layer 1
10
-503.019751
20
864.844126
11
-504.715705
21
863.219255
0
LINE
8
Layer 1
10
-504.715705
20
863.219255
11
-506.474892
21
861.826349
0
LINE
8
Layer 1
10
-506.474892
20
861.826349
11
-508.414300
21
860.563221
0
LINE
8
Layer 1
10
-508.414300
20
860.563221
11
-509.994314
21
859.688584
0
LINE
8
Layer 1
10
-509.994314
20
859.688584
11
-511.215929
21
859.199746
0
LINE
8
Layer 1
10
-511.215929
20
859.199746
11
-512.267404
21
859.043180
0
LINE
8
Layer 1
10
-512.267404
20
859.043180
11
-513.337000
21
859.165361
0
LINE
8
Layer 1
10
-513.337000
20
859.165361
11
-514.470259
21
859.540587
0
LINE
8
Layer 1
10
-514.470259
20
859.540587
11
-515.468271
21
860.148136
0
LINE
8
Layer 1
10
-515.468271
20
860.148136
11
-516.316870
21
860.977042
0
LINE
8
Layer 1
10
-516.316870
20
860.977042
11
-517.001890
21
862.016341
0
LINE
8
Layer 1
10
-517.001890
20
862.016341
11
-517.407560
21
862.789931
0
LINE
8
Layer 1
10
-517.407560
20
862.789931
11
-518.468990
21
860.178211
0
LINE
8
Layer 1
10
-518.468990
20
860.178211
11
-519.530000
21
857.566000
0
LINE
8
Layer 1
10
-518.497000
20
892.620000
11
-518.247920
21
892.154912
0
LINE
8
Layer 1
10
-518.247920
20
892.154912
11
-517.414360
21
890.425302
0
LINE
8
Layer 1
10
-517.414360
20
890.425302
11
-516.726040
21
889.160262
0
LINE
8
Layer 1
10
-516.726040
20
889.160262
11
-515.277851
21
889.991218
0
LINE
8
Layer 1
10
-515.277851
20
889.991218
11
-513.242030
21
891.423172
0
LINE
8
Layer 1
10
-513.242030
20
891.423172
11
-511.577747
21
892.881794
0
LINE
8
Layer 1
10
-511.577747
20
892.881794
11
-509.881664
21
894.630108
0
LINE
8
Layer 1
10
-509.881664
20
894.630108
11
-508.193386
21
896.624327
0
LINE
8
Layer 1
10
-508.193386
20
896.624327
11
-506.552520
21
898.820662
0
LINE
8
Layer 1
10
-506.552520
20
898.820662
11
-505.848690
21
899.922402
0
LINE
8
Layer 1
10
-505.848690
20
899.922402
11
-506.638196
21
901.242048
0
LINE
8
Layer 1
10
-506.638196
20
901.242048
11
-507.675960
21
902.602332
0
LINE
8
Layer 1
10
-507.675960
20
902.602332
11
-508.005670
21
902.866408
0
LINE
8
Layer 1
10
-508.005670
20
902.866408
11
-508.574090
21
902.031844
0
LINE
8
Layer 1
10
-508.574090
20
902.031844
11
-511.089120
21
898.851238
0
LINE
8
Layer 1
10
-511.089120
20
898.851238
11
-513.788260
21
895.956764
0
LINE
8
Layer 1
10
-513.788260
20
895.956764
11
-515.237846
21
894.765657
0
LINE
8
Layer 1
10
-515.237846
20
894.765657
11
-516.823730
21
893.663884
0
LINE
8
Layer 1
10
-516.823730
20
893.663884
11
-518.497000
21
892.620000
0
LINE
8
Layer 1
10
-517.623000
20
815.854000
11
-517.590674
21
815.628132
0
LINE
8
Layer 1
10
-517.590674
20
815.628132
11
-517.472090
21
815.602353
0
LINE
8
Layer 1
10
-517.472090
20
815.602353
11
-515.915610
21
816.364560
0
LINE
8
Layer 1
10
-515.915610
20
816.364560
11
-514.176299
21
817.316383
0
LINE
8
Layer 1
10
-514.176299
20
817.316383
11
-512.669998
21
818.373296
0
LINE
8
Layer 1
10
-512.669998
20
818.373296
11
-511.349505
21
819.572929
0
LINE
8
Layer 1
10
-511.349505
20
819.572929
11
-510.167620
21
820.952910
0
LINE
8
Layer 1
10
-510.167620
20
820.952910
11
-509.081363
21
822.559078
0
LINE
8
Layer 1
10
-509.081363
20
822.559078
11
-508.081657
21
824.397030
0
LINE
8
Layer 1
10
-508.081657
20
824.397030
11
-507.178566
21
826.435716
0
LINE
8
Layer 1
10
-507.178566
20
826.435716
11
-506.382156
21
828.644086
0
LINE
8
Layer 1
10
-506.382156
20
828.644086
11
-505.702492
21
830.991091
0
LINE
8
Layer 1
10
-505.702492
20
830.991091
11
-505.149638
21
833.445679
0
LINE
8
Layer 1
10
-505.149638
20
833.445679
11
-504.733659
21
835.976802
0
LINE
8
Layer 1
10
-504.733659
20
835.976802
11
-504.464620
21
838.553410
0
LINE
8
Layer 1
10
-504.464620
20
838.553410
11
-504.416575
21
842.919229
0
LINE
8
Layer 1
10
-504.416575
20
842.919229
11
-504.652210
21
847.516700
0
LINE
8
Layer 1
10
-504.652210
20
847.516700
11
-505.374558
21
852.614295
0
LINE
8
Layer 1
10
-505.374558
20
852.614295
11
-505.772406
21
854.634091
0
LINE
8
Layer 1
10
-505.772406
20
854.634091
11
-506.072800
21
855.606640
0
LINE
8
Layer 1
10
-506.072800
20
855.606640
11
-507.035540
21
855.188061
0
LINE
8
Layer 1
10
-507.035540
20
855.188061
11
-508.520190
21
854.395337
0
LINE
8
Layer 1
10
-508.520190
20
854.395337
11
-508.914823
21
854.203278
0
LINE
8
Layer 1
10
-508.914823
20
854.203278
11
-509.060013
21
853.894467
0
LINE
8
Layer 1
10
-509.060013
20
853.894467
11
-508.667990
21
851.743817
0
LINE
8
Layer 1
10
-508.667990
20
851.743817
11
-508.335881
21
849.802526
0
LINE
8
Layer 1
10
-508.335881
20
849.802526
11
-508.118444
21
847.560892
0
LINE
8
Layer 1
10
-508.118444
20
847.560892
11
-508.016340
21
842.006937
0
LINE
8
Layer 1
10
-508.016340
20
842.006937
11
-508.135251
21
838.668110
0
LINE
8
Layer 1
10
-508.135251
20
838.668110
11
-508.384678
21
835.964687
0
LINE
8
Layer 1
10
-508.384678
20
835.964687
11
-508.806383
21
833.579714
0
LINE
8
Layer 1
10
-508.806383
20
833.579714
11
-509.442130
21
831.196237
0
LINE
8
Layer 1
10
-509.442130
20
831.196237
11
-510.066980
21
829.396105
0
LINE
8
Layer 1
10
-510.066980
20
829.396105
11
-510.803906
21
827.735254
0
LINE
8
Layer 1
10
-510.803906
20
827.735254
11
-511.650852
21
826.217912
0
LINE
8
Layer 1
10
-511.650852
20
826.217912
11
-512.605760
21
824.848307
0
LINE
8
Layer 1
10
-512.605760
20
824.848307
11
-513.914560
21
823.463850
0
LINE
8
Layer 1
10
-513.914560
20
823.463850
11
-516.018450
21
821.765297
0
LINE
8
Layer 1
10
-516.018450
20
821.765297
11
-516.425959
21
821.206341
0
LINE
8
Layer 1
10
-516.425959
20
821.206341
11
-516.830310
21
819.465187
0
LINE
8
Layer 1
10
-516.830310
20
819.465187
11
-517.431810
21
816.800757
0
LINE
8
Layer 1
10
-517.431810
20
816.800757
11
-517.623000
21
815.854040
0
LINE
8
Layer 1
10
-517.623000
20
815.854040
11
-517.623000
21
815.854000
0
LINE
8
Layer 1
10
-515.437000
20
923.842000
11
-515.157837
21
923.666011
0
LINE
8
Layer 1
10
-515.157837
20
923.666011
11
-514.274280
21
923.489576
0
LINE
8
Layer 1
10
-514.274280
20
923.489576
11
-510.546350
21
923.281324
0
LINE
8
Layer 1
10
-510.546350
20
923.281324
11
-507.155120
21
923.515009
0
LINE
8
Layer 1
10
-507.155120
20
923.515009
11
-505.763202
21
923.837982
0
LINE
8
Layer 1
10
-505.763202
20
923.837982
11
-504.396320
21
924.328814
0
LINE
8
Layer 1
10
-504.396320
20
924.328814
11
-502.891600
21
925.083827
0
LINE
8
Layer 1
10
-502.891600
20
925.083827
11
-501.518419
21
926.029657
0
LINE
8
Layer 1
10
-501.518419
20
926.029657
11
-500.293570
21
927.142186
0
LINE
8
Layer 1
10
-500.293570
20
927.142186
11
-499.233850
21
928.397294
0
LINE
8
Layer 1
10
-499.233850
20
928.397294
11
-499.234000
21
937.888000
0
LINE
8
Layer 1
10
-499.234000
20
937.888000
11
-499.258300
21
937.921110
0
LINE
8
Layer 1
10
-499.258300
20
937.921110
11
-499.649217
21
938.311571
0
LINE
8
Layer 1
10
-499.649217
20
938.311571
11
-499.830870
21
938.227537
0
LINE
8
Layer 1
10
-499.830870
20
938.227537
11
-499.950740
21
937.539214
0
LINE
8
Layer 1
10
-499.950740
20
937.539214
11
-500.252404
21
935.826276
0
LINE
8
Layer 1
10
-500.252404
20
935.826276
11
-500.963620
21
933.656764
0
LINE
8
Layer 1
10
-500.963620
20
933.656764
11
-501.743913
21
932.106185
0
LINE
8
Layer 1
10
-501.743913
20
932.106185
11
-502.748522
21
930.737419
0
LINE
8
Layer 1
10
-502.748522
20
930.737419
11
-503.951443
21
929.565648
0
LINE
8
Layer 1
10
-503.951443
20
929.565648
11
-505.326674
21
928.606054
0
LINE
8
Layer 1
10
-505.326674
20
928.606054
11
-506.848210
21
927.873819
0
LINE
8
Layer 1
10
-506.848210
20
927.873819
11
-508.490049
21
927.384124
0
LINE
8
Layer 1
10
-508.490049
20
927.384124
11
-510.226186
21
927.152152
0
LINE
8
Layer 1
10
-510.226186
20
927.152152
11
-512.030620
21
927.193084
0
LINE
8
Layer 1
10
-512.030620
20
927.193084
11
-514.072330
21
927.499511
0
LINE
8
Layer 1
10
-514.072330
20
927.499511
11
-514.814731
21
927.564744
0
LINE
8
Layer 1
10
-514.814731
20
927.564744
11
-514.957434
21
927.389004
0
LINE
8
Layer 1
10
-514.957434
20
927.389004
11
-514.996830
21
927.050437
0
LINE
8
Layer 1
10
-514.996830
20
927.050437
11
-515.433510
21
924.026347
0
LINE
8
Layer 1
10
-515.433510
20
924.026347
11
-515.437510
21
923.841860
0
LINE
8
Layer 1
10
-515.437510
20
923.841860
11
-515.437000
21
923.842000
0
LINE
8
Layer 1
10
-513.367000
20
959.907000
11
-512.646120
21
959.631550
0
LINE
8
Layer 1
10
-512.646120
20
959.631550
11
-510.279845
21
958.569178
0
LINE
8
Layer 1
10
-510.279845
20
958.569178
11
-507.998684
21
957.234934
0
LINE
8
Layer 1
10
-507.998684
20
957.234934
11
-505.869403
21
955.672598
0
LINE
8
Layer 1
10
-505.869403
20
955.672598
11
-503.958770
21
953.925950
0
LINE
8
Layer 1
10
-503.958770
20
953.925950
11
-501.953201
21
951.430514
0
LINE
8
Layer 1
10
-501.953201
20
951.430514
11
-500.362090
21
948.545910
0
LINE
8
Layer 1
10
-500.362090
20
948.545910
11
-499.863071
21
947.601317
0
LINE
8
Layer 1
10
-499.863071
20
947.601317
11
-499.234010
21
946.860240
0
LINE
8
Layer 1
10
-499.234010
20
946.860240
11
-499.234000
21
954.396000
0
LINE
8
Layer 1
10
-499.234000
20
954.396000
11
-500.720611
21
956.376021
0
LINE
8
Layer 1
10
-500.720611
20
956.376021
11
-502.456551
21
958.218636
0
LINE
8
Layer 1
10
-502.456551
20
958.218636
11
-504.406296
21
959.888198
0
LINE
8
Layer 1
10
-504.406296
20
959.888198
11
-506.534320
21
961.349060
0
LINE
8
Layer 1
10
-506.534320
20
961.349060
11
-510.366330
21
963.393480
0
LINE
8
Layer 1
10
-510.366330
20
963.393480
11
-513.161300
21
964.604680
0
LINE
8
Layer 1
10
-513.161300
20
964.604680
11
-513.270038
21
964.529435
0
LINE
8
Layer 1
10
-513.270038
20
964.529435
11
-513.332222
21
964.208301
0
LINE
8
Layer 1
10
-513.332222
20
964.208301
11
-513.366960
21
962.255980
0
LINE
8
Layer 1
10
-513.366960
20
962.255980
11
-513.367000
21
959.907000
0
LINE
8
Layer 1
10
-512.343000
20
908.732000
11
-511.110520
21
907.414770
0
LINE
8
Layer 1
10
-511.110520
20
907.414770
11
-508.339830
21
904.564307
0
LINE
8
Layer 1
10
-508.339830
20
904.564307
11
-505.963437
21
901.560684
0
LINE
8
Layer 1
10
-505.963437
20
901.560684
11
-504.199206
21
898.711904
0
LINE
8
Layer 1
10
-504.199206
20
898.711904
11
-503.614734
21
897.441831
0
LINE
8
Layer 1
10
-503.614734
20
897.441831
11
-503.265000
21
896.325970
0
LINE
8
Layer 1
10
-503.265000
20
896.325970
11
-503.105143
21
895.171107
0
LINE
8
Layer 1
10
-503.105143
20
895.171107
11
-503.172002
21
894.179936
0
LINE
8
Layer 1
10
-503.172002
20
894.179936
11
-503.471395
21
893.323467
0
LINE
8
Layer 1
10
-503.471395
20
893.323467
11
-504.009140
21
892.572710
0
LINE
8
Layer 1
10
-504.009140
20
892.572710
11
-504.945014
21
891.920622
0
LINE
8
Layer 1
10
-504.945014
20
891.920622
11
-506.139750
21
891.792925
0
LINE
8
Layer 1
10
-506.139750
20
891.792925
11
-506.845004
21
891.942712
0
LINE
8
Layer 1
10
-506.845004
20
891.942712
11
-507.609447
21
892.265154
0
LINE
8
Layer 1
10
-507.609447
20
892.265154
11
-509.030530
21
893.281205
0
LINE
8
Layer 1
10
-509.030530
20
893.281205
11
-509.471279
21
893.642285
0
LINE
8
Layer 1
10
-509.471279
20
893.642285
11
-509.737960
21
893.570573
0
LINE
8
Layer 1
10
-509.737960
20
893.570573
11
-512.113540
21
891.147473
0
LINE
8
Layer 1
10
-512.113540
20
891.147473
11
-511.233881
21
890.261736
0
LINE
8
Layer 1
10
-511.233881
20
890.261736
11
-509.637710
21
889.130013
0
LINE
8
Layer 1
10
-509.637710
20
889.130013
11
-508.498831
21
888.546330
0
LINE
8
Layer 1
10
-508.498831
20
888.546330
11
-507.434440
21
888.170011
0
LINE
8
Layer 1
10
-507.434440
20
888.170011
11
-506.384022
21
887.984951
0
LINE
8
Layer 1
10
-506.384022
20
887.984951
11
-505.287060
21
887.975043
0
LINE
8
Layer 1
10
-505.287060
20
887.975043
11
-504.154963
21
888.137601
0
LINE
8
Layer 1
10
-504.154963
20
888.137601
11
-503.134149
21
888.471977
0
LINE
8
Layer 1
10
-503.134149
20
888.471977
11
-502.228743
21
888.973924
0
LINE
8
Layer 1
10
-502.228743
20
888.973924
11
-501.442876
21
889.639195
0
LINE
8
Layer 1
10
-501.442876
20
889.639195
11
-500.780675
21
890.463543
0
LINE
8
Layer 1
10
-500.780675
20
890.463543
11
-500.246268
21
891.442722
0
LINE
8
Layer 1
10
-500.246268
20
891.442722
11
-499.843784
21
892.572484
0
LINE
8
Layer 1
10
-499.843784
20
892.572484
11
-499.577350
21
893.848583
0
LINE
8
Layer 1
10
-499.577350
20
893.848583
11
-499.511607
21
895.624610
0
LINE
8
Layer 1
10
-499.511607
20
895.624610
11
-499.792280
21
897.527486
0
LINE
8
Layer 1
10
-499.792280
20
897.527486
11
-500.398400
21
899.466245
0
LINE
8
Layer 1
10
-500.398400
20
899.466245
11
-501.309000
21
901.349923
0
LINE
8
Layer 1
10
-501.309000
20
901.349923
11
-503.724385
21
904.782978
0
LINE
8
Layer 1
10
-503.724385
20
904.782978
11
-506.552630
21
908.117993
0
LINE
8
Layer 1
10
-506.552630
20
908.117993
11
-508.937469
21
910.384547
0
LINE
8
Layer 1
10
-508.937469
20
910.384547
11
-510.261950
21
911.394273
0
LINE
8
Layer 1
10
-510.261950
20
911.394273
11
-511.416497
21
910.161442
0
LINE
8
Layer 1
10
-511.416497
20
910.161442
11
-512.342970
21
908.731893
0
LINE
8
Layer 1
10
-512.342970
20
908.731893
11
-512.343000
21
908.732000
0
LINE
8
Layer 1
10
-511.409000
20
939.303000
11
-511.355906
21
936.284300
0
LINE
8
Layer 1
10
-511.355906
20
936.284300
11
-511.080850
21
934.531180
0
LINE
8
Layer 1
10
-511.080850
20
934.531180
11
-510.346321
21
931.993991
0
LINE
8
Layer 1
10
-510.346321
20
931.993991
11
-509.463390
21
930.054980
0
LINE
8
Layer 1
10
-509.463390
20
930.054980
11
-508.587576
21
928.812629
0
LINE
8
Layer 1
10
-508.587576
20
928.812629
11
-508.034000
21
928.415790
0
LINE
8
Layer 1
10
-508.034000
20
928.415790
11
-507.023821
21
928.732650
0
LINE
8
Layer 1
10
-507.023821
20
928.732650
11
-505.534430
21
929.487570
0
LINE
8
Layer 1
10
-505.534430
20
929.487570
11
-505.534000
21
929.488000
0
LINE
8
Layer 1
10
-505.534000
20
929.488000
11
-504.716990
21
930.049737
0
LINE
8
Layer 1
10
-504.716990
20
930.049737
11
-505.536080
21
931.216577
0
LINE
8
Layer 1
10
-505.536080
20
931.216577
11
-506.224556
21
932.276438
0
LINE
8
Layer 1
10
-506.224556
20
932.276438
11
-506.842081
21
933.524021
0
LINE
8
Layer 1
10
-506.842081
20
933.524021
11
-507.747290
21
936.313437
0
LINE
8
Layer 1
10
-507.747290
20
936.313437
11
-507.966103
21
937.783658
0
LINE
8
Layer 1
10
-507.966103
20
937.783658
11
-508.014470
21
940.070307
0
LINE
8
Layer 1
10
-508.014470
20
940.070307
11
-507.901195
21
942.856212
0
LINE
8
Layer 1
10
-507.901195
20
942.856212
11
-507.559149
21
945.591375
0
LINE
8
Layer 1
10
-507.559149
20
945.591375
11
-506.978248
21
948.336253
0
LINE
8
Layer 1
10
-506.978248
20
948.336253
11
-506.148410
21
951.151307
0
LINE
8
Layer 1
10
-506.148410
20
951.151307
11
-505.391360
21
953.187347
0
LINE
8
Layer 1
10
-505.391360
20
953.187347
11
-505.250791
21
953.562996
0
LINE
8
Layer 1
10
-505.250791
20
953.562996
11
-505.421360
21
953.894287
0
LINE
8
Layer 1
10
-505.421360
20
953.894287
11
-506.925834
21
955.259264
0
LINE
8
Layer 1
10
-506.925834
20
955.259264
11
-508.348820
21
956.171147
0
LINE
8
Layer 1
10
-508.348820
20
956.171147
11
-508.472935
21
956.089977
0
LINE
8
Layer 1
10
-508.472935
20
956.089977
11
-508.633044
21
955.687915
0
LINE
8
Layer 1
10
-508.633044
20
955.687915
11
-509.362190
21
952.969787
0
LINE
8
Layer 1
10
-509.362190
20
952.969787
11
-510.406021
21
948.505072
0
LINE
8
Layer 1
10
-510.406021
20
948.505072
11
-511.136240
21
944.463837
0
LINE
8
Layer 1
10
-511.136240
20
944.463837
11
-511.360119
21
942.331488
0
LINE
8
Layer 1
10
-511.360119
20
942.331488
11
-511.409090
21
939.303437
0
LINE
8
Layer 1
10
-511.409090
20
939.303437
11
-511.409000
21
939.303000
0
LINE
8
Layer 1
10
-511.351000
20
866.368000
11
-511.105550
21
863.120140
0
LINE
8
Layer 1
10
-511.105550
20
863.120140
11
-510.723130
21
860.768850
0
LINE
8
Layer 1
10
-510.723130
20
860.768850
11
-510.525426
21
860.677681
0
LINE
8
Layer 1
10
-510.525426
20
860.677681
11
-510.114252
21
860.770482
0
LINE
8
Layer 1
10
-510.114252
20
860.770482
11
-508.635420
21
861.513509
0
LINE
8
Layer 1
10
-508.635420
20
861.513509
11
-507.696980
21
862.058187
0
LINE
8
Layer 1
10
-507.696980
20
862.058187
11
-507.771880
21
862.919637
0
LINE
8
Layer 1
10
-507.771880
20
862.919637
11
-507.917528
21
865.909861
0
LINE
8
Layer 1
10
-507.917528
20
865.909861
11
-507.798694
21
868.615267
0
LINE
8
Layer 1
10
-507.798694
20
868.615267
11
-507.401737
21
871.070708
0
LINE
8
Layer 1
10
-507.401737
20
871.070708
11
-506.713016
21
873.311038
0
LINE
8
Layer 1
10
-506.713016
20
873.311038
11
-505.718890
21
875.371112
0
LINE
8
Layer 1
10
-505.718890
20
875.371112
11
-504.405718
21
877.285784
0
LINE
8
Layer 1
10
-504.405718
20
877.285784
11
-502.759859
21
879.089908
0
LINE
8
Layer 1
10
-502.759859
20
879.089908
11
-500.767670
21
880.818337
0
LINE
8
Layer 1
10
-500.767670
20
880.818337
11
-499.233910
21
882.039467
0
LINE
8
Layer 1
10
-499.233910
20
882.039467
11
-499.234000
21
887.067000
0
LINE
8
Layer 1
10
-499.234000
20
887.067000
11
-501.394590
21
885.250560
0
LINE
8
Layer 1
10
-501.394590
20
885.250560
11
-504.713671
21
882.434471
0
LINE
8
Layer 1
10
-504.713671
20
882.434471
11
-506.689360
21
880.349040
0
LINE
8
Layer 1
10
-506.689360
20
880.349040
11
-508.719216
21
877.594038
0
LINE
8
Layer 1
10
-508.719216
20
877.594038
11
-509.499618
21
876.159696
0
LINE
8
Layer 1
10
-509.499618
20
876.159696
11
-510.132735
21
874.662690
0
LINE
8
Layer 1
10
-510.132735
20
874.662690
11
-510.625366
21
873.084440
0
LINE
8
Layer 1
10
-510.625366
20
873.084440
11
-510.984309
21
871.406367
0
LINE
8
Layer 1
10
-510.984309
20
871.406367
11
-511.328330
21
867.676440
0
LINE
8
Layer 1
10
-511.328330
20
867.676440
11
-511.351030
21
866.368000
0
LINE
8
Layer 1
10
-511.351030
20
866.368000
11
-511.351000
21
866.368000
0
LINE
8
Layer 1
10
-506.597000
20
946.671000
11
-506.377360
21
946.401256
0
LINE
8
Layer 1
10
-506.377360
20
946.401256
11
-504.822981
21
945.160322
0
LINE
8
Layer 1
10
-504.822981
20
945.160322
11
-502.710400
21
943.236066
0
LINE
8
Layer 1
10
-502.710400
20
943.236066
11
-500.062510
21
940.229536
0
LINE
8
Layer 1
10
-500.062510
20
940.229536
11
-499.233630
21
939.147446
0
LINE
8
Layer 1
10
-499.233630
20
939.147446
11
-499.234000
21
945.708000
0
LINE
8
Layer 1
10
-499.234000
20
945.708000
11
-501.326556
21
947.661661
0
LINE
8
Layer 1
10
-501.326556
20
947.661661
11
-503.617690
21
949.485040
0
LINE
8
Layer 1
10
-503.617690
20
949.485040
11
-505.165855
21
950.532639
0
LINE
8
Layer 1
10
-505.165855
20
950.532639
11
-505.492320
21
950.629307
0
LINE
8
Layer 1
10
-505.492320
20
950.629307
11
-505.651690
21
950.507190
0
LINE
8
Layer 1
10
-505.651690
20
950.507190
11
-506.597370
21
946.671250
0
LINE
8
Layer 1
10
-506.597370
20
946.671250
11
-506.597000
21
946.671000
0
LINE
8
Layer 1
10
-504.157000
20
852.586000
11
-504.037650
21
851.575200
0
LINE
8
Layer 1
10
-504.037650
20
851.575200
11
-503.838150
21
849.502450
0
LINE
8
Layer 1
10
-503.838150
20
849.502450
11
-503.720870
21
848.759835
0
LINE
8
Layer 1
10
-503.720870
20
848.759835
11
-503.238730
21
849.087433
0
LINE
8
Layer 1
10
-503.238730
20
849.087433
11
-502.282703
21
850.051686
0
LINE
8
Layer 1
10
-502.282703
20
850.051686
11
-500.224450
21
852.518775
0
LINE
8
Layer 1
10
-500.224450
20
852.518775
11
-499.233300
21
854.028755
0
LINE
8
Layer 1
10
-499.233300
20
854.028755
11
-499.234000
21
863.495000
0
LINE
8
Layer 1
10
-499.234000
20
863.495000
11
-500.010406
21
860.365871
0
LINE
8
Layer 1
10
-500.010406
20
860.365871
11
-501.241620
21
857.462290
0
LINE
8
Layer 1
10
-501.241620
20
857.462290
11
-502.522380
21
855.434426
0
LINE
8
Layer 1
10
-502.522380
20
855.434426
11
-503.721060
21
853.974650
0
LINE
8
Layer 1
10
-503.721060
20
853.974650
11
-504.104954
21
853.462420
0
LINE
8
Layer 1
10
-504.104954
20
853.462420
11
-504.157730
21
852.585580
0
LINE
8
Layer 1
10
-504.157730
20
852.585580
11
-504.157000
21
852.586000
0
LINE
8
Layer 1
10
-503.384000
20
923.508000
11
-502.585600
21
923.047071
0
LINE
8
Layer 1
10
-502.585600
20
923.047071
11
-500.140290
21
921.519511
0
LINE
8
Layer 1
10
-500.140290
20
921.519511
11
-499.233370
21
920.824473
0
LINE
8
Layer 1
10
-499.233370
20
920.824473
11
-499.234000
21
925.513000
0
LINE
8
Layer 1
10
-499.234000
20
925.513000
11
-499.783830
21
925.816856
0
LINE
8
Layer 1
10
-499.783830
20
925.816856
11
-500.123020
21
925.816215
0
LINE
8
Layer 1
10
-500.123020
20
925.816215
11
-500.641130
21
925.487671
0
LINE
8
Layer 1
10
-500.641130
20
925.487671
11
-502.361960
21
924.335821
0
LINE
8
Layer 1
10
-502.361960
20
924.335821
11
-503.384630
21
923.508474
0
LINE
8
Layer 1
10
-503.384630
20
923.508474
11
-503.384000
21
923.508000
0
LINE
8
Layer 1
10
-503.087000
20
877.447000
11
-502.574890
21
876.654794
0
LINE
8
Layer 1
10
-502.574890
20
876.654794
11
-501.646104
21
875.403602
0
LINE
8
Layer 1
10
-501.646104
20
875.403602
11
-500.800525
21
873.972860
0
LINE
8
Layer 1
10
-500.800525
20
873.972860
11
-500.091776
21
872.463926
0
LINE
8
Layer 1
10
-500.091776
20
872.463926
11
-499.573480
21
870.978154
0
LINE
8
Layer 1
10
-499.573480
20
870.978154
11
-499.233970
21
869.151894
0
LINE
8
Layer 1
10
-499.233970
20
869.151894
11
-499.234010
21
878.833994
0
LINE
8
Layer 1
10
-499.234010
20
878.833994
11
-499.421570
21
879.148172
0
LINE
8
Layer 1
10
-499.421570
20
879.148172
11
-499.794350
21
879.645421
0
LINE
8
Layer 1
10
-499.794350
20
879.645421
11
-500.113806
21
879.864275
0
LINE
8
Layer 1
10
-500.113806
20
879.864275
11
-500.461929
21
879.827136
0
LINE
8
Layer 1
10
-500.461929
20
879.827136
11
-500.920710
21
879.556406
0
LINE
8
Layer 1
10
-500.920710
20
879.556406
11
-502.314152
21
878.368294
0
LINE
8
Layer 1
10
-502.314152
20
878.368294
11
-503.087000
21
877.446966
0
LINE
8
Layer 1
10
-503.087000
20
877.446966
11
-503.087000
21
877.447000
0
LINE
8
Layer 1
10
-65.973700
20
485.332000
11
114.026000
21
485.332000
0
LINE
8
Layer 1
10
-806.742000
20
774.366000
11
-777.742000
21
796.366000
0
LINE
8
Layer 1
10
-777.742000
20
796.366000
11
-763.742000
21
821.366000
0
LINE
8
Layer 1
10
-763.742000
20
821.366000
11
-758.742000
21
838.366000
0
LINE
8
Layer 1
10
-758.742000
20
838.366000
11
-760.742000
21
959.366000
0
LINE
8
Layer 1
10
-760.742000
20
959.366000
11
-779.742000
21
998.366000
0
LINE
8
Layer 1
10
-779.742000
20
998.366000
11
-808.742000
21
1014.366000
0
LINE
8
Layer 1
10
-808.742000
20
1014.366000
11
-812.742000
21
1007.366000
0
LINE
8
Layer 1
10
-812.742000
20
1007.366000
11
-811.742000
21
980.366000
0
LINE
8
Layer 1
10
-811.742000
20
980.366000
11
-814.742000
21
954.366000
0
LINE
8
Layer 1
10
-814.742000
20
954.366000
11
-822.742000
21
934.366000
0
LINE
8
Layer 1
10
-822.742000
20
934.366000
11
-834.742000
21
917.366000
0
LINE
8
Layer 1
10
-834.742000
20
917.366000
11
-845.742000
21
902.366000
0
LINE
8
Layer 1
10
-845.742000
20
902.366000
11
-849.742000
21
894.366000
0
LINE
8
Layer 1
10
-849.742000
20
894.366000
11
-828.742000
21
865.366000
0
LINE
8
Layer 1
10
-828.742000
20
865.366000
11
-819.742000
21
854.366000
0
LINE
8
Layer 1
10
-819.742000
20
854.366000
11
-812.742000
21
834.366000
0
LINE
8
Layer 1
10
-812.742000
20
834.366000
11
-811.742000
21
815.366000
0
LINE
8
Layer 1
10
-811.742000
20
815.366000
11
-811.742000
21
794.366000
0
LINE
8
Layer 1
10
-811.742000
20
794.366000
11
-811.742000
21
779.366000
0
LINE
8
Layer 1
10
-811.742000
20
779.366000
11
-806.742000
21
774.366000
0
LINE
8
Layer 1
10
-556.877000
20
1028.810000
11
-556.438280
21
1026.681760
0
LINE
8
Layer 1
10
-556.438280
20
1026.681760
11
-555.542410
21
1021.912482
0
LINE
8
Layer 1
10
-555.542410
20
1021.912482
11
-554.877271
21
1017.272682
0
LINE
8
Layer 1
10
-554.877271
20
1017.272682
11
-554.420507
21
1012.576322
0
LINE
8
Layer 1
10
-554.420507
20
1012.576322
11
-554.149760
21
1007.637360
0
LINE
8
Layer 1
10
-554.149760
20
1007.637360
11
-554.057225
21
1002.263787
0
LINE
8
Layer 1
10
-554.057225
20
1002.263787
11
-554.224460
21
997.176460
0
LINE
8
Layer 1
10
-554.224460
20
997.176460
11
-554.564792
21
992.641513
0
LINE
8
Layer 1
10
-554.564792
20
992.641513
11
-555.085797
21
988.128316
0
LINE
8
Layer 1
10
-555.085797
20
988.128316
11
-555.786959
21
983.639222
0
LINE
8
Layer 1
10
-555.786959
20
983.639222
11
-556.667765
21
979.176585
0
LINE
8
Layer 1
10
-556.667765
20
979.176585
11
-557.727701
21
974.742757
0
LINE
8
Layer 1
10
-557.727701
20
974.742757
11
-558.966253
21
970.340091
0
LINE
8
Layer 1
10
-558.966253
20
970.340091
11
-560.382908
21
965.970941
0
LINE
8
Layer 1
10
-560.382908
20
965.970941
11
-561.977150
21
961.637660
0
LINE
8
Layer 1
10
-561.977150
20
961.637660
11
-564.530733
21
955.673061
0
LINE
8
Layer 1
10
-564.530733
20
955.673061
11
-567.390540
21
949.829460
0
LINE
8
Layer 1
10
-567.390540
20
949.829460
11
-569.913920
21
945.418240
0
LINE
8
Layer 1
10
-569.913920
20
945.418240
11
-572.826640
21
950.030840
0
LINE
8
Layer 1
10
-572.826640
20
950.030840
11
-575.102268
21
954.145904
0
LINE
8
Layer 1
10
-575.102268
20
954.145904
11
-577.236790
21
958.320630
0
LINE
8
Layer 1
10
-577.236790
20
958.320630
11
-579.077169
21
962.353952
0
LINE
8
Layer 1
10
-579.077169
20
962.353952
11
-580.756625
21
966.438822
0
LINE
8
Layer 1
10
-580.756625
20
966.438822
11
-582.274545
21
970.570973
0
LINE
8
Layer 1
10
-582.274545
20
970.570973
11
-583.630318
21
974.746136
0
LINE
8
Layer 1
10
-583.630318
20
974.746136
11
-584.823333
21
978.960044
0
LINE
8
Layer 1
10
-584.823333
20
978.960044
11
-585.852978
21
983.208428
0
LINE
8
Layer 1
10
-585.852978
20
983.208428
11
-586.718642
21
987.487021
0
LINE
8
Layer 1
10
-586.718642
20
987.487021
11
-587.419714
21
991.791555
0
LINE
8
Layer 1
10
-587.419714
20
991.791555
11
-587.955581
21
996.117761
0
LINE
8
Layer 1
10
-587.955581
20
996.117761
11
-588.325633
21
1000.461372
0
LINE
8
Layer 1
10
-588.325633
20
1000.461372
11
-588.529258
21
1004.818120
0
LINE
8
Layer 1
10
-588.529258
20
1004.818120
11
-588.565845
21
1009.183736
0
LINE
8
Layer 1
10
-588.565845
20
1009.183736
11
-588.434782
21
1013.553953
0
LINE
8
Layer 1
10
-588.434782
20
1013.553953
11
-588.135458
21
1017.924503
0
LINE
8
Layer 1
10
-588.135458
20
1017.924503
11
-587.667261
21
1022.291118
0
LINE
8
Layer 1
10
-587.667261
20
1022.291118
11
-587.029580
21
1026.649530
0
LINE
8
Layer 1
10
-587.029580
20
1026.649530
11
-586.734990
21
1028.296930
0
LINE
8
Layer 1
10
-586.734990
20
1028.296930
11
-586.165620
21
1028.283530
0
LINE
8
Layer 1
10
-586.165620
20
1028.283530
11
-585.622660
21
1028.238130
0
LINE
8
Layer 1
10
-585.622660
20
1028.238130
11
-585.801760
21
1027.244280
0
LINE
8
Layer 1
10
-585.801760
20
1027.244280
11
-586.446709
21
1023.162187
0
LINE
8
Layer 1
10
-586.446709
20
1023.162187
11
-586.932330
21
1018.973452
0
LINE
8
Layer 1
10
-586.932330
20
1018.973452
11
-587.258089
21
1014.705287
0
LINE
8
Layer 1
10
-587.258089
20
1014.705287
11
-587.423455
21
1010.384905
0
LINE
8
Layer 1
10
-587.423455
20
1010.384905
11
-587.427895
21
1006.039520
0
LINE
8
Layer 1
10
-587.427895
20
1006.039520
11
-587.270878
21
1001.696346
0
LINE
8
Layer 1
10
-587.270878
20
1001.696346
11
-586.951870
21
997.382594
0
LINE
8
Layer 1
10
-586.951870
20
997.382594
11
-586.470340
21
993.125480
0
LINE
8
Layer 1
10
-586.470340
20
993.125480
11
-585.552691
21
987.386349
0
LINE
8
Layer 1
10
-585.552691
20
987.386349
11
-584.340222
21
981.701425
0
LINE
8
Layer 1
10
-584.340222
20
981.701425
11
-582.837486
21
976.083676
0
LINE
8
Layer 1
10
-582.837486
20
976.083676
11
-581.049040
21
970.546068
0
LINE
8
Layer 1
10
-581.049040
20
970.546068
11
-578.979437
21
965.101567
0
LINE
8
Layer 1
10
-578.979437
20
965.101567
11
-576.633233
21
959.763141
0
LINE
8
Layer 1
10
-576.633233
20
959.763141
11
-574.014982
21
954.543756
0
LINE
8
Layer 1
10
-574.014982
20
954.543756
11
-571.129240
21
949.456380
0
LINE
8
Layer 1
10
-571.129240
20
949.456380
11
-569.981620
21
947.548640
0
LINE
8
Layer 1
10
-569.981620
20
947.548640
11
-569.735740
21
947.964297
0
LINE
8
Layer 1
10
-569.735740
20
947.964297
11
-568.621000
21
950.009207
0
LINE
8
Layer 1
10
-568.621000
20
950.009207
11
-565.859080
21
955.538344
0
LINE
8
Layer 1
10
-565.859080
20
955.538344
11
-563.407203
21
961.183277
0
LINE
8
Layer 1
10
-563.407203
20
961.183277
11
-561.268125
21
966.934254
0
LINE
8
Layer 1
10
-561.268125
20
966.934254
11
-559.444603
21
972.781520
0
LINE
8
Layer 1
10
-559.444603
20
972.781520
11
-557.939392
21
978.715321
0
LINE
8
Layer 1
10
-557.939392
20
978.715321
11
-556.755251
21
984.725905
0
LINE
8
Layer 1
10
-556.755251
20
984.725905
11
-555.894935
21
990.803519
0
LINE
8
Layer 1
10
-555.894935
20
990.803519
11
-555.361200
21
996.938407
0
LINE
8
Layer 1
10
-555.361200
20
996.938407
11
-555.190396
21
1001.217766
0
LINE
8
Layer 1
10
-555.190396
20
1001.217766
11
-555.238060
21
1006.172417
0
LINE
8
Layer 1
10
-555.238060
20
1006.172417
11
-555.420877
21
1011.134316
0
LINE
8
Layer 1
10
-555.420877
20
1011.134316
11
-555.790190
21
1015.390757
0
LINE
8
Layer 1
10
-555.790190
20
1015.390757
11
-556.655286
21
1021.740421
0
LINE
8
Layer 1
10
-556.655286
20
1021.740421
11
-557.805750
21
1027.750957
0
LINE
8
Layer 1
10
-557.805750
20
1027.750957
11
-558.091880
21
1029.035827
0
LINE
8
Layer 1
10
-558.091880
20
1029.035827
11
-557.511260
21
1029.070527
0
LINE
8
Layer 1
10
-557.511260
20
1029.070527
11
-556.929840
21
1029.084027
0
LINE
8
Layer 1
10
-556.929840
20
1029.084027
11
-556.877000
21
1028.810000
0
LINE
8
Layer 1
10
-608.402000
20
978.797000
11
-606.351854
21
975.083971
0
LINE
8
Layer 1
10
-606.351854
20
975.083971
11
-604.443462
21
971.305057
0
LINE
8
Layer 1
10
-604.443462
20
971.305057
11
-602.677963
21
967.465113
0
LINE
8
Layer 1
10
-602.677963
20
967.465113
11
-601.056495
21
963.568992
0
LINE
8
Layer 1
10
-601.056495
20
963.568992
11
-599.580198
21
959.621550
0
LINE
8
Layer 1
10
-599.580198
20
959.621550
11
-598.250209
21
955.627641
0
LINE
8
Layer 1
10
-598.250209
20
955.627641
11
-597.067668
21
951.592118
0
LINE
8
Layer 1
10
-597.067668
20
951.592118
11
-596.033713
21
947.519837
0
LINE
8
Layer 1
10
-596.033713
20
947.519837
11
-595.149482
21
943.415652
0
LINE
8
Layer 1
10
-595.149482
20
943.415652
11
-594.416114
21
939.284417
0
LINE
8
Layer 1
10
-594.416114
20
939.284417
11
-593.834749
21
935.130986
0
LINE
8
Layer 1
10
-593.834749
20
935.130986
11
-593.406523
21
930.960214
0
LINE
8
Layer 1
10
-593.406523
20
930.960214
11
-593.132577
21
926.776955
0
LINE
8
Layer 1
10
-593.132577
20
926.776955
11
-593.014049
21
922.586063
0
LINE
8
Layer 1
10
-593.014049
20
922.586063
11
-593.052077
21
918.392394
0
LINE
8
Layer 1
10
-593.052077
20
918.392394
11
-593.247800
21
914.200800
0
LINE
8
Layer 1
10
-593.247800
20
914.200800
11
-593.917049
21
907.301790
0
LINE
8
Layer 1
10
-593.917049
20
907.301790
11
-594.925140
21
900.878700
0
LINE
8
Layer 1
10
-594.925140
20
900.878700
11
-595.061610
21
900.183464
0
LINE
8
Layer 1
10
-595.061610
20
900.183464
11
-595.595880
21
900.309959
0
LINE
8
Layer 1
10
-595.595880
20
900.309959
11
-596.130120
21
900.436440
0
LINE
8
Layer 1
10
-596.130120
20
900.436440
11
-595.854030
21
902.007000
0
LINE
8
Layer 1
10
-595.854030
20
902.007000
11
-594.937556
21
908.199384
0
LINE
8
Layer 1
10
-594.937556
20
908.199384
11
-594.365543
21
914.387677
0
LINE
8
Layer 1
10
-594.365543
20
914.387677
11
-594.137871
21
920.569315
0
LINE
8
Layer 1
10
-594.137871
20
920.569315
11
-594.254419
21
926.741737
0
LINE
8
Layer 1
10
-594.254419
20
926.741737
11
-594.715066
21
932.902380
0
LINE
8
Layer 1
10
-594.715066
20
932.902380
11
-595.519693
21
939.048680
0
LINE
8
Layer 1
10
-595.519693
20
939.048680
11
-596.668177
21
945.178074
0
LINE
8
Layer 1
10
-596.668177
20
945.178074
11
-598.160400
21
951.288000
0
LINE
8
Layer 1
10
-598.160400
20
951.288000
11
-599.936311
21
957.134310
0
LINE
8
Layer 1
10
-599.936311
20
957.134310
11
-602.062534
21
962.977593
0
LINE
8
Layer 1
10
-602.062534
20
962.977593
11
-604.487292
21
968.686403
0
LINE
8
Layer 1
10
-604.487292
20
968.686403
11
-607.158810
21
974.129300
0
LINE
8
Layer 1
10
-607.158810
20
974.129300
11
-608.784240
21
977.007630
0
LINE
8
Layer 1
10
-608.784240
20
977.007630
11
-609.709960
21
975.640720
0
LINE
8
Layer 1
10
-609.709960
20
975.640720
11
-613.525004
21
969.230387
0
LINE
8
Layer 1
10
-613.525004
20
969.230387
11
-616.864516
21
962.532560
0
LINE
8
Layer 1
10
-616.864516
20
962.532560
11
-619.718001
21
955.570388
0
LINE
8
Layer 1
10
-619.718001
20
955.570388
11
-622.074960
21
948.367020
0
LINE
8
Layer 1
10
-622.074960
20
948.367020
11
-623.318655
21
943.359564
0
LINE
8
Layer 1
10
-623.318655
20
943.359564
11
-624.379800
21
938.330020
0
LINE
8
Layer 1
10
-624.379800
20
938.330020
11
-625.022713
21
934.100594
0
LINE
8
Layer 1
10
-625.022713
20
934.100594
11
-625.488236
21
929.899664
0
LINE
8
Layer 1
10
-625.488236
20
929.899664
11
-625.776407
21
925.719874
0
LINE
8
Layer 1
10
-625.776407
20
925.719874
11
-625.887266
21
921.553870
0
LINE
8
Layer 1
10
-625.887266
20
921.553870
11
-625.820852
21
917.394297
0
LINE
8
Layer 1
10
-625.820852
20
917.394297
11
-625.577204
21
913.233801
0
LINE
8
Layer 1
10
-625.577204
20
913.233801
11
-625.156360
21
909.065027
0
LINE
8
Layer 1
10
-625.156360
20
909.065027
11
-624.558360
21
904.880620
0
LINE
8
Layer 1
10
-624.558360
20
904.880620
11
-623.977300
21
901.646670
0
LINE
8
Layer 1
10
-623.977300
20
901.646670
11
-623.738750
21
900.324590
0
LINE
8
Layer 1
10
-623.738750
20
900.324590
11
-624.209450
21
900.253590
0
LINE
8
Layer 1
10
-624.209450
20
900.253590
11
-624.748970
21
900.244790
0
LINE
8
Layer 1
10
-624.748970
20
900.244790
11
-625.399361
21
903.187668
0
LINE
8
Layer 1
10
-625.399361
20
903.187668
11
-626.239720
21
908.637030
0
LINE
8
Layer 1
10
-626.239720
20
908.637030
11
-626.846360
21
915.365465
0
LINE
8
Layer 1
10
-626.846360
20
915.365465
11
-626.997764
21
922.221311
0
LINE
8
Layer 1
10
-626.997764
20
922.221311
11
-626.695431
21
929.067867
0
LINE
8
Layer 1
10
-626.695431
20
929.067867
11
-625.940860
21
935.768430
0
LINE
8
Layer 1
10
-625.940860
20
935.768430
11
-625.279179
21
939.627345
0
LINE
8
Layer 1
10
-625.279179
20
939.627345
11
-624.428113
21
943.671646
0
LINE
8
Layer 1
10
-624.428113
20
943.671646
11
-623.440339
21
947.670889
0
LINE
8
Layer 1
10
-623.440339
20
947.670889
11
-622.368540
21
951.394630
0
LINE
8
Layer 1
10
-622.368540
20
951.394630
11
-619.951033
21
958.247069
0
LINE
8
Layer 1
10
-619.951033
20
958.247069
11
-617.035140
21
964.925143
0
LINE
8
Layer 1
10
-617.035140
20
964.925143
11
-613.624022
21
971.422260
0
LINE
8
Layer 1
10
-613.624022
20
971.422260
11
-609.720840
21
977.731830
0
LINE
8
Layer 1
10
-609.720840
20
977.731830
11
-608.675890
21
979.252230
0
LINE
8
Layer 1
10
-608.675890
20
979.252230
11
-608.401960
21
978.796990
0
LINE
8
Layer 1
10
-608.401960
20
978.796990
11
-608.402000
21
978.797000
0
LINE
8
Layer 1
10
-572.723000
20
871.700000
11
-572.010110
21
870.676730
0
LINE
8
Layer 1
10
-572.010110
20
870.676730
11
-569.747158
21
867.271849
0
LINE
8
Layer 1
10
-569.747158
20
867.271849
11
-567.627331
21
863.786872
0
LINE
8
Layer 1
10
-567.627331
20
863.786872
11
-565.650767
21
860.222087
0
LINE
8
Layer 1
10
-565.650767
20
860.222087
11
-563.817604
21
856.577781
0
LINE
8
Layer 1
10
-563.817604
20
856.577781
11
-562.127979
21
852.854245
0
LINE
8
Layer 1
10
-562.127979
20
852.854245
11
-560.582030
21
849.051765
0
LINE
8
Layer 1
10
-560.582030
20
849.051765
11
-559.179894
21
845.170631
0
LINE
8
Layer 1
10
-559.179894
20
845.170631
11
-557.921710
21
841.211130
0
LINE
8
Layer 1
10
-557.921710
20
841.211130
11
-556.623687
21
836.157789
0
LINE
8
Layer 1
10
-556.623687
20
836.157789
11
-555.505200
21
831.069130
0
LINE
8
Layer 1
10
-555.505200
20
831.069130
11
-554.787185
21
826.553689
0
LINE
8
Layer 1
10
-554.787185
20
826.553689
11
-554.269875
21
822.043685
0
LINE
8
Layer 1
10
-554.269875
20
822.043685
11
-553.953274
21
817.540493
0
LINE
8
Layer 1
10
-553.953274
20
817.540493
11
-553.837387
21
813.045492
0
LINE
8
Layer 1
10
-553.837387
20
813.045492
11
-553.922218
21
808.560059
0
LINE
8
Layer 1
10
-553.922218
20
808.560059
11
-554.207771
21
804.085569
0
LINE
8
Layer 1
10
-554.207771
20
804.085569
11
-554.694050
21
799.623401
0
LINE
8
Layer 1
10
-554.694050
20
799.623401
11
-555.381060
21
795.174930
0
LINE
8
Layer 1
10
-555.381060
20
795.174930
11
-555.651742
21
793.802046
0
LINE
8
Layer 1
10
-555.651742
20
793.802046
11
-555.747866
21
793.623759
0
LINE
8
Layer 1
10
-555.747866
20
793.623759
11
-555.879900
21
793.586690
0
LINE
8
Layer 1
10
-555.879900
20
793.586690
11
-556.766530
21
793.648990
0
LINE
8
Layer 1
10
-556.766530
20
793.648990
11
-556.429800
21
795.668900
0
LINE
8
Layer 1
10
-556.429800
20
795.668900
11
-555.542280
21
802.042712
0
LINE
8
Layer 1
10
-555.542280
20
802.042712
11
-555.043380
21
808.380000
0
LINE
8
Layer 1
10
-555.043380
20
808.380000
11
-554.967644
21
814.151782
0
LINE
8
Layer 1
10
-554.967644
20
814.151782
11
-555.226106
21
819.942384
0
LINE
8
Layer 1
10
-555.226106
20
819.942384
11
-555.816836
21
825.725544
0
LINE
8
Layer 1
10
-555.816836
20
825.725544
11
-556.737900
21
831.475000
0
LINE
8
Layer 1
10
-556.737900
20
831.475000
11
-557.808955
21
836.225000
0
LINE
8
Layer 1
10
-557.808955
20
836.225000
11
-559.034990
21
840.935430
0
LINE
8
Layer 1
10
-559.034990
20
840.935430
11
-561.117192
21
847.204019
0
LINE
8
Layer 1
10
-561.117192
20
847.204019
11
-563.581456
21
853.290634
0
LINE
8
Layer 1
10
-563.581456
20
853.290634
11
-566.426362
21
859.192072
0
LINE
8
Layer 1
10
-566.426362
20
859.192072
11
-569.650490
21
864.905130
0
LINE
8
Layer 1
10
-569.650490
20
864.905130
11
-572.593850
21
869.434630
0
LINE
8
Layer 1
10
-572.593850
20
869.434630
11
-574.362490
21
866.198710
0
LINE
8
Layer 1
10
-574.362490
20
866.198710
11
-576.404599
21
861.972825
0
LINE
8
Layer 1
10
-576.404599
20
861.972825
11
-578.242427
21
857.737231
0
LINE
8
Layer 1
10
-578.242427
20
857.737231
11
-579.898047
21
853.438002
0
LINE
8
Layer 1
10
-579.898047
20
853.438002
11
-581.393530
21
849.021210
0
LINE
8
Layer 1
10
-581.393530
20
849.021210
11
-583.216197
21
842.640484
0
LINE
8
Layer 1
10
-583.216197
20
842.640484
11
-584.658453
21
836.216554
0
LINE
8
Layer 1
10
-584.658453
20
836.216554
11
-585.719768
21
829.756464
0
LINE
8
Layer 1
10
-585.719768
20
829.756464
11
-586.399611
21
823.267260
0
LINE
8
Layer 1
10
-586.399611
20
823.267260
11
-586.697454
21
816.755987
0
LINE
8
Layer 1
10
-586.697454
20
816.755987
11
-586.612766
21
810.229691
0
LINE
8
Layer 1
10
-586.612766
20
810.229691
11
-586.145018
21
803.695417
0
LINE
8
Layer 1
10
-586.145018
20
803.695417
11
-585.293680
21
797.160210
0
LINE
8
Layer 1
10
-585.293680
20
797.160210
11
-585.005100
21
795.353130
0
LINE
8
Layer 1
10
-585.005100
20
795.353130
11
-585.552590
21
795.286200
0
LINE
8
Layer 1
10
-585.552590
20
795.286200
11
-586.100040
21
795.219240
0
LINE
8
Layer 1
10
-586.100040
20
795.219240
11
-586.199240
21
795.773088
0
LINE
8
Layer 1
10
-586.199240
20
795.773088
11
-586.585810
21
798.242238
0
LINE
8
Layer 1
10
-586.585810
20
798.242238
11
-587.156526
21
802.639519
0
LINE
8
Layer 1
10
-587.156526
20
802.639519
11
-587.552934
21
807.058997
0
LINE
8
Layer 1
10
-587.552934
20
807.058997
11
-587.775094
21
811.494052
0
LINE
8
Layer 1
10
-587.775094
20
811.494052
11
-587.823062
21
815.938063
0
LINE
8
Layer 1
10
-587.823062
20
815.938063
11
-587.696899
21
820.384408
0
LINE
8
Layer 1
10
-587.696899
20
820.384408
11
-587.396662
21
824.826466
0
LINE
8
Layer 1
10
-587.396662
20
824.826466
11
-586.922410
21
829.257617
0
LINE
8
Layer 1
10
-586.922410
20
829.257617
11
-586.274200
21
833.671238
0
LINE
8
Layer 1
10
-586.274200
20
833.671238
11
-585.416477
21
838.225162
0
LINE
8
Layer 1
10
-585.416477
20
838.225162
11
-584.369681
21
842.754593
0
LINE
8
Layer 1
10
-584.369681
20
842.754593
11
-583.138004
21
847.247205
0
LINE
8
Layer 1
10
-583.138004
20
847.247205
11
-581.725637
21
851.690675
0
LINE
8
Layer 1
10
-581.725637
20
851.690675
11
-580.136772
21
856.072678
0
LINE
8
Layer 1
10
-580.136772
20
856.072678
11
-578.375600
21
860.380890
0
LINE
8
Layer 1
10
-578.375600
20
860.380890
11
-576.446312
21
864.602984
0
LINE
8
Layer 1
10
-576.446312
20
864.602984
11
-574.353100
21
868.726638
0
LINE
8
Layer 1
10
-574.353100
20
868.726638
11
-572.722970
21
871.700088
0
LINE
8
Layer 1
10
-572.722970
20
871.700088
11
-572.723000
21
871.700000
0
LINE
8
Layer 1
10
-603.571000
20
888.962000
11
-610.140860
21
888.886836
0
LINE
8
Layer 1
10
-610.140860
20
888.886836
11
-613.440690
21
888.661249
0
LINE
8
Layer 1
10
-613.440690
20
888.661249
11
-613.552716
21
888.261591
0
LINE
8
Layer 1
10
-613.552716
20
888.261591
11
-613.351790
21
887.870081
0
LINE
8
Layer 1
10
-613.351790
20
887.870081
11
-612.534810
21
886.577141
0
LINE
8
Layer 1
10
-612.534810
20
886.577141
11
-609.514761
21
881.158133
0
LINE
8
Layer 1
10
-609.514761
20
881.158133
11
-606.665390
21
876.567441
0
LINE
8
Layer 1
10
-606.665390
20
876.567441
11
-604.552840
21
873.659101
0
LINE
8
Layer 1
10
-604.552840
20
873.659101
11
-604.309533
21
873.607602
0
LINE
8
Layer 1
10
-604.309533
20
873.607602
11
-604.020556
21
873.751688
0
LINE
8
Layer 1
10
-604.020556
20
873.751688
11
-602.698200
21
875.098801
0
LINE
8
Layer 1
10
-602.698200
20
875.098801
11
-599.525219
21
878.790605
0
LINE
8
Layer 1
10
-599.525219
20
878.790605
11
-595.946150
21
883.665721
0
LINE
8
Layer 1
10
-595.946150
20
883.665721
11
-593.563860
21
886.994201
0
LINE
8
Layer 1
10
-593.563860
20
886.994201
11
-592.808370
21
888.120241
0
LINE
8
Layer 1
10
-592.808370
20
888.120241
11
-592.956160
21
888.407030
0
LINE
8
Layer 1
10
-592.956160
20
888.407030
11
-593.894654
21
888.623318
0
LINE
8
Layer 1
10
-593.894654
20
888.623318
11
-598.100020
21
888.857149
0
LINE
8
Layer 1
10
-598.100020
20
888.857149
11
-603.571000
21
888.962038
0
LINE
8
Layer 1
10
-603.571000
20
888.962038
11
-603.571000
21
888.962000
0
LINE
8
Layer 1
10
-612.739950
20
888.639551
11
-612.683650
21
888.592541
0
LINE
8
Layer 1
10
-612.683650
20
888.592541
11
-612.623150
21
888.512451
0
LINE
8
Layer 1
10
-612.623150
20
888.512451
11
-612.594250
21
888.459751
0
LINE
8
Layer 1
10
-612.594250
20
888.459751
11
-612.582350
21
888.426651
0
LINE
8
Layer 1
10
-612.582350
20
888.426651
11
-612.574350
21
888.400851
0
LINE
8
Layer 1
10
-612.574350
20
888.400851
11
-612.570350
21
888.383241
0
LINE
8
Layer 1
10
-612.570350
20
888.383241
11
-612.568350
21
888.365651
0
LINE
8
Layer 1
10
-612.568350
20
888.365651
11
-612.568000
21
888.365000
0
LINE
8
Layer 1
10
-612.568000
20
888.365000
11
-612.569000
21
888.365000
0
LINE
8
Layer 1
10
-612.569000
20
888.365000
11
-612.740060
21
888.639384
0
LINE
8
Layer 1
10
-612.740060
20
888.639384
11
-612.739950
21
888.639551
0
LINE
8
Layer 1
10
-603.584950
20
887.951212
11
-598.146530
21
887.858212
0
LINE
8
Layer 1
10
-598.146530
20
887.858212
11
-594.335890
21
887.633419
0
LINE
8
Layer 1
10
-594.335890
20
887.633419
11
-594.365290
21
887.592629
0
LINE
8
Layer 1
10
-594.365290
20
887.592629
11
-596.765650
21
884.240899
0
LINE
8
Layer 1
10
-596.765650
20
884.240899
11
-600.310481
21
879.410095
0
LINE
8
Layer 1
10
-600.310481
20
879.410095
11
-603.431390
21
875.777859
0
LINE
8
Layer 1
10
-603.431390
20
875.777859
11
-604.283020
21
874.902981
0
LINE
8
Layer 1
10
-604.283020
20
874.902981
11
-604.480430
21
875.164456
0
LINE
8
Layer 1
10
-604.480430
20
875.164456
11
-605.833860
21
877.119896
0
LINE
8
Layer 1
10
-605.833860
20
877.119896
11
-608.653798
21
881.664021
0
LINE
8
Layer 1
10
-608.653798
20
881.664021
11
-611.652100
21
887.045386
0
LINE
8
Layer 1
10
-611.652100
20
887.045386
11
-612.140440
21
887.750754
0
LINE
8
Layer 1
10
-612.140440
20
887.750754
11
-603.584900
21
887.951269
0
LINE
8
Layer 1
10
-603.584900
20
887.951269
11
-603.584950
21
887.951212
 0 
ENDSEC
 0 
EOF