999
"DXF R12 Output" (www.mydxf.blogspot.com)
 0 
SECTION
 2 
HEADER
 9 
$ACADVER
 1 
AC1009
 9 
$EXTMIN
 10 
 0 
 20 
 0 
 9 
$EXTMAX
 10 
 8.5 
 20 
 11 
 0 
ENDSEC
 0 
SECTION
 2 
ENTITIES
0
LINE
8
Layer 1
10
-572.250000
20
718.671000
11
-572.250000
21
709.115000
0
LINE
8
Layer 1
10
-572.250000
20
709.115000
11
-567.750000
21
709.115000
0
LINE
8
Layer 1
10
-567.750000
20
709.115000
11
-567.750000
21
699.560000
0
LINE
8
Layer 1
10
-567.750000
20
699.560000
11
-572.250000
21
699.560000
0
LINE
8
Layer 1
10
-572.250000
20
699.560000
11
-572.250000
21
690.004000
0
LINE
8
Layer 1
10
-572.250000
20
690.004000
11
-567.750000
21
690.004000
0
LINE
8
Layer 1
10
-567.750000
20
690.004000
11
-567.750000
21
680.448000
0
LINE
8
Layer 1
10
-567.750000
20
680.448000
11
-572.250000
21
680.448000
0
LINE
8
Layer 1
10
-572.250000
20
680.448000
11
-572.250000
21
670.893000
0
LINE
8
Layer 1
10
-572.250000
20
670.893000
11
-567.750000
21
670.893000
0
LINE
8
Layer 1
10
-567.750000
20
670.893000
11
-567.750000
21
661.337000
0
LINE
8
Layer 1
10
-567.750000
20
661.337000
11
-572.250000
21
661.337000
0
LINE
8
Layer 1
10
-572.250000
20
661.337000
11
-572.250000
21
651.782000
0
LINE
8
Layer 1
10
-572.250000
20
651.782000
11
-567.750000
21
651.782000
0
LINE
8
Layer 1
10
-567.750000
20
651.782000
11
-567.750000
21
642.226000
0
LINE
8
Layer 1
10
-567.750000
20
642.226000
11
-572.250000
21
642.226000
0
LINE
8
Layer 1
10
-572.250000
20
642.226000
11
-572.250000
21
632.671000
0
LINE
8
Layer 1
10
-572.250000
20
632.671000
11
-567.750000
21
632.671000
0
LINE
8
Layer 1
10
-567.750000
20
632.671000
11
-567.750000
21
623.115000
0
LINE
8
Layer 1
10
-567.750000
20
623.115000
11
-572.250000
21
623.115000
0
LINE
8
Layer 1
10
-572.250000
20
623.115000
11
-572.250000
21
613.560000
0
LINE
8
Layer 1
10
-572.250000
20
613.560000
11
-567.750000
21
613.560000
0
LINE
8
Layer 1
10
-567.750000
20
613.560000
11
-567.750000
21
604.004000
0
LINE
8
Layer 1
10
-567.750000
20
604.004000
11
-572.250000
21
604.004000
0
LINE
8
Layer 1
10
-572.250000
20
604.004000
11
-572.250000
21
594.449000
0
LINE
8
Layer 1
10
-572.250000
20
594.449000
11
-567.750000
21
594.449000
0
LINE
8
Layer 1
10
-567.750000
20
594.449000
11
-567.750000
21
584.893000
0
LINE
8
Layer 1
10
-567.750000
20
584.893000
11
-572.250000
21
584.893000
0
LINE
8
Layer 1
10
-572.250000
20
584.893000
11
-572.250000
21
575.338000
0
LINE
8
Layer 1
10
-572.250000
20
575.338000
11
-567.750000
21
575.338000
0
LINE
8
Layer 1
10
-567.750000
20
575.338000
11
-567.750000
21
565.782000
0
LINE
8
Layer 1
10
-567.750000
20
565.782000
11
-572.250000
21
565.782000
0
LINE
8
Layer 1
10
-572.250000
20
565.782000
11
-572.250000
21
556.227000
0
LINE
8
Layer 1
10
-572.250000
20
556.227000
11
-567.750000
21
556.227000
0
LINE
8
Layer 1
10
-567.750000
20
556.227000
11
-567.750000
21
546.671000
0
LINE
8
Layer 1
10
-567.750000
20
546.671000
11
-572.250000
21
546.671000
0
LINE
8
Layer 1
10
-572.250000
20
546.671000
11
-572.250000
21
537.115000
0
LINE
8
Layer 1
10
-572.250000
20
537.115000
11
-562.393000
21
537.115000
0
LINE
8
Layer 1
10
-562.393000
20
537.115000
11
-562.393000
21
541.615000
0
LINE
8
Layer 1
10
-562.393000
20
541.615000
11
-552.536000
21
541.615000
0
LINE
8
Layer 1
10
-552.536000
20
541.615000
11
-552.536000
21
537.115000
0
LINE
8
Layer 1
10
-552.536000
20
537.115000
11
-542.678000
21
537.115000
0
LINE
8
Layer 1
10
-542.678000
20
537.115000
11
-542.678000
21
541.615000
0
LINE
8
Layer 1
10
-542.678000
20
541.615000
11
-532.821000
21
541.615000
0
LINE
8
Layer 1
10
-532.821000
20
541.615000
11
-532.821000
21
537.115000
0
LINE
8
Layer 1
10
-532.821000
20
537.115000
11
-522.964000
21
537.115000
0
LINE
8
Layer 1
10
-522.964000
20
537.115000
11
-522.964000
21
541.615000
0
LINE
8
Layer 1
10
-522.964000
20
541.615000
11
-513.107000
21
541.615000
0
LINE
8
Layer 1
10
-513.107000
20
541.615000
11
-513.107000
21
537.115000
0
LINE
8
Layer 1
10
-513.107000
20
537.115000
11
-503.250000
21
537.115000
0
LINE
8
Layer 1
10
-503.250000
20
537.115000
11
-503.250000
21
546.671000
0
LINE
8
Layer 1
10
-503.250000
20
546.671000
11
-507.750000
21
546.671000
0
LINE
8
Layer 1
10
-507.750000
20
546.671000
11
-507.750000
21
556.227000
0
LINE
8
Layer 1
10
-507.750000
20
556.227000
11
-503.250000
21
556.227000
0
LINE
8
Layer 1
10
-503.250000
20
556.227000
11
-503.250000
21
565.782000
0
LINE
8
Layer 1
10
-503.250000
20
565.782000
11
-507.750000
21
565.782000
0
LINE
8
Layer 1
10
-507.750000
20
565.782000
11
-507.750000
21
575.338000
0
LINE
8
Layer 1
10
-507.750000
20
575.338000
11
-503.250000
21
575.338000
0
LINE
8
Layer 1
10
-503.250000
20
575.338000
11
-503.250000
21
584.893000
0
LINE
8
Layer 1
10
-503.250000
20
584.893000
11
-507.750000
21
584.893000
0
LINE
8
Layer 1
10
-507.750000
20
584.893000
11
-507.750000
21
594.449000
0
LINE
8
Layer 1
10
-507.750000
20
594.449000
11
-503.250000
21
594.449000
0
LINE
8
Layer 1
10
-503.250000
20
594.449000
11
-503.250000
21
604.004000
0
LINE
8
Layer 1
10
-503.250000
20
604.004000
11
-507.750000
21
604.004000
0
LINE
8
Layer 1
10
-507.750000
20
604.004000
11
-507.750000
21
613.560000
0
LINE
8
Layer 1
10
-507.750000
20
613.560000
11
-503.250000
21
613.560000
0
LINE
8
Layer 1
10
-503.250000
20
613.560000
11
-503.250000
21
623.115000
0
LINE
8
Layer 1
10
-503.250000
20
623.115000
11
-507.750000
21
623.115000
0
LINE
8
Layer 1
10
-507.750000
20
623.115000
11
-507.750000
21
632.671000
0
LINE
8
Layer 1
10
-507.750000
20
632.671000
11
-503.250000
21
632.671000
0
LINE
8
Layer 1
10
-503.250000
20
632.671000
11
-503.250000
21
642.226000
0
LINE
8
Layer 1
10
-503.250000
20
642.226000
11
-507.750000
21
642.226000
0
LINE
8
Layer 1
10
-507.750000
20
642.226000
11
-507.750000
21
651.782000
0
LINE
8
Layer 1
10
-507.750000
20
651.782000
11
-503.250000
21
651.782000
0
LINE
8
Layer 1
10
-503.250000
20
651.782000
11
-503.250000
21
661.337000
0
LINE
8
Layer 1
10
-503.250000
20
661.337000
11
-507.750000
21
661.337000
0
LINE
8
Layer 1
10
-507.750000
20
661.337000
11
-507.750000
21
670.893000
0
LINE
8
Layer 1
10
-507.750000
20
670.893000
11
-503.250000
21
670.893000
0
LINE
8
Layer 1
10
-503.250000
20
670.893000
11
-503.250000
21
680.448000
0
LINE
8
Layer 1
10
-503.250000
20
680.448000
11
-507.750000
21
680.448000
0
LINE
8
Layer 1
10
-507.750000
20
680.448000
11
-507.750000
21
690.004000
0
LINE
8
Layer 1
10
-507.750000
20
690.004000
11
-503.250000
21
690.004000
0
LINE
8
Layer 1
10
-503.250000
20
690.004000
11
-503.250000
21
699.560000
0
LINE
8
Layer 1
10
-503.250000
20
699.560000
11
-507.750000
21
699.560000
0
LINE
8
Layer 1
10
-507.750000
20
699.560000
11
-507.750000
21
709.115000
0
LINE
8
Layer 1
10
-507.750000
20
709.115000
11
-503.250000
21
709.115000
0
LINE
8
Layer 1
10
-503.250000
20
709.115000
11
-503.250000
21
718.671000
0
LINE
8
Layer 1
10
-503.250000
20
718.671000
11
-507.750000
21
718.671000
0
LINE
8
Layer 1
10
-507.750000
20
718.671000
11
-507.750000
21
728.226000
0
LINE
8
Layer 1
10
-507.750000
20
728.226000
11
-503.250000
21
728.226000
0
LINE
8
Layer 1
10
-503.250000
20
728.226000
11
-503.250000
21
737.782000
0
LINE
8
Layer 1
10
-503.250000
20
737.782000
11
-507.750000
21
737.782000
0
LINE
8
Layer 1
10
-507.750000
20
737.782000
11
-507.750000
21
747.337000
0
LINE
8
Layer 1
10
-507.750000
20
747.337000
11
-503.250000
21
747.337000
0
LINE
8
Layer 1
10
-503.250000
20
747.337000
11
-503.250000
21
756.893000
0
LINE
8
Layer 1
10
-503.250000
20
756.893000
11
-507.750000
21
756.893000
0
LINE
8
Layer 1
10
-507.750000
20
756.893000
11
-507.750000
21
766.448000
0
LINE
8
Layer 1
10
-507.750000
20
766.448000
11
-503.250000
21
766.448000
0
LINE
8
Layer 1
10
-503.250000
20
766.448000
11
-503.250000
21
776.004000
0
LINE
8
Layer 1
10
-503.250000
20
776.004000
11
-507.750000
21
776.004000
0
LINE
8
Layer 1
10
-507.750000
20
776.004000
11
-507.750000
21
785.559000
0
LINE
8
Layer 1
10
-507.750000
20
785.559000
11
-503.250000
21
785.559000
0
LINE
8
Layer 1
10
-503.250000
20
785.559000
11
-503.250000
21
795.115000
0
LINE
8
Layer 1
10
-503.250000
20
795.115000
11
-513.107000
21
795.115000
0
LINE
8
Layer 1
10
-513.107000
20
795.115000
11
-513.107000
21
790.615000
0
LINE
8
Layer 1
10
-513.107000
20
790.615000
11
-522.964000
21
790.615000
0
LINE
8
Layer 1
10
-522.964000
20
790.615000
11
-522.964000
21
795.115000
0
LINE
8
Layer 1
10
-522.964000
20
795.115000
11
-532.821000
21
795.115000
0
LINE
8
Layer 1
10
-532.821000
20
795.115000
11
-532.821000
21
790.615000
0
LINE
8
Layer 1
10
-532.821000
20
790.615000
11
-542.678000
21
790.615000
0
LINE
8
Layer 1
10
-542.678000
20
790.615000
11
-542.678000
21
795.115000
0
LINE
8
Layer 1
10
-542.678000
20
795.115000
11
-552.536000
21
795.115000
0
LINE
8
Layer 1
10
-552.536000
20
795.115000
11
-552.536000
21
790.615000
0
LINE
8
Layer 1
10
-552.536000
20
790.615000
11
-562.393000
21
790.615000
0
LINE
8
Layer 1
10
-562.393000
20
790.615000
11
-562.393000
21
795.115000
0
LINE
8
Layer 1
10
-562.393000
20
795.115000
11
-572.250000
21
795.115000
0
LINE
8
Layer 1
10
-572.250000
20
795.115000
11
-572.250000
21
785.559000
0
LINE
8
Layer 1
10
-572.250000
20
785.559000
11
-567.750000
21
785.559000
0
LINE
8
Layer 1
10
-567.750000
20
785.559000
11
-567.750000
21
776.004000
0
LINE
8
Layer 1
10
-567.750000
20
776.004000
11
-572.250000
21
776.004000
0
LINE
8
Layer 1
10
-572.250000
20
776.004000
11
-572.250000
21
766.448000
0
LINE
8
Layer 1
10
-572.250000
20
766.448000
11
-567.750000
21
766.448000
0
LINE
8
Layer 1
10
-567.750000
20
766.448000
11
-567.750000
21
756.893000
0
LINE
8
Layer 1
10
-567.750000
20
756.893000
11
-572.250000
21
756.893000
0
LINE
8
Layer 1
10
-572.250000
20
756.893000
11
-572.250000
21
747.337000
0
LINE
8
Layer 1
10
-572.250000
20
747.337000
11
-567.750000
21
747.337000
0
LINE
8
Layer 1
10
-567.750000
20
747.337000
11
-567.750000
21
737.782000
0
LINE
8
Layer 1
10
-567.750000
20
737.782000
11
-572.250000
21
737.782000
0
LINE
8
Layer 1
10
-572.250000
20
737.782000
11
-572.250000
21
728.226000
0
LINE
8
Layer 1
10
-572.250000
20
728.226000
11
-567.750000
21
728.226000
0
LINE
8
Layer 1
10
-567.750000
20
728.226000
11
-567.750000
21
718.671000
0
LINE
8
Layer 1
10
-567.750000
20
718.671000
11
-572.250000
21
718.671000
0
LINE
8
Layer 1
10
-572.250000
20
718.671000
11
-572.250000
21
718.671000
0
LINE
8
Layer 1
10
-581.342000
20
554.640000
11
-582.391953
21
556.093172
0
LINE
8
Layer 1
10
-582.391953
20
556.093172
11
-583.160375
21
557.697375
0
LINE
8
Layer 1
10
-583.160375
20
557.697375
11
-583.632359
21
559.412391
0
LINE
8
Layer 1
10
-583.632359
20
559.412391
11
-583.793000
21
561.198000
0
LINE
8
Layer 1
10
-583.793000
20
561.198000
11
-583.793000
21
771.032000
0
LINE
8
Layer 1
10
-583.793000
20
771.032000
11
-583.632359
21
772.817469
0
LINE
8
Layer 1
10
-583.632359
20
772.817469
11
-583.160375
21
774.532250
0
LINE
8
Layer 1
10
-583.160375
20
774.532250
11
-582.391953
21
776.136406
0
LINE
8
Layer 1
10
-582.391953
20
776.136406
11
-581.342000
21
777.590000
0
LINE
8
Layer 1
10
-581.342000
20
777.590000
11
-579.848135
21
779.474525
0
LINE
8
Layer 1
10
-579.848135
20
779.474525
11
-578.537141
21
781.473391
0
LINE
8
Layer 1
10
-578.537141
20
781.473391
11
-577.414045
21
783.573154
0
LINE
8
Layer 1
10
-577.414045
20
783.573154
11
-576.483875
21
785.760375
0
LINE
8
Layer 1
10
-576.483875
20
785.760375
11
-575.751658
21
788.021611
0
LINE
8
Layer 1
10
-575.751658
20
788.021611
11
-575.222422
21
790.343422
0
LINE
8
Layer 1
10
-575.222422
20
790.343422
11
-574.901193
21
792.712365
0
LINE
8
Layer 1
10
-574.901193
20
792.712365
11
-574.793000
21
795.115000
0
LINE
8
Layer 1
10
-574.793000
20
795.115000
11
-583.793000
21
795.115000
0
LINE
8
Layer 1
10
-583.793000
20
795.115000
11
-583.793000
21
790.615000
0
LINE
8
Layer 1
10
-583.793000
20
790.615000
11
-592.793000
21
790.615000
0
LINE
8
Layer 1
10
-592.793000
20
790.615000
11
-592.793000
21
795.115000
0
LINE
8
Layer 1
10
-592.793000
20
795.115000
11
-601.793000
21
795.115000
0
LINE
8
Layer 1
10
-601.793000
20
795.115000
11
-601.793000
21
790.615000
0
LINE
8
Layer 1
10
-601.793000
20
790.615000
11
-610.793000
21
790.615000
0
LINE
8
Layer 1
10
-610.793000
20
790.615000
11
-610.793000
21
795.115000
0
LINE
8
Layer 1
10
-610.793000
20
795.115000
11
-619.793000
21
795.115000
0
LINE
8
Layer 1
10
-619.793000
20
795.115000
11
-619.793000
21
785.559000
0
LINE
8
Layer 1
10
-619.793000
20
785.559000
11
-624.293000
21
785.559000
0
LINE
8
Layer 1
10
-624.293000
20
785.559000
11
-624.293000
21
776.004000
0
LINE
8
Layer 1
10
-624.293000
20
776.004000
11
-619.793000
21
776.004000
0
LINE
8
Layer 1
10
-619.793000
20
776.004000
11
-619.793000
21
766.448000
0
LINE
8
Layer 1
10
-619.793000
20
766.448000
11
-624.293000
21
766.448000
0
LINE
8
Layer 1
10
-624.293000
20
766.448000
11
-624.293000
21
756.892000
0
LINE
8
Layer 1
10
-624.293000
20
756.892000
11
-619.793000
21
756.892000
0
LINE
8
Layer 1
10
-619.793000
20
756.892000
11
-619.793000
21
747.337000
0
LINE
8
Layer 1
10
-619.793000
20
747.337000
11
-624.293000
21
747.337000
0
LINE
8
Layer 1
10
-624.293000
20
747.337000
11
-624.293000
21
737.781000
0
LINE
8
Layer 1
10
-624.293000
20
737.781000
11
-619.793000
21
737.781000
0
LINE
8
Layer 1
10
-619.793000
20
737.781000
11
-619.793000
21
728.226000
0
LINE
8
Layer 1
10
-619.793000
20
728.226000
11
-624.293000
21
728.226000
0
LINE
8
Layer 1
10
-624.293000
20
728.226000
11
-624.293000
21
718.670000
0
LINE
8
Layer 1
10
-624.293000
20
718.670000
11
-619.793000
21
718.670000
0
LINE
8
Layer 1
10
-619.793000
20
718.670000
11
-619.793000
21
709.115000
0
LINE
8
Layer 1
10
-619.793000
20
709.115000
11
-624.293000
21
709.115000
0
LINE
8
Layer 1
10
-624.293000
20
709.115000
11
-624.293000
21
699.559000
0
LINE
8
Layer 1
10
-624.293000
20
699.559000
11
-619.793000
21
699.559000
0
LINE
8
Layer 1
10
-619.793000
20
699.559000
11
-619.793000
21
690.004000
0
LINE
8
Layer 1
10
-619.793000
20
690.004000
11
-624.293000
21
690.004000
0
LINE
8
Layer 1
10
-624.293000
20
690.004000
11
-624.293000
21
680.448000
0
LINE
8
Layer 1
10
-624.293000
20
680.448000
11
-619.793000
21
680.448000
0
LINE
8
Layer 1
10
-619.793000
20
680.448000
11
-619.793000
21
670.892000
0
LINE
8
Layer 1
10
-619.793000
20
670.892000
11
-624.293000
21
670.892000
0
LINE
8
Layer 1
10
-624.293000
20
670.892000
11
-624.293000
21
661.337000
0
LINE
8
Layer 1
10
-624.293000
20
661.337000
11
-619.793000
21
661.337000
0
LINE
8
Layer 1
10
-619.793000
20
661.337000
11
-619.793000
21
651.781000
0
LINE
8
Layer 1
10
-619.793000
20
651.781000
11
-624.293000
21
651.781000
0
LINE
8
Layer 1
10
-624.293000
20
651.781000
11
-624.293000
21
642.226000
0
LINE
8
Layer 1
10
-624.293000
20
642.226000
11
-619.793000
21
642.226000
0
LINE
8
Layer 1
10
-619.793000
20
642.226000
11
-619.793000
21
632.670000
0
LINE
8
Layer 1
10
-619.793000
20
632.670000
11
-624.293000
21
632.670000
0
LINE
8
Layer 1
10
-624.293000
20
632.670000
11
-624.293000
21
623.115000
0
LINE
8
Layer 1
10
-624.293000
20
623.115000
11
-619.793000
21
623.115000
0
LINE
8
Layer 1
10
-619.793000
20
623.115000
11
-619.793000
21
613.559000
0
LINE
8
Layer 1
10
-619.793000
20
613.559000
11
-624.293000
21
613.559000
0
LINE
8
Layer 1
10
-624.293000
20
613.559000
11
-624.293000
21
604.004000
0
LINE
8
Layer 1
10
-624.293000
20
604.004000
11
-619.793000
21
604.004000
0
LINE
8
Layer 1
10
-619.793000
20
604.004000
11
-619.793000
21
594.448000
0
LINE
8
Layer 1
10
-619.793000
20
594.448000
11
-624.293000
21
594.448000
0
LINE
8
Layer 1
10
-624.293000
20
594.448000
11
-624.293000
21
584.892000
0
LINE
8
Layer 1
10
-624.293000
20
584.892000
11
-619.793000
21
584.892000
0
LINE
8
Layer 1
10
-619.793000
20
584.892000
11
-619.793000
21
575.337000
0
LINE
8
Layer 1
10
-619.793000
20
575.337000
11
-624.293000
21
575.337000
0
LINE
8
Layer 1
10
-624.293000
20
575.337000
11
-624.293000
21
565.781000
0
LINE
8
Layer 1
10
-624.293000
20
565.781000
11
-619.793000
21
565.781000
0
LINE
8
Layer 1
10
-619.793000
20
565.781000
11
-619.793000
21
556.226000
0
LINE
8
Layer 1
10
-619.793000
20
556.226000
11
-624.293000
21
556.226000
0
LINE
8
Layer 1
10
-624.293000
20
556.226000
11
-624.293000
21
546.670000
0
LINE
8
Layer 1
10
-624.293000
20
546.670000
11
-619.793000
21
546.670000
0
LINE
8
Layer 1
10
-619.793000
20
546.670000
11
-619.793000
21
537.115000
0
LINE
8
Layer 1
10
-619.793000
20
537.115000
11
-610.793000
21
537.115000
0
LINE
8
Layer 1
10
-610.793000
20
537.115000
11
-610.793000
21
541.615000
0
LINE
8
Layer 1
10
-610.793000
20
541.615000
11
-601.793000
21
541.615000
0
LINE
8
Layer 1
10
-601.793000
20
541.615000
11
-601.793000
21
537.115000
0
LINE
8
Layer 1
10
-601.793000
20
537.115000
11
-592.793000
21
537.115000
0
LINE
8
Layer 1
10
-592.793000
20
537.115000
11
-592.793000
21
541.615000
0
LINE
8
Layer 1
10
-592.793000
20
541.615000
11
-583.793000
21
541.615000
0
LINE
8
Layer 1
10
-583.793000
20
541.615000
11
-583.793000
21
537.115000
0
LINE
8
Layer 1
10
-583.793000
20
537.115000
11
-574.793000
21
537.115000
0
LINE
8
Layer 1
10
-574.793000
20
537.115000
11
-574.901193
21
539.517594
0
LINE
8
Layer 1
10
-574.901193
20
539.517594
11
-575.222422
21
541.886438
0
LINE
8
Layer 1
10
-575.222422
20
541.886438
11
-575.751658
21
544.208125
0
LINE
8
Layer 1
10
-575.751658
20
544.208125
11
-576.483875
21
546.469250
0
LINE
8
Layer 1
10
-576.483875
20
546.469250
11
-577.414045
21
548.656406
0
LINE
8
Layer 1
10
-577.414045
20
548.656406
11
-578.537141
21
550.756188
0
LINE
8
Layer 1
10
-578.537141
20
550.756188
11
-579.848135
21
552.755188
0
LINE
8
Layer 1
10
-579.848135
20
552.755188
11
-581.342000
21
554.640000
0
LINE
8
Layer 1
10
-581.342000
20
554.640000
11
-581.342000
21
554.640000
0
LINE
8
Layer 1
10
-607.793000
20
719.615000
11
-607.793000
21
673.615000
0
LINE
8
Layer 1
10
-607.793000
20
673.615000
11
-607.671113
21
672.405707
0
LINE
8
Layer 1
10
-607.671113
20
672.405707
11
-607.321531
21
671.279406
0
LINE
8
Layer 1
10
-607.321531
20
671.279406
11
-606.768371
21
670.260215
0
LINE
8
Layer 1
10
-606.768371
20
670.260215
11
-606.035750
21
669.372250
0
LINE
8
Layer 1
10
-606.035750
20
669.372250
11
-605.147785
21
668.639629
0
LINE
8
Layer 1
10
-605.147785
20
668.639629
11
-604.128594
21
668.086469
0
LINE
8
Layer 1
10
-604.128594
20
668.086469
11
-603.002293
21
667.736887
0
LINE
8
Layer 1
10
-603.002293
20
667.736887
11
-601.793000
21
667.615000
0
LINE
8
Layer 1
10
-601.793000
20
667.615000
11
-600.583707
21
667.736887
0
LINE
8
Layer 1
10
-600.583707
20
667.736887
11
-599.457406
21
668.086469
0
LINE
8
Layer 1
10
-599.457406
20
668.086469
11
-598.438215
21
668.639629
0
LINE
8
Layer 1
10
-598.438215
20
668.639629
11
-597.550250
21
669.372250
0
LINE
8
Layer 1
10
-597.550250
20
669.372250
11
-596.817629
21
670.260215
0
LINE
8
Layer 1
10
-596.817629
20
670.260215
11
-596.264469
21
671.279406
0
LINE
8
Layer 1
10
-596.264469
20
671.279406
11
-595.914887
21
672.405707
0
LINE
8
Layer 1
10
-595.914887
20
672.405707
11
-595.793000
21
673.615000
0
LINE
8
Layer 1
10
-595.793000
20
673.615000
11
-595.793000
21
719.615000
0
LINE
8
Layer 1
10
-595.793000
20
719.615000
11
-595.914887
21
720.824006
0
LINE
8
Layer 1
10
-595.914887
20
720.824006
11
-596.264469
21
721.950172
0
LINE
8
Layer 1
10
-596.264469
20
721.950172
11
-596.817629
21
722.969346
0
LINE
8
Layer 1
10
-596.817629
20
722.969346
11
-597.550250
21
723.857375
0
LINE
8
Layer 1
10
-597.550250
20
723.857375
11
-598.438215
21
724.590107
0
LINE
8
Layer 1
10
-598.438215
20
724.590107
11
-599.457406
21
725.143391
0
LINE
8
Layer 1
10
-599.457406
20
725.143391
11
-600.583707
21
725.493072
0
LINE
8
Layer 1
10
-600.583707
20
725.493072
11
-601.793000
21
725.615000
0
LINE
8
Layer 1
10
-601.793000
20
725.615000
11
-603.002293
21
725.493072
0
LINE
8
Layer 1
10
-603.002293
20
725.493072
11
-604.128594
21
725.143391
0
LINE
8
Layer 1
10
-604.128594
20
725.143391
11
-605.147785
21
724.590107
0
LINE
8
Layer 1
10
-605.147785
20
724.590107
11
-606.035750
21
723.857375
0
LINE
8
Layer 1
10
-606.035750
20
723.857375
11
-606.768371
21
722.969346
0
LINE
8
Layer 1
10
-606.768371
20
722.969346
11
-607.321531
21
721.950172
0
LINE
8
Layer 1
10
-607.321531
20
721.950172
11
-607.671113
21
720.824006
0
LINE
8
Layer 1
10
-607.671113
20
720.824006
11
-607.793000
21
719.615000
0
LINE
8
Layer 1
10
-607.793000
20
719.615000
11
-607.793000
21
719.615000
0
LINE
8
Layer 1
10
-650.250000
20
551.845000
11
-650.371887
21
550.635994
0
LINE
8
Layer 1
10
-650.371887
20
550.635994
11
-650.721469
21
549.509828
0
LINE
8
Layer 1
10
-650.721469
20
549.509828
11
-651.274629
21
548.490654
0
LINE
8
Layer 1
10
-651.274629
20
548.490654
11
-652.007250
21
547.602625
0
LINE
8
Layer 1
10
-652.007250
20
547.602625
11
-652.895215
21
546.869893
0
LINE
8
Layer 1
10
-652.895215
20
546.869893
11
-653.914406
21
546.316609
0
LINE
8
Layer 1
10
-653.914406
20
546.316609
11
-655.040707
21
545.966928
0
LINE
8
Layer 1
10
-655.040707
20
545.966928
11
-656.250000
21
545.845000
0
LINE
8
Layer 1
10
-656.250000
20
545.845000
11
-657.459293
21
545.966928
0
LINE
8
Layer 1
10
-657.459293
20
545.966928
11
-658.585594
21
546.316609
0
LINE
8
Layer 1
10
-658.585594
20
546.316609
11
-659.604785
21
546.869893
0
LINE
8
Layer 1
10
-659.604785
20
546.869893
11
-660.492750
21
547.602625
0
LINE
8
Layer 1
10
-660.492750
20
547.602625
11
-661.225371
21
548.490654
0
LINE
8
Layer 1
10
-661.225371
20
548.490654
11
-661.778531
21
549.509828
0
LINE
8
Layer 1
10
-661.778531
20
549.509828
11
-662.128113
21
550.635994
0
LINE
8
Layer 1
10
-662.128113
20
550.635994
11
-662.250000
21
551.845000
0
LINE
8
Layer 1
10
-662.250000
20
551.845000
11
-662.250000
21
597.845000
0
LINE
8
Layer 1
10
-662.250000
20
597.845000
11
-662.128113
21
599.054293
0
LINE
8
Layer 1
10
-662.128113
20
599.054293
11
-661.778531
21
600.180594
0
LINE
8
Layer 1
10
-661.778531
20
600.180594
11
-661.225371
21
601.199785
0
LINE
8
Layer 1
10
-661.225371
20
601.199785
11
-660.492750
21
602.087750
0
LINE
8
Layer 1
10
-660.492750
20
602.087750
11
-659.604785
21
602.820371
0
LINE
8
Layer 1
10
-659.604785
20
602.820371
11
-658.585594
21
603.373531
0
LINE
8
Layer 1
10
-658.585594
20
603.373531
11
-657.459293
21
603.723113
0
LINE
8
Layer 1
10
-657.459293
20
603.723113
11
-656.250000
21
603.845000
0
LINE
8
Layer 1
10
-656.250000
20
603.845000
11
-655.040707
21
603.723113
0
LINE
8
Layer 1
10
-655.040707
20
603.723113
11
-653.914406
21
603.373531
0
LINE
8
Layer 1
10
-653.914406
20
603.373531
11
-652.895215
21
602.820371
0
LINE
8
Layer 1
10
-652.895215
20
602.820371
11
-652.007250
21
602.087750
0
LINE
8
Layer 1
10
-652.007250
20
602.087750
11
-651.274629
21
601.199785
0
LINE
8
Layer 1
10
-651.274629
20
601.199785
11
-650.721469
21
600.180594
0
LINE
8
Layer 1
10
-650.721469
20
600.180594
11
-650.371887
21
599.054293
0
LINE
8
Layer 1
10
-650.371887
20
599.054293
11
-650.250000
21
597.845000
0
LINE
8
Layer 1
10
-650.250000
20
597.845000
11
-650.250000
21
551.845000
0
LINE
8
Layer 1
10
-650.250000
20
551.845000
11
-650.250000
21
551.845000
0
LINE
8
Layer 1
10
-595.793000
20
734.615000
11
-595.793000
21
780.615000
0
LINE
8
Layer 1
10
-595.793000
20
780.615000
11
-595.914887
21
781.824006
0
LINE
8
Layer 1
10
-595.914887
20
781.824006
11
-596.264469
21
782.950172
0
LINE
8
Layer 1
10
-596.264469
20
782.950172
11
-596.817629
21
783.969346
0
LINE
8
Layer 1
10
-596.817629
20
783.969346
11
-597.550250
21
784.857375
0
LINE
8
Layer 1
10
-597.550250
20
784.857375
11
-598.438215
21
785.590107
0
LINE
8
Layer 1
10
-598.438215
20
785.590107
11
-599.457406
21
786.143391
0
LINE
8
Layer 1
10
-599.457406
20
786.143391
11
-600.583707
21
786.493072
0
LINE
8
Layer 1
10
-600.583707
20
786.493072
11
-601.793000
21
786.615000
0
LINE
8
Layer 1
10
-601.793000
20
786.615000
11
-603.002293
21
786.493072
0
LINE
8
Layer 1
10
-603.002293
20
786.493072
11
-604.128594
21
786.143391
0
LINE
8
Layer 1
10
-604.128594
20
786.143391
11
-605.147785
21
785.590107
0
LINE
8
Layer 1
10
-605.147785
20
785.590107
11
-606.035750
21
784.857375
0
LINE
8
Layer 1
10
-606.035750
20
784.857375
11
-606.768371
21
783.969346
0
LINE
8
Layer 1
10
-606.768371
20
783.969346
11
-607.321531
21
782.950172
0
LINE
8
Layer 1
10
-607.321531
20
782.950172
11
-607.671113
21
781.824006
0
LINE
8
Layer 1
10
-607.671113
20
781.824006
11
-607.793000
21
780.615000
0
LINE
8
Layer 1
10
-607.793000
20
780.615000
11
-607.793000
21
734.615000
0
LINE
8
Layer 1
10
-607.793000
20
734.615000
11
-607.671113
21
733.405707
0
LINE
8
Layer 1
10
-607.671113
20
733.405707
11
-607.321531
21
732.279406
0
LINE
8
Layer 1
10
-607.321531
20
732.279406
11
-606.768371
21
731.260215
0
LINE
8
Layer 1
10
-606.768371
20
731.260215
11
-606.035750
21
730.372250
0
LINE
8
Layer 1
10
-606.035750
20
730.372250
11
-605.147785
21
729.639629
0
LINE
8
Layer 1
10
-605.147785
20
729.639629
11
-604.128594
21
729.086469
0
LINE
8
Layer 1
10
-604.128594
20
729.086469
11
-603.002293
21
728.736887
0
LINE
8
Layer 1
10
-603.002293
20
728.736887
11
-601.793000
21
728.615000
0
LINE
8
Layer 1
10
-601.793000
20
728.615000
11
-600.583707
21
728.736887
0
LINE
8
Layer 1
10
-600.583707
20
728.736887
11
-599.457406
21
729.086469
0
LINE
8
Layer 1
10
-599.457406
20
729.086469
11
-598.438215
21
729.639629
0
LINE
8
Layer 1
10
-598.438215
20
729.639629
11
-597.550250
21
730.372250
0
LINE
8
Layer 1
10
-597.550250
20
730.372250
11
-596.817629
21
731.260215
0
LINE
8
Layer 1
10
-596.817629
20
731.260215
11
-596.264469
21
732.279406
0
LINE
8
Layer 1
10
-596.264469
20
732.279406
11
-595.914887
21
733.405707
0
LINE
8
Layer 1
10
-595.914887
20
733.405707
11
-595.793000
21
734.615000
0
LINE
8
Layer 1
10
-650.250000
20
734.845000
11
-650.250000
21
780.845000
0
LINE
8
Layer 1
10
-650.250000
20
780.845000
11
-650.371887
21
782.054293
0
LINE
8
Layer 1
10
-650.371887
20
782.054293
11
-650.721469
21
783.180594
0
LINE
8
Layer 1
10
-650.721469
20
783.180594
11
-651.274629
21
784.199785
0
LINE
8
Layer 1
10
-651.274629
20
784.199785
11
-652.007250
21
785.087750
0
LINE
8
Layer 1
10
-652.007250
20
785.087750
11
-652.895215
21
785.820371
0
LINE
8
Layer 1
10
-652.895215
20
785.820371
11
-653.914406
21
786.373531
0
LINE
8
Layer 1
10
-653.914406
20
786.373531
11
-655.040707
21
786.723113
0
LINE
8
Layer 1
10
-655.040707
20
786.723113
11
-656.250000
21
786.845000
0
LINE
8
Layer 1
10
-656.250000
20
786.845000
11
-657.459293
21
786.723113
0
LINE
8
Layer 1
10
-657.459293
20
786.723113
11
-658.585594
21
786.373531
0
LINE
8
Layer 1
10
-658.585594
20
786.373531
11
-659.604785
21
785.820371
0
LINE
8
Layer 1
10
-659.604785
20
785.820371
11
-660.492750
21
785.087750
0
LINE
8
Layer 1
10
-660.492750
20
785.087750
11
-661.225371
21
784.199785
0
LINE
8
Layer 1
10
-661.225371
20
784.199785
11
-661.778531
21
783.180594
0
LINE
8
Layer 1
10
-661.778531
20
783.180594
11
-662.128113
21
782.054293
0
LINE
8
Layer 1
10
-662.128113
20
782.054293
11
-662.250000
21
780.845000
0
LINE
8
Layer 1
10
-662.250000
20
780.845000
11
-662.250000
21
734.845000
0
LINE
8
Layer 1
10
-635.799000
20
554.870000
11
-636.848953
21
556.323750
0
LINE
8
Layer 1
10
-636.848953
20
556.323750
11
-637.617375
21
557.928250
0
LINE
8
Layer 1
10
-637.617375
20
557.928250
11
-638.089359
21
559.643375
0
LINE
8
Layer 1
10
-638.089359
20
559.643375
11
-638.250000
21
561.429000
0
LINE
8
Layer 1
10
-638.250000
20
561.429000
11
-638.250000
21
771.262000
0
LINE
8
Layer 1
10
-638.250000
20
771.262000
11
-638.089359
21
773.047609
0
LINE
8
Layer 1
10
-638.089359
20
773.047609
11
-637.617375
21
774.762625
0
LINE
8
Layer 1
10
-637.617375
20
774.762625
11
-636.848953
21
776.366828
0
LINE
8
Layer 1
10
-636.848953
20
776.366828
11
-635.799000
21
777.820000
0
LINE
8
Layer 1
10
-635.799000
20
777.820000
11
-634.305135
21
779.704813
0
LINE
8
Layer 1
10
-634.305135
20
779.704813
11
-632.994141
21
781.703813
0
LINE
8
Layer 1
10
-632.994141
20
781.703813
11
-631.871045
21
783.803594
0
LINE
8
Layer 1
10
-631.871045
20
783.803594
11
-630.940875
21
785.990750
0
LINE
8
Layer 1
10
-630.940875
20
785.990750
11
-630.208658
21
788.251875
0
LINE
8
Layer 1
10
-630.208658
20
788.251875
11
-629.679422
21
790.573562
0
LINE
8
Layer 1
10
-629.679422
20
790.573562
11
-629.358193
21
792.942406
0
LINE
8
Layer 1
10
-629.358193
20
792.942406
11
-629.250000
21
795.345000
0
LINE
8
Layer 1
10
-629.250000
20
795.345000
11
-638.250000
21
795.345000
0
LINE
8
Layer 1
10
-638.250000
20
795.345000
11
-638.250000
21
790.845000
0
LINE
8
Layer 1
10
-638.250000
20
790.845000
11
-647.250000
21
790.845000
0
LINE
8
Layer 1
10
-647.250000
20
790.845000
11
-647.250000
21
795.345000
0
LINE
8
Layer 1
10
-647.250000
20
795.345000
11
-656.250000
21
795.345000
0
LINE
8
Layer 1
10
-656.250000
20
795.345000
11
-656.250000
21
790.845000
0
LINE
8
Layer 1
10
-656.250000
20
790.845000
11
-665.250000
21
790.845000
0
LINE
8
Layer 1
10
-665.250000
20
790.845000
11
-665.250000
21
795.345000
0
LINE
8
Layer 1
10
-665.250000
20
795.345000
11
-674.250000
21
795.345000
0
LINE
8
Layer 1
10
-674.250000
20
795.345000
11
-674.250000
21
785.790000
0
LINE
8
Layer 1
10
-674.250000
20
785.790000
11
-678.750000
21
785.790000
0
LINE
8
Layer 1
10
-678.750000
20
785.790000
11
-678.750000
21
776.234000
0
LINE
8
Layer 1
10
-678.750000
20
776.234000
11
-674.250000
21
776.234000
0
LINE
8
Layer 1
10
-674.250000
20
776.234000
11
-674.250000
21
766.679000
0
LINE
8
Layer 1
10
-674.250000
20
766.679000
11
-678.750000
21
766.679000
0
LINE
8
Layer 1
10
-678.750000
20
766.679000
11
-678.750000
21
757.123000
0
LINE
8
Layer 1
10
-678.750000
20
757.123000
11
-674.250000
21
757.123000
0
LINE
8
Layer 1
10
-674.250000
20
757.123000
11
-674.250000
21
747.568000
0
LINE
8
Layer 1
10
-674.250000
20
747.568000
11
-678.750000
21
747.568000
0
LINE
8
Layer 1
10
-678.750000
20
747.568000
11
-678.750000
21
738.012000
0
LINE
8
Layer 1
10
-678.750000
20
738.012000
11
-674.250000
21
738.012000
0
LINE
8
Layer 1
10
-674.250000
20
738.012000
11
-674.250000
21
728.457000
0
LINE
8
Layer 1
10
-674.250000
20
728.457000
11
-678.750000
21
728.457000
0
LINE
8
Layer 1
10
-678.750000
20
728.457000
11
-678.750000
21
718.901000
0
LINE
8
Layer 1
10
-678.750000
20
718.901000
11
-674.250000
21
718.901000
0
LINE
8
Layer 1
10
-674.250000
20
718.901000
11
-674.250000
21
709.345000
0
LINE
8
Layer 1
10
-674.250000
20
709.345000
11
-678.750000
21
709.345000
0
LINE
8
Layer 1
10
-678.750000
20
709.345000
11
-678.750000
21
699.790000
0
LINE
8
Layer 1
10
-678.750000
20
699.790000
11
-674.250000
21
699.790000
0
LINE
8
Layer 1
10
-674.250000
20
699.790000
11
-674.250000
21
690.234000
0
LINE
8
Layer 1
10
-674.250000
20
690.234000
11
-678.750000
21
690.234000
0
LINE
8
Layer 1
10
-678.750000
20
690.234000
11
-678.750000
21
680.679000
0
LINE
8
Layer 1
10
-678.750000
20
680.679000
11
-674.250000
21
680.679000
0
LINE
8
Layer 1
10
-674.250000
20
680.679000
11
-674.250000
21
671.123000
0
LINE
8
Layer 1
10
-674.250000
20
671.123000
11
-678.750000
21
671.123000
0
LINE
8
Layer 1
10
-678.750000
20
671.123000
11
-678.750000
21
661.568000
0
LINE
8
Layer 1
10
-678.750000
20
661.568000
11
-674.250000
21
661.568000
0
LINE
8
Layer 1
10
-674.250000
20
661.568000
11
-674.250000
21
652.012000
0
LINE
8
Layer 1
10
-674.250000
20
652.012000
11
-678.750000
21
652.012000
0
LINE
8
Layer 1
10
-678.750000
20
652.012000
11
-678.750000
21
642.457000
0
LINE
8
Layer 1
10
-678.750000
20
642.457000
11
-674.250000
21
642.457000
0
LINE
8
Layer 1
10
-674.250000
20
642.457000
11
-674.250000
21
632.901000
0
LINE
8
Layer 1
10
-674.250000
20
632.901000
11
-678.750000
21
632.901000
0
LINE
8
Layer 1
10
-678.750000
20
632.901000
11
-678.750000
21
623.345000
0
LINE
8
Layer 1
10
-678.750000
20
623.345000
11
-674.250000
21
623.345000
0
LINE
8
Layer 1
10
-674.250000
20
623.345000
11
-674.250000
21
613.790000
0
LINE
8
Layer 1
10
-674.250000
20
613.790000
11
-678.750000
21
613.790000
0
LINE
8
Layer 1
10
-678.750000
20
613.790000
11
-678.750000
21
604.234000
0
LINE
8
Layer 1
10
-678.750000
20
604.234000
11
-674.250000
21
604.234000
0
LINE
8
Layer 1
10
-674.250000
20
604.234000
11
-674.250000
21
594.679000
0
LINE
8
Layer 1
10
-674.250000
20
594.679000
11
-678.750000
21
594.679000
0
LINE
8
Layer 1
10
-678.750000
20
594.679000
11
-678.750000
21
585.123000
0
LINE
8
Layer 1
10
-678.750000
20
585.123000
11
-674.250000
21
585.123000
0
LINE
8
Layer 1
10
-674.250000
20
585.123000
11
-674.250000
21
575.568000
0
LINE
8
Layer 1
10
-674.250000
20
575.568000
11
-678.750000
21
575.568000
0
LINE
8
Layer 1
10
-678.750000
20
575.568000
11
-678.750000
21
566.012000
0
LINE
8
Layer 1
10
-678.750000
20
566.012000
11
-674.250000
21
566.012000
0
LINE
8
Layer 1
10
-674.250000
20
566.012000
11
-674.250000
21
556.457000
0
LINE
8
Layer 1
10
-674.250000
20
556.457000
11
-678.750000
21
556.457000
0
LINE
8
Layer 1
10
-678.750000
20
556.457000
11
-678.750000
21
546.901000
0
LINE
8
Layer 1
10
-678.750000
20
546.901000
11
-674.250000
21
546.901000
0
LINE
8
Layer 1
10
-674.250000
20
546.901000
11
-674.250000
21
537.345000
0
LINE
8
Layer 1
10
-674.250000
20
537.345000
11
-665.250000
21
537.345000
0
LINE
8
Layer 1
10
-665.250000
20
537.345000
11
-665.250000
21
541.845000
0
LINE
8
Layer 1
10
-665.250000
20
541.845000
11
-656.250000
21
541.845000
0
LINE
8
Layer 1
10
-656.250000
20
541.845000
11
-656.250000
21
537.345000
0
LINE
8
Layer 1
10
-656.250000
20
537.345000
11
-647.250000
21
537.345000
0
LINE
8
Layer 1
10
-647.250000
20
537.345000
11
-647.250000
21
541.845000
0
LINE
8
Layer 1
10
-647.250000
20
541.845000
11
-638.250000
21
541.845000
0
LINE
8
Layer 1
10
-638.250000
20
541.845000
11
-638.250000
21
537.345000
0
LINE
8
Layer 1
10
-638.250000
20
537.345000
11
-629.250000
21
537.345000
0
LINE
8
Layer 1
10
-629.250000
20
537.345000
11
-629.358193
21
539.747635
0
LINE
8
Layer 1
10
-629.358193
20
539.747635
11
-629.679422
21
542.116578
0
LINE
8
Layer 1
10
-629.679422
20
542.116578
11
-630.208658
21
544.438389
0
LINE
8
Layer 1
10
-630.208658
20
544.438389
11
-630.940875
21
546.699625
0
LINE
8
Layer 1
10
-630.940875
20
546.699625
11
-631.871045
21
548.886846
0
LINE
8
Layer 1
10
-631.871045
20
548.886846
11
-632.994141
21
550.986609
0
LINE
8
Layer 1
10
-632.994141
20
550.986609
11
-634.305135
21
552.985475
0
LINE
8
Layer 1
10
-634.305135
20
552.985475
11
-635.799000
21
554.870000
0
LINE
8
Layer 1
10
-607.793000
20
658.615000
11
-607.793000
21
612.615000
0
LINE
8
Layer 1
10
-607.793000
20
612.615000
11
-607.671113
21
611.405707
0
LINE
8
Layer 1
10
-607.671113
20
611.405707
11
-607.321531
21
610.279406
0
LINE
8
Layer 1
10
-607.321531
20
610.279406
11
-606.768371
21
609.260215
0
LINE
8
Layer 1
10
-606.768371
20
609.260215
11
-606.035750
21
608.372250
0
LINE
8
Layer 1
10
-606.035750
20
608.372250
11
-605.147785
21
607.639629
0
LINE
8
Layer 1
10
-605.147785
20
607.639629
11
-604.128594
21
607.086469
0
LINE
8
Layer 1
10
-604.128594
20
607.086469
11
-603.002293
21
606.736887
0
LINE
8
Layer 1
10
-603.002293
20
606.736887
11
-601.793000
21
606.615000
0
LINE
8
Layer 1
10
-601.793000
20
606.615000
11
-600.583707
21
606.736887
0
LINE
8
Layer 1
10
-600.583707
20
606.736887
11
-599.457406
21
607.086469
0
LINE
8
Layer 1
10
-599.457406
20
607.086469
11
-598.438215
21
607.639629
0
LINE
8
Layer 1
10
-598.438215
20
607.639629
11
-597.550250
21
608.372250
0
LINE
8
Layer 1
10
-597.550250
20
608.372250
11
-596.817629
21
609.260215
0
LINE
8
Layer 1
10
-596.817629
20
609.260215
11
-596.264469
21
610.279406
0
LINE
8
Layer 1
10
-596.264469
20
610.279406
11
-595.914887
21
611.405707
0
LINE
8
Layer 1
10
-595.914887
20
611.405707
11
-595.793000
21
612.615000
0
LINE
8
Layer 1
10
-595.793000
20
612.615000
11
-595.793000
21
658.615000
0
LINE
8
Layer 1
10
-595.793000
20
658.615000
11
-595.914887
21
659.824006
0
LINE
8
Layer 1
10
-595.914887
20
659.824006
11
-596.264469
21
660.950172
0
LINE
8
Layer 1
10
-596.264469
20
660.950172
11
-596.817629
21
661.969346
0
LINE
8
Layer 1
10
-596.817629
20
661.969346
11
-597.550250
21
662.857375
0
LINE
8
Layer 1
10
-597.550250
20
662.857375
11
-598.438215
21
663.590107
0
LINE
8
Layer 1
10
-598.438215
20
663.590107
11
-599.457406
21
664.143391
0
LINE
8
Layer 1
10
-599.457406
20
664.143391
11
-600.583707
21
664.493072
0
LINE
8
Layer 1
10
-600.583707
20
664.493072
11
-601.793000
21
664.615000
0
LINE
8
Layer 1
10
-601.793000
20
664.615000
11
-603.002293
21
664.493072
0
LINE
8
Layer 1
10
-603.002293
20
664.493072
11
-604.128594
21
664.143391
0
LINE
8
Layer 1
10
-604.128594
20
664.143391
11
-605.147785
21
663.590107
0
LINE
8
Layer 1
10
-605.147785
20
663.590107
11
-606.035750
21
662.857375
0
LINE
8
Layer 1
10
-606.035750
20
662.857375
11
-606.768371
21
661.969346
0
LINE
8
Layer 1
10
-606.768371
20
661.969346
11
-607.321531
21
660.950172
0
LINE
8
Layer 1
10
-607.321531
20
660.950172
11
-607.671113
21
659.824006
0
LINE
8
Layer 1
10
-607.671113
20
659.824006
11
-607.793000
21
658.615000
0
LINE
8
Layer 1
10
-607.793000
20
658.615000
11
-607.793000
21
658.615000
0
LINE
8
Layer 1
10
-662.250000
20
658.845000
11
-662.250000
21
612.845000
0
LINE
8
Layer 1
10
-662.250000
20
612.845000
11
-662.128113
21
611.635994
0
LINE
8
Layer 1
10
-662.128113
20
611.635994
11
-661.778531
21
610.509828
0
LINE
8
Layer 1
10
-661.778531
20
610.509828
11
-661.225371
21
609.490654
0
LINE
8
Layer 1
10
-661.225371
20
609.490654
11
-660.492750
21
608.602625
0
LINE
8
Layer 1
10
-660.492750
20
608.602625
11
-659.604785
21
607.869893
0
LINE
8
Layer 1
10
-659.604785
20
607.869893
11
-658.585594
21
607.316609
0
LINE
8
Layer 1
10
-658.585594
20
607.316609
11
-657.459293
21
606.966928
0
LINE
8
Layer 1
10
-657.459293
20
606.966928
11
-656.250000
21
606.845000
0
LINE
8
Layer 1
10
-656.250000
20
606.845000
11
-655.040707
21
606.966928
0
LINE
8
Layer 1
10
-655.040707
20
606.966928
11
-653.914406
21
607.316609
0
LINE
8
Layer 1
10
-653.914406
20
607.316609
11
-652.895215
21
607.869893
0
LINE
8
Layer 1
10
-652.895215
20
607.869893
11
-652.007250
21
608.602625
0
LINE
8
Layer 1
10
-652.007250
20
608.602625
11
-651.274629
21
609.490654
0
LINE
8
Layer 1
10
-651.274629
20
609.490654
11
-650.721469
21
610.509828
0
LINE
8
Layer 1
10
-650.721469
20
610.509828
11
-650.371887
21
611.635994
0
LINE
8
Layer 1
10
-650.371887
20
611.635994
11
-650.250000
21
612.845000
0
LINE
8
Layer 1
10
-650.250000
20
612.845000
11
-650.250000
21
658.845000
0
LINE
8
Layer 1
10
-650.250000
20
658.845000
11
-650.371887
21
660.054293
0
LINE
8
Layer 1
10
-650.371887
20
660.054293
11
-650.721469
21
661.180594
0
LINE
8
Layer 1
10
-650.721469
20
661.180594
11
-651.274629
21
662.199785
0
LINE
8
Layer 1
10
-651.274629
20
662.199785
11
-652.007250
21
663.087750
0
LINE
8
Layer 1
10
-652.007250
20
663.087750
11
-652.895215
21
663.820371
0
LINE
8
Layer 1
10
-652.895215
20
663.820371
11
-653.914406
21
664.373531
0
LINE
8
Layer 1
10
-653.914406
20
664.373531
11
-655.040707
21
664.723113
0
LINE
8
Layer 1
10
-655.040707
20
664.723113
11
-656.250000
21
664.845000
0
LINE
8
Layer 1
10
-656.250000
20
664.845000
11
-657.459293
21
664.723113
0
LINE
8
Layer 1
10
-657.459293
20
664.723113
11
-658.585594
21
664.373531
0
LINE
8
Layer 1
10
-658.585594
20
664.373531
11
-659.604785
21
663.820371
0
LINE
8
Layer 1
10
-659.604785
20
663.820371
11
-660.492750
21
663.087750
0
LINE
8
Layer 1
10
-660.492750
20
663.087750
11
-661.225371
21
662.199785
0
LINE
8
Layer 1
10
-661.225371
20
662.199785
11
-661.778531
21
661.180594
0
LINE
8
Layer 1
10
-661.778531
20
661.180594
11
-662.128113
21
660.054293
0
LINE
8
Layer 1
10
-662.128113
20
660.054293
11
-662.250000
21
658.845000
0
LINE
8
Layer 1
10
-662.250000
20
658.845000
11
-662.250000
21
658.845000
0
LINE
8
Layer 1
10
-662.250000
20
719.845000
11
-662.250000
21
673.845000
0
LINE
8
Layer 1
10
-662.250000
20
673.845000
11
-662.128113
21
672.635994
0
LINE
8
Layer 1
10
-662.128113
20
672.635994
11
-661.778531
21
671.509828
0
LINE
8
Layer 1
10
-661.778531
20
671.509828
11
-661.225371
21
670.490654
0
LINE
8
Layer 1
10
-661.225371
20
670.490654
11
-660.492750
21
669.602625
0
LINE
8
Layer 1
10
-660.492750
20
669.602625
11
-659.604785
21
668.869893
0
LINE
8
Layer 1
10
-659.604785
20
668.869893
11
-658.585594
21
668.316609
0
LINE
8
Layer 1
10
-658.585594
20
668.316609
11
-657.459293
21
667.966928
0
LINE
8
Layer 1
10
-657.459293
20
667.966928
11
-656.250000
21
667.845000
0
LINE
8
Layer 1
10
-656.250000
20
667.845000
11
-655.040707
21
667.966928
0
LINE
8
Layer 1
10
-655.040707
20
667.966928
11
-653.914406
21
668.316609
0
LINE
8
Layer 1
10
-653.914406
20
668.316609
11
-652.895215
21
668.869893
0
LINE
8
Layer 1
10
-652.895215
20
668.869893
11
-652.007250
21
669.602625
0
LINE
8
Layer 1
10
-652.007250
20
669.602625
11
-651.274629
21
670.490654
0
LINE
8
Layer 1
10
-651.274629
20
670.490654
11
-650.721469
21
671.509828
0
LINE
8
Layer 1
10
-650.721469
20
671.509828
11
-650.371887
21
672.635994
0
LINE
8
Layer 1
10
-650.371887
20
672.635994
11
-650.250000
21
673.845000
0
LINE
8
Layer 1
10
-650.250000
20
673.845000
11
-650.250000
21
719.845000
0
LINE
8
Layer 1
10
-650.250000
20
719.845000
11
-650.371887
21
721.054293
0
LINE
8
Layer 1
10
-650.371887
20
721.054293
11
-650.721469
21
722.180594
0
LINE
8
Layer 1
10
-650.721469
20
722.180594
11
-651.274629
21
723.199785
0
LINE
8
Layer 1
10
-651.274629
20
723.199785
11
-652.007250
21
724.087750
0
LINE
8
Layer 1
10
-652.007250
20
724.087750
11
-652.895215
21
724.820371
0
LINE
8
Layer 1
10
-652.895215
20
724.820371
11
-653.914406
21
725.373531
0
LINE
8
Layer 1
10
-653.914406
20
725.373531
11
-655.040707
21
725.723113
0
LINE
8
Layer 1
10
-655.040707
20
725.723113
11
-656.250000
21
725.845000
0
LINE
8
Layer 1
10
-656.250000
20
725.845000
11
-657.459293
21
725.723113
0
LINE
8
Layer 1
10
-657.459293
20
725.723113
11
-658.585594
21
725.373531
0
LINE
8
Layer 1
10
-658.585594
20
725.373531
11
-659.604785
21
724.820371
0
LINE
8
Layer 1
10
-659.604785
20
724.820371
11
-660.492750
21
724.087750
0
LINE
8
Layer 1
10
-660.492750
20
724.087750
11
-661.225371
21
723.199785
0
LINE
8
Layer 1
10
-661.225371
20
723.199785
11
-661.778531
21
722.180594
0
LINE
8
Layer 1
10
-661.778531
20
722.180594
11
-662.128113
21
721.054293
0
LINE
8
Layer 1
10
-662.128113
20
721.054293
11
-662.250000
21
719.845000
0
LINE
8
Layer 1
10
-662.250000
20
719.845000
11
-662.250000
21
719.845000
0
LINE
8
Layer 1
10
-662.250000
20
734.845000
11
-662.128113
21
733.635994
0
LINE
8
Layer 1
10
-662.128113
20
733.635994
11
-661.778531
21
732.509828
0
LINE
8
Layer 1
10
-661.778531
20
732.509828
11
-661.225371
21
731.490654
0
LINE
8
Layer 1
10
-661.225371
20
731.490654
11
-660.492750
21
730.602625
0
LINE
8
Layer 1
10
-660.492750
20
730.602625
11
-659.604785
21
729.869893
0
LINE
8
Layer 1
10
-659.604785
20
729.869893
11
-658.585594
21
729.316609
0
LINE
8
Layer 1
10
-658.585594
20
729.316609
11
-657.459293
21
728.966928
0
LINE
8
Layer 1
10
-657.459293
20
728.966928
11
-656.250000
21
728.845000
0
LINE
8
Layer 1
10
-656.250000
20
728.845000
11
-655.040707
21
728.966928
0
LINE
8
Layer 1
10
-655.040707
20
728.966928
11
-653.914406
21
729.316609
0
LINE
8
Layer 1
10
-653.914406
20
729.316609
11
-652.895215
21
729.869893
0
LINE
8
Layer 1
10
-652.895215
20
729.869893
11
-652.007250
21
730.602625
0
LINE
8
Layer 1
10
-652.007250
20
730.602625
11
-651.274629
21
731.490654
0
LINE
8
Layer 1
10
-651.274629
20
731.490654
11
-650.721469
21
732.509828
0
LINE
8
Layer 1
10
-650.721469
20
732.509828
11
-650.371887
21
733.635994
0
LINE
8
Layer 1
10
-650.371887
20
733.635994
11
-650.250000
21
734.845000
0
LINE
8
Layer 1
10
-607.793000
20
597.615000
11
-607.793000
21
551.615000
0
LINE
8
Layer 1
10
-607.793000
20
551.615000
11
-607.671113
21
550.405707
0
LINE
8
Layer 1
10
-607.671113
20
550.405707
11
-607.321531
21
549.279406
0
LINE
8
Layer 1
10
-607.321531
20
549.279406
11
-606.768371
21
548.260215
0
LINE
8
Layer 1
10
-606.768371
20
548.260215
11
-606.035750
21
547.372250
0
LINE
8
Layer 1
10
-606.035750
20
547.372250
11
-605.147785
21
546.639629
0
LINE
8
Layer 1
10
-605.147785
20
546.639629
11
-604.128594
21
546.086469
0
LINE
8
Layer 1
10
-604.128594
20
546.086469
11
-603.002293
21
545.736887
0
LINE
8
Layer 1
10
-603.002293
20
545.736887
11
-601.793000
21
545.615000
0
LINE
8
Layer 1
10
-601.793000
20
545.615000
11
-600.583707
21
545.736887
0
LINE
8
Layer 1
10
-600.583707
20
545.736887
11
-599.457406
21
546.086469
0
LINE
8
Layer 1
10
-599.457406
20
546.086469
11
-598.438215
21
546.639629
0
LINE
8
Layer 1
10
-598.438215
20
546.639629
11
-597.550250
21
547.372250
0
LINE
8
Layer 1
10
-597.550250
20
547.372250
11
-596.817629
21
548.260215
0
LINE
8
Layer 1
10
-596.817629
20
548.260215
11
-596.264469
21
549.279406
0
LINE
8
Layer 1
10
-596.264469
20
549.279406
11
-595.914887
21
550.405707
0
LINE
8
Layer 1
10
-595.914887
20
550.405707
11
-595.793000
21
551.615000
0
LINE
8
Layer 1
10
-595.793000
20
551.615000
11
-595.793000
21
597.615000
0
LINE
8
Layer 1
10
-595.793000
20
597.615000
11
-595.914887
21
598.824006
0
LINE
8
Layer 1
10
-595.914887
20
598.824006
11
-596.264469
21
599.950172
0
LINE
8
Layer 1
10
-596.264469
20
599.950172
11
-596.817629
21
600.969346
0
LINE
8
Layer 1
10
-596.817629
20
600.969346
11
-597.550250
21
601.857375
0
LINE
8
Layer 1
10
-597.550250
20
601.857375
11
-598.438215
21
602.590107
0
LINE
8
Layer 1
10
-598.438215
20
602.590107
11
-599.457406
21
603.143391
0
LINE
8
Layer 1
10
-599.457406
20
603.143391
11
-600.583707
21
603.493072
0
LINE
8
Layer 1
10
-600.583707
20
603.493072
11
-601.793000
21
603.615000
0
LINE
8
Layer 1
10
-601.793000
20
603.615000
11
-603.002293
21
603.493072
0
LINE
8
Layer 1
10
-603.002293
20
603.493072
11
-604.128594
21
603.143391
0
LINE
8
Layer 1
10
-604.128594
20
603.143391
11
-605.147785
21
602.590107
0
LINE
8
Layer 1
10
-605.147785
20
602.590107
11
-606.035750
21
601.857375
0
LINE
8
Layer 1
10
-606.035750
20
601.857375
11
-606.768371
21
600.969346
0
LINE
8
Layer 1
10
-606.768371
20
600.969346
11
-607.321531
21
599.950172
0
LINE
8
Layer 1
10
-607.321531
20
599.950172
11
-607.671113
21
598.824006
0
LINE
8
Layer 1
10
-607.671113
20
598.824006
11
-607.793000
21
597.615000
0
LINE
8
Layer 1
10
-607.793000
20
597.615000
11
-607.793000
21
597.615000
0
LINE
8
Layer 1
10
-480.969000
20
594.381000
11
-482.289505
21
593.699241
0
LINE
8
Layer 1
10
-482.289505
20
593.699241
11
-483.475767
21
592.844665
0
LINE
8
Layer 1
10
-483.475767
20
592.844665
11
-484.514893
21
591.836769
0
LINE
8
Layer 1
10
-484.514893
20
591.836769
11
-485.393995
21
590.695051
0
LINE
8
Layer 1
10
-485.393995
20
590.695051
11
-486.100180
21
589.439010
0
LINE
8
Layer 1
10
-486.100180
20
589.439010
11
-486.620558
21
588.088142
0
LINE
8
Layer 1
10
-486.620558
20
588.088142
11
-486.942239
21
586.661946
0
LINE
8
Layer 1
10
-486.942239
20
586.661946
11
-487.052330
21
585.179920
0
LINE
8
Layer 1
10
-487.052330
20
585.179920
11
-487.053000
21
582.524000
0
LINE
8
Layer 1
10
-487.053000
20
582.524000
11
-482.553000
21
582.524000
0
LINE
8
Layer 1
10
-482.553000
20
582.524000
11
-482.553000
21
573.524000
0
LINE
8
Layer 1
10
-482.553000
20
573.524000
11
-487.053000
21
573.524000
0
LINE
8
Layer 1
10
-487.053000
20
573.524000
11
-487.053000
21
564.524000
0
LINE
8
Layer 1
10
-487.053000
20
564.524000
11
-482.553000
21
564.524000
0
LINE
8
Layer 1
10
-482.553000
20
564.524000
11
-482.553000
21
555.524000
0
LINE
8
Layer 1
10
-482.553000
20
555.524000
11
-487.053000
21
555.524000
0
LINE
8
Layer 1
10
-487.053000
20
555.524000
11
-487.053000
21
546.524000
0
LINE
8
Layer 1
10
-487.053000
20
546.524000
11
-482.553000
21
546.524000
0
LINE
8
Layer 1
10
-482.553000
20
546.524000
11
-482.553000
21
537.524000
0
LINE
8
Layer 1
10
-482.553000
20
537.524000
11
-477.195000
21
537.524000
0
LINE
8
Layer 1
10
-477.195000
20
537.524000
11
-477.195000
21
533.024000
0
LINE
8
Layer 1
10
-477.195000
20
533.024000
11
-467.338000
21
533.024000
0
LINE
8
Layer 1
10
-467.338000
20
533.024000
11
-467.338000
21
537.524000
0
LINE
8
Layer 1
10
-467.338000
20
537.524000
11
-457.481000
21
537.524000
0
LINE
8
Layer 1
10
-457.481000
20
537.524000
11
-457.481000
21
533.024000
0
LINE
8
Layer 1
10
-457.481000
20
533.024000
11
-447.624000
21
533.024000
0
LINE
8
Layer 1
10
-447.624000
20
533.024000
11
-447.624000
21
537.524000
0
LINE
8
Layer 1
10
-447.624000
20
537.524000
11
-437.767000
21
537.524000
0
LINE
8
Layer 1
10
-437.767000
20
537.524000
11
-437.767000
21
533.024000
0
LINE
8
Layer 1
10
-437.767000
20
533.024000
11
-427.910000
21
533.024000
0
LINE
8
Layer 1
10
-427.910000
20
533.024000
11
-427.910000
21
537.524000
0
LINE
8
Layer 1
10
-427.910000
20
537.524000
11
-422.553000
21
537.524000
0
LINE
8
Layer 1
10
-422.553000
20
537.524000
11
-422.553000
21
546.524000
0
LINE
8
Layer 1
10
-422.553000
20
546.524000
11
-418.053000
21
546.524000
0
LINE
8
Layer 1
10
-418.053000
20
546.524000
11
-418.053000
21
555.524000
0
LINE
8
Layer 1
10
-418.053000
20
555.524000
11
-422.553000
21
555.524000
0
LINE
8
Layer 1
10
-422.553000
20
555.524000
11
-422.553000
21
564.524000
0
LINE
8
Layer 1
10
-422.553000
20
564.524000
11
-418.053000
21
564.524000
0
LINE
8
Layer 1
10
-418.053000
20
564.524000
11
-418.053000
21
573.524000
0
LINE
8
Layer 1
10
-418.053000
20
573.524000
11
-422.553000
21
573.524000
0
LINE
8
Layer 1
10
-422.553000
20
573.524000
11
-422.553000
21
582.524000
0
LINE
8
Layer 1
10
-422.553000
20
582.524000
11
-418.053000
21
582.524000
0
LINE
8
Layer 1
10
-418.053000
20
582.524000
11
-418.053000
21
585.180000
0
LINE
8
Layer 1
10
-418.053000
20
585.180000
11
-418.163092
21
586.662026
0
LINE
8
Layer 1
10
-418.163092
20
586.662026
11
-418.484773
21
588.088222
0
LINE
8
Layer 1
10
-418.484773
20
588.088222
11
-419.005152
21
589.439090
0
LINE
8
Layer 1
10
-419.005152
20
589.439090
11
-419.711339
21
590.695131
0
LINE
8
Layer 1
10
-419.711339
20
590.695131
11
-420.590441
21
591.836849
0
LINE
8
Layer 1
10
-420.590441
20
591.836849
11
-421.629568
21
592.844745
0
LINE
8
Layer 1
10
-421.629568
20
592.844745
11
-422.815828
21
593.699321
0
LINE
8
Layer 1
10
-422.815828
20
593.699321
11
-424.136330
21
594.381080
0
LINE
8
Layer 1
10
-424.136330
20
594.381080
11
-426.851168
21
595.701699
0
LINE
8
Layer 1
10
-426.851168
20
595.701699
11
-429.400788
21
597.275660
0
LINE
8
Layer 1
10
-429.400788
20
597.275660
11
-431.769628
21
599.086886
0
LINE
8
Layer 1
10
-431.769628
20
599.086886
11
-433.942129
21
601.119300
0
LINE
8
Layer 1
10
-433.942129
20
601.119300
11
-435.902730
21
603.356824
0
LINE
8
Layer 1
10
-435.902730
20
603.356824
11
-437.635870
21
605.783380
0
LINE
8
Layer 1
10
-437.635870
20
605.783380
11
-439.125990
21
608.382891
0
LINE
8
Layer 1
10
-439.125990
20
608.382891
11
-440.357530
21
611.139280
0
LINE
8
Layer 1
10
-440.357530
20
611.139280
11
-441.017283
21
612.518634
0
LINE
8
Layer 1
10
-441.017283
20
612.518634
11
-441.863412
21
613.760608
0
LINE
8
Layer 1
10
-441.863412
20
613.760608
11
-442.874976
21
614.850860
0
LINE
8
Layer 1
10
-442.874976
20
614.850860
11
-444.031027
21
615.775048
0
LINE
8
Layer 1
10
-444.031027
20
615.775048
11
-445.310624
21
616.518827
0
LINE
8
Layer 1
10
-445.310624
20
616.518827
11
-446.692821
21
617.067856
0
LINE
8
Layer 1
10
-446.692821
20
617.067856
11
-448.156675
21
617.407791
0
LINE
8
Layer 1
10
-448.156675
20
617.407791
11
-449.681240
21
617.524290
0
LINE
8
Layer 1
10
-449.681240
20
617.524290
11
-455.424000
21
617.524000
0
LINE
8
Layer 1
10
-455.424000
20
617.524000
11
-456.948566
21
617.407501
0
LINE
8
Layer 1
10
-456.948566
20
617.407501
11
-458.412420
21
617.067566
0
LINE
8
Layer 1
10
-458.412420
20
617.067566
11
-459.794618
21
616.518537
0
LINE
8
Layer 1
10
-459.794618
20
616.518537
11
-461.074216
21
615.774758
0
LINE
8
Layer 1
10
-461.074216
20
615.774758
11
-462.230269
21
614.850570
0
LINE
8
Layer 1
10
-462.230269
20
614.850570
11
-463.241832
21
613.760318
0
LINE
8
Layer 1
10
-463.241832
20
613.760318
11
-464.087960
21
612.518344
0
LINE
8
Layer 1
10
-464.087960
20
612.518344
11
-464.747710
21
611.138990
0
LINE
8
Layer 1
10
-464.747710
20
611.138990
11
-465.979234
21
608.382587
0
LINE
8
Layer 1
10
-465.979234
20
608.382587
11
-467.469345
21
605.783063
0
LINE
8
Layer 1
10
-467.469345
20
605.783063
11
-469.202481
21
603.356498
0
LINE
8
Layer 1
10
-469.202481
20
603.356498
11
-471.163081
21
601.118969
0
LINE
8
Layer 1
10
-471.163081
20
601.118969
11
-473.335585
21
599.086555
0
LINE
8
Layer 1
10
-473.335585
20
599.086555
11
-475.704432
21
597.275335
0
LINE
8
Layer 1
10
-475.704432
20
597.275335
11
-478.254061
21
595.701387
0
LINE
8
Layer 1
10
-478.254061
20
595.701387
11
-480.968910
21
594.380790
0
LINE
8
Layer 1
10
-479.969000
20
682.130000
11
-481.289505
21
681.448244
0
LINE
8
Layer 1
10
-481.289505
20
681.448244
11
-482.475767
21
680.593670
0
LINE
8
Layer 1
10
-482.475767
20
680.593670
11
-483.514893
21
679.585776
0
LINE
8
Layer 1
10
-483.514893
20
679.585776
11
-484.393995
21
678.444059
0
LINE
8
Layer 1
10
-484.393995
20
678.444059
11
-485.100180
21
677.188017
0
LINE
8
Layer 1
10
-485.100180
20
677.188017
11
-485.620558
21
675.837148
0
LINE
8
Layer 1
10
-485.620558
20
675.837148
11
-485.942239
21
674.410950
0
LINE
8
Layer 1
10
-485.942239
20
674.410950
11
-486.052330
21
672.928920
0
LINE
8
Layer 1
10
-486.052330
20
672.928920
11
-486.053000
21
670.274000
0
LINE
8
Layer 1
10
-486.053000
20
670.274000
11
-481.553000
21
670.274000
0
LINE
8
Layer 1
10
-481.553000
20
670.274000
11
-481.553000
21
661.274000
0
LINE
8
Layer 1
10
-481.553000
20
661.274000
11
-486.053000
21
661.274000
0
LINE
8
Layer 1
10
-486.053000
20
661.274000
11
-486.053000
21
652.274000
0
LINE
8
Layer 1
10
-486.053000
20
652.274000
11
-481.553000
21
652.274000
0
LINE
8
Layer 1
10
-481.553000
20
652.274000
11
-481.553000
21
643.274000
0
LINE
8
Layer 1
10
-481.553000
20
643.274000
11
-486.053000
21
643.274000
0
LINE
8
Layer 1
10
-486.053000
20
643.274000
11
-486.053000
21
634.274000
0
LINE
8
Layer 1
10
-486.053000
20
634.274000
11
-481.553000
21
634.274000
0
LINE
8
Layer 1
10
-481.553000
20
634.274000
11
-481.553000
21
625.274000
0
LINE
8
Layer 1
10
-481.553000
20
625.274000
11
-476.195000
21
625.274000
0
LINE
8
Layer 1
10
-476.195000
20
625.274000
11
-476.195000
21
620.774000
0
LINE
8
Layer 1
10
-476.195000
20
620.774000
11
-466.338000
21
620.774000
0
LINE
8
Layer 1
10
-466.338000
20
620.774000
11
-466.338000
21
625.274000
0
LINE
8
Layer 1
10
-466.338000
20
625.274000
11
-456.481000
21
625.274000
0
LINE
8
Layer 1
10
-456.481000
20
625.274000
11
-456.481000
21
620.774000
0
LINE
8
Layer 1
10
-456.481000
20
620.774000
11
-446.624000
21
620.774000
0
LINE
8
Layer 1
10
-446.624000
20
620.774000
11
-446.624000
21
625.274000
0
LINE
8
Layer 1
10
-446.624000
20
625.274000
11
-436.767000
21
625.274000
0
LINE
8
Layer 1
10
-436.767000
20
625.274000
11
-436.767000
21
620.774000
0
LINE
8
Layer 1
10
-436.767000
20
620.774000
11
-426.910000
21
620.774000
0
LINE
8
Layer 1
10
-426.910000
20
620.774000
11
-426.910000
21
625.274000
0
LINE
8
Layer 1
10
-426.910000
20
625.274000
11
-421.553000
21
625.274000
0
LINE
8
Layer 1
10
-421.553000
20
625.274000
11
-421.553000
21
634.274000
0
LINE
8
Layer 1
10
-421.553000
20
634.274000
11
-417.053000
21
634.274000
0
LINE
8
Layer 1
10
-417.053000
20
634.274000
11
-417.053000
21
643.274000
0
LINE
8
Layer 1
10
-417.053000
20
643.274000
11
-421.553000
21
643.274000
0
LINE
8
Layer 1
10
-421.553000
20
643.274000
11
-421.553000
21
652.274000
0
LINE
8
Layer 1
10
-421.553000
20
652.274000
11
-417.053000
21
652.274000
0
LINE
8
Layer 1
10
-417.053000
20
652.274000
11
-417.053000
21
661.274000
0
LINE
8
Layer 1
10
-417.053000
20
661.274000
11
-421.553000
21
661.274000
0
LINE
8
Layer 1
10
-421.553000
20
661.274000
11
-421.553000
21
670.274000
0
LINE
8
Layer 1
10
-421.553000
20
670.274000
11
-417.053000
21
670.274000
0
LINE
8
Layer 1
10
-417.053000
20
670.274000
11
-417.053000
21
672.929000
0
LINE
8
Layer 1
10
-417.053000
20
672.929000
11
-417.163091
21
674.411030
0
LINE
8
Layer 1
10
-417.163091
20
674.411030
11
-417.484772
21
675.837228
0
LINE
8
Layer 1
10
-417.484772
20
675.837228
11
-418.005150
21
677.188097
0
LINE
8
Layer 1
10
-418.005150
20
677.188097
11
-418.711335
21
678.444139
0
LINE
8
Layer 1
10
-418.711335
20
678.444139
11
-419.590437
21
679.585856
0
LINE
8
Layer 1
10
-419.590437
20
679.585856
11
-420.629563
21
680.593750
0
LINE
8
Layer 1
10
-420.629563
20
680.593750
11
-421.815825
21
681.448324
0
LINE
8
Layer 1
10
-421.815825
20
681.448324
11
-423.136330
21
682.130080
0
LINE
8
Layer 1
10
-423.136330
20
682.130080
11
-425.851168
21
683.450699
0
LINE
8
Layer 1
10
-425.851168
20
683.450699
11
-428.400788
21
685.024659
0
LINE
8
Layer 1
10
-428.400788
20
685.024659
11
-430.769628
21
686.835884
0
LINE
8
Layer 1
10
-430.769628
20
686.835884
11
-432.942129
21
688.868296
0
LINE
8
Layer 1
10
-432.942129
20
688.868296
11
-434.902730
21
691.105819
0
LINE
8
Layer 1
10
-434.902730
20
691.105819
11
-436.635870
21
693.532375
0
LINE
8
Layer 1
10
-436.635870
20
693.532375
11
-438.125990
21
696.131888
0
LINE
8
Layer 1
10
-438.125990
20
696.131888
11
-439.357530
21
698.888280
0
LINE
8
Layer 1
10
-439.357530
20
698.888280
11
-440.017276
21
700.267634
0
LINE
8
Layer 1
10
-440.017276
20
700.267634
11
-440.863402
21
701.509608
0
LINE
8
Layer 1
10
-440.863402
20
701.509608
11
-441.874963
21
702.599860
0
LINE
8
Layer 1
10
-441.874963
20
702.599860
11
-443.031014
21
703.524048
0
LINE
8
Layer 1
10
-443.031014
20
703.524048
11
-444.310610
21
704.267827
0
LINE
8
Layer 1
10
-444.310610
20
704.267827
11
-445.692806
21
704.816856
0
LINE
8
Layer 1
10
-445.692806
20
704.816856
11
-447.156658
21
705.156791
0
LINE
8
Layer 1
10
-447.156658
20
705.156791
11
-448.681220
21
705.273290
0
LINE
8
Layer 1
10
-448.681220
20
705.273290
11
-454.424000
21
705.274000
0
LINE
8
Layer 1
10
-454.424000
20
705.274000
11
-455.948562
21
705.157501
0
LINE
8
Layer 1
10
-455.948562
20
705.157501
11
-457.412414
21
704.817566
0
LINE
8
Layer 1
10
-457.412414
20
704.817566
11
-458.794611
21
704.268537
0
LINE
8
Layer 1
10
-458.794611
20
704.268537
11
-460.074207
21
703.524758
0
LINE
8
Layer 1
10
-460.074207
20
703.524758
11
-461.230259
21
702.600570
0
LINE
8
Layer 1
10
-461.230259
20
702.600570
11
-462.241822
21
701.510318
0
LINE
8
Layer 1
10
-462.241822
20
701.510318
11
-463.087950
21
700.268344
0
LINE
8
Layer 1
10
-463.087950
20
700.268344
11
-463.747700
21
698.888990
0
LINE
8
Layer 1
10
-463.747700
20
698.888990
11
-464.979224
21
696.132587
0
LINE
8
Layer 1
10
-464.979224
20
696.132587
11
-466.469335
21
693.533063
0
LINE
8
Layer 1
10
-466.469335
20
693.533063
11
-468.202471
21
691.106498
0
LINE
8
Layer 1
10
-468.202471
20
691.106498
11
-470.163071
21
688.868969
0
LINE
8
Layer 1
10
-470.163071
20
688.868969
11
-472.335575
21
686.836555
0
LINE
8
Layer 1
10
-472.335575
20
686.836555
11
-474.704422
21
685.025335
0
LINE
8
Layer 1
10
-474.704422
20
685.025335
11
-477.254051
21
683.451387
0
LINE
8
Layer 1
10
-477.254051
20
683.451387
11
-479.968900
21
682.130790
0
LINE
8
Layer 1
10
-479.969000
20
770.130000
11
-481.289505
21
769.448241
0
LINE
8
Layer 1
10
-481.289505
20
769.448241
11
-482.475767
21
768.593666
0
LINE
8
Layer 1
10
-482.475767
20
768.593666
11
-483.514893
21
767.585771
0
LINE
8
Layer 1
10
-483.514893
20
767.585771
11
-484.393995
21
766.444055
0
LINE
8
Layer 1
10
-484.393995
20
766.444055
11
-485.100180
21
765.188014
0
LINE
8
Layer 1
10
-485.100180
20
765.188014
11
-485.620558
21
763.837147
0
LINE
8
Layer 1
10
-485.620558
20
763.837147
11
-485.942239
21
762.410949
0
LINE
8
Layer 1
10
-485.942239
20
762.410949
11
-486.052330
21
760.928920
0
LINE
8
Layer 1
10
-486.052330
20
760.928920
11
-486.053000
21
758.273000
0
LINE
8
Layer 1
10
-486.053000
20
758.273000
11
-481.553000
21
758.273000
0
LINE
8
Layer 1
10
-481.553000
20
758.273000
11
-481.553000
21
749.273000
0
LINE
8
Layer 1
10
-481.553000
20
749.273000
11
-486.053000
21
749.273000
0
LINE
8
Layer 1
10
-486.053000
20
749.273000
11
-486.053000
21
740.273000
0
LINE
8
Layer 1
10
-486.053000
20
740.273000
11
-481.553000
21
740.273000
0
LINE
8
Layer 1
10
-481.553000
20
740.273000
11
-481.553000
21
731.273000
0
LINE
8
Layer 1
10
-481.553000
20
731.273000
11
-486.053000
21
731.273000
0
LINE
8
Layer 1
10
-486.053000
20
731.273000
11
-486.053000
21
722.273000
0
LINE
8
Layer 1
10
-486.053000
20
722.273000
11
-481.553000
21
722.273000
0
LINE
8
Layer 1
10
-481.553000
20
722.273000
11
-481.553000
21
713.273000
0
LINE
8
Layer 1
10
-481.553000
20
713.273000
11
-476.195000
21
713.273000
0
LINE
8
Layer 1
10
-476.195000
20
713.273000
11
-476.195000
21
708.773000
0
LINE
8
Layer 1
10
-476.195000
20
708.773000
11
-466.338000
21
708.773000
0
LINE
8
Layer 1
10
-466.338000
20
708.773000
11
-466.338000
21
713.273000
0
LINE
8
Layer 1
10
-466.338000
20
713.273000
11
-456.481000
21
713.273000
0
LINE
8
Layer 1
10
-456.481000
20
713.273000
11
-456.481000
21
708.773000
0
LINE
8
Layer 1
10
-456.481000
20
708.773000
11
-446.624000
21
708.773000
0
LINE
8
Layer 1
10
-446.624000
20
708.773000
11
-446.624000
21
713.273000
0
LINE
8
Layer 1
10
-446.624000
20
713.273000
11
-436.767000
21
713.273000
0
LINE
8
Layer 1
10
-436.767000
20
713.273000
11
-436.767000
21
708.773000
0
LINE
8
Layer 1
10
-436.767000
20
708.773000
11
-426.910000
21
708.773000
0
LINE
8
Layer 1
10
-426.910000
20
708.773000
11
-426.910000
21
713.273000
0
LINE
8
Layer 1
10
-426.910000
20
713.273000
11
-421.553000
21
713.273000
0
LINE
8
Layer 1
10
-421.553000
20
713.273000
11
-421.553000
21
722.273000
0
LINE
8
Layer 1
10
-421.553000
20
722.273000
11
-417.053000
21
722.273000
0
LINE
8
Layer 1
10
-417.053000
20
722.273000
11
-417.053000
21
731.273000
0
LINE
8
Layer 1
10
-417.053000
20
731.273000
11
-421.553000
21
731.273000
0
LINE
8
Layer 1
10
-421.553000
20
731.273000
11
-421.553000
21
740.273000
0
LINE
8
Layer 1
10
-421.553000
20
740.273000
11
-417.053000
21
740.273000
0
LINE
8
Layer 1
10
-417.053000
20
740.273000
11
-417.053000
21
749.273000
0
LINE
8
Layer 1
10
-417.053000
20
749.273000
11
-421.553000
21
749.273000
0
LINE
8
Layer 1
10
-421.553000
20
749.273000
11
-421.553000
21
758.273000
0
LINE
8
Layer 1
10
-421.553000
20
758.273000
11
-417.053000
21
758.273000
0
LINE
8
Layer 1
10
-417.053000
20
758.273000
11
-417.053000
21
760.929000
0
LINE
8
Layer 1
10
-417.053000
20
760.929000
11
-417.163091
21
762.411029
0
LINE
8
Layer 1
10
-417.163091
20
762.411029
11
-417.484772
21
763.837227
0
LINE
8
Layer 1
10
-417.484772
20
763.837227
11
-418.005150
21
765.188094
0
LINE
8
Layer 1
10
-418.005150
20
765.188094
11
-418.711335
21
766.444135
0
LINE
8
Layer 1
10
-418.711335
20
766.444135
11
-419.590437
21
767.585851
0
LINE
8
Layer 1
10
-419.590437
20
767.585851
11
-420.629563
21
768.593746
0
LINE
8
Layer 1
10
-420.629563
20
768.593746
11
-421.815825
21
769.448321
0
LINE
8
Layer 1
10
-421.815825
20
769.448321
11
-423.136330
21
770.130080
0
LINE
8
Layer 1
10
-423.136330
20
770.130080
11
-425.851168
21
771.450699
0
LINE
8
Layer 1
10
-425.851168
20
771.450699
11
-428.400788
21
773.024659
0
LINE
8
Layer 1
10
-428.400788
20
773.024659
11
-430.769628
21
774.835884
0
LINE
8
Layer 1
10
-430.769628
20
774.835884
11
-432.942129
21
776.868296
0
LINE
8
Layer 1
10
-432.942129
20
776.868296
11
-434.902730
21
779.105819
0
LINE
8
Layer 1
10
-434.902730
20
779.105819
11
-436.635870
21
781.532375
0
LINE
8
Layer 1
10
-436.635870
20
781.532375
11
-438.125990
21
784.131888
0
LINE
8
Layer 1
10
-438.125990
20
784.131888
11
-439.357530
21
786.888280
0
LINE
8
Layer 1
10
-439.357530
20
786.888280
11
-440.017276
21
788.267631
0
LINE
8
Layer 1
10
-440.017276
20
788.267631
11
-440.863402
21
789.509604
0
LINE
8
Layer 1
10
-440.863402
20
789.509604
11
-441.874963
21
790.599856
0
LINE
8
Layer 1
10
-441.874963
20
790.599856
11
-443.031014
21
791.524044
0
LINE
8
Layer 1
10
-443.031014
20
791.524044
11
-444.310610
21
792.267824
0
LINE
8
Layer 1
10
-444.310610
20
792.267824
11
-445.692806
21
792.816854
0
LINE
8
Layer 1
10
-445.692806
20
792.816854
11
-447.156658
21
793.156791
0
LINE
8
Layer 1
10
-447.156658
20
793.156791
11
-448.681220
21
793.273290
0
LINE
8
Layer 1
10
-448.681220
20
793.273290
11
-454.424000
21
793.273000
0
LINE
8
Layer 1
10
-454.424000
20
793.273000
11
-455.948562
21
793.156501
0
LINE
8
Layer 1
10
-455.948562
20
793.156501
11
-457.412414
21
792.816564
0
LINE
8
Layer 1
10
-457.412414
20
792.816564
11
-458.794611
21
792.267534
0
LINE
8
Layer 1
10
-458.794611
20
792.267534
11
-460.074207
21
791.523754
0
LINE
8
Layer 1
10
-460.074207
20
791.523754
11
-461.230259
21
790.599566
0
LINE
8
Layer 1
10
-461.230259
20
790.599566
11
-462.241822
21
789.509314
0
LINE
8
Layer 1
10
-462.241822
20
789.509314
11
-463.087950
21
788.267341
0
LINE
8
Layer 1
10
-463.087950
20
788.267341
11
-463.747700
21
786.887990
0
LINE
8
Layer 1
10
-463.747700
20
786.887990
11
-464.979224
21
784.131586
0
LINE
8
Layer 1
10
-464.979224
20
784.131586
11
-466.469335
21
781.532061
0
LINE
8
Layer 1
10
-466.469335
20
781.532061
11
-468.202471
21
779.105492
0
LINE
8
Layer 1
10
-468.202471
20
779.105492
11
-470.163071
21
776.867956
0
LINE
8
Layer 1
10
-470.163071
20
776.867956
11
-472.335575
21
774.835531
0
LINE
8
Layer 1
10
-472.335575
20
774.835531
11
-474.704422
21
773.024293
0
LINE
8
Layer 1
10
-474.704422
20
773.024293
11
-477.254051
21
771.450320
0
LINE
8
Layer 1
10
-477.254051
20
771.450320
11
-479.968900
21
770.129690
0
LINE
8
Layer 1
10
-405.969000
20
594.381000
11
-407.289505
21
593.699241
0
LINE
8
Layer 1
10
-407.289505
20
593.699241
11
-408.475767
21
592.844665
0
LINE
8
Layer 1
10
-408.475767
20
592.844665
11
-409.514893
21
591.836769
0
LINE
8
Layer 1
10
-409.514893
20
591.836769
11
-410.393995
21
590.695051
0
LINE
8
Layer 1
10
-410.393995
20
590.695051
11
-411.100180
21
589.439010
0
LINE
8
Layer 1
10
-411.100180
20
589.439010
11
-411.620558
21
588.088142
0
LINE
8
Layer 1
10
-411.620558
20
588.088142
11
-411.942239
21
586.661946
0
LINE
8
Layer 1
10
-411.942239
20
586.661946
11
-412.052330
21
585.179920
0
LINE
8
Layer 1
10
-412.052330
20
585.179920
11
-412.053000
21
582.524000
0
LINE
8
Layer 1
10
-412.053000
20
582.524000
11
-407.553000
21
582.524000
0
LINE
8
Layer 1
10
-407.553000
20
582.524000
11
-407.553000
21
573.524000
0
LINE
8
Layer 1
10
-407.553000
20
573.524000
11
-412.053000
21
573.524000
0
LINE
8
Layer 1
10
-412.053000
20
573.524000
11
-412.053000
21
564.524000
0
LINE
8
Layer 1
10
-412.053000
20
564.524000
11
-407.553000
21
564.524000
0
LINE
8
Layer 1
10
-407.553000
20
564.524000
11
-407.553000
21
555.524000
0
LINE
8
Layer 1
10
-407.553000
20
555.524000
11
-412.053000
21
555.524000
0
LINE
8
Layer 1
10
-412.053000
20
555.524000
11
-412.053000
21
546.524000
0
LINE
8
Layer 1
10
-412.053000
20
546.524000
11
-407.553000
21
546.524000
0
LINE
8
Layer 1
10
-407.553000
20
546.524000
11
-407.553000
21
537.524000
0
LINE
8
Layer 1
10
-407.553000
20
537.524000
11
-402.195000
21
537.524000
0
LINE
8
Layer 1
10
-402.195000
20
537.524000
11
-402.195000
21
533.024000
0
LINE
8
Layer 1
10
-402.195000
20
533.024000
11
-392.338000
21
533.024000
0
LINE
8
Layer 1
10
-392.338000
20
533.024000
11
-392.338000
21
537.524000
0
LINE
8
Layer 1
10
-392.338000
20
537.524000
11
-382.481000
21
537.524000
0
LINE
8
Layer 1
10
-382.481000
20
537.524000
11
-382.481000
21
533.024000
0
LINE
8
Layer 1
10
-382.481000
20
533.024000
11
-372.624000
21
533.024000
0
LINE
8
Layer 1
10
-372.624000
20
533.024000
11
-372.624000
21
537.524000
0
LINE
8
Layer 1
10
-372.624000
20
537.524000
11
-362.767000
21
537.524000
0
LINE
8
Layer 1
10
-362.767000
20
537.524000
11
-362.767000
21
533.024000
0
LINE
8
Layer 1
10
-362.767000
20
533.024000
11
-352.910000
21
533.024000
0
LINE
8
Layer 1
10
-352.910000
20
533.024000
11
-352.910000
21
537.524000
0
LINE
8
Layer 1
10
-352.910000
20
537.524000
11
-347.553000
21
537.524000
0
LINE
8
Layer 1
10
-347.553000
20
537.524000
11
-347.553000
21
546.524000
0
LINE
8
Layer 1
10
-347.553000
20
546.524000
11
-343.053000
21
546.524000
0
LINE
8
Layer 1
10
-343.053000
20
546.524000
11
-343.053000
21
555.524000
0
LINE
8
Layer 1
10
-343.053000
20
555.524000
11
-347.553000
21
555.524000
0
LINE
8
Layer 1
10
-347.553000
20
555.524000
11
-347.553000
21
564.524000
0
LINE
8
Layer 1
10
-347.553000
20
564.524000
11
-343.053000
21
564.524000
0
LINE
8
Layer 1
10
-343.053000
20
564.524000
11
-343.053000
21
573.524000
0
LINE
8
Layer 1
10
-343.053000
20
573.524000
11
-347.553000
21
573.524000
0
LINE
8
Layer 1
10
-347.553000
20
573.524000
11
-347.553000
21
582.524000
0
LINE
8
Layer 1
10
-347.553000
20
582.524000
11
-343.053000
21
582.524000
0
LINE
8
Layer 1
10
-343.053000
20
582.524000
11
-343.053000
21
585.180000
0
LINE
8
Layer 1
10
-343.053000
20
585.180000
11
-343.163092
21
586.662026
0
LINE
8
Layer 1
10
-343.163092
20
586.662026
11
-343.484773
21
588.088222
0
LINE
8
Layer 1
10
-343.484773
20
588.088222
11
-344.005152
21
589.439090
0
LINE
8
Layer 1
10
-344.005152
20
589.439090
11
-344.711339
21
590.695131
0
LINE
8
Layer 1
10
-344.711339
20
590.695131
11
-345.590441
21
591.836849
0
LINE
8
Layer 1
10
-345.590441
20
591.836849
11
-346.629568
21
592.844745
0
LINE
8
Layer 1
10
-346.629568
20
592.844745
11
-347.815828
21
593.699321
0
LINE
8
Layer 1
10
-347.815828
20
593.699321
11
-349.136330
21
594.381080
0
LINE
8
Layer 1
10
-349.136330
20
594.381080
11
-351.851168
21
595.701699
0
LINE
8
Layer 1
10
-351.851168
20
595.701699
11
-354.400788
21
597.275660
0
LINE
8
Layer 1
10
-354.400788
20
597.275660
11
-356.769628
21
599.086886
0
LINE
8
Layer 1
10
-356.769628
20
599.086886
11
-358.942129
21
601.119300
0
LINE
8
Layer 1
10
-358.942129
20
601.119300
11
-360.902730
21
603.356824
0
LINE
8
Layer 1
10
-360.902730
20
603.356824
11
-362.635870
21
605.783380
0
LINE
8
Layer 1
10
-362.635870
20
605.783380
11
-364.125990
21
608.382891
0
LINE
8
Layer 1
10
-364.125990
20
608.382891
11
-365.357530
21
611.139280
0
LINE
8
Layer 1
10
-365.357530
20
611.139280
11
-366.017283
21
612.518634
0
LINE
8
Layer 1
10
-366.017283
20
612.518634
11
-366.863412
21
613.760608
0
LINE
8
Layer 1
10
-366.863412
20
613.760608
11
-367.874976
21
614.850860
0
LINE
8
Layer 1
10
-367.874976
20
614.850860
11
-369.031027
21
615.775048
0
LINE
8
Layer 1
10
-369.031027
20
615.775048
11
-370.310624
21
616.518827
0
LINE
8
Layer 1
10
-370.310624
20
616.518827
11
-371.692821
21
617.067856
0
LINE
8
Layer 1
10
-371.692821
20
617.067856
11
-373.156675
21
617.407791
0
LINE
8
Layer 1
10
-373.156675
20
617.407791
11
-374.681240
21
617.524290
0
LINE
8
Layer 1
10
-374.681240
20
617.524290
11
-380.424000
21
617.524000
0
LINE
8
Layer 1
10
-380.424000
20
617.524000
11
-381.948566
21
617.407501
0
LINE
8
Layer 1
10
-381.948566
20
617.407501
11
-383.412420
21
617.067566
0
LINE
8
Layer 1
10
-383.412420
20
617.067566
11
-384.794618
21
616.518537
0
LINE
8
Layer 1
10
-384.794618
20
616.518537
11
-386.074216
21
615.774758
0
LINE
8
Layer 1
10
-386.074216
20
615.774758
11
-387.230269
21
614.850570
0
LINE
8
Layer 1
10
-387.230269
20
614.850570
11
-388.241832
21
613.760318
0
LINE
8
Layer 1
10
-388.241832
20
613.760318
11
-389.087960
21
612.518344
0
LINE
8
Layer 1
10
-389.087960
20
612.518344
11
-389.747710
21
611.138990
0
LINE
8
Layer 1
10
-389.747710
20
611.138990
11
-390.979234
21
608.382587
0
LINE
8
Layer 1
10
-390.979234
20
608.382587
11
-392.469345
21
605.783063
0
LINE
8
Layer 1
10
-392.469345
20
605.783063
11
-394.202481
21
603.356498
0
LINE
8
Layer 1
10
-394.202481
20
603.356498
11
-396.163081
21
601.118969
0
LINE
8
Layer 1
10
-396.163081
20
601.118969
11
-398.335585
21
599.086555
0
LINE
8
Layer 1
10
-398.335585
20
599.086555
11
-400.704432
21
597.275335
0
LINE
8
Layer 1
10
-400.704432
20
597.275335
11
-403.254061
21
595.701387
0
LINE
8
Layer 1
10
-403.254061
20
595.701387
11
-405.968910
21
594.380790
 0 
ENDSEC
 0 
EOF