  0
SECTION
  2
HEADER
  9
$ACADVER
  1
AC1009
  0
ENDSEC
  0
SECTION
  2
ENTITIES
  0
CIRCLE
  5
90
  8
Layer_0
  62
0
  10
398.63684
  20
284.25336
  30
0
  40
1.5003643
  0
CIRCLE
  5
90
  8
Layer_0
  62
0
  10
398.63684
  20
252.42578
  30
0
  40
1.5003643
  0
CIRCLE
  5
90
  8
Layer_0
  62
0
  10
366.80923
  20
252.42578
  30
0
  40
1.5003643
  0
CIRCLE
  5
90
  8
Layer_0
  62
0
  10
366.80923
  20
284.25336
  30
0
  40
1.5003643
  0
CIRCLE
  5
90
  8
Layer_0
  62
0
  10
399.99847
  20
268.3396
  30
0
  40
1.5003643
  0
CIRCLE
  5
90
  8
Layer_0
  62
0
  10
399.15259
  20
263.00137
  30
0
  40
1.5003643
  0
CIRCLE
  5
90
  8
Layer_0
  62
0
  10
396.69897
  20
258.18567
  30
0
  40
1.5003643
  0
CIRCLE
  5
90
  8
Layer_0
  62
0
  10
392.87695
  20
254.36449
  30
0
  40
1.5003643
  0
CIRCLE
  5
90
  8
Layer_0
  62
0
  10
388.06125
  20
251.91086
  30
0
  40
1.5003643
  0
CIRCLE
  5
90
  8
Layer_0
  62
0
  10
382.72302
  20
251.06499
  30
0
  40
1.5003643
  0
CIRCLE
  5
90
  8
Layer_0
  62
0
  10
377.38483
  20
251.91086
  30
0
  40
1.5003643
  0
CIRCLE
  5
90
  8
Layer_0
  62
0
  10
372.56909
  20
254.36449
  30
0
  40
1.5003643
  0
CIRCLE
  5
90
  8
Layer_0
  62
0
  10
368.74796
  20
258.18567
  30
0
  40
1.5003643
  0
CIRCLE
  5
90
  8
Layer_0
  62
0
  10
366.29431
  20
263.00137
  30
0
  40
1.5003643
  0
CIRCLE
  5
90
  8
Layer_0
  62
0
  10
365.44843
  20
268.3396
  30
0
  40
1.5003643
  0
CIRCLE
  5
90
  8
Layer_0
  62
0
  10
366.29431
  20
273.6778
  30
0
  40
1.5003643
  0
CIRCLE
  5
90
  8
Layer_0
  62
0
  10
368.74796
  20
278.4935
  30
0
  40
1.5003643
  0
CIRCLE
  5
90
  8
Layer_0
  62
0
  10
372.56909
  20
282.31549
  30
0
  40
1.5003643
  0
CIRCLE
  5
90
  8
Layer_0
  62
0
  10
377.38483
  20
284.76913
  30
0
  40
1.5003643
  0
CIRCLE
  5
90
  8
Layer_0
  62
0
  10
382.72302
  20
285.61499
  30
0
  40
1.5003643
  0
CIRCLE
  5
90
  8
Layer_0
  62
0
  10
388.06125
  20
284.76913
  30
0
  40
1.5003643
  0
CIRCLE
  5
90
  8
Layer_0
  62
0
  10
392.87695
  20
282.31549
  30
0
  40
1.5003643
  0
CIRCLE
  5
90
  8
Layer_0
  62
0
  10
396.69897
  20
278.4935
  30
0
  40
1.5003643
  0
CIRCLE
  5
90
  8
Layer_0
  62
0
  10
399.15259
  20
273.6778
  30
0
  40
1.5003643
  0
CIRCLE
  5
90
  8
Layer_0
  62
0
  10
395.62375
  20
270.3833
  30
0
  40
1.5003643
  0
CIRCLE
  5
90
  8
Layer_0
  62
0
  10
395.62375
  20
266.29669
  30
0
  40
1.5003643
  0
CIRCLE
  5
90
  8
Layer_0
  62
0
  10
394.36124
  20
262.41003
  30
0
  40
1.5003643
  0
CIRCLE
  5
90
  8
Layer_0
  62
0
  10
391.95883
  20
259.10376
  30
0
  40
1.5003643
  0
CIRCLE
  5
90
  8
Layer_0
  62
0
  10
388.65259
  20
256.70221
  30
0
  40
1.5003643
  0
CIRCLE
  5
90
  8
Layer_0
  62
0
  10
384.76678
  20
255.43968
  30
0
  40
1.5003643
  0
CIRCLE
  5
90
  8
Layer_0
  62
0
  10
380.68015
  20
255.43968
  30
0
  40
1.5003643
  0
CIRCLE
  5
90
  8
Layer_0
  62
0
  10
376.79349
  20
256.70221
  30
0
  40
1.5003643
  0
CIRCLE
  5
90
  8
Layer_0
  62
0
  10
373.4881
  20
259.10376
  30
0
  40
1.5003643
  0
CIRCLE
  5
90
  8
Layer_0
  62
0
  10
371.08569
  20
262.41003
  30
0
  40
1.5003643
  0
CIRCLE
  5
90
  8
Layer_0
  62
0
  10
369.82318
  20
266.29669
  30
0
  40
1.5003643
  0
CIRCLE
  5
90
  8
Layer_0
  62
0
  10
369.82318
  20
270.3833
  30
0
  40
1.5003643
  0
CIRCLE
  5
90
  8
Layer_0
  62
0
  10
371.08569
  20
274.26913
  30
0
  40
1.5003643
  0
CIRCLE
  5
90
  8
Layer_0
  62
0
  10
373.4881
  20
277.57538
  30
0
  40
1.5003643
  0
CIRCLE
  5
90
  8
Layer_0
  62
0
  10
376.79349
  20
279.97778
  30
0
  40
1.5003643
  0
CIRCLE
  5
90
  8
Layer_0
  62
0
  10
380.68015
  20
281.2403
  30
0
  40
1.5003643
  0
CIRCLE
  5
90
  8
Layer_0
  62
0
  10
384.76678
  20
281.2403
  30
0
  40
1.5003643
  0
CIRCLE
  5
90
  8
Layer_0
  62
0
  10
388.65259
  20
279.97778
  30
0
  40
1.5003643
  0
CIRCLE
  5
90
  8
Layer_0
  62
0
  10
391.95883
  20
277.57538
  30
0
  40
1.5003643
  0
CIRCLE
  5
90
  8
Layer_0
  62
0
  10
394.36124
  20
274.26913
  30
0
  40
1.5003643
  0
CIRCLE
  5
90
  8
Layer_0
  62
0
  10
390.99622
  20
268.3396
  30
0
  40
1.5003643
  0
CIRCLE
  5
90
  8
Layer_0
  62
0
  10
389.41614
  20
263.47766
  30
0
  40
1.5003643
  0
CIRCLE
  5
90
  8
Layer_0
  62
0
  10
385.28
  20
260.47211
  30
0
  40
1.5003643
  0
CIRCLE
  5
90
  8
Layer_0
  62
0
  10
380.16693
  20
260.47211
  30
0
  40
1.5003643
  0
CIRCLE
  5
90
  8
Layer_0
  62
0
  10
376.03076
  20
263.47766
  30
0
  40
1.5003643
  0
CIRCLE
  5
90
  8
Layer_0
  62
0
  10
374.45071
  20
268.3396
  30
0
  40
1.5003643
  0
CIRCLE
  5
90
  8
Layer_0
  62
0
  10
376.03076
  20
273.20233
  30
0
  40
1.5003643
  0
CIRCLE
  5
90
  8
Layer_0
  62
0
  10
380.16693
  20
276.20782
  30
0
  40
1.5003643
  0
CIRCLE
  5
90
  8
Layer_0
  62
0
  10
385.28
  20
276.20782
  30
0
  40
1.5003643
  0
CIRCLE
  5
90
  8
Layer_0
  62
0
  10
389.41614
  20
273.20233
  30
0
  40
1.5003643
  0
CIRCLE
  5
90
  8
Layer_0
  62
0
  10
386.87683
  20
269.68945
  30
0
  40
1.5003643
  0
CIRCLE
  5
90
  8
Layer_0
  62
0
  10
385.29007
  20
264.80652
  30
0
  40
1.5003643
  0
CIRCLE
  5
90
  8
Layer_0
  62
0
  10
380.15686
  20
264.80652
  30
0
  40
1.5003643
  0
CIRCLE
  5
90
  8
Layer_0
  62
0
  10
378.57007
  20
269.68945
  30
0
  40
1.5003643
  0
CIRCLE
  5
90
  8
Layer_0
  62
0
  10
382.72302
  20
272.70673
  30
0
  40
1.5003643
  0
CIRCLE
  5
90
  8
Layer_0
  62
0
  10
382.72302
  20
268.3396
  30
0
  40
1.5003643
  0
POLYLINE
  5
90
  8
Layer_0
  62
0
  66
1
  10
0
  20
0
  30
0
  0
VERTEX
  5
90
  8
Layer_0
  10
333.44849
  20
162.50298
  0
VERTEX
  5
91
  8
Layer_0
  10
333.45251
  20
162.48108
  0
VERTEX
  5
92
  8
Layer_0
  10
333.42047
  20
162.46588
  0
VERTEX
  5
93
  8
Layer_0
  10
333.4115
  20
162.46588
  0
VERTEX
  5
94
  8
Layer_0
  10
330.51077
  20
162.46588
  0
VERTEX
  5
95
  8
Layer_0
  10
330.49277
  20
162.46588
  0
VERTEX
  5
96
  8
Layer_0
  10
330.43979
  20
162.49489
  0
VERTEX
  5
97
  8
Layer_0
  10
330.41077
  20
162.54849
  0
VERTEX
  5
98
  8
Layer_0
  10
330.41077
  20
162.56509
  0
VERTEX
  5
99
  8
Layer_0
  10
330.41077
  20
168.56656
  0
VERTEX
  5
9a
  8
Layer_0
  10
330.41077
  20
168.58456
  0
VERTEX
  5
9b
  8
Layer_0
  10
330.43979
  20
168.63815
  0
VERTEX
  5
9c
  8
Layer_0
  10
330.49277
  20
168.66718
  0
VERTEX
  5
9d
  8
Layer_0
  10
330.51077
  20
168.66718
  0
VERTEX
  5
9e
  8
Layer_0
  10
333.4115
  20
168.66718
  0
VERTEX
  5
9f
  8
Layer_0
  10
333.42047
  20
168.66718
  0
VERTEX
  5
a0
  8
Layer_0
  10
333.45251
  20
168.65338
  0
VERTEX
  5
a1
  8
Layer_0
  10
333.44849
  20
168.63007
  0
VERTEX
  5
a2
  8
Layer_0
  10
333.4245
  20
168.62585
  0
VERTEX
  5
a3
  8
Layer_0
  10
333.4115
  20
168.65758
  0
VERTEX
  5
a4
  8
Layer_0
  10
333.4115
  20
168.66718
  0
VERTEX
  5
a5
  8
Layer_0
  10
333.4115
  20
174.4686
  0
VERTEX
  5
a6
  8
Layer_0
  10
333.4115
  20
174.47989
  0
VERTEX
  5
a7
  8
Layer_0
  10
333.4245
  20
174.5116
  0
VERTEX
  5
a8
  8
Layer_0
  10
333.44849
  20
174.506
  0
VERTEX
  5
a9
  8
Layer_0
  10
333.45251
  20
174.4837
  0
VERTEX
  5
aa
  8
Layer_0
  10
333.42047
  20
174.4686
  0
VERTEX
  5
ab
  8
Layer_0
  10
333.4115
  20
174.4686
  0
VERTEX
  5
ac
  8
Layer_0
  10
330.51077
  20
174.4686
  0
VERTEX
  5
ad
  8
Layer_0
  10
330.49277
  20
174.4686
  0
VERTEX
  5
ae
  8
Layer_0
  10
330.43979
  20
174.4975
  0
VERTEX
  5
af
  8
Layer_0
  10
330.41077
  20
174.5515
  0
VERTEX
  5
b0
  8
Layer_0
  10
330.41077
  20
174.56812
  0
VERTEX
  5
b1
  8
Layer_0
  10
330.41077
  20
180.56958
  0
VERTEX
  5
b2
  8
Layer_0
  10
330.41077
  20
180.58716
  0
VERTEX
  5
b3
  8
Layer_0
  10
330.43979
  20
180.64119
  0
VERTEX
  5
b4
  8
Layer_0
  10
330.49277
  20
180.67009
  0
VERTEX
  5
b5
  8
Layer_0
  10
330.51077
  20
180.67009
  0
VERTEX
  5
b6
  8
Layer_0
  10
333.4115
  20
180.67009
  0
VERTEX
  5
b7
  8
Layer_0
  10
333.42047
  20
180.67009
  0
VERTEX
  5
b8
  8
Layer_0
  10
333.45251
  20
180.6564
  0
VERTEX
  5
b9
  8
Layer_0
  10
333.44849
  20
180.63278
  0
VERTEX
  5
ba
  8
Layer_0
  10
333.4245
  20
180.62851
  0
VERTEX
  5
bb
  8
Layer_0
  10
333.4115
  20
180.66028
  0
VERTEX
  5
bc
  8
Layer_0
  10
333.4115
  20
180.67009
  0
VERTEX
  5
bd
  8
Layer_0
  10
333.4115
  20
186.47
  0
VERTEX
  5
be
  8
Layer_0
  10
333.4115
  20
186.48099
  0
VERTEX
  5
bf
  8
Layer_0
  10
333.4245
  20
186.51303
  0
VERTEX
  5
c0
  8
Layer_0
  10
333.44849
  20
186.509
  0
VERTEX
  5
c1
  8
Layer_0
  10
333.45251
  20
186.48499
  0
VERTEX
  5
c2
  8
Layer_0
  10
333.42047
  20
186.47
  0
VERTEX
  5
c3
  8
Layer_0
  10
333.4115
  20
186.47
  0
VERTEX
  5
c4
  8
Layer_0
  10
330.51077
  20
186.47
  0
VERTEX
  5
c5
  8
Layer_0
  10
330.49277
  20
186.47
  0
VERTEX
  5
c6
  8
Layer_0
  10
330.43979
  20
186.50003
  0
VERTEX
  5
c7
  8
Layer_0
  10
330.41077
  20
186.55402
  0
VERTEX
  5
c8
  8
Layer_0
  10
330.41077
  20
186.57103
  0
VERTEX
  5
c9
  8
Layer_0
  10
330.41077
  20
192.57249
  0
VERTEX
  5
ca
  8
Layer_0
  10
330.41077
  20
192.59048
  0
VERTEX
  5
cb
  8
Layer_0
  10
330.43979
  20
192.64351
  0
VERTEX
  5
cc
  8
Layer_0
  10
330.49277
  20
192.67252
  0
VERTEX
  5
cd
  8
Layer_0
  10
330.51077
  20
192.67252
  0
VERTEX
  5
ce
  8
Layer_0
  10
333.4115
  20
192.67252
  0
VERTEX
  5
cf
  8
Layer_0
  10
333.42047
  20
192.67252
  0
VERTEX
  5
d0
  8
Layer_0
  10
333.45251
  20
192.6595
  0
VERTEX
  5
d1
  8
Layer_0
  10
333.44849
  20
192.6355
  0
VERTEX
  5
d2
  8
Layer_0
  10
333.4245
  20
192.6315
  0
VERTEX
  5
d3
  8
Layer_0
  10
333.4115
  20
192.66348
  0
VERTEX
  5
d4
  8
Layer_0
  10
333.4115
  20
192.67252
  0
VERTEX
  5
d5
  8
Layer_0
  10
333.4115
  20
198.4749
  0
VERTEX
  5
d6
  8
Layer_0
  10
333.4115
  20
198.48593
  0
VERTEX
  5
d7
  8
Layer_0
  10
333.4245
  20
198.51692
  0
VERTEX
  5
d8
  8
Layer_0
  10
333.44849
  20
198.51193
  0
VERTEX
  5
d9
  8
Layer_0
  10
333.45251
  20
198.48993
  0
VERTEX
  5
da
  8
Layer_0
  10
333.42047
  20
198.4749
  0
VERTEX
  5
db
  8
Layer_0
  10
333.4115
  20
198.4749
  0
VERTEX
  5
dc
  8
Layer_0
  10
330.51077
  20
198.4749
  0
VERTEX
  5
dd
  8
Layer_0
  10
330.49277
  20
198.4749
  0
VERTEX
  5
de
  8
Layer_0
  10
330.43979
  20
198.50394
  0
VERTEX
  5
df
  8
Layer_0
  10
330.41077
  20
198.55692
  0
VERTEX
  5
e0
  8
Layer_0
  10
330.41077
  20
198.57394
  0
VERTEX
  5
e1
  8
Layer_0
  10
330.41077
  20
204.57541
  0
VERTEX
  5
e2
  8
Layer_0
  10
330.41077
  20
204.5934
  0
VERTEX
  5
e3
  8
Layer_0
  10
330.43979
  20
204.64642
  0
VERTEX
  5
e4
  8
Layer_0
  10
330.49277
  20
204.67542
  0
VERTEX
  5
e5
  8
Layer_0
  10
330.51077
  20
204.67542
  0
VERTEX
  5
e6
  8
Layer_0
  10
333.4115
  20
204.67542
  0
VERTEX
  5
e7
  8
Layer_0
  10
333.42047
  20
204.67542
  0
VERTEX
  5
e8
  8
Layer_0
  10
333.45251
  20
204.66241
  0
VERTEX
  5
e9
  8
Layer_0
  10
333.44849
  20
204.63841
  0
VERTEX
  5
ea
  8
Layer_0
  10
333.4245
  20
204.63441
  0
VERTEX
  5
eb
  8
Layer_0
  10
333.4115
  20
204.66641
  0
VERTEX
  5
ec
  8
Layer_0
  10
333.4115
  20
204.67542
  0
VERTEX
  5
ed
  8
Layer_0
  10
333.4115
  20
211.5771
  0
VERTEX
  5
ee
  8
Layer_0
  10
333.4115
  20
211.59509
  0
VERTEX
  5
ef
  8
Layer_0
  10
333.44049
  20
211.64813
  0
VERTEX
  5
f0
  8
Layer_0
  10
333.4935
  20
211.67613
  0
VERTEX
  5
f1
  8
Layer_0
  10
333.51151
  20
211.67613
  0
VERTEX
  5
f2
  8
Layer_0
  10
433.5358
  20
211.67613
  0
VERTEX
  5
f3
  8
Layer_0
  10
433.55283
  20
211.67613
  0
VERTEX
  5
f4
  8
Layer_0
  10
433.60681
  20
211.64813
  0
VERTEX
  5
f5
  8
Layer_0
  10
433.63583
  20
211.59509
  0
VERTEX
  5
f6
  8
Layer_0
  10
433.63583
  20
211.5771
  0
VERTEX
  5
f7
  8
Layer_0
  10
433.63583
  20
204.67542
  0
VERTEX
  5
f8
  8
Layer_0
  10
433.63583
  20
204.66641
  0
VERTEX
  5
f9
  8
Layer_0
  10
433.61981
  20
204.63441
  0
VERTEX
  5
fa
  8
Layer_0
  10
433.59781
  20
204.63841
  0
VERTEX
  5
fb
  8
Layer_0
  10
433.59283
  20
204.66241
  0
VERTEX
  5
fc
  8
Layer_0
  10
433.62482
  20
204.67542
  0
VERTEX
  5
fd
  8
Layer_0
  10
433.63583
  20
204.67542
  0
VERTEX
  5
fe
  8
Layer_0
  10
436.5365
  20
204.67542
  0
VERTEX
  5
ff
  8
Layer_0
  10
436.55356
  20
204.67542
  0
VERTEX
  5
100
  8
Layer_0
  10
436.60754
  20
204.64642
  0
VERTEX
  5
101
  8
Layer_0
  10
436.63657
  20
204.5934
  0
VERTEX
  5
102
  8
Layer_0
  10
436.63657
  20
204.57541
  0
VERTEX
  5
103
  8
Layer_0
  10
436.63657
  20
198.57394
  0
VERTEX
  5
104
  8
Layer_0
  10
436.63657
  20
198.55692
  0
VERTEX
  5
105
  8
Layer_0
  10
436.60754
  20
198.50394
  0
VERTEX
  5
106
  8
Layer_0
  10
436.55356
  20
198.4749
  0
VERTEX
  5
107
  8
Layer_0
  10
436.5365
  20
198.4749
  0
VERTEX
  5
108
  8
Layer_0
  10
433.63583
  20
198.4749
  0
VERTEX
  5
109
  8
Layer_0
  10
433.62482
  20
198.4749
  0
VERTEX
  5
10a
  8
Layer_0
  10
433.59283
  20
198.48993
  0
VERTEX
  5
10b
  8
Layer_0
  10
433.59781
  20
198.51193
  0
VERTEX
  5
10c
  8
Layer_0
  10
433.61981
  20
198.51692
  0
VERTEX
  5
10d
  8
Layer_0
  10
433.63583
  20
198.48593
  0
VERTEX
  5
10e
  8
Layer_0
  10
433.63583
  20
198.4749
  0
VERTEX
  5
10f
  8
Layer_0
  10
433.63583
  20
192.67252
  0
VERTEX
  5
110
  8
Layer_0
  10
433.63583
  20
192.66348
  0
VERTEX
  5
111
  8
Layer_0
  10
433.61981
  20
192.6315
  0
VERTEX
  5
112
  8
Layer_0
  10
433.59781
  20
192.6355
  0
VERTEX
  5
113
  8
Layer_0
  10
433.59283
  20
192.6595
  0
VERTEX
  5
114
  8
Layer_0
  10
433.62482
  20
192.67252
  0
VERTEX
  5
115
  8
Layer_0
  10
433.63583
  20
192.67252
  0
VERTEX
  5
116
  8
Layer_0
  10
436.5365
  20
192.67252
  0
VERTEX
  5
117
  8
Layer_0
  10
436.55356
  20
192.67252
  0
VERTEX
  5
118
  8
Layer_0
  10
436.60754
  20
192.64351
  0
VERTEX
  5
119
  8
Layer_0
  10
436.63657
  20
192.59048
  0
VERTEX
  5
11a
  8
Layer_0
  10
436.63657
  20
192.57249
  0
VERTEX
  5
11b
  8
Layer_0
  10
436.63657
  20
186.57103
  0
VERTEX
  5
11c
  8
Layer_0
  10
436.63657
  20
186.55402
  0
VERTEX
  5
11d
  8
Layer_0
  10
436.60754
  20
186.50003
  0
VERTEX
  5
11e
  8
Layer_0
  10
436.55356
  20
186.47
  0
VERTEX
  5
11f
  8
Layer_0
  10
436.5365
  20
186.47
  0
VERTEX
  5
120
  8
Layer_0
  10
433.63583
  20
186.47
  0
VERTEX
  5
121
  8
Layer_0
  10
433.62482
  20
186.47
  0
VERTEX
  5
122
  8
Layer_0
  10
433.59283
  20
186.48499
  0
VERTEX
  5
123
  8
Layer_0
  10
433.59781
  20
186.509
  0
VERTEX
  5
124
  8
Layer_0
  10
433.61981
  20
186.51303
  0
VERTEX
  5
125
  8
Layer_0
  10
433.63583
  20
186.48099
  0
VERTEX
  5
126
  8
Layer_0
  10
433.63583
  20
186.47
  0
VERTEX
  5
127
  8
Layer_0
  10
433.63583
  20
180.67009
  0
VERTEX
  5
128
  8
Layer_0
  10
433.63583
  20
180.66028
  0
VERTEX
  5
129
  8
Layer_0
  10
433.61981
  20
180.62851
  0
VERTEX
  5
12a
  8
Layer_0
  10
433.59781
  20
180.63278
  0
VERTEX
  5
12b
  8
Layer_0
  10
433.59283
  20
180.6564
  0
VERTEX
  5
12c
  8
Layer_0
  10
433.62482
  20
180.67009
  0
VERTEX
  5
12d
  8
Layer_0
  10
433.63583
  20
180.67009
  0
VERTEX
  5
12e
  8
Layer_0
  10
436.5365
  20
180.67009
  0
VERTEX
  5
12f
  8
Layer_0
  10
436.55356
  20
180.67009
  0
VERTEX
  5
130
  8
Layer_0
  10
436.60754
  20
180.64119
  0
VERTEX
  5
131
  8
Layer_0
  10
436.63657
  20
180.58716
  0
VERTEX
  5
132
  8
Layer_0
  10
436.63657
  20
180.56958
  0
VERTEX
  5
133
  8
Layer_0
  10
436.63657
  20
174.56812
  0
VERTEX
  5
134
  8
Layer_0
  10
436.63657
  20
174.5515
  0
VERTEX
  5
135
  8
Layer_0
  10
436.60754
  20
174.4975
  0
VERTEX
  5
136
  8
Layer_0
  10
436.55356
  20
174.4686
  0
VERTEX
  5
137
  8
Layer_0
  10
436.5365
  20
174.4686
  0
VERTEX
  5
138
  8
Layer_0
  10
433.63583
  20
174.4686
  0
VERTEX
  5
139
  8
Layer_0
  10
433.62482
  20
174.4686
  0
VERTEX
  5
13a
  8
Layer_0
  10
433.59283
  20
174.4837
  0
VERTEX
  5
13b
  8
Layer_0
  10
433.59781
  20
174.506
  0
VERTEX
  5
13c
  8
Layer_0
  10
433.61981
  20
174.5116
  0
VERTEX
  5
13d
  8
Layer_0
  10
433.63583
  20
174.47989
  0
VERTEX
  5
13e
  8
Layer_0
  10
433.63583
  20
174.4686
  0
VERTEX
  5
13f
  8
Layer_0
  10
433.63583
  20
168.66718
  0
VERTEX
  5
140
  8
Layer_0
  10
433.63583
  20
168.65758
  0
VERTEX
  5
141
  8
Layer_0
  10
433.61981
  20
168.62585
  0
VERTEX
  5
142
  8
Layer_0
  10
433.59781
  20
168.63007
  0
VERTEX
  5
143
  8
Layer_0
  10
433.59283
  20
168.65338
  0
VERTEX
  5
144
  8
Layer_0
  10
433.62482
  20
168.66718
  0
VERTEX
  5
145
  8
Layer_0
  10
433.63583
  20
168.66718
  0
VERTEX
  5
146
  8
Layer_0
  10
436.5365
  20
168.66718
  0
VERTEX
  5
147
  8
Layer_0
  10
436.55356
  20
168.66718
  0
VERTEX
  5
148
  8
Layer_0
  10
436.60754
  20
168.63815
  0
VERTEX
  5
149
  8
Layer_0
  10
436.63657
  20
168.58456
  0
VERTEX
  5
14a
  8
Layer_0
  10
436.63657
  20
168.56656
  0
VERTEX
  5
14b
  8
Layer_0
  10
436.63657
  20
162.56509
  0
VERTEX
  5
14c
  8
Layer_0
  10
436.63657
  20
162.54849
  0
VERTEX
  5
14d
  8
Layer_0
  10
436.60754
  20
162.49489
  0
VERTEX
  5
14e
  8
Layer_0
  10
436.55356
  20
162.46588
  0
VERTEX
  5
14f
  8
Layer_0
  10
436.5365
  20
162.46588
  0
VERTEX
  5
150
  8
Layer_0
  10
433.63583
  20
162.46588
  0
VERTEX
  5
151
  8
Layer_0
  10
433.62482
  20
162.46588
  0
VERTEX
  5
152
  8
Layer_0
  10
433.59283
  20
162.48108
  0
VERTEX
  5
153
  8
Layer_0
  10
433.59781
  20
162.50298
  0
VERTEX
  5
154
  8
Layer_0
  10
433.61981
  20
162.50859
  0
VERTEX
  5
155
  8
Layer_0
  10
433.63583
  20
162.47687
  0
VERTEX
  5
156
  8
Layer_0
  10
433.63583
  20
162.46588
  0
VERTEX
  5
157
  8
Layer_0
  10
433.63583
  20
155.5629
  0
VERTEX
  5
158
  8
Layer_0
  10
433.63583
  20
155.5463
  0
VERTEX
  5
159
  8
Layer_0
  10
433.60681
  20
155.49258
  0
VERTEX
  5
15a
  8
Layer_0
  10
433.55283
  20
155.46367
  0
VERTEX
  5
15b
  8
Layer_0
  10
433.5358
  20
155.46367
  0
VERTEX
  5
15c
  8
Layer_0
  10
422.63318
  20
155.46367
  0
VERTEX
  5
15d
  8
Layer_0
  10
422.62216
  20
155.46367
  0
VERTEX
  5
15e
  8
Layer_0
  10
422.59015
  20
155.47887
  0
VERTEX
  5
15f
  8
Layer_0
  10
422.59616
  20
155.5011
  0
VERTEX
  5
160
  8
Layer_0
  10
422.61816
  20
155.50638
  0
VERTEX
  5
161
  8
Layer_0
  10
422.63318
  20
155.47467
  0
VERTEX
  5
162
  8
Layer_0
  10
422.63318
  20
155.46367
  0
VERTEX
  5
163
  8
Layer_0
  10
422.63318
  20
152.56207
  0
VERTEX
  5
164
  8
Layer_0
  10
422.63318
  20
152.54587
  0
VERTEX
  5
165
  8
Layer_0
  10
422.60315
  20
152.49185
  0
VERTEX
  5
166
  8
Layer_0
  10
422.55017
  20
152.46294
  0
VERTEX
  5
167
  8
Layer_0
  10
422.53412
  20
152.46294
  0
VERTEX
  5
168
  8
Layer_0
  10
416.5307
  20
152.46294
  0
VERTEX
  5
169
  8
Layer_0
  10
416.5127
  20
152.46294
  0
VERTEX
  5
16a
  8
Layer_0
  10
416.46066
  20
152.49185
  0
VERTEX
  5
16b
  8
Layer_0
  10
416.43167
  20
152.54587
  0
VERTEX
  5
16c
  8
Layer_0
  10
416.43167
  20
152.56207
  0
VERTEX
  5
16d
  8
Layer_0
  10
416.43167
  20
155.46367
  0
VERTEX
  5
16e
  8
Layer_0
  10
416.43167
  20
155.47467
  0
VERTEX
  5
16f
  8
Layer_0
  10
416.44565
  20
155.50638
  0
VERTEX
  5
170
  8
Layer_0
  10
416.46866
  20
155.5011
  0
VERTEX
  5
171
  8
Layer_0
  10
416.47369
  20
155.47887
  0
VERTEX
  5
172
  8
Layer_0
  10
416.44168
  20
155.46367
  0
VERTEX
  5
173
  8
Layer_0
  10
416.43167
  20
155.46367
  0
VERTEX
  5
174
  8
Layer_0
  10
410.63025
  20
155.46367
  0
VERTEX
  5
175
  8
Layer_0
  10
410.61926
  20
155.46367
  0
VERTEX
  5
176
  8
Layer_0
  10
410.58722
  20
155.47887
  0
VERTEX
  5
177
  8
Layer_0
  10
410.59125
  20
155.5011
  0
VERTEX
  5
178
  8
Layer_0
  10
410.61523
  20
155.50638
  0
VERTEX
  5
179
  8
Layer_0
  10
410.63025
  20
155.47467
  0
VERTEX
  5
17a
  8
Layer_0
  10
410.63025
  20
155.46367
  0
VERTEX
  5
17b
  8
Layer_0
  10
410.63025
  20
152.56207
  0
VERTEX
  5
17c
  8
Layer_0
  10
410.63025
  20
152.54587
  0
VERTEX
  5
17d
  8
Layer_0
  10
410.60022
  20
152.49185
  0
VERTEX
  5
17e
  8
Layer_0
  10
410.5462
  20
152.46294
  0
VERTEX
  5
17f
  8
Layer_0
  10
410.52924
  20
152.46294
  0
VERTEX
  5
180
  8
Layer_0
  10
404.52875
  20
152.46294
  0
VERTEX
  5
181
  8
Layer_0
  10
404.51074
  20
152.46294
  0
VERTEX
  5
182
  8
Layer_0
  10
404.45776
  20
152.49185
  0
VERTEX
  5
183
  8
Layer_0
  10
404.42877
  20
152.54587
  0
VERTEX
  5
184
  8
Layer_0
  10
404.42877
  20
152.56207
  0
VERTEX
  5
185
  8
Layer_0
  10
404.42877
  20
155.46367
  0
VERTEX
  5
186
  8
Layer_0
  10
404.42877
  20
155.47467
  0
VERTEX
  5
187
  8
Layer_0
  10
404.44275
  20
155.50638
  0
VERTEX
  5
188
  8
Layer_0
  10
404.46674
  20
155.5011
  0
VERTEX
  5
189
  8
Layer_0
  10
404.47076
  20
155.47887
  0
VERTEX
  5
18a
  8
Layer_0
  10
404.43878
  20
155.46367
  0
VERTEX
  5
18b
  8
Layer_0
  10
404.42877
  20
155.46367
  0
VERTEX
  5
18c
  8
Layer_0
  10
398.62732
  20
155.46367
  0
VERTEX
  5
18d
  8
Layer_0
  10
398.61633
  20
155.46367
  0
VERTEX
  5
18e
  8
Layer_0
  10
398.58432
  20
155.47887
  0
VERTEX
  5
18f
  8
Layer_0
  10
398.58929
  20
155.5011
  0
VERTEX
  5
190
  8
Layer_0
  10
398.61234
  20
155.50638
  0
VERTEX
  5
191
  8
Layer_0
  10
398.62732
  20
155.47467
  0
VERTEX
  5
192
  8
Layer_0
  10
398.62732
  20
155.46367
  0
VERTEX
  5
193
  8
Layer_0
  10
398.62732
  20
152.56207
  0
VERTEX
  5
194
  8
Layer_0
  10
398.62732
  20
152.54587
  0
VERTEX
  5
195
  8
Layer_0
  10
398.59732
  20
152.49185
  0
VERTEX
  5
196
  8
Layer_0
  10
398.54327
  20
152.46294
  0
VERTEX
  5
197
  8
Layer_0
  10
398.52728
  20
152.46294
  0
VERTEX
  5
198
  8
Layer_0
  10
392.52582
  20
152.46294
  0
VERTEX
  5
199
  8
Layer_0
  10
392.50784
  20
152.46294
  0
VERTEX
  5
19a
  8
Layer_0
  10
392.45483
  20
152.49185
  0
VERTEX
  5
19b
  8
Layer_0
  10
392.42584
  20
152.54587
  0
VERTEX
  5
19c
  8
Layer_0
  10
392.42584
  20
152.56207
  0
VERTEX
  5
19d
  8
Layer_0
  10
392.42584
  20
155.46367
  0
VERTEX
  5
19e
  8
Layer_0
  10
392.42584
  20
155.47467
  0
VERTEX
  5
19f
  8
Layer_0
  10
392.43982
  20
155.50638
  0
VERTEX
  5
1a0
  8
Layer_0
  10
392.46283
  20
155.5011
  0
VERTEX
  5
1a1
  8
Layer_0
  10
392.46783
  20
155.47887
  0
VERTEX
  5
1a2
  8
Layer_0
  10
392.43585
  20
155.46367
  0
VERTEX
  5
1a3
  8
Layer_0
  10
392.42584
  20
155.46367
  0
VERTEX
  5
1a4
  8
Layer_0
  10
386.62442
  20
155.46367
  0
VERTEX
  5
1a5
  8
Layer_0
  10
386.6134
  20
155.46367
  0
VERTEX
  5
1a6
  8
Layer_0
  10
386.58142
  20
155.47887
  0
VERTEX
  5
1a7
  8
Layer_0
  10
386.5864
  20
155.5011
  0
VERTEX
  5
1a8
  8
Layer_0
  10
386.60944
  20
155.50638
  0
VERTEX
  5
1a9
  8
Layer_0
  10
386.62442
  20
155.47467
  0
VERTEX
  5
1aa
  8
Layer_0
  10
386.62442
  20
155.46367
  0
VERTEX
  5
1ab
  8
Layer_0
  10
386.62442
  20
152.56207
  0
VERTEX
  5
1ac
  8
Layer_0
  10
386.62442
  20
152.54587
  0
VERTEX
  5
1ad
  8
Layer_0
  10
386.59442
  20
152.49185
  0
VERTEX
  5
1ae
  8
Layer_0
  10
386.54037
  20
152.46294
  0
VERTEX
  5
1af
  8
Layer_0
  10
386.52435
  20
152.46294
  0
VERTEX
  5
1b0
  8
Layer_0
  10
380.52197
  20
152.46294
  0
VERTEX
  5
1b1
  8
Layer_0
  10
380.50494
  20
152.46294
  0
VERTEX
  5
1b2
  8
Layer_0
  10
380.4519
  20
152.49185
  0
VERTEX
  5
1b3
  8
Layer_0
  10
380.42291
  20
152.54587
  0
VERTEX
  5
1b4
  8
Layer_0
  10
380.42291
  20
152.56207
  0
VERTEX
  5
1b5
  8
Layer_0
  10
380.42291
  20
155.46367
  0
VERTEX
  5
1b6
  8
Layer_0
  10
380.42291
  20
155.47467
  0
VERTEX
  5
1b7
  8
Layer_0
  10
380.43689
  20
155.50638
  0
VERTEX
  5
1b8
  8
Layer_0
  10
380.46094
  20
155.5011
  0
VERTEX
  5
1b9
  8
Layer_0
  10
380.46494
  20
155.47887
  0
VERTEX
  5
1ba
  8
Layer_0
  10
380.43292
  20
155.46367
  0
VERTEX
  5
1bb
  8
Layer_0
  10
380.42291
  20
155.46367
  0
VERTEX
  5
1bc
  8
Layer_0
  10
374.62152
  20
155.46367
  0
VERTEX
  5
1bd
  8
Layer_0
  10
374.6105
  20
155.46367
  0
VERTEX
  5
1be
  8
Layer_0
  10
374.5795
  20
155.47887
  0
VERTEX
  5
1bf
  8
Layer_0
  10
374.5835
  20
155.5011
  0
VERTEX
  5
1c0
  8
Layer_0
  10
374.60651
  20
155.50638
  0
VERTEX
  5
1c1
  8
Layer_0
  10
374.62152
  20
155.47467
  0
VERTEX
  5
1c2
  8
Layer_0
  10
374.62152
  20
155.46367
  0
VERTEX
  5
1c3
  8
Layer_0
  10
374.62152
  20
152.56207
  0
VERTEX
  5
1c4
  8
Layer_0
  10
374.62152
  20
152.54587
  0
VERTEX
  5
1c5
  8
Layer_0
  10
374.59149
  20
152.49185
  0
VERTEX
  5
1c6
  8
Layer_0
  10
374.53748
  20
152.46294
  0
VERTEX
  5
1c7
  8
Layer_0
  10
374.52145
  20
152.46294
  0
VERTEX
  5
1c8
  8
Layer_0
  10
368.52002
  20
152.46294
  0
VERTEX
  5
1c9
  8
Layer_0
  10
368.50201
  20
152.46294
  0
VERTEX
  5
1ca
  8
Layer_0
  10
368.45001
  20
152.49185
  0
VERTEX
  5
1cb
  8
Layer_0
  10
368.42001
  20
152.54587
  0
VERTEX
  5
1cc
  8
Layer_0
  10
368.42001
  20
152.56207
  0
VERTEX
  5
1cd
  8
Layer_0
  10
368.42001
  20
155.46367
  0
VERTEX
  5
1ce
  8
Layer_0
  10
368.42001
  20
155.47467
  0
VERTEX
  5
1cf
  8
Layer_0
  10
368.43399
  20
155.50638
  0
VERTEX
  5
1d0
  8
Layer_0
  10
368.45801
  20
155.5011
  0
VERTEX
  5
1d1
  8
Layer_0
  10
368.46204
  20
155.47887
  0
VERTEX
  5
1d2
  8
Layer_0
  10
368.43002
  20
155.46367
  0
VERTEX
  5
1d3
  8
Layer_0
  10
368.42001
  20
155.46367
  0
VERTEX
  5
1d4
  8
Layer_0
  10
362.61859
  20
155.46367
  0
VERTEX
  5
1d5
  8
Layer_0
  10
362.6076
  20
155.46367
  0
VERTEX
  5
1d6
  8
Layer_0
  10
362.5766
  20
155.47887
  0
VERTEX
  5
1d7
  8
Layer_0
  10
362.58057
  20
155.5011
  0
VERTEX
  5
1d8
  8
Layer_0
  10
362.60358
  20
155.50638
  0
VERTEX
  5
1d9
  8
Layer_0
  10
362.61859
  20
155.47467
  0
VERTEX
  5
1da
  8
Layer_0
  10
362.61859
  20
155.46367
  0
VERTEX
  5
1db
  8
Layer_0
  10
362.61859
  20
152.56207
  0
VERTEX
  5
1dc
  8
Layer_0
  10
362.61859
  20
152.54587
  0
VERTEX
  5
1dd
  8
Layer_0
  10
362.58856
  20
152.49185
  0
VERTEX
  5
1de
  8
Layer_0
  10
362.53455
  20
152.46294
  0
VERTEX
  5
1df
  8
Layer_0
  10
362.51855
  20
152.46294
  0
VERTEX
  5
1e0
  8
Layer_0
  10
356.51709
  20
152.46294
  0
VERTEX
  5
1e1
  8
Layer_0
  10
356.49908
  20
152.46294
  0
VERTEX
  5
1e2
  8
Layer_0
  10
356.44611
  20
152.49185
  0
VERTEX
  5
1e3
  8
Layer_0
  10
356.41711
  20
152.54587
  0
VERTEX
  5
1e4
  8
Layer_0
  10
356.41711
  20
152.56207
  0
VERTEX
  5
1e5
  8
Layer_0
  10
356.41711
  20
155.46367
  0
VERTEX
  5
1e6
  8
Layer_0
  10
356.41711
  20
155.47467
  0
VERTEX
  5
1e7
  8
Layer_0
  10
356.43109
  20
155.50638
  0
VERTEX
  5
1e8
  8
Layer_0
  10
356.45508
  20
155.5011
  0
VERTEX
  5
1e9
  8
Layer_0
  10
356.45911
  20
155.47887
  0
VERTEX
  5
1ea
  8
Layer_0
  10
356.42712
  20
155.46367
  0
VERTEX
  5
1eb
  8
Layer_0
  10
356.41711
  20
155.46367
  0
VERTEX
  5
1ec
  8
Layer_0
  10
350.61566
  20
155.46367
  0
VERTEX
  5
1ed
  8
Layer_0
  10
350.60468
  20
155.46367
  0
VERTEX
  5
1ee
  8
Layer_0
  10
350.57266
  20
155.47887
  0
VERTEX
  5
1ef
  8
Layer_0
  10
350.57764
  20
155.5011
  0
VERTEX
  5
1f0
  8
Layer_0
  10
350.60068
  20
155.50638
  0
VERTEX
  5
1f1
  8
Layer_0
  10
350.61566
  20
155.47467
  0
VERTEX
  5
1f2
  8
Layer_0
  10
350.61566
  20
155.46367
  0
VERTEX
  5
1f3
  8
Layer_0
  10
350.61566
  20
152.56207
  0
VERTEX
  5
1f4
  8
Layer_0
  10
350.61566
  20
152.54587
  0
VERTEX
  5
1f5
  8
Layer_0
  10
350.58566
  20
152.49185
  0
VERTEX
  5
1f6
  8
Layer_0
  10
350.53162
  20
152.46294
  0
VERTEX
  5
1f7
  8
Layer_0
  10
350.51563
  20
152.46294
  0
VERTEX
  5
1f8
  8
Layer_0
  10
344.51416
  20
152.46294
  0
VERTEX
  5
1f9
  8
Layer_0
  10
344.49619
  20
152.46294
  0
VERTEX
  5
1fa
  8
Layer_0
  10
344.44318
  20
152.49185
  0
VERTEX
  5
1fb
  8
Layer_0
  10
344.41418
  20
152.54587
  0
VERTEX
  5
1fc
  8
Layer_0
  10
344.41418
  20
152.56207
  0
VERTEX
  5
1fd
  8
Layer_0
  10
344.41418
  20
155.46367
  0
VERTEX
  5
1fe
  8
Layer_0
  10
344.41418
  20
155.47467
  0
VERTEX
  5
1ff
  8
Layer_0
  10
344.42816
  20
155.50638
  0
VERTEX
  5
200
  8
Layer_0
  10
344.45218
  20
155.5011
  0
VERTEX
  5
201
  8
Layer_0
  10
344.45618
  20
155.47887
  0
VERTEX
  5
202
  8
Layer_0
  10
344.42419
  20
155.46367
  0
VERTEX
  5
203
  8
Layer_0
  10
344.41418
  20
155.46367
  0
VERTEX
  5
204
  8
Layer_0
  10
333.51151
  20
155.46367
  0
VERTEX
  5
205
  8
Layer_0
  10
333.4935
  20
155.46367
  0
VERTEX
  5
206
  8
Layer_0
  10
333.44049
  20
155.49258
  0
VERTEX
  5
207
  8
Layer_0
  10
333.4115
  20
155.5463
  0
VERTEX
  5
208
  8
Layer_0
  10
333.4115
  20
155.5629
  0
VERTEX
  5
209
  8
Layer_0
  10
333.4115
  20
162.46588
  0
VERTEX
  5
20a
  8
Layer_0
  10
333.4115
  20
162.47687
  0
VERTEX
  5
20b
  8
Layer_0
  10
333.4245
  20
162.50859
  0
VERTEX
  5
20c
  8
Layer_0
  10
333.44849
  20
162.50298
  0
SEQEND
  0
POLYLINE
  5
20e
  8
Layer_0
  62
0
  66
1
  10
0
  20
0
  30
0
  0
VERTEX
  5
20e
  8
Layer_0
  10
422.59616
  20
94.786339
  0
VERTEX
  5
20f
  8
Layer_0
  10
422.61816
  20
94.79184
  0
VERTEX
  5
210
  8
Layer_0
  10
422.63318
  20
94.760132
  0
VERTEX
  5
211
  8
Layer_0
  10
422.63318
  20
94.74913
  0
VERTEX
  5
212
  8
Layer_0
  10
422.63318
  20
91.847626
  0
VERTEX
  5
213
  8
Layer_0
  10
422.63318
  20
91.831123
  0
VERTEX
  5
214
  8
Layer_0
  10
422.60315
  20
91.777412
  0
VERTEX
  5
215
  8
Layer_0
  10
422.55017
  20
91.748398
  0
VERTEX
  5
216
  8
Layer_0
  10
422.53412
  20
91.748398
  0
VERTEX
  5
217
  8
Layer_0
  10
416.5307
  20
91.748398
  0
VERTEX
  5
218
  8
Layer_0
  10
416.5127
  20
91.748398
  0
VERTEX
  5
219
  8
Layer_0
  10
416.46066
  20
91.777412
  0
VERTEX
  5
21a
  8
Layer_0
  10
416.43167
  20
91.831123
  0
VERTEX
  5
21b
  8
Layer_0
  10
416.43167
  20
91.847626
  0
VERTEX
  5
21c
  8
Layer_0
  10
416.43167
  20
94.74913
  0
VERTEX
  5
21d
  8
Layer_0
  10
416.43167
  20
94.760132
  0
VERTEX
  5
21e
  8
Layer_0
  10
416.44565
  20
94.79184
  0
VERTEX
  5
21f
  8
Layer_0
  10
416.46866
  20
94.786339
  0
VERTEX
  5
220
  8
Layer_0
  10
416.47369
  20
94.764336
  0
VERTEX
  5
221
  8
Layer_0
  10
416.44168
  20
94.74913
  0
VERTEX
  5
222
  8
Layer_0
  10
416.43167
  20
94.74913
  0
VERTEX
  5
223
  8
Layer_0
  10
410.63025
  20
94.74913
  0
VERTEX
  5
224
  8
Layer_0
  10
410.61926
  20
94.74913
  0
VERTEX
  5
225
  8
Layer_0
  10
410.58722
  20
94.764336
  0
VERTEX
  5
226
  8
Layer_0
  10
410.59125
  20
94.786339
  0
VERTEX
  5
227
  8
Layer_0
  10
410.61523
  20
94.79184
  0
VERTEX
  5
228
  8
Layer_0
  10
410.63025
  20
94.760132
  0
VERTEX
  5
229
  8
Layer_0
  10
410.63025
  20
94.74913
  0
VERTEX
  5
22a
  8
Layer_0
  10
410.63025
  20
91.847626
  0
VERTEX
  5
22b
  8
Layer_0
  10
410.63025
  20
91.831123
  0
VERTEX
  5
22c
  8
Layer_0
  10
410.60022
  20
91.777412
  0
VERTEX
  5
22d
  8
Layer_0
  10
410.5462
  20
91.748398
  0
VERTEX
  5
22e
  8
Layer_0
  10
410.52924
  20
91.748398
  0
VERTEX
  5
22f
  8
Layer_0
  10
404.52875
  20
91.748398
  0
VERTEX
  5
230
  8
Layer_0
  10
404.51074
  20
91.748398
  0
VERTEX
  5
231
  8
Layer_0
  10
404.45776
  20
91.777412
  0
VERTEX
  5
232
  8
Layer_0
  10
404.42877
  20
91.831123
  0
VERTEX
  5
233
  8
Layer_0
  10
404.42877
  20
91.847626
  0
VERTEX
  5
234
  8
Layer_0
  10
404.42877
  20
94.74913
  0
VERTEX
  5
235
  8
Layer_0
  10
404.42877
  20
94.760132
  0
VERTEX
  5
236
  8
Layer_0
  10
404.44275
  20
94.79184
  0
VERTEX
  5
237
  8
Layer_0
  10
404.46674
  20
94.786339
  0
VERTEX
  5
238
  8
Layer_0
  10
404.47076
  20
94.764336
  0
VERTEX
  5
239
  8
Layer_0
  10
404.43878
  20
94.74913
  0
VERTEX
  5
23a
  8
Layer_0
  10
404.42877
  20
94.74913
  0
VERTEX
  5
23b
  8
Layer_0
  10
398.62732
  20
94.74913
  0
VERTEX
  5
23c
  8
Layer_0
  10
398.61633
  20
94.74913
  0
VERTEX
  5
23d
  8
Layer_0
  10
398.58432
  20
94.764336
  0
VERTEX
  5
23e
  8
Layer_0
  10
398.58929
  20
94.786339
  0
VERTEX
  5
23f
  8
Layer_0
  10
398.61234
  20
94.79184
  0
VERTEX
  5
240
  8
Layer_0
  10
398.62732
  20
94.760132
  0
VERTEX
  5
241
  8
Layer_0
  10
398.62732
  20
94.74913
  0
VERTEX
  5
242
  8
Layer_0
  10
398.62732
  20
91.847626
  0
VERTEX
  5
243
  8
Layer_0
  10
398.62732
  20
91.831123
  0
VERTEX
  5
244
  8
Layer_0
  10
398.59732
  20
91.777412
  0
VERTEX
  5
245
  8
Layer_0
  10
398.54327
  20
91.748398
  0
VERTEX
  5
246
  8
Layer_0
  10
398.52728
  20
91.748398
  0
VERTEX
  5
247
  8
Layer_0
  10
392.52582
  20
91.748398
  0
VERTEX
  5
248
  8
Layer_0
  10
392.50784
  20
91.748398
  0
VERTEX
  5
249
  8
Layer_0
  10
392.45483
  20
91.777412
  0
VERTEX
  5
24a
  8
Layer_0
  10
392.42584
  20
91.831123
  0
VERTEX
  5
24b
  8
Layer_0
  10
392.42584
  20
91.847626
  0
VERTEX
  5
24c
  8
Layer_0
  10
392.42584
  20
94.74913
  0
VERTEX
  5
24d
  8
Layer_0
  10
392.42584
  20
94.760132
  0
VERTEX
  5
24e
  8
Layer_0
  10
392.43982
  20
94.79184
  0
VERTEX
  5
24f
  8
Layer_0
  10
392.46283
  20
94.786339
  0
VERTEX
  5
250
  8
Layer_0
  10
392.46783
  20
94.764336
  0
VERTEX
  5
251
  8
Layer_0
  10
392.43585
  20
94.74913
  0
VERTEX
  5
252
  8
Layer_0
  10
392.42584
  20
94.74913
  0
VERTEX
  5
253
  8
Layer_0
  10
386.62442
  20
94.74913
  0
VERTEX
  5
254
  8
Layer_0
  10
386.6134
  20
94.74913
  0
VERTEX
  5
255
  8
Layer_0
  10
386.58142
  20
94.764336
  0
VERTEX
  5
256
  8
Layer_0
  10
386.5864
  20
94.786339
  0
VERTEX
  5
257
  8
Layer_0
  10
386.60944
  20
94.79184
  0
VERTEX
  5
258
  8
Layer_0
  10
386.62442
  20
94.760132
  0
VERTEX
  5
259
  8
Layer_0
  10
386.62442
  20
94.74913
  0
VERTEX
  5
25a
  8
Layer_0
  10
386.62442
  20
91.847626
  0
VERTEX
  5
25b
  8
Layer_0
  10
386.62442
  20
91.831123
  0
VERTEX
  5
25c
  8
Layer_0
  10
386.59442
  20
91.777412
  0
VERTEX
  5
25d
  8
Layer_0
  10
386.54037
  20
91.748398
  0
VERTEX
  5
25e
  8
Layer_0
  10
386.52435
  20
91.748398
  0
VERTEX
  5
25f
  8
Layer_0
  10
380.52197
  20
91.748398
  0
VERTEX
  5
260
  8
Layer_0
  10
380.50494
  20
91.748398
  0
VERTEX
  5
261
  8
Layer_0
  10
380.4519
  20
91.777412
  0
VERTEX
  5
262
  8
Layer_0
  10
380.42291
  20
91.831123
  0
VERTEX
  5
263
  8
Layer_0
  10
380.42291
  20
91.847626
  0
VERTEX
  5
264
  8
Layer_0
  10
380.42291
  20
94.74913
  0
VERTEX
  5
265
  8
Layer_0
  10
380.42291
  20
94.760132
  0
VERTEX
  5
266
  8
Layer_0
  10
380.43689
  20
94.79184
  0
VERTEX
  5
267
  8
Layer_0
  10
380.46094
  20
94.786339
  0
VERTEX
  5
268
  8
Layer_0
  10
380.46494
  20
94.764336
  0
VERTEX
  5
269
  8
Layer_0
  10
380.43292
  20
94.74913
  0
VERTEX
  5
26a
  8
Layer_0
  10
380.42291
  20
94.74913
  0
VERTEX
  5
26b
  8
Layer_0
  10
374.62152
  20
94.74913
  0
VERTEX
  5
26c
  8
Layer_0
  10
374.6105
  20
94.74913
  0
VERTEX
  5
26d
  8
Layer_0
  10
374.5795
  20
94.764336
  0
VERTEX
  5
26e
  8
Layer_0
  10
374.5835
  20
94.786339
  0
VERTEX
  5
26f
  8
Layer_0
  10
374.60651
  20
94.79184
  0
VERTEX
  5
270
  8
Layer_0
  10
374.62152
  20
94.760132
  0
VERTEX
  5
271
  8
Layer_0
  10
374.62152
  20
94.74913
  0
VERTEX
  5
272
  8
Layer_0
  10
374.62152
  20
91.847626
  0
VERTEX
  5
273
  8
Layer_0
  10
374.62152
  20
91.831123
  0
VERTEX
  5
274
  8
Layer_0
  10
374.59149
  20
91.777412
  0
VERTEX
  5
275
  8
Layer_0
  10
374.53748
  20
91.748398
  0
VERTEX
  5
276
  8
Layer_0
  10
374.52145
  20
91.748398
  0
VERTEX
  5
277
  8
Layer_0
  10
368.52002
  20
91.748398
  0
VERTEX
  5
278
  8
Layer_0
  10
368.50201
  20
91.748398
  0
VERTEX
  5
279
  8
Layer_0
  10
368.45001
  20
91.777412
  0
VERTEX
  5
27a
  8
Layer_0
  10
368.42001
  20
91.831123
  0
VERTEX
  5
27b
  8
Layer_0
  10
368.42001
  20
91.847626
  0
VERTEX
  5
27c
  8
Layer_0
  10
368.42001
  20
94.74913
  0
VERTEX
  5
27d
  8
Layer_0
  10
368.42001
  20
94.760132
  0
VERTEX
  5
27e
  8
Layer_0
  10
368.43399
  20
94.79184
  0
VERTEX
  5
27f
  8
Layer_0
  10
368.45801
  20
94.786339
  0
VERTEX
  5
280
  8
Layer_0
  10
368.46204
  20
94.764336
  0
VERTEX
  5
281
  8
Layer_0
  10
368.43002
  20
94.74913
  0
VERTEX
  5
282
  8
Layer_0
  10
368.42001
  20
94.74913
  0
VERTEX
  5
283
  8
Layer_0
  10
362.61859
  20
94.74913
  0
VERTEX
  5
284
  8
Layer_0
  10
362.6076
  20
94.74913
  0
VERTEX
  5
285
  8
Layer_0
  10
362.5766
  20
94.764336
  0
VERTEX
  5
286
  8
Layer_0
  10
362.58057
  20
94.786339
  0
VERTEX
  5
287
  8
Layer_0
  10
362.60358
  20
94.79184
  0
VERTEX
  5
288
  8
Layer_0
  10
362.61859
  20
94.760132
  0
VERTEX
  5
289
  8
Layer_0
  10
362.61859
  20
94.74913
  0
VERTEX
  5
28a
  8
Layer_0
  10
362.61859
  20
91.847626
  0
VERTEX
  5
28b
  8
Layer_0
  10
362.61859
  20
91.831123
  0
VERTEX
  5
28c
  8
Layer_0
  10
362.58856
  20
91.777412
  0
VERTEX
  5
28d
  8
Layer_0
  10
362.53455
  20
91.748398
  0
VERTEX
  5
28e
  8
Layer_0
  10
362.51855
  20
91.748398
  0
VERTEX
  5
28f
  8
Layer_0
  10
356.51709
  20
91.748398
  0
VERTEX
  5
290
  8
Layer_0
  10
356.49908
  20
91.748398
  0
VERTEX
  5
291
  8
Layer_0
  10
356.44611
  20
91.777412
  0
VERTEX
  5
292
  8
Layer_0
  10
356.41711
  20
91.831123
  0
VERTEX
  5
293
  8
Layer_0
  10
356.41711
  20
91.847626
  0
VERTEX
  5
294
  8
Layer_0
  10
356.41711
  20
94.74913
  0
VERTEX
  5
295
  8
Layer_0
  10
356.41711
  20
94.760132
  0
VERTEX
  5
296
  8
Layer_0
  10
356.43109
  20
94.79184
  0
VERTEX
  5
297
  8
Layer_0
  10
356.45508
  20
94.786339
  0
VERTEX
  5
298
  8
Layer_0
  10
356.45911
  20
94.764336
  0
VERTEX
  5
299
  8
Layer_0
  10
356.42712
  20
94.74913
  0
VERTEX
  5
29a
  8
Layer_0
  10
356.41711
  20
94.74913
  0
VERTEX
  5
29b
  8
Layer_0
  10
350.61566
  20
94.74913
  0
VERTEX
  5
29c
  8
Layer_0
  10
350.60468
  20
94.74913
  0
VERTEX
  5
29d
  8
Layer_0
  10
350.57266
  20
94.764336
  0
VERTEX
  5
29e
  8
Layer_0
  10
350.57764
  20
94.786339
  0
VERTEX
  5
29f
  8
Layer_0
  10
350.60068
  20
94.79184
  0
VERTEX
  5
2a0
  8
Layer_0
  10
350.61566
  20
94.760132
  0
VERTEX
  5
2a1
  8
Layer_0
  10
350.61566
  20
94.74913
  0
VERTEX
  5
2a2
  8
Layer_0
  10
350.61566
  20
91.847626
  0
VERTEX
  5
2a3
  8
Layer_0
  10
350.61566
  20
91.831123
  0
VERTEX
  5
2a4
  8
Layer_0
  10
350.58566
  20
91.777412
  0
VERTEX
  5
2a5
  8
Layer_0
  10
350.53162
  20
91.748398
  0
VERTEX
  5
2a6
  8
Layer_0
  10
350.51563
  20
91.748398
  0
VERTEX
  5
2a7
  8
Layer_0
  10
344.51416
  20
91.748398
  0
VERTEX
  5
2a8
  8
Layer_0
  10
344.49619
  20
91.748398
  0
VERTEX
  5
2a9
  8
Layer_0
  10
344.44318
  20
91.777412
  0
VERTEX
  5
2aa
  8
Layer_0
  10
344.41418
  20
91.831123
  0
VERTEX
  5
2ab
  8
Layer_0
  10
344.41418
  20
91.847626
  0
VERTEX
  5
2ac
  8
Layer_0
  10
344.41418
  20
94.74913
  0
VERTEX
  5
2ad
  8
Layer_0
  10
344.41418
  20
94.760132
  0
VERTEX
  5
2ae
  8
Layer_0
  10
344.42816
  20
94.79184
  0
VERTEX
  5
2af
  8
Layer_0
  10
344.45218
  20
94.786339
  0
VERTEX
  5
2b0
  8
Layer_0
  10
344.45618
  20
94.764336
  0
VERTEX
  5
2b1
  8
Layer_0
  10
344.42419
  20
94.74913
  0
VERTEX
  5
2b2
  8
Layer_0
  10
344.41418
  20
94.74913
  0
VERTEX
  5
2b3
  8
Layer_0
  10
333.51151
  20
94.74913
  0
VERTEX
  5
2b4
  8
Layer_0
  10
333.4935
  20
94.74913
  0
VERTEX
  5
2b5
  8
Layer_0
  10
333.44049
  20
94.778137
  0
VERTEX
  5
2b6
  8
Layer_0
  10
333.4115
  20
94.831848
  0
VERTEX
  5
2b7
  8
Layer_0
  10
333.4115
  20
94.848358
  0
VERTEX
  5
2b8
  8
Layer_0
  10
333.4115
  20
101.74992
  0
VERTEX
  5
2b9
  8
Layer_0
  10
333.4115
  20
101.76093
  0
VERTEX
  5
2ba
  8
Layer_0
  10
333.4245
  20
101.79264
  0
VERTEX
  5
2bb
  8
Layer_0
  10
333.44849
  20
101.78854
  0
VERTEX
  5
2bc
  8
Layer_0
  10
333.45251
  20
101.76504
  0
VERTEX
  5
2bd
  8
Layer_0
  10
333.42047
  20
101.74992
  0
VERTEX
  5
2be
  8
Layer_0
  10
333.4115
  20
101.74992
  0
VERTEX
  5
2bf
  8
Layer_0
  10
330.51077
  20
101.74992
  0
VERTEX
  5
2c0
  8
Layer_0
  10
330.49277
  20
101.74992
  0
VERTEX
  5
2c1
  8
Layer_0
  10
330.43979
  20
101.78024
  0
VERTEX
  5
2c2
  8
Layer_0
  10
330.41077
  20
101.83395
  0
VERTEX
  5
2c3
  8
Layer_0
  10
330.41077
  20
101.85056
  0
VERTEX
  5
2c4
  8
Layer_0
  10
330.41077
  20
107.85201
  0
VERTEX
  5
2c5
  8
Layer_0
  10
330.41077
  20
107.86991
  0
VERTEX
  5
2c6
  8
Layer_0
  10
330.43979
  20
107.92363
  0
VERTEX
  5
2c7
  8
Layer_0
  10
330.49277
  20
107.95254
  0
VERTEX
  5
2c8
  8
Layer_0
  10
330.51077
  20
107.95254
  0
VERTEX
  5
2c9
  8
Layer_0
  10
333.4115
  20
107.95254
  0
VERTEX
  5
2ca
  8
Layer_0
  10
333.42047
  20
107.95254
  0
VERTEX
  5
2cb
  8
Layer_0
  10
333.45251
  20
107.93883
  0
VERTEX
  5
2cc
  8
Layer_0
  10
333.44849
  20
107.91533
  0
VERTEX
  5
2cd
  8
Layer_0
  10
333.4245
  20
107.91122
  0
VERTEX
  5
2ce
  8
Layer_0
  10
333.4115
  20
107.94293
  0
VERTEX
  5
2cf
  8
Layer_0
  10
333.4115
  20
107.95254
  0
VERTEX
  5
2d0
  8
Layer_0
  10
333.4115
  20
113.75274
  0
VERTEX
  5
2d1
  8
Layer_0
  10
333.4115
  20
113.76385
  0
VERTEX
  5
2d2
  8
Layer_0
  10
333.4245
  20
113.79546
  0
VERTEX
  5
2d3
  8
Layer_0
  10
333.44849
  20
113.79135
  0
VERTEX
  5
2d4
  8
Layer_0
  10
333.45251
  20
113.76795
  0
VERTEX
  5
2d5
  8
Layer_0
  10
333.42047
  20
113.75274
  0
VERTEX
  5
2d6
  8
Layer_0
  10
333.4115
  20
113.75274
  0
VERTEX
  5
2d7
  8
Layer_0
  10
330.51077
  20
113.75274
  0
VERTEX
  5
2d8
  8
Layer_0
  10
330.49277
  20
113.75274
  0
VERTEX
  5
2d9
  8
Layer_0
  10
330.43979
  20
113.78315
  0
VERTEX
  5
2da
  8
Layer_0
  10
330.41077
  20
113.83686
  0
VERTEX
  5
2db
  8
Layer_0
  10
330.41077
  20
113.85336
  0
VERTEX
  5
2dc
  8
Layer_0
  10
330.41077
  20
119.85483
  0
VERTEX
  5
2dd
  8
Layer_0
  10
330.41077
  20
119.87283
  0
VERTEX
  5
2de
  8
Layer_0
  10
330.43979
  20
119.92504
  0
VERTEX
  5
2df
  8
Layer_0
  10
330.49277
  20
119.95395
  0
VERTEX
  5
2e0
  8
Layer_0
  10
330.51077
  20
119.95395
  0
VERTEX
  5
2e1
  8
Layer_0
  10
333.4115
  20
119.95395
  0
VERTEX
  5
2e2
  8
Layer_0
  10
333.42047
  20
119.95395
  0
VERTEX
  5
2e3
  8
Layer_0
  10
333.45251
  20
119.94024
  0
VERTEX
  5
2e4
  8
Layer_0
  10
333.44849
  20
119.91694
  0
VERTEX
  5
2e5
  8
Layer_0
  10
333.4245
  20
119.91273
  0
VERTEX
  5
2e6
  8
Layer_0
  10
333.4115
  20
119.94446
  0
VERTEX
  5
2e7
  8
Layer_0
  10
333.4115
  20
119.95395
  0
VERTEX
  5
2e8
  8
Layer_0
  10
333.4115
  20
125.75575
  0
VERTEX
  5
2e9
  8
Layer_0
  10
333.4115
  20
125.76665
  0
VERTEX
  5
2ea
  8
Layer_0
  10
333.4245
  20
125.79846
  0
VERTEX
  5
2eb
  8
Layer_0
  10
333.44849
  20
125.79427
  0
VERTEX
  5
2ec
  8
Layer_0
  10
333.45251
  20
125.77097
  0
VERTEX
  5
2ed
  8
Layer_0
  10
333.42047
  20
125.75575
  0
VERTEX
  5
2ee
  8
Layer_0
  10
333.4115
  20
125.75575
  0
VERTEX
  5
2ef
  8
Layer_0
  10
330.51077
  20
125.75575
  0
VERTEX
  5
2f0
  8
Layer_0
  10
330.49277
  20
125.75575
  0
VERTEX
  5
2f1
  8
Layer_0
  10
330.43979
  20
125.78606
  0
VERTEX
  5
2f2
  8
Layer_0
  10
330.41077
  20
125.83978
  0
VERTEX
  5
2f3
  8
Layer_0
  10
330.41077
  20
125.85628
  0
VERTEX
  5
2f4
  8
Layer_0
  10
330.41077
  20
131.85783
  0
VERTEX
  5
2f5
  8
Layer_0
  10
330.41077
  20
131.87543
  0
VERTEX
  5
2f6
  8
Layer_0
  10
330.43979
  20
131.92946
  0
VERTEX
  5
2f7
  8
Layer_0
  10
330.49277
  20
131.95836
  0
VERTEX
  5
2f8
  8
Layer_0
  10
330.51077
  20
131.95836
  0
VERTEX
  5
2f9
  8
Layer_0
  10
333.4115
  20
131.95836
  0
VERTEX
  5
2fa
  8
Layer_0
  10
333.42047
  20
131.95836
  0
VERTEX
  5
2fb
  8
Layer_0
  10
333.45251
  20
131.94467
  0
VERTEX
  5
2fc
  8
Layer_0
  10
333.44849
  20
131.92096
  0
VERTEX
  5
2fd
  8
Layer_0
  10
333.4245
  20
131.91714
  0
VERTEX
  5
2fe
  8
Layer_0
  10
333.4115
  20
131.94856
  0
VERTEX
  5
2ff
  8
Layer_0
  10
333.4115
  20
131.95836
  0
VERTEX
  5
300
  8
Layer_0
  10
333.4115
  20
137.75836
  0
VERTEX
  5
301
  8
Layer_0
  10
333.4115
  20
137.76967
  0
VERTEX
  5
302
  8
Layer_0
  10
333.4245
  20
137.80109
  0
VERTEX
  5
303
  8
Layer_0
  10
333.44849
  20
137.79718
  0
VERTEX
  5
304
  8
Layer_0
  10
333.45251
  20
137.77359
  0
VERTEX
  5
305
  8
Layer_0
  10
333.42047
  20
137.75836
  0
VERTEX
  5
306
  8
Layer_0
  10
333.4115
  20
137.75836
  0
VERTEX
  5
307
  8
Layer_0
  10
330.51077
  20
137.75836
  0
VERTEX
  5
308
  8
Layer_0
  10
330.49277
  20
137.75836
  0
VERTEX
  5
309
  8
Layer_0
  10
330.43979
  20
137.78879
  0
VERTEX
  5
30a
  8
Layer_0
  10
330.41077
  20
137.8428
  0
VERTEX
  5
30b
  8
Layer_0
  10
330.41077
  20
137.85899
  0
VERTEX
  5
30c
  8
Layer_0
  10
330.41077
  20
143.86044
  0
VERTEX
  5
30d
  8
Layer_0
  10
330.41077
  20
143.87845
  0
VERTEX
  5
30e
  8
Layer_0
  10
330.43979
  20
143.93208
  0
VERTEX
  5
30f
  8
Layer_0
  10
330.49277
  20
143.96107
  0
VERTEX
  5
310
  8
Layer_0
  10
330.51077
  20
143.96107
  0
VERTEX
  5
311
  8
Layer_0
  10
333.4115
  20
143.96107
  0
VERTEX
  5
312
  8
Layer_0
  10
333.42047
  20
143.96107
  0
VERTEX
  5
313
  8
Layer_0
  10
333.45251
  20
143.94727
  0
VERTEX
  5
314
  8
Layer_0
  10
333.44849
  20
143.92397
  0
VERTEX
  5
315
  8
Layer_0
  10
333.4245
  20
143.91977
  0
VERTEX
  5
316
  8
Layer_0
  10
333.4115
  20
143.95148
  0
VERTEX
  5
317
  8
Layer_0
  10
333.4115
  20
143.96107
  0
VERTEX
  5
318
  8
Layer_0
  10
333.4115
  20
150.86266
  0
VERTEX
  5
319
  8
Layer_0
  10
333.4115
  20
150.88065
  0
VERTEX
  5
31a
  8
Layer_0
  10
333.44049
  20
150.93297
  0
VERTEX
  5
31b
  8
Layer_0
  10
333.4935
  20
150.96188
  0
VERTEX
  5
31c
  8
Layer_0
  10
333.51151
  20
150.96188
  0
VERTEX
  5
31d
  8
Layer_0
  10
433.5358
  20
150.96188
  0
VERTEX
  5
31e
  8
Layer_0
  10
433.55283
  20
150.96188
  0
VERTEX
  5
31f
  8
Layer_0
  10
433.60681
  20
150.93297
  0
VERTEX
  5
320
  8
Layer_0
  10
433.63583
  20
150.88065
  0
VERTEX
  5
321
  8
Layer_0
  10
433.63583
  20
150.86266
  0
VERTEX
  5
322
  8
Layer_0
  10
433.63583
  20
143.96107
  0
VERTEX
  5
323
  8
Layer_0
  10
433.63583
  20
143.95148
  0
VERTEX
  5
324
  8
Layer_0
  10
433.61981
  20
143.91977
  0
VERTEX
  5
325
  8
Layer_0
  10
433.59781
  20
143.92397
  0
VERTEX
  5
326
  8
Layer_0
  10
433.59283
  20
143.94727
  0
VERTEX
  5
327
  8
Layer_0
  10
433.62482
  20
143.96107
  0
VERTEX
  5
328
  8
Layer_0
  10
433.63583
  20
143.96107
  0
VERTEX
  5
329
  8
Layer_0
  10
436.5365
  20
143.96107
  0
VERTEX
  5
32a
  8
Layer_0
  10
436.55356
  20
143.96107
  0
VERTEX
  5
32b
  8
Layer_0
  10
436.60754
  20
143.93208
  0
VERTEX
  5
32c
  8
Layer_0
  10
436.63657
  20
143.87845
  0
VERTEX
  5
32d
  8
Layer_0
  10
436.63657
  20
143.86044
  0
VERTEX
  5
32e
  8
Layer_0
  10
436.63657
  20
137.85899
  0
VERTEX
  5
32f
  8
Layer_0
  10
436.63657
  20
137.8428
  0
VERTEX
  5
330
  8
Layer_0
  10
436.60754
  20
137.78879
  0
VERTEX
  5
331
  8
Layer_0
  10
436.55356
  20
137.75836
  0
VERTEX
  5
332
  8
Layer_0
  10
436.5365
  20
137.75836
  0
VERTEX
  5
333
  8
Layer_0
  10
433.63583
  20
137.75836
  0
VERTEX
  5
334
  8
Layer_0
  10
433.62482
  20
137.75836
  0
VERTEX
  5
335
  8
Layer_0
  10
433.59283
  20
137.77359
  0
VERTEX
  5
336
  8
Layer_0
  10
433.59781
  20
137.79718
  0
VERTEX
  5
337
  8
Layer_0
  10
433.61981
  20
137.80109
  0
VERTEX
  5
338
  8
Layer_0
  10
433.63583
  20
137.76967
  0
VERTEX
  5
339
  8
Layer_0
  10
433.63583
  20
137.75836
  0
VERTEX
  5
33a
  8
Layer_0
  10
433.63583
  20
131.95836
  0
VERTEX
  5
33b
  8
Layer_0
  10
433.63583
  20
131.94856
  0
VERTEX
  5
33c
  8
Layer_0
  10
433.61981
  20
131.91714
  0
VERTEX
  5
33d
  8
Layer_0
  10
433.59781
  20
131.92096
  0
VERTEX
  5
33e
  8
Layer_0
  10
433.59283
  20
131.94467
  0
VERTEX
  5
33f
  8
Layer_0
  10
433.62482
  20
131.95836
  0
VERTEX
  5
340
  8
Layer_0
  10
433.63583
  20
131.95836
  0
VERTEX
  5
341
  8
Layer_0
  10
436.5365
  20
131.95836
  0
VERTEX
  5
342
  8
Layer_0
  10
436.55356
  20
131.95836
  0
VERTEX
  5
343
  8
Layer_0
  10
436.60754
  20
131.92946
  0
VERTEX
  5
344
  8
Layer_0
  10
436.63657
  20
131.87543
  0
VERTEX
  5
345
  8
Layer_0
  10
436.63657
  20
131.85783
  0
VERTEX
  5
346
  8
Layer_0
  10
436.63657
  20
125.85628
  0
VERTEX
  5
347
  8
Layer_0
  10
436.63657
  20
125.83978
  0
VERTEX
  5
348
  8
Layer_0
  10
436.60754
  20
125.78606
  0
VERTEX
  5
349
  8
Layer_0
  10
436.55356
  20
125.75575
  0
VERTEX
  5
34a
  8
Layer_0
  10
436.5365
  20
125.75575
  0
VERTEX
  5
34b
  8
Layer_0
  10
433.63583
  20
125.75575
  0
VERTEX
  5
34c
  8
Layer_0
  10
433.62482
  20
125.75575
  0
VERTEX
  5
34d
  8
Layer_0
  10
433.59283
  20
125.77097
  0
VERTEX
  5
34e
  8
Layer_0
  10
433.59781
  20
125.79427
  0
VERTEX
  5
34f
  8
Layer_0
  10
433.61981
  20
125.79846
  0
VERTEX
  5
350
  8
Layer_0
  10
433.63583
  20
125.76665
  0
VERTEX
  5
351
  8
Layer_0
  10
433.63583
  20
125.75575
  0
VERTEX
  5
352
  8
Layer_0
  10
433.63583
  20
119.95395
  0
VERTEX
  5
353
  8
Layer_0
  10
433.63583
  20
119.94446
  0
VERTEX
  5
354
  8
Layer_0
  10
433.61981
  20
119.91273
  0
VERTEX
  5
355
  8
Layer_0
  10
433.59781
  20
119.91694
  0
VERTEX
  5
356
  8
Layer_0
  10
433.59283
  20
119.94024
  0
VERTEX
  5
357
  8
Layer_0
  10
433.62482
  20
119.95395
  0
VERTEX
  5
358
  8
Layer_0
  10
433.63583
  20
119.95395
  0
VERTEX
  5
359
  8
Layer_0
  10
436.5365
  20
119.95395
  0
VERTEX
  5
35a
  8
Layer_0
  10
436.55356
  20
119.95395
  0
VERTEX
  5
35b
  8
Layer_0
  10
436.60754
  20
119.92504
  0
VERTEX
  5
35c
  8
Layer_0
  10
436.63657
  20
119.87283
  0
VERTEX
  5
35d
  8
Layer_0
  10
436.63657
  20
119.85483
  0
VERTEX
  5
35e
  8
Layer_0
  10
436.63657
  20
113.85336
  0
VERTEX
  5
35f
  8
Layer_0
  10
436.63657
  20
113.83686
  0
VERTEX
  5
360
  8
Layer_0
  10
436.60754
  20
113.78315
  0
VERTEX
  5
361
  8
Layer_0
  10
436.55356
  20
113.75274
  0
VERTEX
  5
362
  8
Layer_0
  10
436.5365
  20
113.75274
  0
VERTEX
  5
363
  8
Layer_0
  10
433.63583
  20
113.75274
  0
VERTEX
  5
364
  8
Layer_0
  10
433.62482
  20
113.75274
  0
VERTEX
  5
365
  8
Layer_0
  10
433.59283
  20
113.76795
  0
VERTEX
  5
366
  8
Layer_0
  10
433.59781
  20
113.79135
  0
VERTEX
  5
367
  8
Layer_0
  10
433.61981
  20
113.79546
  0
VERTEX
  5
368
  8
Layer_0
  10
433.63583
  20
113.76385
  0
VERTEX
  5
369
  8
Layer_0
  10
433.63583
  20
113.75274
  0
VERTEX
  5
36a
  8
Layer_0
  10
433.63583
  20
107.95254
  0
VERTEX
  5
36b
  8
Layer_0
  10
433.63583
  20
107.94293
  0
VERTEX
  5
36c
  8
Layer_0
  10
433.61981
  20
107.91122
  0
VERTEX
  5
36d
  8
Layer_0
  10
433.59781
  20
107.91533
  0
VERTEX
  5
36e
  8
Layer_0
  10
433.59283
  20
107.93883
  0
VERTEX
  5
36f
  8
Layer_0
  10
433.62482
  20
107.95254
  0
VERTEX
  5
370
  8
Layer_0
  10
433.63583
  20
107.95254
  0
VERTEX
  5
371
  8
Layer_0
  10
436.5365
  20
107.95254
  0
VERTEX
  5
372
  8
Layer_0
  10
436.55356
  20
107.95254
  0
VERTEX
  5
373
  8
Layer_0
  10
436.60754
  20
107.92363
  0
VERTEX
  5
374
  8
Layer_0
  10
436.63657
  20
107.86991
  0
VERTEX
  5
375
  8
Layer_0
  10
436.63657
  20
107.85201
  0
VERTEX
  5
376
  8
Layer_0
  10
436.63657
  20
101.85056
  0
VERTEX
  5
377
  8
Layer_0
  10
436.63657
  20
101.83395
  0
VERTEX
  5
378
  8
Layer_0
  10
436.60754
  20
101.78024
  0
VERTEX
  5
379
  8
Layer_0
  10
436.55356
  20
101.74992
  0
VERTEX
  5
37a
  8
Layer_0
  10
436.5365
  20
101.74992
  0
VERTEX
  5
37b
  8
Layer_0
  10
433.63583
  20
101.74992
  0
VERTEX
  5
37c
  8
Layer_0
  10
433.62482
  20
101.74992
  0
VERTEX
  5
37d
  8
Layer_0
  10
433.59283
  20
101.76504
  0
VERTEX
  5
37e
  8
Layer_0
  10
433.59781
  20
101.78854
  0
VERTEX
  5
37f
  8
Layer_0
  10
433.61981
  20
101.79264
  0
VERTEX
  5
380
  8
Layer_0
  10
433.63583
  20
101.76093
  0
VERTEX
  5
381
  8
Layer_0
  10
433.63583
  20
101.74992
  0
VERTEX
  5
382
  8
Layer_0
  10
433.63583
  20
94.848358
  0
VERTEX
  5
383
  8
Layer_0
  10
433.63583
  20
94.831848
  0
VERTEX
  5
384
  8
Layer_0
  10
433.60681
  20
94.778137
  0
VERTEX
  5
385
  8
Layer_0
  10
433.55283
  20
94.74913
  0
VERTEX
  5
386
  8
Layer_0
  10
433.5358
  20
94.74913
  0
VERTEX
  5
387
  8
Layer_0
  10
422.63318
  20
94.74913
  0
VERTEX
  5
388
  8
Layer_0
  10
422.62216
  20
94.74913
  0
VERTEX
  5
389
  8
Layer_0
  10
422.59015
  20
94.764336
  0
VERTEX
  5
38a
  8
Layer_0
  10
422.59616
  20
94.786339
  0
SEQEND
  0
POLYLINE
  5
38c
  8
Layer_0
  62
0
  66
1
  10
0
  20
0
  30
0
  0
VERTEX
  5
38c
  8
Layer_0
  10
426.44409
  20
205.67667
  0
VERTEX
  5
38d
  8
Layer_0
  10
426.43506
  20
205.67667
  0
VERTEX
  5
38e
  8
Layer_0
  10
420.63269
  20
205.67667
  0
VERTEX
  5
38f
  8
Layer_0
  10
420.62167
  20
205.67667
  0
VERTEX
  5
390
  8
Layer_0
  10
420.59067
  20
205.66266
  0
VERTEX
  5
391
  8
Layer_0
  10
420.59467
  20
205.63866
  0
VERTEX
  5
392
  8
Layer_0
  10
420.61768
  20
205.63565
  0
VERTEX
  5
393
  8
Layer_0
  10
420.63269
  20
205.66666
  0
VERTEX
  5
394
  8
Layer_0
  10
420.63269
  20
205.67667
  0
VERTEX
  5
395
  8
Layer_0
  10
420.63269
  20
208.47534
  0
VERTEX
  5
396
  8
Layer_0
  10
420.63269
  20
208.48735
  0
VERTEX
  5
397
  8
Layer_0
  10
420.61768
  20
208.51837
  0
VERTEX
  5
398
  8
Layer_0
  10
420.59467
  20
208.51437
  0
VERTEX
  5
399
  8
Layer_0
  10
420.59067
  20
208.49135
  0
VERTEX
  5
39a
  8
Layer_0
  10
420.62167
  20
208.47534
  0
VERTEX
  5
39b
  8
Layer_0
  10
420.63269
  20
208.47534
  0
VERTEX
  5
39c
  8
Layer_0
  10
423.53336
  20
208.47534
  0
VERTEX
  5
39d
  8
Layer_0
  10
426.43506
  20
208.47534
  0
VERTEX
  5
39e
  8
Layer_0
  10
426.44409
  20
208.47534
  0
VERTEX
  5
39f
  8
Layer_0
  10
426.4761
  20
208.49135
  0
VERTEX
  5
3a0
  8
Layer_0
  10
426.47211
  20
208.51437
  0
VERTEX
  5
3a1
  8
Layer_0
  10
426.4491
  20
208.51837
  0
VERTEX
  5
3a2
  8
Layer_0
  10
426.43506
  20
208.48735
  0
VERTEX
  5
3a3
  8
Layer_0
  10
426.43506
  20
208.47534
  0
VERTEX
  5
3a4
  8
Layer_0
  10
426.43506
  20
205.67667
  0
VERTEX
  5
3a5
  8
Layer_0
  10
426.43506
  20
205.66666
  0
VERTEX
  5
3a6
  8
Layer_0
  10
426.4491
  20
205.63565
  0
VERTEX
  5
3a7
  8
Layer_0
  10
426.47211
  20
205.63866
  0
VERTEX
  5
3a8
  8
Layer_0
  10
426.4761
  20
205.66266
  0
VERTEX
  5
3a9
  8
Layer_0
  10
426.44409
  20
205.67667
  0
SEQEND
  0
POLYLINE
  5
3ab
  8
Layer_0
  62
0
  66
1
  10
0
  20
0
  30
0
  0
VERTEX
  5
3ab
  8
Layer_0
  10
426.47211
  20
147.7998
  0
VERTEX
  5
3ac
  8
Layer_0
  10
426.4761
  20
147.77661
  0
VERTEX
  5
3ad
  8
Layer_0
  10
426.44409
  20
147.7614
  0
VERTEX
  5
3ae
  8
Layer_0
  10
426.43506
  20
147.7614
  0
VERTEX
  5
3af
  8
Layer_0
  10
423.53336
  20
147.7614
  0
VERTEX
  5
3b0
  8
Layer_0
  10
420.63269
  20
147.7614
  0
VERTEX
  5
3b1
  8
Layer_0
  10
420.62167
  20
147.7614
  0
VERTEX
  5
3b2
  8
Layer_0
  10
420.59067
  20
147.77661
  0
VERTEX
  5
3b3
  8
Layer_0
  10
420.59467
  20
147.7998
  0
VERTEX
  5
3b4
  8
Layer_0
  10
420.61768
  20
147.80412
  0
VERTEX
  5
3b5
  8
Layer_0
  10
420.63269
  20
147.77231
  0
VERTEX
  5
3b6
  8
Layer_0
  10
420.63269
  20
147.7614
  0
VERTEX
  5
3b7
  8
Layer_0
  10
420.63269
  20
144.96033
  0
VERTEX
  5
3b8
  8
Layer_0
  10
420.63269
  20
144.95082
  0
VERTEX
  5
3b9
  8
Layer_0
  10
420.61768
  20
144.91913
  0
VERTEX
  5
3ba
  8
Layer_0
  10
420.59467
  20
144.92331
  0
VERTEX
  5
3bb
  8
Layer_0
  10
420.59067
  20
144.94662
  0
VERTEX
  5
3bc
  8
Layer_0
  10
420.62167
  20
144.96033
  0
VERTEX
  5
3bd
  8
Layer_0
  10
420.63269
  20
144.96033
  0
VERTEX
  5
3be
  8
Layer_0
  10
426.43506
  20
144.96033
  0
VERTEX
  5
3bf
  8
Layer_0
  10
426.44409
  20
144.96033
  0
VERTEX
  5
3c0
  8
Layer_0
  10
426.4761
  20
144.94662
  0
VERTEX
  5
3c1
  8
Layer_0
  10
426.47211
  20
144.92331
  0
VERTEX
  5
3c2
  8
Layer_0
  10
426.4491
  20
144.91913
  0
VERTEX
  5
3c3
  8
Layer_0
  10
426.43506
  20
144.95082
  0
VERTEX
  5
3c4
  8
Layer_0
  10
426.43506
  20
144.96033
  0
VERTEX
  5
3c5
  8
Layer_0
  10
426.43506
  20
147.7614
  0
VERTEX
  5
3c6
  8
Layer_0
  10
426.43506
  20
147.77231
  0
VERTEX
  5
3c7
  8
Layer_0
  10
426.4491
  20
147.80412
  0
VERTEX
  5
3c8
  8
Layer_0
  10
426.47211
  20
147.7998
  0
SEQEND
  0
POLYLINE
  5
3ca
  8
Layer_0
  62
0
  66
1
  10
0
  20
0
  30
0
  0
VERTEX
  5
3ca
  8
Layer_0
  10
340.57623
  20
205.63866
  0
VERTEX
  5
3cb
  8
Layer_0
  10
340.59824
  20
205.63565
  0
VERTEX
  5
3cc
  8
Layer_0
  10
340.61325
  20
205.66666
  0
VERTEX
  5
3cd
  8
Layer_0
  10
340.61325
  20
205.67667
  0
VERTEX
  5
3ce
  8
Layer_0
  10
340.61325
  20
208.47534
  0
VERTEX
  5
3cf
  8
Layer_0
  10
340.61325
  20
208.48735
  0
VERTEX
  5
3d0
  8
Layer_0
  10
340.59824
  20
208.51837
  0
VERTEX
  5
3d1
  8
Layer_0
  10
340.57623
  20
208.51437
  0
VERTEX
  5
3d2
  8
Layer_0
  10
340.57022
  20
208.49135
  0
VERTEX
  5
3d3
  8
Layer_0
  10
340.60223
  20
208.47534
  0
VERTEX
  5
3d4
  8
Layer_0
  10
340.61325
  20
208.47534
  0
VERTEX
  5
3d5
  8
Layer_0
  10
346.41467
  20
208.47534
  0
VERTEX
  5
3d6
  8
Layer_0
  10
346.42468
  20
208.47534
  0
VERTEX
  5
3d7
  8
Layer_0
  10
346.45566
  20
208.49135
  0
VERTEX
  5
3d8
  8
Layer_0
  10
346.45166
  20
208.51437
  0
VERTEX
  5
3d9
  8
Layer_0
  10
346.42865
  20
208.51837
  0
VERTEX
  5
3da
  8
Layer_0
  10
346.41467
  20
208.48735
  0
VERTEX
  5
3db
  8
Layer_0
  10
346.41467
  20
208.47534
  0
VERTEX
  5
3dc
  8
Layer_0
  10
346.41467
  20
205.67667
  0
VERTEX
  5
3dd
  8
Layer_0
  10
346.41467
  20
205.66666
  0
VERTEX
  5
3de
  8
Layer_0
  10
346.42865
  20
205.63565
  0
VERTEX
  5
3df
  8
Layer_0
  10
346.45166
  20
205.63866
  0
VERTEX
  5
3e0
  8
Layer_0
  10
346.45566
  20
205.66266
  0
VERTEX
  5
3e1
  8
Layer_0
  10
346.42468
  20
205.67667
  0
VERTEX
  5
3e2
  8
Layer_0
  10
346.41467
  20
205.67667
  0
VERTEX
  5
3e3
  8
Layer_0
  10
343.51392
  20
205.67667
  0
VERTEX
  5
3e4
  8
Layer_0
  10
340.61325
  20
205.67667
  0
VERTEX
  5
3e5
  8
Layer_0
  10
340.60223
  20
205.67667
  0
VERTEX
  5
3e6
  8
Layer_0
  10
340.57022
  20
205.66266
  0
VERTEX
  5
3e7
  8
Layer_0
  10
340.57623
  20
205.63866
  0
SEQEND
  0
POLYLINE
  5
3e9
  8
Layer_0
  62
0
  66
1
  10
0
  20
0
  30
0
  0
VERTEX
  5
3e9
  8
Layer_0
  10
340.57623
  20
144.92331
  0
VERTEX
  5
3ea
  8
Layer_0
  10
340.59824
  20
144.91913
  0
VERTEX
  5
3eb
  8
Layer_0
  10
340.61325
  20
144.95082
  0
VERTEX
  5
3ec
  8
Layer_0
  10
340.61325
  20
144.96033
  0
VERTEX
  5
3ed
  8
Layer_0
  10
340.61325
  20
147.7614
  0
VERTEX
  5
3ee
  8
Layer_0
  10
340.61325
  20
147.77231
  0
VERTEX
  5
3ef
  8
Layer_0
  10
340.59824
  20
147.80412
  0
VERTEX
  5
3f0
  8
Layer_0
  10
340.57623
  20
147.7998
  0
VERTEX
  5
3f1
  8
Layer_0
  10
340.57022
  20
147.77661
  0
VERTEX
  5
3f2
  8
Layer_0
  10
340.60223
  20
147.7614
  0
VERTEX
  5
3f3
  8
Layer_0
  10
340.61325
  20
147.7614
  0
VERTEX
  5
3f4
  8
Layer_0
  10
346.41467
  20
147.7614
  0
VERTEX
  5
3f5
  8
Layer_0
  10
346.42468
  20
147.7614
  0
VERTEX
  5
3f6
  8
Layer_0
  10
346.45566
  20
147.77661
  0
VERTEX
  5
3f7
  8
Layer_0
  10
346.45166
  20
147.7998
  0
VERTEX
  5
3f8
  8
Layer_0
  10
346.42865
  20
147.80412
  0
VERTEX
  5
3f9
  8
Layer_0
  10
346.41467
  20
147.77231
  0
VERTEX
  5
3fa
  8
Layer_0
  10
346.41467
  20
147.7614
  0
VERTEX
  5
3fb
  8
Layer_0
  10
346.41467
  20
144.96033
  0
VERTEX
  5
3fc
  8
Layer_0
  10
346.41467
  20
144.95082
  0
VERTEX
  5
3fd
  8
Layer_0
  10
346.42865
  20
144.91913
  0
VERTEX
  5
3fe
  8
Layer_0
  10
346.45166
  20
144.92331
  0
VERTEX
  5
3ff
  8
Layer_0
  10
346.45566
  20
144.94662
  0
VERTEX
  5
400
  8
Layer_0
  10
346.42468
  20
144.96033
  0
VERTEX
  5
401
  8
Layer_0
  10
346.41467
  20
144.96033
  0
VERTEX
  5
402
  8
Layer_0
  10
343.51392
  20
144.96033
  0
VERTEX
  5
403
  8
Layer_0
  10
340.61325
  20
144.96033
  0
VERTEX
  5
404
  8
Layer_0
  10
340.60223
  20
144.96033
  0
VERTEX
  5
405
  8
Layer_0
  10
340.57022
  20
144.94662
  0
VERTEX
  5
406
  8
Layer_0
  10
340.57623
  20
144.92331
  0
SEQEND
  0
POLYLINE
  5
408
  8
Layer_0
  62
0
  66
1
  10
0
  20
0
  30
0
  0
VERTEX
  5
408
  8
Layer_0
  10
328.67133
  20
307.30081
  0
VERTEX
  5
409
  8
Layer_0
  10
328.70236
  20
307.3158
  0
VERTEX
  5
40a
  8
Layer_0
  10
328.69836
  20
307.33783
  0
VERTEX
  5
40b
  8
Layer_0
  10
328.67538
  20
307.34277
  0
VERTEX
  5
40c
  8
Layer_0
  10
328.66138
  20
307.31183
  0
VERTEX
  5
40d
  8
Layer_0
  10
328.66138
  20
307.30081
  0
VERTEX
  5
40e
  8
Layer_0
  10
328.67133
  20
307.30081
  0
SEQEND
  0
POLYLINE
  5
410
  8
Layer_0
  62
0
  66
1
  10
0
  20
0
  30
0
  0
VERTEX
  5
410
  8
Layer_0
  10
328.67133
  20
301.49841
  0
VERTEX
  5
411
  8
Layer_0
  10
328.70236
  20
301.48541
  0
VERTEX
  5
412
  8
Layer_0
  10
328.69836
  20
301.4614
  0
VERTEX
  5
413
  8
Layer_0
  10
328.67538
  20
301.45737
  0
VERTEX
  5
414
  8
Layer_0
  10
328.66138
  20
301.48938
  0
VERTEX
  5
415
  8
Layer_0
  10
328.66138
  20
301.49841
  0
VERTEX
  5
416
  8
Layer_0
  10
328.67133
  20
301.49841
  0
SEQEND
  0
POLYLINE
  5
418
  8
Layer_0
  62
0
  66
1
  10
0
  20
0
  30
0
  0
VERTEX
  5
418
  8
Layer_0
  10
328.67133
  20
295.2959
  0
VERTEX
  5
419
  8
Layer_0
  10
328.70236
  20
295.31088
  0
VERTEX
  5
41a
  8
Layer_0
  10
328.69836
  20
295.3349
  0
VERTEX
  5
41b
  8
Layer_0
  10
328.67538
  20
295.33887
  0
VERTEX
  5
41c
  8
Layer_0
  10
328.66138
  20
295.30688
  0
VERTEX
  5
41d
  8
Layer_0
  10
328.66138
  20
295.2959
  0
VERTEX
  5
41e
  8
Layer_0
  10
328.67133
  20
295.2959
  0
SEQEND
  0
POLYLINE
  5
420
  8
Layer_0
  62
0
  66
1
  10
0
  20
0
  30
0
  0
VERTEX
  5
420
  8
Layer_0
  10
328.67133
  20
289.49646
  0
VERTEX
  5
421
  8
Layer_0
  10
328.70236
  20
289.48248
  0
VERTEX
  5
422
  8
Layer_0
  10
328.69836
  20
289.4585
  0
VERTEX
  5
423
  8
Layer_0
  10
328.67538
  20
289.45447
  0
VERTEX
  5
424
  8
Layer_0
  10
328.66138
  20
289.48648
  0
VERTEX
  5
425
  8
Layer_0
  10
328.66138
  20
289.49646
  0
VERTEX
  5
426
  8
Layer_0
  10
328.67133
  20
289.49646
  0
SEQEND
  0
POLYLINE
  5
428
  8
Layer_0
  62
0
  66
1
  10
0
  20
0
  30
0
  0
VERTEX
  5
428
  8
Layer_0
  10
328.67133
  20
283.29395
  0
VERTEX
  5
429
  8
Layer_0
  10
328.70236
  20
283.30899
  0
VERTEX
  5
42a
  8
Layer_0
  10
328.69836
  20
283.332
  0
VERTEX
  5
42b
  8
Layer_0
  10
328.67538
  20
283.33597
  0
VERTEX
  5
42c
  8
Layer_0
  10
328.66138
  20
283.30396
  0
VERTEX
  5
42d
  8
Layer_0
  10
328.66138
  20
283.29395
  0
VERTEX
  5
42e
  8
Layer_0
  10
328.67133
  20
283.29395
  0
SEQEND
  0
POLYLINE
  5
430
  8
Layer_0
  62
0
  66
1
  10
0
  20
0
  30
0
  0
VERTEX
  5
430
  8
Layer_0
  10
328.67133
  20
277.49158
  0
VERTEX
  5
431
  8
Layer_0
  10
328.70236
  20
277.47757
  0
VERTEX
  5
432
  8
Layer_0
  10
328.69836
  20
277.45456
  0
VERTEX
  5
433
  8
Layer_0
  10
328.67538
  20
277.45053
  0
VERTEX
  5
434
  8
Layer_0
  10
328.66138
  20
277.48254
  0
VERTEX
  5
435
  8
Layer_0
  10
328.66138
  20
277.49158
  0
VERTEX
  5
436
  8
Layer_0
  10
328.67133
  20
277.49158
  0
SEQEND
  0
POLYLINE
  5
438
  8
Layer_0
  62
0
  66
1
  10
0
  20
0
  30
0
  0
VERTEX
  5
438
  8
Layer_0
  10
328.67133
  20
271.29205
  0
VERTEX
  5
439
  8
Layer_0
  10
328.70236
  20
271.30707
  0
VERTEX
  5
43a
  8
Layer_0
  10
328.69836
  20
271.32907
  0
VERTEX
  5
43b
  8
Layer_0
  10
328.67538
  20
271.33508
  0
VERTEX
  5
43c
  8
Layer_0
  10
328.66138
  20
271.30304
  0
VERTEX
  5
43d
  8
Layer_0
  10
328.66138
  20
271.29205
  0
VERTEX
  5
43e
  8
Layer_0
  10
328.67133
  20
271.29205
  0
SEQEND
  0
POLYLINE
  5
440
  8
Layer_0
  62
0
  66
1
  10
0
  20
0
  30
0
  0
VERTEX
  5
440
  8
Layer_0
  10
328.67133
  20
265.48965
  0
VERTEX
  5
441
  8
Layer_0
  10
328.70236
  20
265.47665
  0
VERTEX
  5
442
  8
Layer_0
  10
328.69836
  20
265.45264
  0
VERTEX
  5
443
  8
Layer_0
  10
328.67538
  20
265.44864
  0
VERTEX
  5
444
  8
Layer_0
  10
328.66138
  20
265.48065
  0
VERTEX
  5
445
  8
Layer_0
  10
328.66138
  20
265.48965
  0
VERTEX
  5
446
  8
Layer_0
  10
328.67133
  20
265.48965
  0
SEQEND
  0
POLYLINE
  5
448
  8
Layer_0
  62
0
  66
1
  10
0
  20
0
  30
0
  0
VERTEX
  5
448
  8
Layer_0
  10
328.67133
  20
259.28714
  0
VERTEX
  5
449
  8
Layer_0
  10
328.70236
  20
259.30313
  0
VERTEX
  5
44a
  8
Layer_0
  10
328.69836
  20
259.32617
  0
VERTEX
  5
44b
  8
Layer_0
  10
328.67538
  20
259.33014
  0
VERTEX
  5
44c
  8
Layer_0
  10
328.66138
  20
259.29913
  0
VERTEX
  5
44d
  8
Layer_0
  10
328.66138
  20
259.28714
  0
VERTEX
  5
44e
  8
Layer_0
  10
328.67133
  20
259.28714
  0
SEQEND
  0
POLYLINE
  5
450
  8
Layer_0
  62
0
  66
1
  10
0
  20
0
  30
0
  0
VERTEX
  5
450
  8
Layer_0
  10
328.67133
  20
253.48773
  0
VERTEX
  5
451
  8
Layer_0
  10
328.70236
  20
253.47374
  0
VERTEX
  5
452
  8
Layer_0
  10
328.69836
  20
253.44972
  0
VERTEX
  5
453
  8
Layer_0
  10
328.67538
  20
253.44572
  0
VERTEX
  5
454
  8
Layer_0
  10
328.66138
  20
253.47774
  0
VERTEX
  5
455
  8
Layer_0
  10
328.66138
  20
253.48773
  0
VERTEX
  5
456
  8
Layer_0
  10
328.67133
  20
253.48773
  0
SEQEND
  0
POLYLINE
  5
458
  8
Layer_0
  62
0
  66
1
  10
0
  20
0
  30
0
  0
VERTEX
  5
458
  8
Layer_0
  10
328.67133
  20
247.28522
  0
VERTEX
  5
459
  8
Layer_0
  10
328.70236
  20
247.30022
  0
VERTEX
  5
45a
  8
Layer_0
  10
328.69836
  20
247.32324
  0
VERTEX
  5
45b
  8
Layer_0
  10
328.67538
  20
247.32724
  0
VERTEX
  5
45c
  8
Layer_0
  10
328.66138
  20
247.29623
  0
VERTEX
  5
45d
  8
Layer_0
  10
328.66138
  20
247.28522
  0
VERTEX
  5
45e
  8
Layer_0
  10
328.67133
  20
247.28522
  0
SEQEND
  0
POLYLINE
  5
460
  8
Layer_0
  62
0
  66
1
  10
0
  20
0
  30
0
  0
VERTEX
  5
460
  8
Layer_0
  10
328.67133
  20
241.48282
  0
VERTEX
  5
461
  8
Layer_0
  10
328.70236
  20
241.46881
  0
VERTEX
  5
462
  8
Layer_0
  10
328.69836
  20
241.44582
  0
VERTEX
  5
463
  8
Layer_0
  10
328.67538
  20
241.44182
  0
VERTEX
  5
464
  8
Layer_0
  10
328.66138
  20
241.47382
  0
VERTEX
  5
465
  8
Layer_0
  10
328.66138
  20
241.48282
  0
VERTEX
  5
466
  8
Layer_0
  10
328.67133
  20
241.48282
  0
SEQEND
  0
POLYLINE
  5
468
  8
Layer_0
  62
0
  66
1
  10
0
  20
0
  30
0
  0
VERTEX
  5
468
  8
Layer_0
  10
328.67133
  20
235.2823
  0
VERTEX
  5
469
  8
Layer_0
  10
328.70236
  20
235.2973
  0
VERTEX
  5
46a
  8
Layer_0
  10
328.69836
  20
235.32033
  0
VERTEX
  5
46b
  8
Layer_0
  10
328.67538
  20
235.32433
  0
VERTEX
  5
46c
  8
Layer_0
  10
328.66138
  20
235.29231
  0
VERTEX
  5
46d
  8
Layer_0
  10
328.66138
  20
235.2823
  0
VERTEX
  5
46e
  8
Layer_0
  10
328.67133
  20
235.2823
  0
SEQEND
  0
POLYLINE
  5
470
  8
Layer_0
  62
0
  66
1
  10
0
  20
0
  30
0
  0
VERTEX
  5
470
  8
Layer_0
  10
328.67133
  20
229.48091
  0
VERTEX
  5
471
  8
Layer_0
  10
328.70236
  20
229.4669
  0
VERTEX
  5
472
  8
Layer_0
  10
328.69836
  20
229.4429
  0
VERTEX
  5
473
  8
Layer_0
  10
328.67538
  20
229.4389
  0
VERTEX
  5
474
  8
Layer_0
  10
328.66138
  20
229.4709
  0
VERTEX
  5
475
  8
Layer_0
  10
328.66138
  20
229.48091
  0
VERTEX
  5
476
  8
Layer_0
  10
328.67133
  20
229.48091
  0
SEQEND
  0
POLYLINE
  5
478
  8
Layer_0
  62
0
  66
1
  10
0
  20
0
  30
0
  0
VERTEX
  5
478
  8
Layer_0
  10
225.68573
  20
168.47833
  0
VERTEX
  5
479
  8
Layer_0
  10
225.68573
  20
168.46744
  0
VERTEX
  5
47a
  8
Layer_0
  10
225.68573
  20
162.66562
  0
VERTEX
  5
47b
  8
Layer_0
  10
225.68573
  20
162.65613
  0
VERTEX
  5
47c
  8
Layer_0
  10
225.69954
  20
162.6243
  0
VERTEX
  5
47d
  8
Layer_0
  10
225.72295
  20
162.62862
  0
VERTEX
  5
47e
  8
Layer_0
  10
225.72714
  20
162.65192
  0
VERTEX
  5
47f
  8
Layer_0
  10
225.69545
  20
162.66562
  0
VERTEX
  5
480
  8
Layer_0
  10
225.68573
  20
162.66562
  0
VERTEX
  5
481
  8
Layer_0
  10
222.78423
  20
162.66562
  0
VERTEX
  5
482
  8
Layer_0
  10
222.76633
  20
162.66562
  0
VERTEX
  5
483
  8
Layer_0
  10
222.71402
  20
162.6367
  0
VERTEX
  5
484
  8
Layer_0
  10
222.685
  20
162.5831
  0
VERTEX
  5
485
  8
Layer_0
  10
222.685
  20
162.56509
  0
VERTEX
  5
486
  8
Layer_0
  10
222.685
  20
155.5629
  0
VERTEX
  5
487
  8
Layer_0
  10
222.685
  20
155.5463
  0
VERTEX
  5
488
  8
Layer_0
  10
222.71402
  20
155.49258
  0
VERTEX
  5
489
  8
Layer_0
  10
222.76633
  20
155.46367
  0
VERTEX
  5
48a
  8
Layer_0
  10
222.78423
  20
155.46367
  0
VERTEX
  5
48b
  8
Layer_0
  10
225.78496
  20
155.46367
  0
VERTEX
  5
48c
  8
Layer_0
  10
236.68791
  20
155.46367
  0
VERTEX
  5
48d
  8
Layer_0
  10
236.69763
  20
155.46367
  0
VERTEX
  5
48e
  8
Layer_0
  10
236.72922
  20
155.47887
  0
VERTEX
  5
48f
  8
Layer_0
  10
236.72513
  20
155.5011
  0
VERTEX
  5
490
  8
Layer_0
  10
236.70172
  20
155.50638
  0
VERTEX
  5
491
  8
Layer_0
  10
236.68791
  20
155.47467
  0
VERTEX
  5
492
  8
Layer_0
  10
236.68791
  20
155.46367
  0
VERTEX
  5
493
  8
Layer_0
  10
236.68791
  20
152.56207
  0
VERTEX
  5
494
  8
Layer_0
  10
236.68791
  20
152.54587
  0
VERTEX
  5
495
  8
Layer_0
  10
236.71692
  20
152.49185
  0
VERTEX
  5
496
  8
Layer_0
  10
236.77065
  20
152.46294
  0
VERTEX
  5
497
  8
Layer_0
  10
236.78853
  20
152.46294
  0
VERTEX
  5
498
  8
Layer_0
  10
242.78998
  20
152.46294
  0
VERTEX
  5
499
  8
Layer_0
  10
242.8065
  20
152.46294
  0
VERTEX
  5
49a
  8
Layer_0
  10
242.86032
  20
152.49185
  0
VERTEX
  5
49b
  8
Layer_0
  10
242.88922
  20
152.54587
  0
VERTEX
  5
49c
  8
Layer_0
  10
242.88922
  20
152.56207
  0
VERTEX
  5
49d
  8
Layer_0
  10
242.88922
  20
155.46367
  0
VERTEX
  5
49e
  8
Layer_0
  10
242.88922
  20
155.47467
  0
VERTEX
  5
49f
  8
Layer_0
  10
242.87402
  20
155.50638
  0
VERTEX
  5
4a0
  8
Layer_0
  10
242.85201
  20
155.5011
  0
VERTEX
  5
4a1
  8
Layer_0
  10
242.84653
  20
155.47887
  0
VERTEX
  5
4a2
  8
Layer_0
  10
242.8782
  20
155.46367
  0
VERTEX
  5
4a3
  8
Layer_0
  10
242.88922
  20
155.46367
  0
VERTEX
  5
4a4
  8
Layer_0
  10
248.69083
  20
155.46367
  0
VERTEX
  5
4a5
  8
Layer_0
  10
248.70032
  20
155.46367
  0
VERTEX
  5
4a6
  8
Layer_0
  10
248.73213
  20
155.47887
  0
VERTEX
  5
4a7
  8
Layer_0
  10
248.72792
  20
155.5011
  0
VERTEX
  5
4a8
  8
Layer_0
  10
248.70464
  20
155.50638
  0
VERTEX
  5
4a9
  8
Layer_0
  10
248.69083
  20
155.47467
  0
VERTEX
  5
4aa
  8
Layer_0
  10
248.69083
  20
155.46367
  0
VERTEX
  5
4ab
  8
Layer_0
  10
248.69083
  20
152.56207
  0
VERTEX
  5
4ac
  8
Layer_0
  10
248.69083
  20
152.54587
  0
VERTEX
  5
4ad
  8
Layer_0
  10
248.71974
  20
152.49185
  0
VERTEX
  5
4ae
  8
Layer_0
  10
248.77342
  20
152.46294
  0
VERTEX
  5
4af
  8
Layer_0
  10
248.79144
  20
152.46294
  0
VERTEX
  5
4b0
  8
Layer_0
  10
254.79291
  20
152.46294
  0
VERTEX
  5
4b1
  8
Layer_0
  10
254.80951
  20
152.46294
  0
VERTEX
  5
4b2
  8
Layer_0
  10
254.86313
  20
152.49185
  0
VERTEX
  5
4b3
  8
Layer_0
  10
254.89201
  20
152.54587
  0
VERTEX
  5
4b4
  8
Layer_0
  10
254.89201
  20
152.56207
  0
VERTEX
  5
4b5
  8
Layer_0
  10
254.89201
  20
155.46367
  0
VERTEX
  5
4b6
  8
Layer_0
  10
254.89201
  20
155.47467
  0
VERTEX
  5
4b7
  8
Layer_0
  10
254.87692
  20
155.50638
  0
VERTEX
  5
4b8
  8
Layer_0
  10
254.85501
  20
155.5011
  0
VERTEX
  5
4b9
  8
Layer_0
  10
254.8493
  20
155.47887
  0
VERTEX
  5
4ba
  8
Layer_0
  10
254.88112
  20
155.46367
  0
VERTEX
  5
4bb
  8
Layer_0
  10
254.89201
  20
155.46367
  0
VERTEX
  5
4bc
  8
Layer_0
  10
260.69385
  20
155.46367
  0
VERTEX
  5
4bd
  8
Layer_0
  10
260.70334
  20
155.46367
  0
VERTEX
  5
4be
  8
Layer_0
  10
260.73514
  20
155.47887
  0
VERTEX
  5
4bf
  8
Layer_0
  10
260.73083
  20
155.5011
  0
VERTEX
  5
4c0
  8
Layer_0
  10
260.70764
  20
155.50638
  0
VERTEX
  5
4c1
  8
Layer_0
  10
260.69385
  20
155.47467
  0
VERTEX
  5
4c2
  8
Layer_0
  10
260.69385
  20
155.46367
  0
VERTEX
  5
4c3
  8
Layer_0
  10
260.69385
  20
152.56207
  0
VERTEX
  5
4c4
  8
Layer_0
  10
260.69385
  20
152.54587
  0
VERTEX
  5
4c5
  8
Layer_0
  10
260.72275
  20
152.49185
  0
VERTEX
  5
4c6
  8
Layer_0
  10
260.77649
  20
152.46294
  0
VERTEX
  5
4c7
  8
Layer_0
  10
260.79437
  20
152.46294
  0
VERTEX
  5
4c8
  8
Layer_0
  10
266.7955
  20
152.46294
  0
VERTEX
  5
4c9
  8
Layer_0
  10
266.81213
  20
152.46294
  0
VERTEX
  5
4ca
  8
Layer_0
  10
266.86615
  20
152.49185
  0
VERTEX
  5
4cb
  8
Layer_0
  10
266.89505
  20
152.54587
  0
VERTEX
  5
4cc
  8
Layer_0
  10
266.89505
  20
152.56207
  0
VERTEX
  5
4cd
  8
Layer_0
  10
266.89505
  20
155.46367
  0
VERTEX
  5
4ce
  8
Layer_0
  10
266.89505
  20
155.47467
  0
VERTEX
  5
4cf
  8
Layer_0
  10
266.87985
  20
155.50638
  0
VERTEX
  5
4d0
  8
Layer_0
  10
266.85764
  20
155.5011
  0
VERTEX
  5
4d1
  8
Layer_0
  10
266.85236
  20
155.47887
  0
VERTEX
  5
4d2
  8
Layer_0
  10
266.88376
  20
155.46367
  0
VERTEX
  5
4d3
  8
Layer_0
  10
266.89505
  20
155.46367
  0
VERTEX
  5
4d4
  8
Layer_0
  10
272.69644
  20
155.46367
  0
VERTEX
  5
4d5
  8
Layer_0
  10
272.70605
  20
155.46367
  0
VERTEX
  5
4d6
  8
Layer_0
  10
272.73779
  20
155.47887
  0
VERTEX
  5
4d7
  8
Layer_0
  10
272.73386
  20
155.5011
  0
VERTEX
  5
4d8
  8
Layer_0
  10
272.71024
  20
155.50638
  0
VERTEX
  5
4d9
  8
Layer_0
  10
272.69644
  20
155.47467
  0
VERTEX
  5
4da
  8
Layer_0
  10
272.69644
  20
155.46367
  0
VERTEX
  5
4db
  8
Layer_0
  10
272.69644
  20
152.56207
  0
VERTEX
  5
4dc
  8
Layer_0
  10
272.69644
  20
152.54587
  0
VERTEX
  5
4dd
  8
Layer_0
  10
272.72543
  20
152.49185
  0
VERTEX
  5
4de
  8
Layer_0
  10
272.77939
  20
152.46294
  0
VERTEX
  5
4df
  8
Layer_0
  10
272.79709
  20
152.46294
  0
VERTEX
  5
4e0
  8
Layer_0
  10
278.79849
  20
152.46294
  0
VERTEX
  5
4e1
  8
Layer_0
  10
278.81506
  20
152.46294
  0
VERTEX
  5
4e2
  8
Layer_0
  10
278.86871
  20
152.49185
  0
VERTEX
  5
4e3
  8
Layer_0
  10
278.89771
  20
152.54587
  0
VERTEX
  5
4e4
  8
Layer_0
  10
278.89771
  20
152.56207
  0
VERTEX
  5
4e5
  8
Layer_0
  10
278.89771
  20
155.46367
  0
VERTEX
  5
4e6
  8
Layer_0
  10
278.89771
  20
155.47467
  0
VERTEX
  5
4e7
  8
Layer_0
  10
278.88251
  20
155.50638
  0
VERTEX
  5
4e8
  8
Layer_0
  10
278.8606
  20
155.5011
  0
VERTEX
  5
4e9
  8
Layer_0
  10
278.85498
  20
155.47887
  0
VERTEX
  5
4ea
  8
Layer_0
  10
278.88672
  20
155.46367
  0
VERTEX
  5
4eb
  8
Layer_0
  10
278.89771
  20
155.46367
  0
VERTEX
  5
4ec
  8
Layer_0
  10
284.69943
  20
155.46367
  0
VERTEX
  5
4ed
  8
Layer_0
  10
284.70901
  20
155.46367
  0
VERTEX
  5
4ee
  8
Layer_0
  10
284.74072
  20
155.47887
  0
VERTEX
  5
4ef
  8
Layer_0
  10
284.73651
  20
155.5011
  0
VERTEX
  5
4f0
  8
Layer_0
  10
284.71323
  20
155.50638
  0
VERTEX
  5
4f1
  8
Layer_0
  10
284.69943
  20
155.47467
  0
VERTEX
  5
4f2
  8
Layer_0
  10
284.69943
  20
155.46367
  0
VERTEX
  5
4f3
  8
Layer_0
  10
284.69943
  20
152.56207
  0
VERTEX
  5
4f4
  8
Layer_0
  10
284.69943
  20
152.54587
  0
VERTEX
  5
4f5
  8
Layer_0
  10
284.72842
  20
152.49185
  0
VERTEX
  5
4f6
  8
Layer_0
  10
284.78204
  20
152.46294
  0
VERTEX
  5
4f7
  8
Layer_0
  10
284.80005
  20
152.46294
  0
VERTEX
  5
4f8
  8
Layer_0
  10
290.80151
  20
152.46294
  0
VERTEX
  5
4f9
  8
Layer_0
  10
290.81812
  20
152.46294
  0
VERTEX
  5
4fa
  8
Layer_0
  10
290.8717
  20
152.49185
  0
VERTEX
  5
4fb
  8
Layer_0
  10
290.9006
  20
152.54587
  0
VERTEX
  5
4fc
  8
Layer_0
  10
290.9006
  20
152.56207
  0
VERTEX
  5
4fd
  8
Layer_0
  10
290.9006
  20
155.46367
  0
VERTEX
  5
4fe
  8
Layer_0
  10
290.9006
  20
155.47467
  0
VERTEX
  5
4ff
  8
Layer_0
  10
290.8855
  20
155.50638
  0
VERTEX
  5
500
  8
Layer_0
  10
290.86362
  20
155.5011
  0
VERTEX
  5
501
  8
Layer_0
  10
290.858
  20
155.47887
  0
VERTEX
  5
502
  8
Layer_0
  10
290.88971
  20
155.46367
  0
VERTEX
  5
503
  8
Layer_0
  10
290.9006
  20
155.46367
  0
VERTEX
  5
504
  8
Layer_0
  10
296.70215
  20
155.46367
  0
VERTEX
  5
505
  8
Layer_0
  10
296.71191
  20
155.46367
  0
VERTEX
  5
506
  8
Layer_0
  10
296.74371
  20
155.47887
  0
VERTEX
  5
507
  8
Layer_0
  10
296.73953
  20
155.5011
  0
VERTEX
  5
508
  8
Layer_0
  10
296.71585
  20
155.50638
  0
VERTEX
  5
509
  8
Layer_0
  10
296.70215
  20
155.47467
  0
VERTEX
  5
50a
  8
Layer_0
  10
296.70215
  20
155.46367
  0
VERTEX
  5
50b
  8
Layer_0
  10
296.70215
  20
152.56207
  0
VERTEX
  5
50c
  8
Layer_0
  10
296.70215
  20
152.54587
  0
VERTEX
  5
50d
  8
Layer_0
  10
296.73105
  20
152.49185
  0
VERTEX
  5
50e
  8
Layer_0
  10
296.78503
  20
152.46294
  0
VERTEX
  5
50f
  8
Layer_0
  10
296.80304
  20
152.46294
  0
VERTEX
  5
510
  8
Layer_0
  10
302.80411
  20
152.46294
  0
VERTEX
  5
511
  8
Layer_0
  10
302.82071
  20
152.46294
  0
VERTEX
  5
512
  8
Layer_0
  10
302.87476
  20
152.49185
  0
VERTEX
  5
513
  8
Layer_0
  10
302.90363
  20
152.54587
  0
VERTEX
  5
514
  8
Layer_0
  10
302.90363
  20
152.56207
  0
VERTEX
  5
515
  8
Layer_0
  10
302.90363
  20
155.46367
  0
VERTEX
  5
516
  8
Layer_0
  10
302.90363
  20
155.47467
  0
VERTEX
  5
517
  8
Layer_0
  10
302.88855
  20
155.50638
  0
VERTEX
  5
518
  8
Layer_0
  10
302.86624
  20
155.5011
  0
VERTEX
  5
519
  8
Layer_0
  10
302.8609
  20
155.47887
  0
VERTEX
  5
51a
  8
Layer_0
  10
302.89233
  20
155.46367
  0
VERTEX
  5
51b
  8
Layer_0
  10
302.90363
  20
155.46367
  0
VERTEX
  5
51c
  8
Layer_0
  10
308.70514
  20
155.46367
  0
VERTEX
  5
51d
  8
Layer_0
  10
308.71466
  20
155.46367
  0
VERTEX
  5
51e
  8
Layer_0
  10
308.7464
  20
155.47887
  0
VERTEX
  5
51f
  8
Layer_0
  10
308.74213
  20
155.5011
  0
VERTEX
  5
520
  8
Layer_0
  10
308.71884
  20
155.50638
  0
VERTEX
  5
521
  8
Layer_0
  10
308.70514
  20
155.47467
  0
VERTEX
  5
522
  8
Layer_0
  10
308.70514
  20
155.46367
  0
VERTEX
  5
523
  8
Layer_0
  10
308.70514
  20
152.56207
  0
VERTEX
  5
524
  8
Layer_0
  10
308.70514
  20
152.54587
  0
VERTEX
  5
525
  8
Layer_0
  10
308.73404
  20
152.49185
  0
VERTEX
  5
526
  8
Layer_0
  10
308.78769
  20
152.46294
  0
VERTEX
  5
527
  8
Layer_0
  10
308.80566
  20
152.46294
  0
VERTEX
  5
528
  8
Layer_0
  10
314.80695
  20
152.46294
  0
VERTEX
  5
529
  8
Layer_0
  10
314.82394
  20
152.46294
  0
VERTEX
  5
52a
  8
Layer_0
  10
314.87692
  20
152.49185
  0
VERTEX
  5
52b
  8
Layer_0
  10
314.90594
  20
152.54587
  0
VERTEX
  5
52c
  8
Layer_0
  10
314.90594
  20
152.56207
  0
VERTEX
  5
52d
  8
Layer_0
  10
314.90594
  20
155.46367
  0
VERTEX
  5
52e
  8
Layer_0
  10
314.90594
  20
155.47467
  0
VERTEX
  5
52f
  8
Layer_0
  10
314.89093
  20
155.50638
  0
VERTEX
  5
530
  8
Layer_0
  10
314.86893
  20
155.5011
  0
VERTEX
  5
531
  8
Layer_0
  10
314.86392
  20
155.47887
  0
VERTEX
  5
532
  8
Layer_0
  10
314.89496
  20
155.46367
  0
VERTEX
  5
533
  8
Layer_0
  10
314.90594
  20
155.46367
  0
VERTEX
  5
534
  8
Layer_0
  10
325.8096
  20
155.46367
  0
VERTEX
  5
535
  8
Layer_0
  10
328.81033
  20
155.46367
  0
VERTEX
  5
536
  8
Layer_0
  10
328.82632
  20
155.46367
  0
VERTEX
  5
537
  8
Layer_0
  10
328.88031
  20
155.49258
  0
VERTEX
  5
538
  8
Layer_0
  10
328.91037
  20
155.5463
  0
VERTEX
  5
539
  8
Layer_0
  10
328.91037
  20
155.5629
  0
VERTEX
  5
53a
  8
Layer_0
  10
328.91037
  20
162.56509
  0
VERTEX
  5
53b
  8
Layer_0
  10
328.91037
  20
162.5831
  0
VERTEX
  5
53c
  8
Layer_0
  10
328.88037
  20
162.6367
  0
VERTEX
  5
53d
  8
Layer_0
  10
328.82639
  20
162.66562
  0
VERTEX
  5
53e
  8
Layer_0
  10
328.81036
  20
162.66562
  0
VERTEX
  5
53f
  8
Layer_0
  10
325.9097
  20
162.66562
  0
VERTEX
  5
540
  8
Layer_0
  10
325.89868
  20
162.66562
  0
VERTEX
  5
541
  8
Layer_0
  10
325.86765
  20
162.65192
  0
VERTEX
  5
542
  8
Layer_0
  10
325.87164
  20
162.62862
  0
VERTEX
  5
543
  8
Layer_0
  10
325.89465
  20
162.6243
  0
VERTEX
  5
544
  8
Layer_0
  10
325.9097
  20
162.65613
  0
VERTEX
  5
545
  8
Layer_0
  10
325.9097
  20
162.66562
  0
VERTEX
  5
546
  8
Layer_0
  10
325.9097
  20
168.46744
  0
VERTEX
  5
547
  8
Layer_0
  10
325.9097
  20
168.47833
  0
VERTEX
  5
548
  8
Layer_0
  10
325.89465
  20
168.51013
  0
VERTEX
  5
549
  8
Layer_0
  10
325.87164
  20
168.50443
  0
VERTEX
  5
54a
  8
Layer_0
  10
325.86765
  20
168.48264
  0
VERTEX
  5
54b
  8
Layer_0
  10
325.89868
  20
168.46744
  0
VERTEX
  5
54c
  8
Layer_0
  10
325.9097
  20
168.46744
  0
VERTEX
  5
54d
  8
Layer_0
  10
328.81036
  20
168.46744
  0
VERTEX
  5
54e
  8
Layer_0
  10
328.82639
  20
168.46744
  0
VERTEX
  5
54f
  8
Layer_0
  10
328.88037
  20
168.49634
  0
VERTEX
  5
550
  8
Layer_0
  10
328.91043
  20
168.54996
  0
VERTEX
  5
551
  8
Layer_0
  10
328.91043
  20
168.56656
  0
VERTEX
  5
552
  8
Layer_0
  10
328.91043
  20
174.56812
  0
VERTEX
  5
553
  8
Layer_0
  10
328.91043
  20
174.58571
  0
VERTEX
  5
554
  8
Layer_0
  10
328.88037
  20
174.63972
  0
VERTEX
  5
555
  8
Layer_0
  10
328.82639
  20
174.66864
  0
VERTEX
  5
556
  8
Layer_0
  10
328.81036
  20
174.66864
  0
VERTEX
  5
557
  8
Layer_0
  10
325.9097
  20
174.66864
  0
VERTEX
  5
558
  8
Layer_0
  10
325.89868
  20
174.66864
  0
VERTEX
  5
559
  8
Layer_0
  10
325.86765
  20
174.65485
  0
VERTEX
  5
55a
  8
Layer_0
  10
325.87164
  20
174.63123
  0
VERTEX
  5
55b
  8
Layer_0
  10
325.89465
  20
174.62732
  0
VERTEX
  5
55c
  8
Layer_0
  10
325.9097
  20
174.65912
  0
VERTEX
  5
55d
  8
Layer_0
  10
325.9097
  20
174.66864
  0
VERTEX
  5
55e
  8
Layer_0
  10
325.9097
  20
180.47005
  0
VERTEX
  5
55f
  8
Layer_0
  10
325.9097
  20
180.48134
  0
VERTEX
  5
560
  8
Layer_0
  10
325.89465
  20
180.51276
  0
VERTEX
  5
561
  8
Layer_0
  10
325.87164
  20
180.50745
  0
VERTEX
  5
562
  8
Layer_0
  10
325.86765
  20
180.48524
  0
VERTEX
  5
563
  8
Layer_0
  10
325.89868
  20
180.47005
  0
VERTEX
  5
564
  8
Layer_0
  10
325.9097
  20
180.47005
  0
VERTEX
  5
565
  8
Layer_0
  10
328.81036
  20
180.47005
  0
VERTEX
  5
566
  8
Layer_0
  10
328.82639
  20
180.47005
  0
VERTEX
  5
567
  8
Layer_0
  10
328.88037
  20
180.49895
  0
VERTEX
  5
568
  8
Layer_0
  10
328.91043
  20
180.55295
  0
VERTEX
  5
569
  8
Layer_0
  10
328.91043
  20
180.56958
  0
VERTEX
  5
56a
  8
Layer_0
  10
328.91043
  20
186.57103
  0
VERTEX
  5
56b
  8
Layer_0
  10
328.91043
  20
186.58902
  0
VERTEX
  5
56c
  8
Layer_0
  10
328.88037
  20
186.64206
  0
VERTEX
  5
56d
  8
Layer_0
  10
328.82639
  20
186.67105
  0
VERTEX
  5
56e
  8
Layer_0
  10
328.81036
  20
186.67105
  0
VERTEX
  5
56f
  8
Layer_0
  10
325.9097
  20
186.67105
  0
VERTEX
  5
570
  8
Layer_0
  10
325.89868
  20
186.67105
  0
VERTEX
  5
571
  8
Layer_0
  10
325.86765
  20
186.65704
  0
VERTEX
  5
572
  8
Layer_0
  10
325.87164
  20
186.63403
  0
VERTEX
  5
573
  8
Layer_0
  10
325.89465
  20
186.63005
  0
VERTEX
  5
574
  8
Layer_0
  10
325.9097
  20
186.66205
  0
VERTEX
  5
575
  8
Layer_0
  10
325.9097
  20
186.67105
  0
VERTEX
  5
576
  8
Layer_0
  10
325.9097
  20
192.47345
  0
VERTEX
  5
577
  8
Layer_0
  10
325.9097
  20
192.48447
  0
VERTEX
  5
578
  8
Layer_0
  10
325.89465
  20
192.51547
  0
VERTEX
  5
579
  8
Layer_0
  10
325.87164
  20
192.51047
  0
VERTEX
  5
57a
  8
Layer_0
  10
325.86765
  20
192.48846
  0
VERTEX
  5
57b
  8
Layer_0
  10
325.89868
  20
192.47345
  0
VERTEX
  5
57c
  8
Layer_0
  10
325.9097
  20
192.47345
  0
VERTEX
  5
57d
  8
Layer_0
  10
328.81036
  20
192.47345
  0
VERTEX
  5
57e
  8
Layer_0
  10
328.82639
  20
192.47345
  0
VERTEX
  5
57f
  8
Layer_0
  10
328.88037
  20
192.50247
  0
VERTEX
  5
580
  8
Layer_0
  10
328.91043
  20
192.55548
  0
VERTEX
  5
581
  8
Layer_0
  10
328.91043
  20
192.57249
  0
VERTEX
  5
582
  8
Layer_0
  10
328.91043
  20
198.57394
  0
VERTEX
  5
583
  8
Layer_0
  10
328.91043
  20
198.59195
  0
VERTEX
  5
584
  8
Layer_0
  10
328.88037
  20
198.64496
  0
VERTEX
  5
585
  8
Layer_0
  10
328.82639
  20
198.67397
  0
VERTEX
  5
586
  8
Layer_0
  10
328.81036
  20
198.67397
  0
VERTEX
  5
587
  8
Layer_0
  10
325.9097
  20
198.67397
  0
VERTEX
  5
588
  8
Layer_0
  10
325.89868
  20
198.67397
  0
VERTEX
  5
589
  8
Layer_0
  10
325.86765
  20
198.66095
  0
VERTEX
  5
58a
  8
Layer_0
  10
325.87164
  20
198.63696
  0
VERTEX
  5
58b
  8
Layer_0
  10
325.89465
  20
198.63297
  0
VERTEX
  5
58c
  8
Layer_0
  10
325.9097
  20
198.66495
  0
VERTEX
  5
58d
  8
Layer_0
  10
325.9097
  20
198.67397
  0
VERTEX
  5
58e
  8
Layer_0
  10
325.9097
  20
204.47636
  0
VERTEX
  5
58f
  8
Layer_0
  10
325.9097
  20
204.4874
  0
VERTEX
  5
590
  8
Layer_0
  10
325.89465
  20
204.51837
  0
VERTEX
  5
591
  8
Layer_0
  10
325.87164
  20
204.5134
  0
VERTEX
  5
592
  8
Layer_0
  10
325.86765
  20
204.49139
  0
VERTEX
  5
593
  8
Layer_0
  10
325.89868
  20
204.47636
  0
VERTEX
  5
594
  8
Layer_0
  10
325.9097
  20
204.47636
  0
VERTEX
  5
595
  8
Layer_0
  10
328.81036
  20
204.47636
  0
VERTEX
  5
596
  8
Layer_0
  10
328.82639
  20
204.47636
  0
VERTEX
  5
597
  8
Layer_0
  10
328.88037
  20
204.50539
  0
VERTEX
  5
598
  8
Layer_0
  10
328.91043
  20
204.55838
  0
VERTEX
  5
599
  8
Layer_0
  10
328.91043
  20
204.57541
  0
VERTEX
  5
59a
  8
Layer_0
  10
328.91043
  20
211.5771
  0
VERTEX
  5
59b
  8
Layer_0
  10
328.91043
  20
211.59509
  0
VERTEX
  5
59c
  8
Layer_0
  10
328.88135
  20
211.64813
  0
VERTEX
  5
59d
  8
Layer_0
  10
328.82736
  20
211.67613
  0
VERTEX
  5
59e
  8
Layer_0
  10
328.81137
  20
211.67613
  0
VERTEX
  5
59f
  8
Layer_0
  10
325.81064
  20
211.67613
  0
VERTEX
  5
5a0
  8
Layer_0
  10
225.78496
  20
211.67613
  0
VERTEX
  5
5a1
  8
Layer_0
  10
222.78423
  20
211.67613
  0
VERTEX
  5
5a2
  8
Layer_0
  10
222.76633
  20
211.67613
  0
VERTEX
  5
5a3
  8
Layer_0
  10
222.71402
  20
211.64813
  0
VERTEX
  5
5a4
  8
Layer_0
  10
222.685
  20
211.59509
  0
VERTEX
  5
5a5
  8
Layer_0
  10
222.685
  20
211.5771
  0
VERTEX
  5
5a6
  8
Layer_0
  10
222.685
  20
204.57541
  0
VERTEX
  5
5a7
  8
Layer_0
  10
222.685
  20
204.55838
  0
VERTEX
  5
5a8
  8
Layer_0
  10
222.71402
  20
204.50539
  0
VERTEX
  5
5a9
  8
Layer_0
  10
222.76633
  20
204.47636
  0
VERTEX
  5
5aa
  8
Layer_0
  10
222.78423
  20
204.47636
  0
VERTEX
  5
5ab
  8
Layer_0
  10
225.68573
  20
204.47636
  0
VERTEX
  5
5ac
  8
Layer_0
  10
225.69545
  20
204.47636
  0
VERTEX
  5
5ad
  8
Layer_0
  10
225.72714
  20
204.49139
  0
VERTEX
  5
5ae
  8
Layer_0
  10
225.72295
  20
204.5134
  0
VERTEX
  5
5af
  8
Layer_0
  10
225.69954
  20
204.51837
  0
VERTEX
  5
5b0
  8
Layer_0
  10
225.68573
  20
204.4874
  0
VERTEX
  5
5b1
  8
Layer_0
  10
225.68573
  20
204.47636
  0
VERTEX
  5
5b2
  8
Layer_0
  10
225.68573
  20
198.67397
  0
VERTEX
  5
5b3
  8
Layer_0
  10
225.68573
  20
198.66495
  0
VERTEX
  5
5b4
  8
Layer_0
  10
225.69954
  20
198.63297
  0
VERTEX
  5
5b5
  8
Layer_0
  10
225.72295
  20
198.63696
  0
VERTEX
  5
5b6
  8
Layer_0
  10
225.72714
  20
198.66095
  0
VERTEX
  5
5b7
  8
Layer_0
  10
225.69545
  20
198.67397
  0
VERTEX
  5
5b8
  8
Layer_0
  10
225.68573
  20
198.67397
  0
VERTEX
  5
5b9
  8
Layer_0
  10
222.78423
  20
198.67397
  0
VERTEX
  5
5ba
  8
Layer_0
  10
222.76633
  20
198.67397
  0
VERTEX
  5
5bb
  8
Layer_0
  10
222.71402
  20
198.64496
  0
VERTEX
  5
5bc
  8
Layer_0
  10
222.685
  20
198.59195
  0
VERTEX
  5
5bd
  8
Layer_0
  10
222.685
  20
198.57394
  0
VERTEX
  5
5be
  8
Layer_0
  10
222.685
  20
192.57249
  0
VERTEX
  5
5bf
  8
Layer_0
  10
222.685
  20
192.55548
  0
VERTEX
  5
5c0
  8
Layer_0
  10
222.71402
  20
192.50247
  0
VERTEX
  5
5c1
  8
Layer_0
  10
222.76633
  20
192.47345
  0
VERTEX
  5
5c2
  8
Layer_0
  10
222.78423
  20
192.47345
  0
VERTEX
  5
5c3
  8
Layer_0
  10
225.68573
  20
192.47345
  0
VERTEX
  5
5c4
  8
Layer_0
  10
225.69545
  20
192.47345
  0
VERTEX
  5
5c5
  8
Layer_0
  10
225.72714
  20
192.48846
  0
VERTEX
  5
5c6
  8
Layer_0
  10
225.72295
  20
192.51047
  0
VERTEX
  5
5c7
  8
Layer_0
  10
225.69954
  20
192.51547
  0
VERTEX
  5
5c8
  8
Layer_0
  10
225.68573
  20
192.48447
  0
VERTEX
  5
5c9
  8
Layer_0
  10
225.68573
  20
192.47345
  0
VERTEX
  5
5ca
  8
Layer_0
  10
225.68573
  20
186.67105
  0
VERTEX
  5
5cb
  8
Layer_0
  10
225.68573
  20
186.66205
  0
VERTEX
  5
5cc
  8
Layer_0
  10
225.69954
  20
186.63005
  0
VERTEX
  5
5cd
  8
Layer_0
  10
225.72295
  20
186.63403
  0
VERTEX
  5
5ce
  8
Layer_0
  10
225.72714
  20
186.65704
  0
VERTEX
  5
5cf
  8
Layer_0
  10
225.69545
  20
186.67105
  0
VERTEX
  5
5d0
  8
Layer_0
  10
225.68573
  20
186.67105
  0
VERTEX
  5
5d1
  8
Layer_0
  10
222.78423
  20
186.67105
  0
VERTEX
  5
5d2
  8
Layer_0
  10
222.76633
  20
186.67105
  0
VERTEX
  5
5d3
  8
Layer_0
  10
222.71402
  20
186.64206
  0
VERTEX
  5
5d4
  8
Layer_0
  10
222.685
  20
186.58902
  0
VERTEX
  5
5d5
  8
Layer_0
  10
222.685
  20
186.57103
  0
VERTEX
  5
5d6
  8
Layer_0
  10
222.685
  20
180.56958
  0
VERTEX
  5
5d7
  8
Layer_0
  10
222.685
  20
180.55295
  0
VERTEX
  5
5d8
  8
Layer_0
  10
222.71402
  20
180.49895
  0
VERTEX
  5
5d9
  8
Layer_0
  10
222.76633
  20
180.47005
  0
VERTEX
  5
5da
  8
Layer_0
  10
222.78423
  20
180.47005
  0
VERTEX
  5
5db
  8
Layer_0
  10
225.68573
  20
180.47005
  0
VERTEX
  5
5dc
  8
Layer_0
  10
225.69545
  20
180.47005
  0
VERTEX
  5
5dd
  8
Layer_0
  10
225.72714
  20
180.48524
  0
VERTEX
  5
5de
  8
Layer_0
  10
225.72295
  20
180.50745
  0
VERTEX
  5
5df
  8
Layer_0
  10
225.69954
  20
180.51276
  0
VERTEX
  5
5e0
  8
Layer_0
  10
225.68573
  20
180.48134
  0
VERTEX
  5
5e1
  8
Layer_0
  10
225.68573
  20
180.47005
  0
VERTEX
  5
5e2
  8
Layer_0
  10
225.68573
  20
174.66864
  0
VERTEX
  5
5e3
  8
Layer_0
  10
225.68573
  20
174.65912
  0
VERTEX
  5
5e4
  8
Layer_0
  10
225.69954
  20
174.62732
  0
VERTEX
  5
5e5
  8
Layer_0
  10
225.72295
  20
174.63123
  0
VERTEX
  5
5e6
  8
Layer_0
  10
225.72714
  20
174.65485
  0
VERTEX
  5
5e7
  8
Layer_0
  10
225.69545
  20
174.66864
  0
VERTEX
  5
5e8
  8
Layer_0
  10
225.68573
  20
174.66864
  0
VERTEX
  5
5e9
  8
Layer_0
  10
222.78423
  20
174.66864
  0
VERTEX
  5
5ea
  8
Layer_0
  10
222.76633
  20
174.66864
  0
VERTEX
  5
5eb
  8
Layer_0
  10
222.71402
  20
174.63972
  0
VERTEX
  5
5ec
  8
Layer_0
  10
222.685
  20
174.58571
  0
VERTEX
  5
5ed
  8
Layer_0
  10
222.685
  20
174.56812
  0
VERTEX
  5
5ee
  8
Layer_0
  10
222.685
  20
168.56656
  0
VERTEX
  5
5ef
  8
Layer_0
  10
222.685
  20
168.54996
  0
VERTEX
  5
5f0
  8
Layer_0
  10
222.71402
  20
168.49634
  0
VERTEX
  5
5f1
  8
Layer_0
  10
222.76633
  20
168.46744
  0
VERTEX
  5
5f2
  8
Layer_0
  10
222.78423
  20
168.46744
  0
VERTEX
  5
5f3
  8
Layer_0
  10
225.68573
  20
168.46744
  0
VERTEX
  5
5f4
  8
Layer_0
  10
225.69545
  20
168.46744
  0
VERTEX
  5
5f5
  8
Layer_0
  10
225.72714
  20
168.48264
  0
VERTEX
  5
5f6
  8
Layer_0
  10
225.72295
  20
168.50443
  0
VERTEX
  5
5f7
  8
Layer_0
  10
225.69954
  20
168.51013
  0
VERTEX
  5
5f8
  8
Layer_0
  10
225.68573
  20
168.47833
  0
SEQEND
  0
POLYLINE
  5
5fa
  8
Layer_0
  62
0
  66
1
  10
0
  20
0
  30
0
  0
VERTEX
  5
5fa
  8
Layer_0
  10
328.66138
  20
307.30081
  0
VERTEX
  5
5fb
  8
Layer_0
  10
325.86066
  20
307.30081
  0
VERTEX
  5
5fc
  8
Layer_0
  10
325.84967
  20
307.30081
  0
VERTEX
  5
5fd
  8
Layer_0
  10
325.81769
  20
307.3158
  0
VERTEX
  5
5fe
  8
Layer_0
  10
325.82166
  20
307.33783
  0
VERTEX
  5
5ff
  8
Layer_0
  10
325.84567
  20
307.34277
  0
VERTEX
  5
600
  8
Layer_0
  10
325.86066
  20
307.31183
  0
VERTEX
  5
601
  8
Layer_0
  10
325.86066
  20
307.30081
  0
VERTEX
  5
602
  8
Layer_0
  10
325.86066
  20
301.49841
  0
VERTEX
  5
603
  8
Layer_0
  10
325.86066
  20
301.48938
  0
VERTEX
  5
604
  8
Layer_0
  10
325.84567
  20
301.45737
  0
VERTEX
  5
605
  8
Layer_0
  10
325.82166
  20
301.4614
  0
VERTEX
  5
606
  8
Layer_0
  10
325.81769
  20
301.48541
  0
VERTEX
  5
607
  8
Layer_0
  10
325.84967
  20
301.49841
  0
VERTEX
  5
608
  8
Layer_0
  10
325.86066
  20
301.49841
  0
VERTEX
  5
609
  8
Layer_0
  10
328.66138
  20
301.49841
  0
SEQEND
  0
POLYLINE
  5
60b
  8
Layer_0
  62
0
  66
1
  10
0
  20
0
  30
0
  0
VERTEX
  5
60b
  8
Layer_0
  10
328.66138
  20
295.2959
  0
VERTEX
  5
60c
  8
Layer_0
  10
325.86066
  20
295.2959
  0
VERTEX
  5
60d
  8
Layer_0
  10
325.84967
  20
295.2959
  0
VERTEX
  5
60e
  8
Layer_0
  10
325.81769
  20
295.31088
  0
VERTEX
  5
60f
  8
Layer_0
  10
325.82166
  20
295.3349
  0
VERTEX
  5
610
  8
Layer_0
  10
325.84567
  20
295.33887
  0
VERTEX
  5
611
  8
Layer_0
  10
325.86066
  20
295.30688
  0
VERTEX
  5
612
  8
Layer_0
  10
325.86066
  20
295.2959
  0
VERTEX
  5
613
  8
Layer_0
  10
325.86066
  20
289.49646
  0
VERTEX
  5
614
  8
Layer_0
  10
325.86066
  20
289.48648
  0
VERTEX
  5
615
  8
Layer_0
  10
325.84567
  20
289.45447
  0
VERTEX
  5
616
  8
Layer_0
  10
325.82166
  20
289.4585
  0
VERTEX
  5
617
  8
Layer_0
  10
325.81769
  20
289.48248
  0
VERTEX
  5
618
  8
Layer_0
  10
325.84967
  20
289.49646
  0
VERTEX
  5
619
  8
Layer_0
  10
325.86066
  20
289.49646
  0
VERTEX
  5
61a
  8
Layer_0
  10
328.66138
  20
289.49646
  0
SEQEND
  0
POLYLINE
  5
61c
  8
Layer_0
  62
0
  66
1
  10
0
  20
0
  30
0
  0
VERTEX
  5
61c
  8
Layer_0
  10
328.66138
  20
283.29395
  0
VERTEX
  5
61d
  8
Layer_0
  10
325.86066
  20
283.29395
  0
VERTEX
  5
61e
  8
Layer_0
  10
325.84967
  20
283.29395
  0
VERTEX
  5
61f
  8
Layer_0
  10
325.81769
  20
283.30899
  0
VERTEX
  5
620
  8
Layer_0
  10
325.82166
  20
283.332
  0
VERTEX
  5
621
  8
Layer_0
  10
325.84567
  20
283.33597
  0
VERTEX
  5
622
  8
Layer_0
  10
325.86066
  20
283.30396
  0
VERTEX
  5
623
  8
Layer_0
  10
325.86066
  20
283.29395
  0
VERTEX
  5
624
  8
Layer_0
  10
325.86066
  20
277.49158
  0
VERTEX
  5
625
  8
Layer_0
  10
325.86066
  20
277.48254
  0
VERTEX
  5
626
  8
Layer_0
  10
325.84567
  20
277.45053
  0
VERTEX
  5
627
  8
Layer_0
  10
325.82166
  20
277.45456
  0
VERTEX
  5
628
  8
Layer_0
  10
325.81769
  20
277.47757
  0
VERTEX
  5
629
  8
Layer_0
  10
325.84967
  20
277.49158
  0
VERTEX
  5
62a
  8
Layer_0
  10
325.86066
  20
277.49158
  0
VERTEX
  5
62b
  8
Layer_0
  10
328.66138
  20
277.49158
  0
SEQEND
  0
POLYLINE
  5
62d
  8
Layer_0
  62
0
  66
1
  10
0
  20
0
  30
0
  0
VERTEX
  5
62d
  8
Layer_0
  10
328.66138
  20
271.29205
  0
VERTEX
  5
62e
  8
Layer_0
  10
325.86066
  20
271.29205
  0
VERTEX
  5
62f
  8
Layer_0
  10
325.84967
  20
271.29205
  0
VERTEX
  5
630
  8
Layer_0
  10
325.81769
  20
271.30707
  0
VERTEX
  5
631
  8
Layer_0
  10
325.82166
  20
271.32907
  0
VERTEX
  5
632
  8
Layer_0
  10
325.84567
  20
271.33508
  0
VERTEX
  5
633
  8
Layer_0
  10
325.86066
  20
271.30304
  0
VERTEX
  5
634
  8
Layer_0
  10
325.86066
  20
271.29205
  0
VERTEX
  5
635
  8
Layer_0
  10
325.86066
  20
265.48965
  0
VERTEX
  5
636
  8
Layer_0
  10
325.86066
  20
265.48065
  0
VERTEX
  5
637
  8
Layer_0
  10
325.84567
  20
265.44864
  0
VERTEX
  5
638
  8
Layer_0
  10
325.82166
  20
265.45264
  0
VERTEX
  5
639
  8
Layer_0
  10
325.81769
  20
265.47665
  0
VERTEX
  5
63a
  8
Layer_0
  10
325.84967
  20
265.48965
  0
VERTEX
  5
63b
  8
Layer_0
  10
325.86066
  20
265.48965
  0
VERTEX
  5
63c
  8
Layer_0
  10
328.66138
  20
265.48965
  0
SEQEND
  0
POLYLINE
  5
63e
  8
Layer_0
  62
0
  66
1
  10
0
  20
0
  30
0
  0
VERTEX
  5
63e
  8
Layer_0
  10
328.66138
  20
259.28714
  0
VERTEX
  5
63f
  8
Layer_0
  10
325.86066
  20
259.28714
  0
VERTEX
  5
640
  8
Layer_0
  10
325.84967
  20
259.28714
  0
VERTEX
  5
641
  8
Layer_0
  10
325.81769
  20
259.30313
  0
VERTEX
  5
642
  8
Layer_0
  10
325.82166
  20
259.32617
  0
VERTEX
  5
643
  8
Layer_0
  10
325.84567
  20
259.33014
  0
VERTEX
  5
644
  8
Layer_0
  10
325.86066
  20
259.29913
  0
VERTEX
  5
645
  8
Layer_0
  10
325.86066
  20
259.28714
  0
VERTEX
  5
646
  8
Layer_0
  10
325.86066
  20
253.48773
  0
VERTEX
  5
647
  8
Layer_0
  10
325.86066
  20
253.47774
  0
VERTEX
  5
648
  8
Layer_0
  10
325.84567
  20
253.44572
  0
VERTEX
  5
649
  8
Layer_0
  10
325.82166
  20
253.44972
  0
VERTEX
  5
64a
  8
Layer_0
  10
325.81769
  20
253.47374
  0
VERTEX
  5
64b
  8
Layer_0
  10
325.84967
  20
253.48773
  0
VERTEX
  5
64c
  8
Layer_0
  10
325.86066
  20
253.48773
  0
VERTEX
  5
64d
  8
Layer_0
  10
328.66138
  20
253.48773
  0
SEQEND
  0
POLYLINE
  5
64f
  8
Layer_0
  62
0
  66
1
  10
0
  20
0
  30
0
  0
VERTEX
  5
64f
  8
Layer_0
  10
328.66138
  20
247.28522
  0
VERTEX
  5
650
  8
Layer_0
  10
325.86066
  20
247.28522
  0
VERTEX
  5
651
  8
Layer_0
  10
325.84967
  20
247.28522
  0
VERTEX
  5
652
  8
Layer_0
  10
325.81769
  20
247.30022
  0
VERTEX
  5
653
  8
Layer_0
  10
325.82166
  20
247.32324
  0
VERTEX
  5
654
  8
Layer_0
  10
325.84567
  20
247.32724
  0
VERTEX
  5
655
  8
Layer_0
  10
325.86066
  20
247.29623
  0
VERTEX
  5
656
  8
Layer_0
  10
325.86066
  20
247.28522
  0
VERTEX
  5
657
  8
Layer_0
  10
325.86066
  20
241.48282
  0
VERTEX
  5
658
  8
Layer_0
  10
325.86066
  20
241.47382
  0
VERTEX
  5
659
  8
Layer_0
  10
325.84567
  20
241.44182
  0
VERTEX
  5
65a
  8
Layer_0
  10
325.82166
  20
241.44582
  0
VERTEX
  5
65b
  8
Layer_0
  10
325.81769
  20
241.46881
  0
VERTEX
  5
65c
  8
Layer_0
  10
325.84967
  20
241.48282
  0
VERTEX
  5
65d
  8
Layer_0
  10
325.86066
  20
241.48282
  0
VERTEX
  5
65e
  8
Layer_0
  10
328.66138
  20
241.48282
  0
SEQEND
  0
POLYLINE
  5
660
  8
Layer_0
  62
0
  66
1
  10
0
  20
0
  30
0
  0
VERTEX
  5
660
  8
Layer_0
  10
328.66138
  20
235.2823
  0
VERTEX
  5
661
  8
Layer_0
  10
325.86066
  20
235.2823
  0
VERTEX
  5
662
  8
Layer_0
  10
325.84967
  20
235.2823
  0
VERTEX
  5
663
  8
Layer_0
  10
325.81769
  20
235.2973
  0
VERTEX
  5
664
  8
Layer_0
  10
325.82166
  20
235.32033
  0
VERTEX
  5
665
  8
Layer_0
  10
325.84567
  20
235.32433
  0
VERTEX
  5
666
  8
Layer_0
  10
325.86066
  20
235.29231
  0
VERTEX
  5
667
  8
Layer_0
  10
325.86066
  20
235.2823
  0
VERTEX
  5
668
  8
Layer_0
  10
325.86066
  20
229.48091
  0
VERTEX
  5
669
  8
Layer_0
  10
325.86066
  20
229.4709
  0
VERTEX
  5
66a
  8
Layer_0
  10
325.84567
  20
229.4389
  0
VERTEX
  5
66b
  8
Layer_0
  10
325.82166
  20
229.4429
  0
VERTEX
  5
66c
  8
Layer_0
  10
325.81769
  20
229.4669
  0
VERTEX
  5
66d
  8
Layer_0
  10
325.84967
  20
229.48091
  0
VERTEX
  5
66e
  8
Layer_0
  10
325.86066
  20
229.48091
  0
VERTEX
  5
66f
  8
Layer_0
  10
328.66138
  20
229.48091
  0
SEQEND
  0
POLYLINE
  5
671
  8
Layer_0
  62
0
  66
1
  10
0
  20
0
  30
0
  0
VERTEX
  5
671
  8
Layer_0
  10
312.86752
  20
205.63866
  0
VERTEX
  5
672
  8
Layer_0
  10
312.89151
  20
205.63565
  0
VERTEX
  5
673
  8
Layer_0
  10
312.90652
  20
205.66666
  0
VERTEX
  5
674
  8
Layer_0
  10
312.90652
  20
205.67667
  0
VERTEX
  5
675
  8
Layer_0
  10
312.90652
  20
208.47534
  0
VERTEX
  5
676
  8
Layer_0
  10
312.90652
  20
208.48735
  0
VERTEX
  5
677
  8
Layer_0
  10
312.89151
  20
208.51837
  0
VERTEX
  5
678
  8
Layer_0
  10
312.86752
  20
208.51437
  0
VERTEX
  5
679
  8
Layer_0
  10
312.86349
  20
208.49135
  0
VERTEX
  5
67a
  8
Layer_0
  10
312.89551
  20
208.47534
  0
VERTEX
  5
67b
  8
Layer_0
  10
312.90652
  20
208.47534
  0
VERTEX
  5
67c
  8
Layer_0
  10
315.80823
  20
208.47534
  0
VERTEX
  5
67d
  8
Layer_0
  10
318.70792
  20
208.47534
  0
VERTEX
  5
67e
  8
Layer_0
  10
318.71793
  20
208.47534
  0
VERTEX
  5
67f
  8
Layer_0
  10
318.74896
  20
208.49135
  0
VERTEX
  5
680
  8
Layer_0
  10
318.74493
  20
208.51437
  0
VERTEX
  5
681
  8
Layer_0
  10
318.72192
  20
208.51837
  0
VERTEX
  5
682
  8
Layer_0
  10
318.70792
  20
208.48735
  0
VERTEX
  5
683
  8
Layer_0
  10
318.70792
  20
208.47534
  0
VERTEX
  5
684
  8
Layer_0
  10
318.70792
  20
205.67667
  0
VERTEX
  5
685
  8
Layer_0
  10
318.70792
  20
205.66666
  0
VERTEX
  5
686
  8
Layer_0
  10
318.72192
  20
205.63565
  0
VERTEX
  5
687
  8
Layer_0
  10
318.74493
  20
205.63866
  0
VERTEX
  5
688
  8
Layer_0
  10
318.74896
  20
205.66266
  0
VERTEX
  5
689
  8
Layer_0
  10
318.71793
  20
205.67667
  0
VERTEX
  5
68a
  8
Layer_0
  10
318.70792
  20
205.67667
  0
VERTEX
  5
68b
  8
Layer_0
  10
312.90652
  20
205.67667
  0
VERTEX
  5
68c
  8
Layer_0
  10
312.89551
  20
205.67667
  0
VERTEX
  5
68d
  8
Layer_0
  10
312.86349
  20
205.66266
  0
VERTEX
  5
68e
  8
Layer_0
  10
312.86752
  20
205.63866
  0
SEQEND
  0
POLYLINE
  5
690
  8
Layer_0
  62
0
  66
1
  10
0
  20
0
  30
0
  0
VERTEX
  5
690
  8
Layer_0
  10
328.67538
  20
321.50327
  0
VERTEX
  5
691
  8
Layer_0
  10
325.66064
  20
321.50327
  0
VERTEX
  5
692
  8
Layer_0
  10
314.65897
  20
321.50327
  0
VERTEX
  5
693
  8
Layer_0
  10
314.64096
  20
321.50327
  0
VERTEX
  5
694
  8
Layer_0
  10
314.58691
  20
321.47424
  0
VERTEX
  5
695
  8
Layer_0
  10
314.55792
  20
321.42023
  0
VERTEX
  5
696
  8
Layer_0
  10
314.55792
  20
321.40323
  0
VERTEX
  5
697
  8
Layer_0
  10
314.55792
  20
318.50253
  0
VERTEX
  5
698
  8
Layer_0
  10
314.55792
  20
318.49249
  0
VERTEX
  5
699
  8
Layer_0
  10
314.57196
  20
318.46149
  0
VERTEX
  5
69a
  8
Layer_0
  10
314.59494
  20
318.46555
  0
VERTEX
  5
69b
  8
Layer_0
  10
314.59995
  20
318.48853
  0
VERTEX
  5
69c
  8
Layer_0
  10
314.56793
  20
318.50253
  0
VERTEX
  5
69d
  8
Layer_0
  10
314.55792
  20
318.50253
  0
VERTEX
  5
69e
  8
Layer_0
  10
308.75653
  20
318.50253
  0
VERTEX
  5
69f
  8
Layer_0
  10
308.74551
  20
318.50253
  0
VERTEX
  5
6a0
  8
Layer_0
  10
308.7135
  20
318.48853
  0
VERTEX
  5
6a1
  8
Layer_0
  10
308.71951
  20
318.46555
  0
VERTEX
  5
6a2
  8
Layer_0
  10
308.74152
  20
318.46149
  0
VERTEX
  5
6a3
  8
Layer_0
  10
308.75653
  20
318.49249
  0
VERTEX
  5
6a4
  8
Layer_0
  10
308.75653
  20
318.50253
  0
VERTEX
  5
6a5
  8
Layer_0
  10
308.75653
  20
321.40323
  0
VERTEX
  5
6a6
  8
Layer_0
  10
308.75653
  20
321.42023
  0
VERTEX
  5
6a7
  8
Layer_0
  10
308.7265
  20
321.47424
  0
VERTEX
  5
6a8
  8
Layer_0
  10
308.67352
  20
321.50327
  0
VERTEX
  5
6a9
  8
Layer_0
  10
308.6575
  20
321.50327
  0
VERTEX
  5
6aa
  8
Layer_0
  10
302.65405
  20
321.50327
  0
VERTEX
  5
6ab
  8
Layer_0
  10
302.63605
  20
321.50327
  0
VERTEX
  5
6ac
  8
Layer_0
  10
302.58401
  20
321.47424
  0
VERTEX
  5
6ad
  8
Layer_0
  10
302.55502
  20
321.42023
  0
VERTEX
  5
6ae
  8
Layer_0
  10
302.55502
  20
321.40323
  0
VERTEX
  5
6af
  8
Layer_0
  10
302.55502
  20
318.50253
  0
VERTEX
  5
6b0
  8
Layer_0
  10
302.55502
  20
318.49249
  0
VERTEX
  5
6b1
  8
Layer_0
  10
302.56903
  20
318.46149
  0
VERTEX
  5
6b2
  8
Layer_0
  10
302.59201
  20
318.46555
  0
VERTEX
  5
6b3
  8
Layer_0
  10
302.59604
  20
318.48853
  0
VERTEX
  5
6b4
  8
Layer_0
  10
302.56503
  20
318.50253
  0
VERTEX
  5
6b5
  8
Layer_0
  10
302.55502
  20
318.50253
  0
VERTEX
  5
6b6
  8
Layer_0
  10
296.75342
  20
318.50253
  0
VERTEX
  5
6b7
  8
Layer_0
  10
296.74237
  20
318.50253
  0
VERTEX
  5
6b8
  8
Layer_0
  10
296.71069
  20
318.48853
  0
VERTEX
  5
6b9
  8
Layer_0
  10
296.7149
  20
318.46555
  0
VERTEX
  5
6ba
  8
Layer_0
  10
296.73822
  20
318.46149
  0
VERTEX
  5
6bb
  8
Layer_0
  10
296.75342
  20
318.49249
  0
VERTEX
  5
6bc
  8
Layer_0
  10
296.75342
  20
318.50253
  0
VERTEX
  5
6bd
  8
Layer_0
  10
296.75342
  20
321.40323
  0
VERTEX
  5
6be
  8
Layer_0
  10
296.75342
  20
321.42023
  0
VERTEX
  5
6bf
  8
Layer_0
  10
296.72339
  20
321.47424
  0
VERTEX
  5
6c0
  8
Layer_0
  10
296.66937
  20
321.50327
  0
VERTEX
  5
6c1
  8
Layer_0
  10
296.65277
  20
321.50327
  0
VERTEX
  5
6c2
  8
Layer_0
  10
290.65131
  20
321.50327
  0
VERTEX
  5
6c3
  8
Layer_0
  10
290.63373
  20
321.50327
  0
VERTEX
  5
6c4
  8
Layer_0
  10
290.58112
  20
321.47424
  0
VERTEX
  5
6c5
  8
Layer_0
  10
290.55219
  20
321.42023
  0
VERTEX
  5
6c6
  8
Layer_0
  10
290.55219
  20
321.40323
  0
VERTEX
  5
6c7
  8
Layer_0
  10
290.55219
  20
318.50253
  0
VERTEX
  5
6c8
  8
Layer_0
  10
290.55219
  20
318.49249
  0
VERTEX
  5
6c9
  8
Layer_0
  10
290.56589
  20
318.46149
  0
VERTEX
  5
6ca
  8
Layer_0
  10
290.5896
  20
318.46555
  0
VERTEX
  5
6cb
  8
Layer_0
  10
290.59341
  20
318.48853
  0
VERTEX
  5
6cc
  8
Layer_0
  10
290.56201
  20
318.50253
  0
VERTEX
  5
6cd
  8
Layer_0
  10
290.55219
  20
318.50253
  0
VERTEX
  5
6ce
  8
Layer_0
  10
284.7507
  20
318.50253
  0
VERTEX
  5
6cf
  8
Layer_0
  10
284.73978
  20
318.50253
  0
VERTEX
  5
6d0
  8
Layer_0
  10
284.7081
  20
318.48853
  0
VERTEX
  5
6d1
  8
Layer_0
  10
284.71188
  20
318.46555
  0
VERTEX
  5
6d2
  8
Layer_0
  10
284.7356
  20
318.46149
  0
VERTEX
  5
6d3
  8
Layer_0
  10
284.7507
  20
318.49249
  0
VERTEX
  5
6d4
  8
Layer_0
  10
284.7507
  20
318.50253
  0
VERTEX
  5
6d5
  8
Layer_0
  10
284.7507
  20
321.40323
  0
VERTEX
  5
6d6
  8
Layer_0
  10
284.7507
  20
321.42023
  0
VERTEX
  5
6d7
  8
Layer_0
  10
284.7204
  20
321.47424
  0
VERTEX
  5
6d8
  8
Layer_0
  10
284.66675
  20
321.50327
  0
VERTEX
  5
6d9
  8
Layer_0
  10
284.65015
  20
321.50327
  0
VERTEX
  5
6da
  8
Layer_0
  10
278.65012
  20
321.50327
  0
VERTEX
  5
6db
  8
Layer_0
  10
278.63208
  20
321.50327
  0
VERTEX
  5
6dc
  8
Layer_0
  10
278.57849
  20
321.47424
  0
VERTEX
  5
6dd
  8
Layer_0
  10
278.5495
  20
321.42023
  0
VERTEX
  5
6de
  8
Layer_0
  10
278.5495
  20
321.40323
  0
VERTEX
  5
6df
  8
Layer_0
  10
278.5495
  20
318.50253
  0
VERTEX
  5
6e0
  8
Layer_0
  10
278.5495
  20
318.49249
  0
VERTEX
  5
6e1
  8
Layer_0
  10
278.56329
  20
318.46149
  0
VERTEX
  5
6e2
  8
Layer_0
  10
278.58661
  20
318.46555
  0
VERTEX
  5
6e3
  8
Layer_0
  10
278.59079
  20
318.48853
  0
VERTEX
  5
6e4
  8
Layer_0
  10
278.55908
  20
318.50253
  0
VERTEX
  5
6e5
  8
Layer_0
  10
278.5495
  20
318.50253
  0
VERTEX
  5
6e6
  8
Layer_0
  10
272.7478
  20
318.50253
  0
VERTEX
  5
6e7
  8
Layer_0
  10
272.73676
  20
318.50253
  0
VERTEX
  5
6e8
  8
Layer_0
  10
272.70508
  20
318.48853
  0
VERTEX
  5
6e9
  8
Layer_0
  10
272.71066
  20
318.46555
  0
VERTEX
  5
6ea
  8
Layer_0
  10
272.73257
  20
318.46149
  0
VERTEX
  5
6eb
  8
Layer_0
  10
272.7478
  20
318.49249
  0
VERTEX
  5
6ec
  8
Layer_0
  10
272.7478
  20
318.50253
  0
VERTEX
  5
6ed
  8
Layer_0
  10
272.7478
  20
321.40323
  0
VERTEX
  5
6ee
  8
Layer_0
  10
272.7478
  20
321.42023
  0
VERTEX
  5
6ef
  8
Layer_0
  10
272.71738
  20
321.47424
  0
VERTEX
  5
6f0
  8
Layer_0
  10
272.66516
  20
321.50327
  0
VERTEX
  5
6f1
  8
Layer_0
  10
272.64856
  20
321.50327
  0
VERTEX
  5
6f2
  8
Layer_0
  10
266.64569
  20
321.50327
  0
VERTEX
  5
6f3
  8
Layer_0
  10
266.62769
  20
321.50327
  0
VERTEX
  5
6f4
  8
Layer_0
  10
266.57547
  20
321.47424
  0
VERTEX
  5
6f5
  8
Layer_0
  10
266.54645
  20
321.42023
  0
VERTEX
  5
6f6
  8
Layer_0
  10
266.54645
  20
321.40323
  0
VERTEX
  5
6f7
  8
Layer_0
  10
266.54645
  20
318.50253
  0
VERTEX
  5
6f8
  8
Layer_0
  10
266.54645
  20
318.49249
  0
VERTEX
  5
6f9
  8
Layer_0
  10
266.5603
  20
318.46149
  0
VERTEX
  5
6fa
  8
Layer_0
  10
266.58359
  20
318.46555
  0
VERTEX
  5
6fb
  8
Layer_0
  10
266.5878
  20
318.48853
  0
VERTEX
  5
6fc
  8
Layer_0
  10
266.55606
  20
318.50253
  0
VERTEX
  5
6fd
  8
Layer_0
  10
266.54645
  20
318.50253
  0
VERTEX
  5
6fe
  8
Layer_0
  10
260.74506
  20
318.50253
  0
VERTEX
  5
6ff
  8
Layer_0
  10
260.73376
  20
318.50253
  0
VERTEX
  5
700
  8
Layer_0
  10
260.70206
  20
318.48853
  0
VERTEX
  5
701
  8
Layer_0
  10
260.70627
  20
318.46555
  0
VERTEX
  5
702
  8
Layer_0
  10
260.72995
  20
318.46149
  0
VERTEX
  5
703
  8
Layer_0
  10
260.74506
  20
318.49249
  0
VERTEX
  5
704
  8
Layer_0
  10
260.74506
  20
318.50253
  0
VERTEX
  5
705
  8
Layer_0
  10
260.74506
  20
321.40323
  0
VERTEX
  5
706
  8
Layer_0
  10
260.74506
  20
321.42023
  0
VERTEX
  5
707
  8
Layer_0
  10
260.71475
  20
321.47424
  0
VERTEX
  5
708
  8
Layer_0
  10
260.66074
  20
321.50327
  0
VERTEX
  5
709
  8
Layer_0
  10
260.64413
  20
321.50327
  0
VERTEX
  5
70a
  8
Layer_0
  10
254.64299
  20
321.50327
  0
VERTEX
  5
70b
  8
Layer_0
  10
254.62498
  20
321.50327
  0
VERTEX
  5
70c
  8
Layer_0
  10
254.57248
  20
321.47424
  0
VERTEX
  5
70d
  8
Layer_0
  10
254.54346
  20
321.42023
  0
VERTEX
  5
70e
  8
Layer_0
  10
254.54346
  20
321.40323
  0
VERTEX
  5
70f
  8
Layer_0
  10
254.54346
  20
318.50253
  0
VERTEX
  5
710
  8
Layer_0
  10
254.54346
  20
318.49249
  0
VERTEX
  5
711
  8
Layer_0
  10
254.55727
  20
318.46149
  0
VERTEX
  5
712
  8
Layer_0
  10
254.58087
  20
318.46555
  0
VERTEX
  5
713
  8
Layer_0
  10
254.58517
  20
318.48853
  0
VERTEX
  5
714
  8
Layer_0
  10
254.55338
  20
318.50253
  0
VERTEX
  5
715
  8
Layer_0
  10
254.54346
  20
318.50253
  0
VERTEX
  5
716
  8
Layer_0
  10
248.74205
  20
318.50253
  0
VERTEX
  5
717
  8
Layer_0
  10
248.73116
  20
318.50253
  0
VERTEX
  5
718
  8
Layer_0
  10
248.69936
  20
318.48853
  0
VERTEX
  5
719
  8
Layer_0
  10
248.70366
  20
318.46555
  0
VERTEX
  5
71a
  8
Layer_0
  10
248.72694
  20
318.46149
  0
VERTEX
  5
71b
  8
Layer_0
  10
248.74205
  20
318.49249
  0
VERTEX
  5
71c
  8
Layer_0
  10
248.74205
  20
318.50253
  0
VERTEX
  5
71d
  8
Layer_0
  10
248.74205
  20
321.40323
  0
VERTEX
  5
71e
  8
Layer_0
  10
248.74205
  20
321.42023
  0
VERTEX
  5
71f
  8
Layer_0
  10
248.71175
  20
321.47424
  0
VERTEX
  5
720
  8
Layer_0
  10
248.65814
  20
321.50327
  0
VERTEX
  5
721
  8
Layer_0
  10
248.64154
  20
321.50327
  0
VERTEX
  5
722
  8
Layer_0
  10
242.63995
  20
321.50327
  0
VERTEX
  5
723
  8
Layer_0
  10
242.62207
  20
321.50327
  0
VERTEX
  5
724
  8
Layer_0
  10
242.56975
  20
321.47424
  0
VERTEX
  5
725
  8
Layer_0
  10
242.54083
  20
321.42023
  0
VERTEX
  5
726
  8
Layer_0
  10
242.54083
  20
321.40323
  0
VERTEX
  5
727
  8
Layer_0
  10
242.54083
  20
318.50253
  0
VERTEX
  5
728
  8
Layer_0
  10
242.54083
  20
318.49249
  0
VERTEX
  5
729
  8
Layer_0
  10
242.55464
  20
318.46149
  0
VERTEX
  5
72a
  8
Layer_0
  10
242.57796
  20
318.46555
  0
VERTEX
  5
72b
  8
Layer_0
  10
242.58214
  20
318.48853
  0
VERTEX
  5
72c
  8
Layer_0
  10
242.55034
  20
318.50253
  0
VERTEX
  5
72d
  8
Layer_0
  10
242.54083
  20
318.50253
  0
VERTEX
  5
72e
  8
Layer_0
  10
236.73914
  20
318.50253
  0
VERTEX
  5
72f
  8
Layer_0
  10
236.72812
  20
318.50253
  0
VERTEX
  5
730
  8
Layer_0
  10
236.69644
  20
318.48853
  0
VERTEX
  5
731
  8
Layer_0
  10
236.70062
  20
318.46555
  0
VERTEX
  5
732
  8
Layer_0
  10
236.72403
  20
318.46149
  0
VERTEX
  5
733
  8
Layer_0
  10
236.73914
  20
318.49249
  0
VERTEX
  5
734
  8
Layer_0
  10
236.73914
  20
318.50253
  0
VERTEX
  5
735
  8
Layer_0
  10
236.73914
  20
321.40323
  0
VERTEX
  5
736
  8
Layer_0
  10
236.73914
  20
321.42023
  0
VERTEX
  5
737
  8
Layer_0
  10
236.70883
  20
321.47424
  0
VERTEX
  5
738
  8
Layer_0
  10
236.65511
  20
321.50327
  0
VERTEX
  5
739
  8
Layer_0
  10
236.63863
  20
321.50327
  0
VERTEX
  5
73a
  8
Layer_0
  10
225.63644
  20
321.50327
  0
VERTEX
  5
73b
  8
Layer_0
  10
222.62051
  20
321.50327
  0
VERTEX
  5
73c
  8
Layer_0
  10
222.62051
  20
307.30273
  0
VERTEX
  5
73d
  8
Layer_0
  10
222.63571
  20
307.30081
  0
VERTEX
  5
73e
  8
Layer_0
  10
225.4366
  20
307.30081
  0
VERTEX
  5
73f
  8
Layer_0
  10
225.44618
  20
307.30081
  0
VERTEX
  5
740
  8
Layer_0
  10
225.47791
  20
307.3158
  0
VERTEX
  5
741
  8
Layer_0
  10
225.47371
  20
307.33783
  0
VERTEX
  5
742
  8
Layer_0
  10
225.4503
  20
307.34277
  0
VERTEX
  5
743
  8
Layer_0
  10
225.4366
  20
307.31183
  0
VERTEX
  5
744
  8
Layer_0
  10
225.4366
  20
307.30081
  0
VERTEX
  5
745
  8
Layer_0
  10
225.4366
  20
301.49841
  0
VERTEX
  5
746
  8
Layer_0
  10
225.4366
  20
301.48938
  0
VERTEX
  5
747
  8
Layer_0
  10
225.4503
  20
301.45737
  0
VERTEX
  5
748
  8
Layer_0
  10
225.47371
  20
301.4614
  0
VERTEX
  5
749
  8
Layer_0
  10
225.47791
  20
301.48541
  0
VERTEX
  5
74a
  8
Layer_0
  10
225.44618
  20
301.49841
  0
VERTEX
  5
74b
  8
Layer_0
  10
225.4366
  20
301.49841
  0
VERTEX
  5
74c
  8
Layer_0
  10
222.63571
  20
301.49841
  0
VERTEX
  5
74d
  8
Layer_0
  10
222.6246
  20
301.49841
  0
VERTEX
  5
74e
  8
Layer_0
  10
222.593
  20
301.48541
  0
VERTEX
  5
74f
  8
Layer_0
  10
222.59709
  20
301.4614
  0
VERTEX
  5
750
  8
Layer_0
  10
222.62051
  20
301.45737
  0
VERTEX
  5
751
  8
Layer_0
  10
222.63571
  20
301.48938
  0
VERTEX
  5
752
  8
Layer_0
  10
222.63571
  20
301.49841
  0
SEQEND
  0
POLYLINE
  5
754
  8
Layer_0
  62
0
  66
1
  10
0
  20
0
  30
0
  0
VERTEX
  5
754
  8
Layer_0
  10
328.67538
  20
215.27744
  0
VERTEX
  5
755
  8
Layer_0
  10
325.66064
  20
215.27744
  0
VERTEX
  5
756
  8
Layer_0
  10
314.65897
  20
215.27744
  0
VERTEX
  5
757
  8
Layer_0
  10
314.64096
  20
215.27744
  0
VERTEX
  5
758
  8
Layer_0
  10
314.58691
  20
215.30847
  0
VERTEX
  5
759
  8
Layer_0
  10
314.55792
  20
215.36147
  0
VERTEX
  5
75a
  8
Layer_0
  10
314.55792
  20
215.37848
  0
VERTEX
  5
75b
  8
Layer_0
  10
314.55792
  20
218.27817
  0
VERTEX
  5
75c
  8
Layer_0
  10
314.55792
  20
218.28918
  0
VERTEX
  5
75d
  8
Layer_0
  10
314.57196
  20
218.32117
  0
VERTEX
  5
75e
  8
Layer_0
  10
314.59494
  20
218.3172
  0
VERTEX
  5
75f
  8
Layer_0
  10
314.59995
  20
218.29318
  0
VERTEX
  5
760
  8
Layer_0
  10
314.56793
  20
218.27817
  0
VERTEX
  5
761
  8
Layer_0
  10
314.55792
  20
218.27817
  0
VERTEX
  5
762
  8
Layer_0
  10
308.75653
  20
218.27817
  0
VERTEX
  5
763
  8
Layer_0
  10
308.74551
  20
218.27817
  0
VERTEX
  5
764
  8
Layer_0
  10
308.7135
  20
218.29318
  0
VERTEX
  5
765
  8
Layer_0
  10
308.71951
  20
218.3172
  0
VERTEX
  5
766
  8
Layer_0
  10
308.74152
  20
218.32117
  0
VERTEX
  5
767
  8
Layer_0
  10
308.75653
  20
218.28918
  0
VERTEX
  5
768
  8
Layer_0
  10
308.75653
  20
218.27817
  0
VERTEX
  5
769
  8
Layer_0
  10
308.75653
  20
215.37848
  0
VERTEX
  5
76a
  8
Layer_0
  10
308.75653
  20
215.36147
  0
VERTEX
  5
76b
  8
Layer_0
  10
308.7265
  20
215.30847
  0
VERTEX
  5
76c
  8
Layer_0
  10
308.67352
  20
215.27744
  0
VERTEX
  5
76d
  8
Layer_0
  10
308.6575
  20
215.27744
  0
VERTEX
  5
76e
  8
Layer_0
  10
302.65405
  20
215.27744
  0
VERTEX
  5
76f
  8
Layer_0
  10
302.63605
  20
215.27744
  0
VERTEX
  5
770
  8
Layer_0
  10
302.58401
  20
215.30847
  0
VERTEX
  5
771
  8
Layer_0
  10
302.55502
  20
215.36147
  0
VERTEX
  5
772
  8
Layer_0
  10
302.55502
  20
215.37848
  0
VERTEX
  5
773
  8
Layer_0
  10
302.55502
  20
218.27817
  0
VERTEX
  5
774
  8
Layer_0
  10
302.55502
  20
218.28918
  0
VERTEX
  5
775
  8
Layer_0
  10
302.56903
  20
218.32117
  0
VERTEX
  5
776
  8
Layer_0
  10
302.59201
  20
218.3172
  0
VERTEX
  5
777
  8
Layer_0
  10
302.59604
  20
218.29318
  0
VERTEX
  5
778
  8
Layer_0
  10
302.56503
  20
218.27817
  0
VERTEX
  5
779
  8
Layer_0
  10
302.55502
  20
218.27817
  0
VERTEX
  5
77a
  8
Layer_0
  10
296.75342
  20
218.27817
  0
VERTEX
  5
77b
  8
Layer_0
  10
296.74237
  20
218.27817
  0
VERTEX
  5
77c
  8
Layer_0
  10
296.71069
  20
218.29318
  0
VERTEX
  5
77d
  8
Layer_0
  10
296.7149
  20
218.3172
  0
VERTEX
  5
77e
  8
Layer_0
  10
296.73822
  20
218.32117
  0
VERTEX
  5
77f
  8
Layer_0
  10
296.75342
  20
218.28918
  0
VERTEX
  5
780
  8
Layer_0
  10
296.75342
  20
218.27817
  0
VERTEX
  5
781
  8
Layer_0
  10
296.75342
  20
215.37848
  0
VERTEX
  5
782
  8
Layer_0
  10
296.75342
  20
215.36147
  0
VERTEX
  5
783
  8
Layer_0
  10
296.72339
  20
215.30847
  0
VERTEX
  5
784
  8
Layer_0
  10
296.66937
  20
215.27744
  0
VERTEX
  5
785
  8
Layer_0
  10
296.65277
  20
215.27744
  0
VERTEX
  5
786
  8
Layer_0
  10
290.65131
  20
215.27744
  0
VERTEX
  5
787
  8
Layer_0
  10
290.63373
  20
215.27744
  0
VERTEX
  5
788
  8
Layer_0
  10
290.58112
  20
215.30847
  0
VERTEX
  5
789
  8
Layer_0
  10
290.55219
  20
215.36147
  0
VERTEX
  5
78a
  8
Layer_0
  10
290.55219
  20
215.37848
  0
VERTEX
  5
78b
  8
Layer_0
  10
290.55219
  20
218.27817
  0
VERTEX
  5
78c
  8
Layer_0
  10
290.55219
  20
218.28918
  0
VERTEX
  5
78d
  8
Layer_0
  10
290.56589
  20
218.32117
  0
VERTEX
  5
78e
  8
Layer_0
  10
290.5896
  20
218.3172
  0
VERTEX
  5
78f
  8
Layer_0
  10
290.59341
  20
218.29318
  0
VERTEX
  5
790
  8
Layer_0
  10
290.56201
  20
218.27817
  0
VERTEX
  5
791
  8
Layer_0
  10
290.55219
  20
218.27817
  0
VERTEX
  5
792
  8
Layer_0
  10
284.7507
  20
218.27817
  0
VERTEX
  5
793
  8
Layer_0
  10
284.73978
  20
218.27817
  0
VERTEX
  5
794
  8
Layer_0
  10
284.7081
  20
218.29318
  0
VERTEX
  5
795
  8
Layer_0
  10
284.71188
  20
218.3172
  0
VERTEX
  5
796
  8
Layer_0
  10
284.7356
  20
218.32117
  0
VERTEX
  5
797
  8
Layer_0
  10
284.7507
  20
218.28918
  0
VERTEX
  5
798
  8
Layer_0
  10
284.7507
  20
218.27817
  0
VERTEX
  5
799
  8
Layer_0
  10
284.7507
  20
215.37848
  0
VERTEX
  5
79a
  8
Layer_0
  10
284.7507
  20
215.36147
  0
VERTEX
  5
79b
  8
Layer_0
  10
284.7204
  20
215.30847
  0
VERTEX
  5
79c
  8
Layer_0
  10
284.66675
  20
215.27744
  0
VERTEX
  5
79d
  8
Layer_0
  10
284.65015
  20
215.27744
  0
VERTEX
  5
79e
  8
Layer_0
  10
278.65012
  20
215.27744
  0
VERTEX
  5
79f
  8
Layer_0
  10
278.63208
  20
215.27744
  0
VERTEX
  5
7a0
  8
Layer_0
  10
278.57849
  20
215.30847
  0
VERTEX
  5
7a1
  8
Layer_0
  10
278.5495
  20
215.36147
  0
VERTEX
  5
7a2
  8
Layer_0
  10
278.5495
  20
215.37848
  0
VERTEX
  5
7a3
  8
Layer_0
  10
278.5495
  20
218.27817
  0
VERTEX
  5
7a4
  8
Layer_0
  10
278.5495
  20
218.28918
  0
VERTEX
  5
7a5
  8
Layer_0
  10
278.56329
  20
218.32117
  0
VERTEX
  5
7a6
  8
Layer_0
  10
278.58661
  20
218.3172
  0
VERTEX
  5
7a7
  8
Layer_0
  10
278.59079
  20
218.29318
  0
VERTEX
  5
7a8
  8
Layer_0
  10
278.55908
  20
218.27817
  0
VERTEX
  5
7a9
  8
Layer_0
  10
278.5495
  20
218.27817
  0
VERTEX
  5
7aa
  8
Layer_0
  10
272.7478
  20
218.27817
  0
VERTEX
  5
7ab
  8
Layer_0
  10
272.73676
  20
218.27817
  0
VERTEX
  5
7ac
  8
Layer_0
  10
272.70508
  20
218.29318
  0
VERTEX
  5
7ad
  8
Layer_0
  10
272.71066
  20
218.3172
  0
VERTEX
  5
7ae
  8
Layer_0
  10
272.73257
  20
218.32117
  0
VERTEX
  5
7af
  8
Layer_0
  10
272.7478
  20
218.28918
  0
VERTEX
  5
7b0
  8
Layer_0
  10
272.7478
  20
218.27817
  0
VERTEX
  5
7b1
  8
Layer_0
  10
272.7478
  20
215.37848
  0
VERTEX
  5
7b2
  8
Layer_0
  10
272.7478
  20
215.36147
  0
VERTEX
  5
7b3
  8
Layer_0
  10
272.71738
  20
215.30847
  0
VERTEX
  5
7b4
  8
Layer_0
  10
272.66516
  20
215.27744
  0
VERTEX
  5
7b5
  8
Layer_0
  10
272.64856
  20
215.27744
  0
VERTEX
  5
7b6
  8
Layer_0
  10
266.64569
  20
215.27744
  0
VERTEX
  5
7b7
  8
Layer_0
  10
266.62769
  20
215.27744
  0
VERTEX
  5
7b8
  8
Layer_0
  10
266.57547
  20
215.30847
  0
VERTEX
  5
7b9
  8
Layer_0
  10
266.54645
  20
215.36147
  0
VERTEX
  5
7ba
  8
Layer_0
  10
266.54645
  20
215.37848
  0
VERTEX
  5
7bb
  8
Layer_0
  10
266.54645
  20
218.27817
  0
VERTEX
  5
7bc
  8
Layer_0
  10
266.54645
  20
218.28918
  0
VERTEX
  5
7bd
  8
Layer_0
  10
266.5603
  20
218.32117
  0
VERTEX
  5
7be
  8
Layer_0
  10
266.58359
  20
218.3172
  0
VERTEX
  5
7bf
  8
Layer_0
  10
266.5878
  20
218.29318
  0
VERTEX
  5
7c0
  8
Layer_0
  10
266.55606
  20
218.27817
  0
VERTEX
  5
7c1
  8
Layer_0
  10
266.54645
  20
218.27817
  0
VERTEX
  5
7c2
  8
Layer_0
  10
260.74506
  20
218.27817
  0
VERTEX
  5
7c3
  8
Layer_0
  10
260.73376
  20
218.27817
  0
VERTEX
  5
7c4
  8
Layer_0
  10
260.70206
  20
218.29318
  0
VERTEX
  5
7c5
  8
Layer_0
  10
260.70627
  20
218.3172
  0
VERTEX
  5
7c6
  8
Layer_0
  10
260.72995
  20
218.32117
  0
VERTEX
  5
7c7
  8
Layer_0
  10
260.74506
  20
218.28918
  0
VERTEX
  5
7c8
  8
Layer_0
  10
260.74506
  20
218.27817
  0
VERTEX
  5
7c9
  8
Layer_0
  10
260.74506
  20
215.37848
  0
VERTEX
  5
7ca
  8
Layer_0
  10
260.74506
  20
215.36147
  0
VERTEX
  5
7cb
  8
Layer_0
  10
260.71475
  20
215.30847
  0
VERTEX
  5
7cc
  8
Layer_0
  10
260.66074
  20
215.27744
  0
VERTEX
  5
7cd
  8
Layer_0
  10
260.64413
  20
215.27744
  0
VERTEX
  5
7ce
  8
Layer_0
  10
254.64299
  20
215.27744
  0
VERTEX
  5
7cf
  8
Layer_0
  10
254.62498
  20
215.27744
  0
VERTEX
  5
7d0
  8
Layer_0
  10
254.57248
  20
215.30847
  0
VERTEX
  5
7d1
  8
Layer_0
  10
254.54346
  20
215.36147
  0
VERTEX
  5
7d2
  8
Layer_0
  10
254.54346
  20
215.37848
  0
VERTEX
  5
7d3
  8
Layer_0
  10
254.54346
  20
218.27817
  0
VERTEX
  5
7d4
  8
Layer_0
  10
254.54346
  20
218.28918
  0
VERTEX
  5
7d5
  8
Layer_0
  10
254.55727
  20
218.32117
  0
VERTEX
  5
7d6
  8
Layer_0
  10
254.58087
  20
218.3172
  0
VERTEX
  5
7d7
  8
Layer_0
  10
254.58517
  20
218.29318
  0
VERTEX
  5
7d8
  8
Layer_0
  10
254.55338
  20
218.27817
  0
VERTEX
  5
7d9
  8
Layer_0
  10
254.54346
  20
218.27817
  0
VERTEX
  5
7da
  8
Layer_0
  10
248.74205
  20
218.27817
  0
VERTEX
  5
7db
  8
Layer_0
  10
248.73116
  20
218.27817
  0
VERTEX
  5
7dc
  8
Layer_0
  10
248.69936
  20
218.29318
  0
VERTEX
  5
7dd
  8
Layer_0
  10
248.70366
  20
218.3172
  0
VERTEX
  5
7de
  8
Layer_0
  10
248.72694
  20
218.32117
  0
VERTEX
  5
7df
  8
Layer_0
  10
248.74205
  20
218.28918
  0
VERTEX
  5
7e0
  8
Layer_0
  10
248.74205
  20
218.27817
  0
VERTEX
  5
7e1
  8
Layer_0
  10
248.74205
  20
215.37848
  0
VERTEX
  5
7e2
  8
Layer_0
  10
248.74205
  20
215.36147
  0
VERTEX
  5
7e3
  8
Layer_0
  10
248.71175
  20
215.30847
  0
VERTEX
  5
7e4
  8
Layer_0
  10
248.65814
  20
215.27744
  0
VERTEX
  5
7e5
  8
Layer_0
  10
248.64154
  20
215.27744
  0
VERTEX
  5
7e6
  8
Layer_0
  10
242.63995
  20
215.27744
  0
VERTEX
  5
7e7
  8
Layer_0
  10
242.62207
  20
215.27744
  0
VERTEX
  5
7e8
  8
Layer_0
  10
242.56975
  20
215.30847
  0
VERTEX
  5
7e9
  8
Layer_0
  10
242.54083
  20
215.36147
  0
VERTEX
  5
7ea
  8
Layer_0
  10
242.54083
  20
215.37848
  0
VERTEX
  5
7eb
  8
Layer_0
  10
242.54083
  20
218.27817
  0
VERTEX
  5
7ec
  8
Layer_0
  10
242.54083
  20
218.28918
  0
VERTEX
  5
7ed
  8
Layer_0
  10
242.55464
  20
218.32117
  0
VERTEX
  5
7ee
  8
Layer_0
  10
242.57796
  20
218.3172
  0
VERTEX
  5
7ef
  8
Layer_0
  10
242.58214
  20
218.29318
  0
VERTEX
  5
7f0
  8
Layer_0
  10
242.55034
  20
218.27817
  0
VERTEX
  5
7f1
  8
Layer_0
  10
242.54083
  20
218.27817
  0
VERTEX
  5
7f2
  8
Layer_0
  10
236.73914
  20
218.27817
  0
VERTEX
  5
7f3
  8
Layer_0
  10
236.72812
  20
218.27817
  0
VERTEX
  5
7f4
  8
Layer_0
  10
236.69644
  20
218.29318
  0
VERTEX
  5
7f5
  8
Layer_0
  10
236.70062
  20
218.3172
  0
VERTEX
  5
7f6
  8
Layer_0
  10
236.72403
  20
218.32117
  0
VERTEX
  5
7f7
  8
Layer_0
  10
236.73914
  20
218.28918
  0
VERTEX
  5
7f8
  8
Layer_0
  10
236.73914
  20
218.27817
  0
VERTEX
  5
7f9
  8
Layer_0
  10
236.73914
  20
215.37848
  0
VERTEX
  5
7fa
  8
Layer_0
  10
236.73914
  20
215.36147
  0
VERTEX
  5
7fb
  8
Layer_0
  10
236.70883
  20
215.30847
  0
VERTEX
  5
7fc
  8
Layer_0
  10
236.65511
  20
215.27744
  0
VERTEX
  5
7fd
  8
Layer_0
  10
236.63863
  20
215.27744
  0
VERTEX
  5
7fe
  8
Layer_0
  10
225.63644
  20
215.27744
  0
VERTEX
  5
7ff
  8
Layer_0
  10
222.62051
  20
215.27744
  0
VERTEX
  5
800
  8
Layer_0
  10
222.62051
  20
229.4791
  0
VERTEX
  5
801
  8
Layer_0
  10
222.63571
  20
229.48091
  0
VERTEX
  5
802
  8
Layer_0
  10
225.4366
  20
229.48091
  0
VERTEX
  5
803
  8
Layer_0
  10
225.44618
  20
229.48091
  0
VERTEX
  5
804
  8
Layer_0
  10
225.47791
  20
229.4669
  0
VERTEX
  5
805
  8
Layer_0
  10
225.47371
  20
229.4429
  0
VERTEX
  5
806
  8
Layer_0
  10
225.4503
  20
229.4389
  0
VERTEX
  5
807
  8
Layer_0
  10
225.4366
  20
229.4709
  0
VERTEX
  5
808
  8
Layer_0
  10
225.4366
  20
229.48091
  0
VERTEX
  5
809
  8
Layer_0
  10
225.4366
  20
235.2823
  0
VERTEX
  5
80a
  8
Layer_0
  10
225.4366
  20
235.29231
  0
VERTEX
  5
80b
  8
Layer_0
  10
225.4503
  20
235.32433
  0
VERTEX
  5
80c
  8
Layer_0
  10
225.47371
  20
235.32033
  0
VERTEX
  5
80d
  8
Layer_0
  10
225.47791
  20
235.2973
  0
VERTEX
  5
80e
  8
Layer_0
  10
225.44618
  20
235.2823
  0
VERTEX
  5
80f
  8
Layer_0
  10
225.4366
  20
235.2823
  0
VERTEX
  5
810
  8
Layer_0
  10
222.63571
  20
235.2823
  0
VERTEX
  5
811
  8
Layer_0
  10
222.6246
  20
235.2823
  0
VERTEX
  5
812
  8
Layer_0
  10
222.593
  20
235.2973
  0
VERTEX
  5
813
  8
Layer_0
  10
222.59709
  20
235.32033
  0
VERTEX
  5
814
  8
Layer_0
  10
222.62051
  20
235.32433
  0
VERTEX
  5
815
  8
Layer_0
  10
222.63571
  20
235.29231
  0
VERTEX
  5
816
  8
Layer_0
  10
222.63571
  20
235.2823
  0
SEQEND
  0
POLYLINE
  5
818
  8
Layer_0
  62
0
  66
1
  10
0
  20
0
  30
0
  0
VERTEX
  5
818
  8
Layer_0
  10
283.20767
  20
334.21783
  0
VERTEX
  5
819
  8
Layer_0
  10
283.20767
  20
334.20685
  0
VERTEX
  5
81a
  8
Layer_0
  10
283.20767
  20
331.30615
  0
VERTEX
  5
81b
  8
Layer_0
  10
283.20767
  20
331.29016
  0
VERTEX
  5
81c
  8
Layer_0
  10
283.23657
  20
331.23611
  0
VERTEX
  5
81d
  8
Layer_0
  10
283.29022
  20
331.20612
  0
VERTEX
  5
81e
  8
Layer_0
  10
283.3082
  20
331.20612
  0
VERTEX
  5
81f
  8
Layer_0
  10
289.30975
  20
331.20612
  0
VERTEX
  5
820
  8
Layer_0
  10
289.32623
  20
331.20612
  0
VERTEX
  5
821
  8
Layer_0
  10
289.37997
  20
331.23611
  0
VERTEX
  5
822
  8
Layer_0
  10
289.40887
  20
331.29016
  0
VERTEX
  5
823
  8
Layer_0
  10
289.40887
  20
331.30615
  0
VERTEX
  5
824
  8
Layer_0
  10
289.40887
  20
334.20685
  0
VERTEX
  5
825
  8
Layer_0
  10
289.40887
  20
334.21783
  0
VERTEX
  5
826
  8
Layer_0
  10
289.39368
  20
334.24988
  0
VERTEX
  5
827
  8
Layer_0
  10
289.37146
  20
334.24487
  0
VERTEX
  5
828
  8
Layer_0
  10
289.36618
  20
334.22186
  0
VERTEX
  5
829
  8
Layer_0
  10
289.39789
  20
334.20685
  0
VERTEX
  5
82a
  8
Layer_0
  10
289.40887
  20
334.20685
  0
VERTEX
  5
82b
  8
Layer_0
  10
296.31015
  20
334.20685
  0
VERTEX
  5
82c
  8
Layer_0
  10
296.32675
  20
334.20685
  0
VERTEX
  5
82d
  8
Layer_0
  10
296.3808
  20
334.23685
  0
VERTEX
  5
82e
  8
Layer_0
  10
296.41107
  20
334.29089
  0
VERTEX
  5
82f
  8
Layer_0
  10
296.41107
  20
334.30688
  0
VERTEX
  5
830
  8
Layer_0
  10
296.41107
  20
341.20856
  0
VERTEX
  5
831
  8
Layer_0
  10
296.41107
  20
341.21954
  0
VERTEX
  5
832
  8
Layer_0
  10
296.39587
  20
341.25156
  0
VERTEX
  5
833
  8
Layer_0
  10
296.37225
  20
341.24658
  0
VERTEX
  5
834
  8
Layer_0
  10
296.36838
  20
341.22455
  0
VERTEX
  5
835
  8
Layer_0
  10
296.39978
  20
341.20856
  0
VERTEX
  5
836
  8
Layer_0
  10
296.41107
  20
341.20856
  0
VERTEX
  5
837
  8
Layer_0
  10
299.31088
  20
341.20856
  0
VERTEX
  5
838
  8
Layer_0
  10
299.32748
  20
341.20856
  0
VERTEX
  5
839
  8
Layer_0
  10
299.38153
  20
341.23755
  0
VERTEX
  5
83a
  8
Layer_0
  10
299.4118
  20
341.29156
  0
VERTEX
  5
83b
  8
Layer_0
  10
299.4118
  20
341.30859
  0
VERTEX
  5
83c
  8
Layer_0
  10
299.4118
  20
347.30804
  0
VERTEX
  5
83d
  8
Layer_0
  10
299.4118
  20
347.32605
  0
VERTEX
  5
83e
  8
Layer_0
  10
299.38153
  20
347.38202
  0
VERTEX
  5
83f
  8
Layer_0
  10
299.32748
  20
347.41107
  0
VERTEX
  5
840
  8
Layer_0
  10
299.31088
  20
347.41107
  0
VERTEX
  5
841
  8
Layer_0
  10
296.41107
  20
347.41107
  0
VERTEX
  5
842
  8
Layer_0
  10
296.39978
  20
347.41107
  0
VERTEX
  5
843
  8
Layer_0
  10
296.36838
  20
347.39606
  0
VERTEX
  5
844
  8
Layer_0
  10
296.37225
  20
347.37204
  0
VERTEX
  5
845
  8
Layer_0
  10
296.39587
  20
347.36807
  0
VERTEX
  5
846
  8
Layer_0
  10
296.41107
  20
347.40002
  0
VERTEX
  5
847
  8
Layer_0
  10
296.41107
  20
347.41107
  0
VERTEX
  5
848
  8
Layer_0
  10
296.41107
  20
354.31274
  0
VERTEX
  5
849
  8
Layer_0
  10
296.41107
  20
354.32971
  0
VERTEX
  5
84a
  8
Layer_0
  10
296.3808
  20
354.38275
  0
VERTEX
  5
84b
  8
Layer_0
  10
296.32675
  20
354.41174
  0
VERTEX
  5
84c
  8
Layer_0
  10
296.31015
  20
354.41174
  0
VERTEX
  5
84d
  8
Layer_0
  10
296.29254
  20
354.41174
  0
VERTEX
  5
84e
  8
Layer_0
  10
296.24414
  20
354.38672
  0
VERTEX
  5
84f
  8
Layer_0
  10
296.23993
  20
354.38275
  0
VERTEX
  5
850
  8
Layer_0
  10
276.23578
  20
334.37793
  0
VERTEX
  5
851
  8
Layer_0
  10
276.23007
  20
334.37286
  0
VERTEX
  5
852
  8
Layer_0
  10
276.20535
  20
334.32385
  0
VERTEX
  5
853
  8
Layer_0
  10
276.20535
  20
334.30688
  0
VERTEX
  5
854
  8
Layer_0
  10
276.20535
  20
334.29089
  0
VERTEX
  5
855
  8
Layer_0
  10
276.23438
  20
334.23685
  0
VERTEX
  5
856
  8
Layer_0
  10
276.28799
  20
334.20685
  0
VERTEX
  5
857
  8
Layer_0
  10
276.306
  20
334.20685
  0
VERTEX
  5
858
  8
Layer_0
  10
283.20767
  20
334.20685
  0
VERTEX
  5
859
  8
Layer_0
  10
283.21719
  20
334.20685
  0
VERTEX
  5
85a
  8
Layer_0
  10
283.24887
  20
334.22186
  0
VERTEX
  5
85b
  8
Layer_0
  10
283.24469
  20
334.24487
  0
VERTEX
  5
85c
  8
Layer_0
  10
283.22137
  20
334.24988
  0
VERTEX
  5
85d
  8
Layer_0
  10
283.20767
  20
334.21783
  0
SEQEND
  0
POLYLINE
  5
85f
  8
Layer_0
  62
0
  66
1
  10
0
  20
0
  30
0
  0
VERTEX
  5
85f
  8
Layer_0
  10
271.43332
  20
341.44559
  0
VERTEX
  5
860
  8
Layer_0
  10
271.4375
  20
341.42365
  0
VERTEX
  5
861
  8
Layer_0
  10
271.40579
  20
341.4086
  0
VERTEX
  5
862
  8
Layer_0
  10
271.39621
  20
341.4086
  0
VERTEX
  5
863
  8
Layer_0
  10
268.49609
  20
341.4086
  0
VERTEX
  5
864
  8
Layer_0
  10
268.47809
  20
341.4086
  0
VERTEX
  5
865
  8
Layer_0
  10
268.42438
  20
341.4386
  0
VERTEX
  5
866
  8
Layer_0
  10
268.39548
  20
341.49164
  0
VERTEX
  5
867
  8
Layer_0
  10
268.39548
  20
341.50763
  0
VERTEX
  5
868
  8
Layer_0
  10
268.39548
  20
347.50909
  0
VERTEX
  5
869
  8
Layer_0
  10
268.39548
  20
347.5271
  0
VERTEX
  5
86a
  8
Layer_0
  10
268.42438
  20
347.58014
  0
VERTEX
  5
86b
  8
Layer_0
  10
268.47809
  20
347.61209
  0
VERTEX
  5
86c
  8
Layer_0
  10
268.49609
  20
347.61209
  0
VERTEX
  5
86d
  8
Layer_0
  10
271.39621
  20
347.61209
  0
VERTEX
  5
86e
  8
Layer_0
  10
271.40579
  20
347.61209
  0
VERTEX
  5
86f
  8
Layer_0
  10
271.4375
  20
347.59808
  0
VERTEX
  5
870
  8
Layer_0
  10
271.43332
  20
347.57309
  0
VERTEX
  5
871
  8
Layer_0
  10
271.41
  20
347.56909
  0
VERTEX
  5
872
  8
Layer_0
  10
271.39621
  20
347.60114
  0
VERTEX
  5
873
  8
Layer_0
  10
271.39621
  20
347.61209
  0
VERTEX
  5
874
  8
Layer_0
  10
271.39621
  20
354.50977
  0
VERTEX
  5
875
  8
Layer_0
  10
271.39621
  20
354.52777
  0
VERTEX
  5
876
  8
Layer_0
  10
271.4252
  20
354.58478
  0
VERTEX
  5
877
  8
Layer_0
  10
271.47742
  20
354.61279
  0
VERTEX
  5
878
  8
Layer_0
  10
271.49542
  20
354.61279
  0
VERTEX
  5
879
  8
Layer_0
  10
278.3985
  20
354.61279
  0
VERTEX
  5
87a
  8
Layer_0
  10
278.40802
  20
354.61279
  0
VERTEX
  5
87b
  8
Layer_0
  10
278.43973
  20
354.59882
  0
VERTEX
  5
87c
  8
Layer_0
  10
278.43552
  20
354.57379
  0
VERTEX
  5
87d
  8
Layer_0
  10
278.41217
  20
354.56982
  0
VERTEX
  5
87e
  8
Layer_0
  10
278.3985
  20
354.60181
  0
VERTEX
  5
87f
  8
Layer_0
  10
278.3985
  20
354.61279
  0
VERTEX
  5
880
  8
Layer_0
  10
278.3985
  20
357.51349
  0
VERTEX
  5
881
  8
Layer_0
  10
278.3985
  20
357.53052
  0
VERTEX
  5
882
  8
Layer_0
  10
278.42743
  20
357.5835
  0
VERTEX
  5
883
  8
Layer_0
  10
278.47961
  20
357.61157
  0
VERTEX
  5
884
  8
Layer_0
  10
278.49762
  20
357.61157
  0
VERTEX
  5
885
  8
Layer_0
  10
284.49908
  20
357.61157
  0
VERTEX
  5
886
  8
Layer_0
  10
284.51569
  20
357.61157
  0
VERTEX
  5
887
  8
Layer_0
  10
284.56927
  20
357.5835
  0
VERTEX
  5
888
  8
Layer_0
  10
284.5997
  20
357.53052
  0
VERTEX
  5
889
  8
Layer_0
  10
284.5997
  20
357.51349
  0
VERTEX
  5
88a
  8
Layer_0
  10
284.5997
  20
354.61279
  0
VERTEX
  5
88b
  8
Layer_0
  10
284.5997
  20
354.60181
  0
VERTEX
  5
88c
  8
Layer_0
  10
284.5845
  20
354.56982
  0
VERTEX
  5
88d
  8
Layer_0
  10
284.56122
  20
354.57379
  0
VERTEX
  5
88e
  8
Layer_0
  10
284.55701
  20
354.59882
  0
VERTEX
  5
88f
  8
Layer_0
  10
284.58871
  20
354.61279
  0
VERTEX
  5
890
  8
Layer_0
  10
284.5997
  20
354.61279
  0
VERTEX
  5
891
  8
Layer_0
  10
291.50137
  20
354.61279
  0
VERTEX
  5
892
  8
Layer_0
  10
291.51761
  20
354.61279
  0
VERTEX
  5
893
  8
Layer_0
  10
291.57159
  20
354.58478
  0
VERTEX
  5
894
  8
Layer_0
  10
291.60193
  20
354.52777
  0
VERTEX
  5
895
  8
Layer_0
  10
291.60193
  20
354.50977
  0
VERTEX
  5
896
  8
Layer_0
  10
291.60193
  20
354.49579
  0
VERTEX
  5
897
  8
Layer_0
  10
291.57581
  20
354.44678
  0
VERTEX
  5
898
  8
Layer_0
  10
291.57159
  20
354.43976
  0
VERTEX
  5
899
  8
Layer_0
  10
271.56705
  20
334.43591
  0
VERTEX
  5
89a
  8
Layer_0
  10
271.56174
  20
334.43188
  0
VERTEX
  5
89b
  8
Layer_0
  10
271.51343
  20
334.40692
  0
VERTEX
  5
89c
  8
Layer_0
  10
271.49542
  20
334.40692
  0
VERTEX
  5
89d
  8
Layer_0
  10
271.47742
  20
334.40692
  0
VERTEX
  5
89e
  8
Layer_0
  10
271.4252
  20
334.43692
  0
VERTEX
  5
89f
  8
Layer_0
  10
271.39621
  20
334.49094
  0
VERTEX
  5
8a0
  8
Layer_0
  10
271.39621
  20
334.50693
  0
VERTEX
  5
8a1
  8
Layer_0
  10
271.39621
  20
341.4086
  0
VERTEX
  5
8a2
  8
Layer_0
  10
271.39621
  20
341.41962
  0
VERTEX
  5
8a3
  8
Layer_0
  10
271.41
  20
341.4516
  0
VERTEX
  5
8a4
  8
Layer_0
  10
271.43332
  20
341.44559
  0
SEQEND
  0
POLYLINE
  5
8a6
  8
Layer_0
  62
0
  66
1
  10
0
  20
0
  30
0
  0
VERTEX
  5
8a6
  8
Layer_0
  10
250.7289
  20
334.24487
  0
VERTEX
  5
8a7
  8
Layer_0
  10
250.73308
  20
334.22186
  0
VERTEX
  5
8a8
  8
Layer_0
  10
250.70139
  20
334.20685
  0
VERTEX
  5
8a9
  8
Layer_0
  10
250.69168
  20
334.20685
  0
VERTEX
  5
8aa
  8
Layer_0
  10
243.79019
  20
334.20685
  0
VERTEX
  5
8ab
  8
Layer_0
  10
243.77228
  20
334.20685
  0
VERTEX
  5
8ac
  8
Layer_0
  10
243.71849
  20
334.23685
  0
VERTEX
  5
8ad
  8
Layer_0
  10
243.68959
  20
334.29089
  0
VERTEX
  5
8ae
  8
Layer_0
  10
243.68959
  20
334.30688
  0
VERTEX
  5
8af
  8
Layer_0
  10
243.68959
  20
334.32385
  0
VERTEX
  5
8b0
  8
Layer_0
  10
243.713
  20
334.37286
  0
VERTEX
  5
8b1
  8
Layer_0
  10
243.71849
  20
334.37793
  0
VERTEX
  5
8b2
  8
Layer_0
  10
263.72424
  20
354.38275
  0
VERTEX
  5
8b3
  8
Layer_0
  10
263.72855
  20
354.38672
  0
VERTEX
  5
8b4
  8
Layer_0
  10
263.77646
  20
354.41174
  0
VERTEX
  5
8b5
  8
Layer_0
  10
263.79443
  20
354.41174
  0
VERTEX
  5
8b6
  8
Layer_0
  10
263.81104
  20
354.41174
  0
VERTEX
  5
8b7
  8
Layer_0
  10
263.86469
  20
354.38275
  0
VERTEX
  5
8b8
  8
Layer_0
  10
263.89368
  20
354.32971
  0
VERTEX
  5
8b9
  8
Layer_0
  10
263.89368
  20
354.31274
  0
VERTEX
  5
8ba
  8
Layer_0
  10
263.89368
  20
347.41107
  0
VERTEX
  5
8bb
  8
Layer_0
  10
263.89368
  20
347.40002
  0
VERTEX
  5
8bc
  8
Layer_0
  10
263.87848
  20
347.36807
  0
VERTEX
  5
8bd
  8
Layer_0
  10
263.85657
  20
347.37204
  0
VERTEX
  5
8be
  8
Layer_0
  10
263.85098
  20
347.39606
  0
VERTEX
  5
8bf
  8
Layer_0
  10
263.88269
  20
347.41107
  0
VERTEX
  5
8c0
  8
Layer_0
  10
263.89368
  20
347.41107
  0
VERTEX
  5
8c1
  8
Layer_0
  10
266.79529
  20
347.41107
  0
VERTEX
  5
8c2
  8
Layer_0
  10
266.81177
  20
347.41107
  0
VERTEX
  5
8c3
  8
Layer_0
  10
266.86551
  20
347.38202
  0
VERTEX
  5
8c4
  8
Layer_0
  10
266.89441
  20
347.32605
  0
VERTEX
  5
8c5
  8
Layer_0
  10
266.89441
  20
347.30804
  0
VERTEX
  5
8c6
  8
Layer_0
  10
266.89441
  20
341.30859
  0
VERTEX
  5
8c7
  8
Layer_0
  10
266.89441
  20
341.29156
  0
VERTEX
  5
8c8
  8
Layer_0
  10
266.86551
  20
341.23755
  0
VERTEX
  5
8c9
  8
Layer_0
  10
266.81177
  20
341.20856
  0
VERTEX
  5
8ca
  8
Layer_0
  10
266.79529
  20
341.20856
  0
VERTEX
  5
8cb
  8
Layer_0
  10
263.89368
  20
341.20856
  0
VERTEX
  5
8cc
  8
Layer_0
  10
263.88269
  20
341.20856
  0
VERTEX
  5
8cd
  8
Layer_0
  10
263.85098
  20
341.22455
  0
VERTEX
  5
8ce
  8
Layer_0
  10
263.85657
  20
341.24658
  0
VERTEX
  5
8cf
  8
Layer_0
  10
263.87848
  20
341.25156
  0
VERTEX
  5
8d0
  8
Layer_0
  10
263.89368
  20
341.21954
  0
VERTEX
  5
8d1
  8
Layer_0
  10
263.89368
  20
341.20856
  0
VERTEX
  5
8d2
  8
Layer_0
  10
263.89368
  20
334.30688
  0
VERTEX
  5
8d3
  8
Layer_0
  10
263.89368
  20
334.29089
  0
VERTEX
  5
8d4
  8
Layer_0
  10
263.86469
  20
334.23685
  0
VERTEX
  5
8d5
  8
Layer_0
  10
263.81104
  20
334.20685
  0
VERTEX
  5
8d6
  8
Layer_0
  10
263.79443
  20
334.20685
  0
VERTEX
  5
8d7
  8
Layer_0
  10
256.89301
  20
334.20685
  0
VERTEX
  5
8d8
  8
Layer_0
  10
256.88196
  20
334.20685
  0
VERTEX
  5
8d9
  8
Layer_0
  10
256.85028
  20
334.22186
  0
VERTEX
  5
8da
  8
Layer_0
  10
256.85437
  20
334.24487
  0
VERTEX
  5
8db
  8
Layer_0
  10
256.87787
  20
334.24988
  0
VERTEX
  5
8dc
  8
Layer_0
  10
256.89301
  20
334.21783
  0
VERTEX
  5
8dd
  8
Layer_0
  10
256.89301
  20
334.20685
  0
VERTEX
  5
8de
  8
Layer_0
  10
256.89301
  20
331.30615
  0
VERTEX
  5
8df
  8
Layer_0
  10
256.89301
  20
331.29016
  0
VERTEX
  5
8e0
  8
Layer_0
  10
256.86267
  20
331.23611
  0
VERTEX
  5
8e1
  8
Layer_0
  10
256.80896
  20
331.20612
  0
VERTEX
  5
8e2
  8
Layer_0
  10
256.79236
  20
331.20612
  0
VERTEX
  5
8e3
  8
Layer_0
  10
250.79102
  20
331.20612
  0
VERTEX
  5
8e4
  8
Layer_0
  10
250.77301
  20
331.20612
  0
VERTEX
  5
8e5
  8
Layer_0
  10
250.72069
  20
331.23611
  0
VERTEX
  5
8e6
  8
Layer_0
  10
250.69168
  20
331.29016
  0
VERTEX
  5
8e7
  8
Layer_0
  10
250.69168
  20
331.30615
  0
VERTEX
  5
8e8
  8
Layer_0
  10
250.69168
  20
334.20685
  0
VERTEX
  5
8e9
  8
Layer_0
  10
250.69168
  20
334.21783
  0
VERTEX
  5
8ea
  8
Layer_0
  10
250.70547
  20
334.24988
  0
VERTEX
  5
8eb
  8
Layer_0
  10
250.7289
  20
334.24487
  0
SEQEND
  0
POLYLINE
  5
8ed
  8
Layer_0
  62
0
  66
1
  10
0
  20
0
  30
0
  0
VERTEX
  5
8ed
  8
Layer_0
  10
260.46658
  20
354.61279
  0
VERTEX
  5
8ee
  8
Layer_0
  10
260.45007
  20
354.61279
  0
VERTEX
  5
8ef
  8
Layer_0
  10
253.54849
  20
354.61279
  0
VERTEX
  5
8f0
  8
Layer_0
  10
253.53749
  20
354.61279
  0
VERTEX
  5
8f1
  8
Layer_0
  10
253.50578
  20
354.59882
  0
VERTEX
  5
8f2
  8
Layer_0
  10
253.50999
  20
354.57379
  0
VERTEX
  5
8f3
  8
Layer_0
  10
253.53337
  20
354.56982
  0
VERTEX
  5
8f4
  8
Layer_0
  10
253.54849
  20
354.60181
  0
VERTEX
  5
8f5
  8
Layer_0
  10
253.54849
  20
354.61279
  0
VERTEX
  5
8f6
  8
Layer_0
  10
253.54849
  20
357.51349
  0
VERTEX
  5
8f7
  8
Layer_0
  10
253.54849
  20
357.53052
  0
VERTEX
  5
8f8
  8
Layer_0
  10
252.0535
  20
357.5835
  0
VERTEX
  5
8f9
  8
Layer_0
  10
251.9998
  20
357.61157
  0
VERTEX
  5
8fa
  8
Layer_0
  10
251.98329
  20
357.61157
  0
VERTEX
  5
8fb
  8
Layer_0
  10
245.98183
  20
357.61157
  0
VERTEX
  5
8fc
  8
Layer_0
  10
245.96391
  20
357.61157
  0
VERTEX
  5
8fd
  8
Layer_0
  10
245.9101
  20
357.5835
  0
VERTEX
  5
8fe
  8
Layer_0
  10
245.88121
  20
357.53052
  0
VERTEX
  5
8ff
  8
Layer_0
  10
245.88121
  20
357.51349
  0
VERTEX
  5
900
  8
Layer_0
  10
245.88121
  20
354.61279
  0
VERTEX
  5
901
  8
Layer_0
  10
245.88121
  20
354.60181
  0
VERTEX
  5
902
  8
Layer_0
  10
245.89502
  20
354.56982
  0
VERTEX
  5
903
  8
Layer_0
  10
245.9184
  20
354.57379
  0
VERTEX
  5
904
  8
Layer_0
  10
245.92252
  20
354.59882
  0
VERTEX
  5
905
  8
Layer_0
  10
245.89081
  20
354.61279
  0
VERTEX
  5
906
  8
Layer_0
  10
245.88121
  20
354.61279
  0
VERTEX
  5
907
  8
Layer_0
  10
238.97964
  20
354.61279
  0
VERTEX
  5
908
  8
Layer_0
  10
238.96173
  20
354.61279
  0
VERTEX
  5
909
  8
Layer_0
  10
238.90944
  20
354.58478
  0
VERTEX
  5
90a
  8
Layer_0
  10
238.8804
  20
354.52777
  0
VERTEX
  5
90b
  8
Layer_0
  10
238.8804
  20
354.50977
  0
VERTEX
  5
90c
  8
Layer_0
  10
238.8804
  20
347.61209
  0
VERTEX
  5
90d
  8
Layer_0
  10
238.8804
  20
347.60114
  0
VERTEX
  5
90e
  8
Layer_0
  10
238.89423
  20
347.56909
  0
VERTEX
  5
90f
  8
Layer_0
  10
238.91762
  20
347.57309
  0
VERTEX
  5
910
  8
Layer_0
  10
238.92183
  20
347.59808
  0
VERTEX
  5
911
  8
Layer_0
  10
238.89011
  20
347.61209
  0
VERTEX
  5
912
  8
Layer_0
  10
238.8804
  20
347.61209
  0
VERTEX
  5
913
  8
Layer_0
  10
235.97891
  20
347.61209
  0
VERTEX
  5
914
  8
Layer_0
  10
235.961
  20
347.61209
  0
VERTEX
  5
915
  8
Layer_0
  10
235.90871
  20
347.58014
  0
VERTEX
  5
916
  8
Layer_0
  10
235.87968
  20
347.5271
  0
VERTEX
  5
917
  8
Layer_0
  10
235.87968
  20
347.50909
  0
VERTEX
  5
918
  8
Layer_0
  10
235.87968
  20
341.50763
  0
VERTEX
  5
919
  8
Layer_0
  10
235.87968
  20
341.49164
  0
VERTEX
  5
91a
  8
Layer_0
  10
235.90871
  20
341.4386
  0
VERTEX
  5
91b
  8
Layer_0
  10
235.961
  20
341.4086
  0
VERTEX
  5
91c
  8
Layer_0
  10
235.97891
  20
341.4086
  0
VERTEX
  5
91d
  8
Layer_0
  10
238.8804
  20
341.4086
  0
VERTEX
  5
91e
  8
Layer_0
  10
238.89011
  20
341.4086
  0
VERTEX
  5
91f
  8
Layer_0
  10
238.92183
  20
341.42365
  0
VERTEX
  5
920
  8
Layer_0
  10
238.91762
  20
341.44559
  0
VERTEX
  5
921
  8
Layer_0
  10
238.89423
  20
341.4516
  0
VERTEX
  5
922
  8
Layer_0
  10
238.8804
  20
341.41962
  0
VERTEX
  5
923
  8
Layer_0
  10
238.8804
  20
341.4086
  0
VERTEX
  5
924
  8
Layer_0
  10
238.8804
  20
334.50693
  0
VERTEX
  5
925
  8
Layer_0
  10
238.8804
  20
334.49094
  0
VERTEX
  5
926
  8
Layer_0
  10
238.90944
  20
334.43692
  0
VERTEX
  5
927
  8
Layer_0
  10
238.96173
  20
334.40692
  0
VERTEX
  5
928
  8
Layer_0
  10
238.97964
  20
334.40692
  0
VERTEX
  5
929
  8
Layer_0
  10
238.99753
  20
334.40692
  0
VERTEX
  5
92a
  8
Layer_0
  10
239.04585
  20
334.43188
  0
VERTEX
  5
92b
  8
Layer_0
  10
239.05135
  20
334.43591
  0
VERTEX
  5
92c
  8
Layer_0
  10
259.05563
  20
354.43976
  0
VERTEX
  5
92d
  8
Layer_0
  10
259.05981
  20
354.44678
  0
VERTEX
  5
92e
  8
Layer_0
  10
259.08463
  20
354.49579
  0
VERTEX
  5
92f
  8
Layer_0
  10
259.08463
  20
354.50977
  0
VERTEX
  5
930
  8
Layer_0
  10
259.08463
  20
354.52777
  0
VERTEX
  5
931
  8
Layer_0
  10
260.52029
  20
354.58478
  0
VERTEX
  5
932
  8
Layer_0
  10
260.46658
  20
354.61279
  0
SEQEND
  0
POLYLINE
  5
934
  8
Layer_0
  62
0
  66
1
  10
0
  20
0
  30
0
  0
VERTEX
  5
934
  8
Layer_0
  10
232.87669
  20
205.67667
  0
VERTEX
  5
935
  8
Layer_0
  10
232.88779
  20
205.67667
  0
VERTEX
  5
936
  8
Layer_0
  10
235.78789
  20
205.67667
  0
VERTEX
  5
937
  8
Layer_0
  10
238.68788
  20
205.67667
  0
VERTEX
  5
938
  8
Layer_0
  10
238.6976
  20
205.67667
  0
VERTEX
  5
939
  8
Layer_0
  10
238.72931
  20
205.66266
  0
VERTEX
  5
93a
  8
Layer_0
  10
238.72522
  20
205.63866
  0
VERTEX
  5
93b
  8
Layer_0
  10
238.70172
  20
205.63565
  0
VERTEX
  5
93c
  8
Layer_0
  10
238.68788
  20
205.66666
  0
VERTEX
  5
93d
  8
Layer_0
  10
238.68788
  20
205.67667
  0
VERTEX
  5
93e
  8
Layer_0
  10
238.68788
  20
208.47534
  0
VERTEX
  5
93f
  8
Layer_0
  10
238.68788
  20
208.48735
  0
VERTEX
  5
940
  8
Layer_0
  10
238.70172
  20
208.51837
  0
VERTEX
  5
941
  8
Layer_0
  10
238.72522
  20
208.51437
  0
VERTEX
  5
942
  8
Layer_0
  10
238.72931
  20
208.49135
  0
VERTEX
  5
943
  8
Layer_0
  10
238.6976
  20
208.47534
  0
VERTEX
  5
944
  8
Layer_0
  10
238.68788
  20
208.47534
  0
VERTEX
  5
945
  8
Layer_0
  10
232.88779
  20
208.47534
  0
VERTEX
  5
946
  8
Layer_0
  10
232.87669
  20
208.47534
  0
VERTEX
  5
947
  8
Layer_0
  10
232.84497
  20
208.49135
  0
VERTEX
  5
948
  8
Layer_0
  10
232.84917
  20
208.51437
  0
VERTEX
  5
949
  8
Layer_0
  10
232.87259
  20
208.51837
  0
VERTEX
  5
94a
  8
Layer_0
  10
232.88779
  20
208.48735
  0
VERTEX
  5
94b
  8
Layer_0
  10
232.88779
  20
208.47534
  0
VERTEX
  5
94c
  8
Layer_0
  10
232.88779
  20
205.67667
  0
VERTEX
  5
94d
  8
Layer_0
  10
232.88779
  20
205.66666
  0
VERTEX
  5
94e
  8
Layer_0
  10
232.87259
  20
205.63565
  0
VERTEX
  5
94f
  8
Layer_0
  10
232.84917
  20
205.63866
  0
VERTEX
  5
950
  8
Layer_0
  10
232.84497
  20
205.66266
  0
VERTEX
  5
951
  8
Layer_0
  10
232.87669
  20
205.67667
  0
SEQEND
  0
POLYLINE
  5
953
  8
Layer_0
  62
0
  66
1
  10
0
  20
0
  30
0
  0
VERTEX
  5
953
  8
Layer_0
  10
222.63571
  20
295.2959
  0
VERTEX
  5
954
  8
Layer_0
  10
222.63571
  20
295.30688
  0
VERTEX
  5
955
  8
Layer_0
  10
222.62051
  20
295.33887
  0
VERTEX
  5
956
  8
Layer_0
  10
222.59709
  20
295.3349
  0
VERTEX
  5
957
  8
Layer_0
  10
222.593
  20
295.31088
  0
VERTEX
  5
958
  8
Layer_0
  10
222.6246
  20
295.2959
  0
VERTEX
  5
959
  8
Layer_0
  10
222.63571
  20
295.2959
  0
VERTEX
  5
95a
  8
Layer_0
  10
225.4366
  20
295.2959
  0
VERTEX
  5
95b
  8
Layer_0
  10
225.44618
  20
295.2959
  0
VERTEX
  5
95c
  8
Layer_0
  10
225.47791
  20
295.31088
  0
VERTEX
  5
95d
  8
Layer_0
  10
225.47371
  20
295.3349
  0
VERTEX
  5
95e
  8
Layer_0
  10
225.4503
  20
295.33887
  0
VERTEX
  5
95f
  8
Layer_0
  10
225.4366
  20
295.30688
  0
VERTEX
  5
960
  8
Layer_0
  10
225.4366
  20
295.2959
  0
VERTEX
  5
961
  8
Layer_0
  10
225.4366
  20
289.49646
  0
VERTEX
  5
962
  8
Layer_0
  10
225.4366
  20
289.48648
  0
VERTEX
  5
963
  8
Layer_0
  10
225.4503
  20
289.45447
  0
VERTEX
  5
964
  8
Layer_0
  10
225.47371
  20
289.4585
  0
VERTEX
  5
965
  8
Layer_0
  10
225.47791
  20
289.48248
  0
VERTEX
  5
966
  8
Layer_0
  10
225.44618
  20
289.49646
  0
VERTEX
  5
967
  8
Layer_0
  10
225.4366
  20
289.49646
  0
VERTEX
  5
968
  8
Layer_0
  10
222.63571
  20
289.49646
  0
VERTEX
  5
969
  8
Layer_0
  10
222.6246
  20
289.49646
  0
VERTEX
  5
96a
  8
Layer_0
  10
222.593
  20
289.48248
  0
VERTEX
  5
96b
  8
Layer_0
  10
222.59709
  20
289.4585
  0
VERTEX
  5
96c
  8
Layer_0
  10
222.62051
  20
289.45447
  0
VERTEX
  5
96d
  8
Layer_0
  10
222.63571
  20
289.48648
  0
VERTEX
  5
96e
  8
Layer_0
  10
222.63571
  20
289.49646
  0
SEQEND
  0
POLYLINE
  5
970
  8
Layer_0
  62
0
  66
1
  10
0
  20
0
  30
0
  0
VERTEX
  5
970
  8
Layer_0
  10
222.63571
  20
283.29395
  0
VERTEX
  5
971
  8
Layer_0
  10
222.63571
  20
283.30396
  0
VERTEX
  5
972
  8
Layer_0
  10
222.62051
  20
283.33597
  0
VERTEX
  5
973
  8
Layer_0
  10
222.59709
  20
283.332
  0
VERTEX
  5
974
  8
Layer_0
  10
222.593
  20
283.30899
  0
VERTEX
  5
975
  8
Layer_0
  10
222.6246
  20
283.29395
  0
VERTEX
  5
976
  8
Layer_0
  10
222.63571
  20
283.29395
  0
VERTEX
  5
977
  8
Layer_0
  10
225.4366
  20
283.29395
  0
VERTEX
  5
978
  8
Layer_0
  10
225.44618
  20
283.29395
  0
VERTEX
  5
979
  8
Layer_0
  10
225.47791
  20
283.30899
  0
VERTEX
  5
97a
  8
Layer_0
  10
225.47371
  20
283.332
  0
VERTEX
  5
97b
  8
Layer_0
  10
225.4503
  20
283.33597
  0
VERTEX
  5
97c
  8
Layer_0
  10
225.4366
  20
283.30396
  0
VERTEX
  5
97d
  8
Layer_0
  10
225.4366
  20
283.29395
  0
VERTEX
  5
97e
  8
Layer_0
  10
225.4366
  20
277.49158
  0
VERTEX
  5
97f
  8
Layer_0
  10
225.4366
  20
277.48254
  0
VERTEX
  5
980
  8
Layer_0
  10
225.4503
  20
277.45053
  0
VERTEX
  5
981
  8
Layer_0
  10
225.47371
  20
277.45456
  0
VERTEX
  5
982
  8
Layer_0
  10
225.47791
  20
277.47757
  0
VERTEX
  5
983
  8
Layer_0
  10
225.44618
  20
277.49158
  0
VERTEX
  5
984
  8
Layer_0
  10
225.4366
  20
277.49158
  0
VERTEX
  5
985
  8
Layer_0
  10
222.63571
  20
277.49158
  0
VERTEX
  5
986
  8
Layer_0
  10
222.6246
  20
277.49158
  0
VERTEX
  5
987
  8
Layer_0
  10
222.593
  20
277.47757
  0
VERTEX
  5
988
  8
Layer_0
  10
222.59709
  20
277.45456
  0
VERTEX
  5
989
  8
Layer_0
  10
222.62051
  20
277.45053
  0
VERTEX
  5
98a
  8
Layer_0
  10
222.63571
  20
277.48254
  0
VERTEX
  5
98b
  8
Layer_0
  10
222.63571
  20
277.49158
  0
SEQEND
  0
POLYLINE
  5
98d
  8
Layer_0
  62
0
  66
1
  10
0
  20
0
  30
0
  0
VERTEX
  5
98d
  8
Layer_0
  10
222.63571
  20
265.48965
  0
VERTEX
  5
98e
  8
Layer_0
  10
222.63571
  20
265.48065
  0
VERTEX
  5
98f
  8
Layer_0
  10
222.62051
  20
265.44864
  0
VERTEX
  5
990
  8
Layer_0
  10
222.59709
  20
265.45264
  0
VERTEX
  5
991
  8
Layer_0
  10
222.593
  20
265.47665
  0
VERTEX
  5
992
  8
Layer_0
  10
222.6246
  20
265.48965
  0
VERTEX
  5
993
  8
Layer_0
  10
222.63571
  20
265.48965
  0
VERTEX
  5
994
  8
Layer_0
  10
225.4366
  20
265.48965
  0
VERTEX
  5
995
  8
Layer_0
  10
225.44618
  20
265.48965
  0
VERTEX
  5
996
  8
Layer_0
  10
225.47791
  20
265.47665
  0
VERTEX
  5
997
  8
Layer_0
  10
225.47371
  20
265.45264
  0
VERTEX
  5
998
  8
Layer_0
  10
225.4503
  20
265.44864
  0
VERTEX
  5
999
  8
Layer_0
  10
225.4366
  20
265.48065
  0
VERTEX
  5
99a
  8
Layer_0
  10
225.4366
  20
265.48965
  0
VERTEX
  5
99b
  8
Layer_0
  10
225.4366
  20
271.29205
  0
VERTEX
  5
99c
  8
Layer_0
  10
225.4366
  20
271.30304
  0
VERTEX
  5
99d
  8
Layer_0
  10
225.4503
  20
271.33508
  0
VERTEX
  5
99e
  8
Layer_0
  10
225.47371
  20
271.32907
  0
VERTEX
  5
99f
  8
Layer_0
  10
225.47791
  20
271.30707
  0
VERTEX
  5
9a0
  8
Layer_0
  10
225.44618
  20
271.29205
  0
VERTEX
  5
9a1
  8
Layer_0
  10
225.4366
  20
271.29205
  0
VERTEX
  5
9a2
  8
Layer_0
  10
222.63571
  20
271.29205
  0
VERTEX
  5
9a3
  8
Layer_0
  10
222.6246
  20
271.29205
  0
VERTEX
  5
9a4
  8
Layer_0
  10
222.593
  20
271.30707
  0
VERTEX
  5
9a5
  8
Layer_0
  10
222.59709
  20
271.32907
  0
VERTEX
  5
9a6
  8
Layer_0
  10
222.62051
  20
271.33508
  0
VERTEX
  5
9a7
  8
Layer_0
  10
222.63571
  20
271.30304
  0
VERTEX
  5
9a8
  8
Layer_0
  10
222.63571
  20
271.29205
  0
SEQEND
  0
POLYLINE
  5
9aa
  8
Layer_0
  62
0
  66
1
  10
0
  20
0
  30
0
  0
VERTEX
  5
9aa
  8
Layer_0
  10
222.63571
  20
259.28714
  0
VERTEX
  5
9ab
  8
Layer_0
  10
222.63571
  20
259.29913
  0
VERTEX
  5
9ac
  8
Layer_0
  10
222.62051
  20
259.33014
  0
VERTEX
  5
9ad
  8
Layer_0
  10
222.59709
  20
259.32617
  0
VERTEX
  5
9ae
  8
Layer_0
  10
222.593
  20
259.30313
  0
VERTEX
  5
9af
  8
Layer_0
  10
222.6246
  20
259.28714
  0
VERTEX
  5
9b0
  8
Layer_0
  10
222.63571
  20
259.28714
  0
VERTEX
  5
9b1
  8
Layer_0
  10
225.4366
  20
259.28714
  0
VERTEX
  5
9b2
  8
Layer_0
  10
225.44618
  20
259.28714
  0
VERTEX
  5
9b3
  8
Layer_0
  10
225.47791
  20
259.30313
  0
VERTEX
  5
9b4
  8
Layer_0
  10
225.47371
  20
259.32617
  0
VERTEX
  5
9b5
  8
Layer_0
  10
225.4503
  20
259.33014
  0
VERTEX
  5
9b6
  8
Layer_0
  10
225.4366
  20
259.29913
  0
VERTEX
  5
9b7
  8
Layer_0
  10
225.4366
  20
259.28714
  0
VERTEX
  5
9b8
  8
Layer_0
  10
225.4366
  20
253.48773
  0
VERTEX
  5
9b9
  8
Layer_0
  10
225.4366
  20
253.47774
  0
VERTEX
  5
9ba
  8
Layer_0
  10
225.4503
  20
253.44572
  0
VERTEX
  5
9bb
  8
Layer_0
  10
225.47371
  20
253.44972
  0
VERTEX
  5
9bc
  8
Layer_0
  10
225.47791
  20
253.47374
  0
VERTEX
  5
9bd
  8
Layer_0
  10
225.44618
  20
253.48773
  0
VERTEX
  5
9be
  8
Layer_0
  10
225.4366
  20
253.48773
  0
VERTEX
  5
9bf
  8
Layer_0
  10
222.63571
  20
253.48773
  0
VERTEX
  5
9c0
  8
Layer_0
  10
222.6246
  20
253.48773
  0
VERTEX
  5
9c1
  8
Layer_0
  10
222.593
  20
253.47374
  0
VERTEX
  5
9c2
  8
Layer_0
  10
222.59709
  20
253.44972
  0
VERTEX
  5
9c3
  8
Layer_0
  10
222.62051
  20
253.44572
  0
VERTEX
  5
9c4
  8
Layer_0
  10
222.63571
  20
253.47774
  0
VERTEX
  5
9c5
  8
Layer_0
  10
222.63571
  20
253.48773
  0
SEQEND
  0
POLYLINE
  5
9c7
  8
Layer_0
  62
0
  66
1
  10
0
  20
0
  30
0
  0
VERTEX
  5
9c7
  8
Layer_0
  10
222.63571
  20
247.28522
  0
VERTEX
  5
9c8
  8
Layer_0
  10
222.63571
  20
247.29623
  0
VERTEX
  5
9c9
  8
Layer_0
  10
222.62051
  20
247.32724
  0
VERTEX
  5
9ca
  8
Layer_0
  10
222.59709
  20
247.32324
  0
VERTEX
  5
9cb
  8
Layer_0
  10
222.593
  20
247.30022
  0
VERTEX
  5
9cc
  8
Layer_0
  10
222.6246
  20
247.28522
  0
VERTEX
  5
9cd
  8
Layer_0
  10
222.63571
  20
247.28522
  0
VERTEX
  5
9ce
  8
Layer_0
  10
225.4366
  20
247.28522
  0
VERTEX
  5
9cf
  8
Layer_0
  10
225.44618
  20
247.28522
  0
VERTEX
  5
9d0
  8
Layer_0
  10
225.47791
  20
247.30022
  0
VERTEX
  5
9d1
  8
Layer_0
  10
225.47371
  20
247.32324
  0
VERTEX
  5
9d2
  8
Layer_0
  10
225.4503
  20
247.32724
  0
VERTEX
  5
9d3
  8
Layer_0
  10
225.4366
  20
247.29623
  0
VERTEX
  5
9d4
  8
Layer_0
  10
225.4366
  20
247.28522
  0
VERTEX
  5
9d5
  8
Layer_0
  10
225.4366
  20
241.48282
  0
VERTEX
  5
9d6
  8
Layer_0
  10
225.4366
  20
241.47382
  0
VERTEX
  5
9d7
  8
Layer_0
  10
225.4503
  20
241.44182
  0
VERTEX
  5
9d8
  8
Layer_0
  10
225.47371
  20
241.44582
  0
VERTEX
  5
9d9
  8
Layer_0
  10
225.47791
  20
241.46881
  0
VERTEX
  5
9da
  8
Layer_0
  10
225.44618
  20
241.48282
  0
VERTEX
  5
9db
  8
Layer_0
  10
225.4366
  20
241.48282
  0
VERTEX
  5
9dc
  8
Layer_0
  10
222.63571
  20
241.48282
  0
VERTEX
  5
9dd
  8
Layer_0
  10
222.6246
  20
241.48282
  0
VERTEX
  5
9de
  8
Layer_0
  10
222.593
  20
241.46881
  0
VERTEX
  5
9df
  8
Layer_0
  10
222.59709
  20
241.44582
  0
VERTEX
  5
9e0
  8
Layer_0
  10
222.62051
  20
241.44182
  0
VERTEX
  5
9e1
  8
Layer_0
  10
222.63571
  20
241.47382
  0
VERTEX
  5
9e2
  8
Layer_0
  10
222.63571
  20
241.48282
  0
SEQEND
  0
POLYLINE
  5
9e4
  8
Layer_0
  62
0
  66
1
  10
0
  20
0
  30
0
  0
VERTEX
  5
9e4
  8
Layer_0
  10
222.63571
  20
307.30081
  0
VERTEX
  5
9e5
  8
Layer_0
  10
222.63571
  20
307.31183
  0
VERTEX
  5
9e6
  8
Layer_0
  10
222.62051
  20
307.34277
  0
VERTEX
  5
9e7
  8
Layer_0
  10
222.59709
  20
307.33783
  0
VERTEX
  5
9e8
  8
Layer_0
  10
222.593
  20
307.3158
  0
VERTEX
  5
9e9
  8
Layer_0
  10
222.6246
  20
307.30081
  0
SEQEND
  0
POLYLINE
  5
9eb
  8
Layer_0
  62
0
  66
1
  10
0
  20
0
  30
0
  0
VERTEX
  5
9eb
  8
Layer_0
  10
222.63571
  20
229.48091
  0
VERTEX
  5
9ec
  8
Layer_0
  10
222.63571
  20
229.4709
  0
VERTEX
  5
9ed
  8
Layer_0
  10
222.62051
  20
229.4389
  0
VERTEX
  5
9ee
  8
Layer_0
  10
222.59709
  20
229.4429
  0
VERTEX
  5
9ef
  8
Layer_0
  10
222.593
  20
229.4669
  0
VERTEX
  5
9f0
  8
Layer_0
  10
222.6246
  20
229.48091
  0
SEQEND
  0
POLYLINE
  5
9f2
  8
Layer_0
  62
0
  66
1
  10
0
  20
0
  30
0
  0
VERTEX
  5
9f2
  8
Layer_0
  10
348.715
  20
288.84485
  42
-0.41421356
  0
VERTEX
  5
9f3
  8
Layer_0
  10
350.21536
  20
290.34521
  42
-0.41421356
  0
VERTEX
  5
9f4
  8
Layer_0
  10
351.71573
  20
288.84485
  0
VERTEX
  5
9f5
  8
Layer_0
  10
351.71573
  20
279.84265
  42
-0.41421356
  0
VERTEX
  5
9f6
  8
Layer_0
  10
350.21536
  20
278.34229
  42
-0.41421356
  0
VERTEX
  5
9f7
  8
Layer_0
  10
348.715
  20
279.84265
  0
VERTEX
  5
9f8
  8
Layer_0
  10
348.715
  20
288.84485
  0
SEQEND
  0
POLYLINE
  5
9fa
  8
Layer_0
  62
0
  66
1
  10
0
  20
0
  30
0
  0
VERTEX
  5
9fa
  8
Layer_0
  10
413.73077
  20
288.84485
  42
-0.41421356
  0
VERTEX
  5
9fb
  8
Layer_0
  10
415.23114
  20
290.34521
  42
-0.41421356
  0
VERTEX
  5
9fc
  8
Layer_0
  10
416.73151
  20
288.84485
  0
VERTEX
  5
9fd
  8
Layer_0
  10
416.73151
  20
279.84265
  42
-0.41421356
  0
VERTEX
  5
9fe
  8
Layer_0
  10
415.23114
  20
278.34229
  42
-0.41421356
  0
VERTEX
  5
9ff
  8
Layer_0
  10
413.73077
  20
279.84265
  0
VERTEX
  5
a00
  8
Layer_0
  10
413.73077
  20
288.84485
  0
SEQEND
  0
POLYLINE
  5
a02
  8
Layer_0
  62
0
  66
1
  10
0
  20
0
  30
0
  0
VERTEX
  5
a02
  8
Layer_0
  10
348.715
  20
261.83826
  42
-0.41421356
  0
VERTEX
  5
a03
  8
Layer_0
  10
350.21536
  20
263.33862
  42
-0.41421356
  0
VERTEX
  5
a04
  8
Layer_0
  10
351.71573
  20
261.83826
  0
VERTEX
  5
a05
  8
Layer_0
  10
351.71573
  20
252.83609
  42
-0.41421356
  0
VERTEX
  5
a06
  8
Layer_0
  10
350.21536
  20
251.33572
  42
-0.41421356
  0
VERTEX
  5
a07
  8
Layer_0
  10
348.715
  20
252.83609
  0
VERTEX
  5
a08
  8
Layer_0
  10
348.715
  20
261.83826
  0
SEQEND
  0
POLYLINE
  5
a0a
  8
Layer_0
  62
0
  66
1
  10
0
  20
0
  30
0
  0
VERTEX
  5
a0a
  8
Layer_0
  10
413.73077
  20
261.83826
  42
-0.41421356
  0
VERTEX
  5
a0b
  8
Layer_0
  10
415.23114
  20
263.33862
  42
-0.41421356
  0
VERTEX
  5
a0c
  8
Layer_0
  10
416.73151
  20
261.83826
  0
VERTEX
  5
a0d
  8
Layer_0
  10
416.73151
  20
252.83609
  42
-0.41421356
  0
VERTEX
  5
a0e
  8
Layer_0
  10
415.23114
  20
251.33572
  42
-0.41421356
  0
VERTEX
  5
a0f
  8
Layer_0
  10
413.73077
  20
252.83609
  0
VERTEX
  5
a10
  8
Layer_0
  10
413.73077
  20
261.83826
  0
SEQEND
  0
POLYLINE
  5
a12
  8
Layer_0
  62
0
  66
1
  10
0
  20
0
  30
0
  0
VERTEX
  5
a12
  8
Layer_0
  10
378.22217
  20
226.82977
  42
-0.41421356
  0
VERTEX
  5
a13
  8
Layer_0
  10
376.7218
  20
228.33012
  42
-0.41421356
  0
VERTEX
  5
a14
  8
Layer_0
  10
378.22217
  20
229.83049
  0
VERTEX
  5
a15
  8
Layer_0
  10
387.22437
  20
229.83049
  42
-0.41421356
  0
VERTEX
  5
a16
  8
Layer_0
  10
388.72473
  20
228.33012
  42
-0.41421356
  0
VERTEX
  5
a17
  8
Layer_0
  10
387.22437
  20
226.82977
  0
VERTEX
  5
a18
  8
Layer_0
  10
378.22217
  20
226.82977
  0
SEQEND
  0
POLYLINE
  5
a1a
  8
Layer_0
  62
0
  66
1
  10
0
  20
0
  30
0
  0
VERTEX
  5
a1a
  8
Layer_0
  10
281.4678
  20
160.45592
  0
VERTEX
  5
a1b
  8
Layer_0
  10
281.4678
  20
169.69592
  42
0.41421356
  0
VERTEX
  5
a1c
  8
Layer_0
  10
277.8978
  20
173.26591
  42
0.41421356
  0
VERTEX
  5
a1d
  8
Layer_0
  10
274.32779
  20
169.69592
  0
VERTEX
  5
a1e
  8
Layer_0
  10
274.32779
  20
160.45592
  42
0.41421356
  0
VERTEX
  5
a1f
  8
Layer_0
  10
277.8978
  20
156.88593
  42
0.41421356
  0
VERTEX
  5
a20
  8
Layer_0
  10
281.4678
  20
160.45592
  0
SEQEND
  0
POLYLINE
  5
a22
  8
Layer_0
  62
0
  66
1
  10
0
  20
0
  30
0
  0
VERTEX
  5
a22
  8
Layer_0
  10
256.83096
  20
340.1243
  0
VERTEX
  5
a23
  8
Layer_0
  10
256.87228
  20
340.11127
  0
VERTEX
  5
a24
  8
Layer_0
  10
256.9137
  20
340.10025
  0
VERTEX
  5
a25
  8
Layer_0
  10
257.12595
  20
340.07629
  0
VERTEX
  5
a26
  8
Layer_0
  10
257.3382
  20
340.10025
  0
VERTEX
  5
a27
  8
Layer_0
  10
257.37952
  20
340.11127
  0
VERTEX
  5
a28
  8
Layer_0
  10
257.42093
  20
340.1243
  0
VERTEX
  5
a29
  8
Layer_0
  10
257.61255
  20
340.21832
  0
VERTEX
  5
a2a
  8
Layer_0
  10
257.77789
  20
340.35434
  0
VERTEX
  5
a2b
  8
Layer_0
  10
257.80692
  20
340.38635
  0
VERTEX
  5
a2c
  8
Layer_0
  10
257.83441
  20
340.41937
  0
VERTEX
  5
a2d
  8
Layer_0
  10
257.94473
  20
340.60242
  0
VERTEX
  5
a2e
  8
Layer_0
  10
258.01083
  20
340.80542
  0
VERTEX
  5
a2f
  8
Layer_0
  10
258.01776
  20
340.84644
  0
VERTEX
  5
a30
  8
Layer_0
  10
258.02325
  20
340.88849
  0
VERTEX
  5
a31
  8
Layer_0
  10
258.01636
  20
341.10455
  0
VERTEX
  5
a32
  8
Layer_0
  10
257.96265
  20
341.31058
  0
VERTEX
  5
a33
  8
Layer_0
  10
257.94473
  20
341.34961
  0
VERTEX
  5
a34
  8
Layer_0
  10
257.92676
  20
341.38959
  0
VERTEX
  5
a35
  8
Layer_0
  10
257.80551
  20
341.56564
  0
VERTEX
  5
a36
  8
Layer_0
  10
257.64838
  20
341.70966
  0
VERTEX
  5
a37
  8
Layer_0
  10
257.61255
  20
341.73267
  0
VERTEX
  5
a38
  8
Layer_0
  10
257.57526
  20
341.75568
  0
VERTEX
  5
a39
  8
Layer_0
  10
257.37952
  20
341.83868
  0
VERTEX
  5
a3a
  8
Layer_0
  10
257.18936
  20
341.87473
  0
VERTEX
  5
a3b
  8
Layer_0
  10
257.12595
  20
341.87473
  0
VERTEX
  5
a3c
  8
Layer_0
  10
257.06253
  20
341.87473
  0
VERTEX
  5
a3d
  8
Layer_0
  10
256.87228
  20
341.83868
  0
VERTEX
  5
a3e
  8
Layer_0
  10
256.67523
  20
341.75568
  0
VERTEX
  5
a3f
  8
Layer_0
  10
256.6394
  20
341.73267
  0
VERTEX
  5
a40
  8
Layer_0
  10
256.60211
  20
341.70966
  0
VERTEX
  5
a41
  8
Layer_0
  10
256.44507
  20
341.56564
  0
VERTEX
  5
a42
  8
Layer_0
  10
256.32513
  20
341.38959
  0
VERTEX
  5
a43
  8
Layer_0
  10
256.30725
  20
341.34961
  0
VERTEX
  5
a44
  8
Layer_0
  10
256.28925
  20
341.31058
  0
VERTEX
  5
a45
  8
Layer_0
  10
256.23413
  20
341.10455
  0
VERTEX
  5
a46
  8
Layer_0
  10
256.22861
  20
340.88849
  0
VERTEX
  5
a47
  8
Layer_0
  10
256.2355
  20
340.84644
  0
VERTEX
  5
a48
  8
Layer_0
  10
256.24103
  20
340.80542
  0
VERTEX
  5
a49
  8
Layer_0
  10
256.30725
  20
340.60242
  0
VERTEX
  5
a4a
  8
Layer_0
  10
256.41748
  20
340.41937
  0
VERTEX
  5
a4b
  8
Layer_0
  10
256.44638
  20
340.38635
  0
VERTEX
  5
a4c
  8
Layer_0
  10
256.47397
  20
340.35434
  0
VERTEX
  5
a4d
  8
Layer_0
  10
256.638
  20
340.21832
  0
VERTEX
  5
a4e
  8
Layer_0
  10
256.83096
  20
340.1243
  0
SEQEND
  0
POLYLINE
  5
a50
  8
Layer_0
  62
0
  66
1
  10
0
  20
0
  30
0
  0
VERTEX
  5
a50
  8
Layer_0
  10
245.86052
  20
348.71936
  0
VERTEX
  5
a51
  8
Layer_0
  10
245.90182
  20
348.70538
  0
VERTEX
  5
a52
  8
Layer_0
  10
245.94321
  20
348.69537
  0
VERTEX
  5
a53
  8
Layer_0
  10
246.1348
  20
348.5993
  0
VERTEX
  5
a54
  8
Layer_0
  10
246.3002
  20
348.46533
  0
VERTEX
  5
a55
  8
Layer_0
  10
246.32912
  20
348.43433
  0
VERTEX
  5
a56
  8
Layer_0
  10
246.35672
  20
348.40228
  0
VERTEX
  5
a57
  8
Layer_0
  10
246.46693
  20
348.21826
  0
VERTEX
  5
a58
  8
Layer_0
  10
246.53317
  20
348.01422
  0
VERTEX
  5
a59
  8
Layer_0
  10
246.54007
  20
347.97119
  0
VERTEX
  5
a5a
  8
Layer_0
  10
246.54556
  20
347.9292
  0
VERTEX
  5
a5b
  8
Layer_0
  10
246.53867
  20
347.71713
  0
VERTEX
  5
a5c
  8
Layer_0
  10
246.48485
  20
347.50909
  0
VERTEX
  5
a5d
  8
Layer_0
  10
246.46693
  20
347.47107
  0
VERTEX
  5
a5e
  8
Layer_0
  10
246.44905
  20
347.43207
  0
VERTEX
  5
a5f
  8
Layer_0
  10
246.3277
  20
347.255
  0
VERTEX
  5
a60
  8
Layer_0
  10
246.17059
  20
347.11096
  0
VERTEX
  5
a61
  8
Layer_0
  10
246.1348
  20
347.08594
  0
VERTEX
  5
a62
  8
Layer_0
  10
246.09758
  20
347.06097
  0
VERTEX
  5
a63
  8
Layer_0
  10
245.90182
  20
346.97998
  0
VERTEX
  5
a64
  8
Layer_0
  10
245.71169
  20
346.94095
  0
VERTEX
  5
a65
  8
Layer_0
  10
245.64825
  20
346.94095
  0
VERTEX
  5
a66
  8
Layer_0
  10
245.58485
  20
346.94095
  0
VERTEX
  5
a67
  8
Layer_0
  10
245.39459
  20
346.97998
  0
VERTEX
  5
a68
  8
Layer_0
  10
245.19756
  20
347.06097
  0
VERTEX
  5
a69
  8
Layer_0
  10
245.16165
  20
347.08594
  0
VERTEX
  5
a6a
  8
Layer_0
  10
245.12445
  20
347.11096
  0
VERTEX
  5
a6b
  8
Layer_0
  10
244.96727
  20
347.255
  0
VERTEX
  5
a6c
  8
Layer_0
  10
244.84734
  20
347.43207
  0
VERTEX
  5
a6d
  8
Layer_0
  10
244.82945
  20
347.47107
  0
VERTEX
  5
a6e
  8
Layer_0
  10
244.81154
  20
347.50909
  0
VERTEX
  5
a6f
  8
Layer_0
  10
244.75644
  20
347.71713
  0
VERTEX
  5
a70
  8
Layer_0
  10
244.75095
  20
347.9292
  0
VERTEX
  5
a71
  8
Layer_0
  10
244.75784
  20
347.97119
  0
VERTEX
  5
a72
  8
Layer_0
  10
244.76334
  20
348.01422
  0
VERTEX
  5
a73
  8
Layer_0
  10
244.82805
  20
348.21826
  0
VERTEX
  5
a74
  8
Layer_0
  10
244.93837
  20
348.40228
  0
VERTEX
  5
a75
  8
Layer_0
  10
244.96727
  20
348.43433
  0
VERTEX
  5
a76
  8
Layer_0
  10
244.9949
  20
348.46533
  0
VERTEX
  5
a77
  8
Layer_0
  10
245.16165
  20
348.5993
  0
VERTEX
  5
a78
  8
Layer_0
  10
245.35329
  20
348.69537
  0
VERTEX
  5
a79
  8
Layer_0
  10
245.39459
  20
348.70538
  0
VERTEX
  5
a7a
  8
Layer_0
  10
245.43597
  20
348.71936
  0
VERTEX
  5
a7b
  8
Layer_0
  10
245.64825
  20
348.74438
  0
VERTEX
  5
a7c
  8
Layer_0
  10
245.86052
  20
348.71936
  0
SEQEND
  0
POLYLINE
  5
a7e
  8
Layer_0
  62
0
  66
1
  10
0
  20
0
  30
0
  0
VERTEX
  5
a7e
  8
Layer_0
  10
288.74442
  20
340.88849
  0
VERTEX
  5
a7f
  8
Layer_0
  10
288.75153
  20
340.84644
  0
VERTEX
  5
a80
  8
Layer_0
  10
288.75671
  20
340.80542
  0
VERTEX
  5
a81
  8
Layer_0
  10
288.82312
  20
340.60242
  0
VERTEX
  5
a82
  8
Layer_0
  10
288.93317
  20
340.41937
  0
VERTEX
  5
a83
  8
Layer_0
  10
288.96219
  20
340.38635
  0
VERTEX
  5
a84
  8
Layer_0
  10
288.98969
  20
340.35434
  0
VERTEX
  5
a85
  8
Layer_0
  10
289.15512
  20
340.21832
  0
VERTEX
  5
a86
  8
Layer_0
  10
289.34677
  20
340.1243
  0
VERTEX
  5
a87
  8
Layer_0
  10
289.38806
  20
340.11127
  0
VERTEX
  5
a88
  8
Layer_0
  10
289.42926
  20
340.10025
  0
VERTEX
  5
a89
  8
Layer_0
  10
289.64172
  20
340.07629
  0
VERTEX
  5
a8a
  8
Layer_0
  10
289.85419
  20
340.10025
  0
VERTEX
  5
a8b
  8
Layer_0
  10
289.89551
  20
340.11127
  0
VERTEX
  5
a8c
  8
Layer_0
  10
289.93671
  20
340.1243
  0
VERTEX
  5
a8d
  8
Layer_0
  10
290.12836
  20
340.21832
  0
VERTEX
  5
a8e
  8
Layer_0
  10
290.29379
  20
340.35434
  0
VERTEX
  5
a8f
  8
Layer_0
  10
290.32281
  20
340.38635
  0
VERTEX
  5
a90
  8
Layer_0
  10
290.35031
  20
340.41937
  0
VERTEX
  5
a91
  8
Layer_0
  10
290.46045
  20
340.60242
  0
VERTEX
  5
a92
  8
Layer_0
  10
290.52676
  20
340.80542
  0
VERTEX
  5
a93
  8
Layer_0
  10
290.53345
  20
340.84644
  0
VERTEX
  5
a94
  8
Layer_0
  10
290.53903
  20
340.88849
  0
VERTEX
  5
a95
  8
Layer_0
  10
290.53204
  20
341.10455
  0
VERTEX
  5
a96
  8
Layer_0
  10
290.47845
  20
341.31058
  0
VERTEX
  5
a97
  8
Layer_0
  10
290.46045
  20
341.34961
  0
VERTEX
  5
a98
  8
Layer_0
  10
290.44272
  20
341.38959
  0
VERTEX
  5
a99
  8
Layer_0
  10
290.32141
  20
341.56564
  0
VERTEX
  5
a9a
  8
Layer_0
  10
290.16534
  20
341.70966
  0
VERTEX
  5
a9b
  8
Layer_0
  10
290.12976
  20
341.73267
  0
VERTEX
  5
a9c
  8
Layer_0
  10
290.09235
  20
341.75568
  0
VERTEX
  5
a9d
  8
Layer_0
  10
289.89551
  20
341.83868
  0
VERTEX
  5
a9e
  8
Layer_0
  10
289.70526
  20
341.87473
  0
VERTEX
  5
a9f
  8
Layer_0
  10
289.64313
  20
341.87473
  0
VERTEX
  5
aa0
  8
Layer_0
  10
289.57825
  20
341.87473
  0
VERTEX
  5
aa1
  8
Layer_0
  10
289.38806
  20
341.83868
  0
VERTEX
  5
aa2
  8
Layer_0
  10
289.1911
  20
341.75568
  0
VERTEX
  5
aa3
  8
Layer_0
  10
289.15512
  20
341.73267
  0
VERTEX
  5
aa4
  8
Layer_0
  10
289.1181
  20
341.70966
  0
VERTEX
  5
aa5
  8
Layer_0
  10
288.96078
  20
341.56564
  0
VERTEX
  5
aa6
  8
Layer_0
  10
288.84116
  20
341.38959
  0
VERTEX
  5
aa7
  8
Layer_0
  10
288.82312
  20
341.34961
  0
VERTEX
  5
aa8
  8
Layer_0
  10
288.80511
  20
341.31058
  0
VERTEX
  5
aa9
  8
Layer_0
  10
288.75003
  20
341.10455
  0
VERTEX
  5
aaa
  8
Layer_0
  10
288.74442
  20
340.88849
  0
SEQEND
  0
POLYLINE
  5
aac
  8
Layer_0
  62
0
  66
1
  10
0
  20
0
  30
0
  0
VERTEX
  5
aac
  8
Layer_0
  10
277.32755
  20
347.50909
  0
VERTEX
  5
aad
  8
Layer_0
  10
277.34515
  20
347.47107
  0
VERTEX
  5
aae
  8
Layer_0
  10
277.36316
  20
347.43207
  0
VERTEX
  5
aaf
  8
Layer_0
  10
277.48318
  20
347.255
  0
VERTEX
  5
ab0
  8
Layer_0
  10
277.64011
  20
347.11096
  0
VERTEX
  5
ab1
  8
Layer_0
  10
277.67752
  20
347.08594
  0
VERTEX
  5
ab2
  8
Layer_0
  10
277.71323
  20
347.06097
  0
VERTEX
  5
ab3
  8
Layer_0
  10
277.91049
  20
346.97998
  0
VERTEX
  5
ab4
  8
Layer_0
  10
278.10062
  20
346.94095
  0
VERTEX
  5
ab5
  8
Layer_0
  10
278.16415
  20
346.94095
  0
VERTEX
  5
ab6
  8
Layer_0
  10
278.22736
  20
346.94095
  0
VERTEX
  5
ab7
  8
Layer_0
  10
278.41751
  20
346.97998
  0
VERTEX
  5
ab8
  8
Layer_0
  10
278.61334
  20
347.06097
  0
VERTEX
  5
ab9
  8
Layer_0
  10
278.65076
  20
347.08594
  0
VERTEX
  5
aba
  8
Layer_0
  10
278.68637
  20
347.11096
  0
VERTEX
  5
abb
  8
Layer_0
  10
278.84482
  20
347.255
  0
VERTEX
  5
abc
  8
Layer_0
  10
278.96625
  20
347.43207
  0
VERTEX
  5
abd
  8
Layer_0
  10
278.98425
  20
347.47107
  0
VERTEX
  5
abe
  8
Layer_0
  10
279.00073
  20
347.50909
  0
VERTEX
  5
abf
  8
Layer_0
  10
279.05447
  20
347.71713
  0
VERTEX
  5
ac0
  8
Layer_0
  10
279.06146
  20
347.9292
  0
VERTEX
  5
ac1
  8
Layer_0
  10
279.05588
  20
347.97119
  0
VERTEX
  5
ac2
  8
Layer_0
  10
279.04916
  20
348.01422
  0
VERTEX
  5
ac3
  8
Layer_0
  10
278.98285
  20
348.21826
  0
VERTEX
  5
ac4
  8
Layer_0
  10
278.87271
  20
348.40228
  0
VERTEX
  5
ac5
  8
Layer_0
  10
278.84482
  20
348.43433
  0
VERTEX
  5
ac6
  8
Layer_0
  10
278.81592
  20
348.46533
  0
VERTEX
  5
ac7
  8
Layer_0
  10
278.65076
  20
348.5993
  0
VERTEX
  5
ac8
  8
Layer_0
  10
278.45911
  20
348.69537
  0
VERTEX
  5
ac9
  8
Layer_0
  10
278.41751
  20
348.70538
  0
VERTEX
  5
aca
  8
Layer_0
  10
278.37619
  20
348.71936
  0
VERTEX
  5
acb
  8
Layer_0
  10
278.16415
  20
348.74438
  0
VERTEX
  5
acc
  8
Layer_0
  10
277.95169
  20
348.71936
  0
VERTEX
  5
acd
  8
Layer_0
  10
277.91049
  20
348.70538
  0
VERTEX
  5
ace
  8
Layer_0
  10
277.86917
  20
348.69537
  0
VERTEX
  5
acf
  8
Layer_0
  10
277.67752
  20
348.5993
  0
VERTEX
  5
ad0
  8
Layer_0
  10
277.51208
  20
348.46533
  0
VERTEX
  5
ad1
  8
Layer_0
  10
277.48462
  20
348.43433
  0
VERTEX
  5
ad2
  8
Layer_0
  10
277.45557
  20
348.40228
  0
VERTEX
  5
ad3
  8
Layer_0
  10
277.34515
  20
348.21826
  0
VERTEX
  5
ad4
  8
Layer_0
  10
277.27914
  20
348.01422
  0
VERTEX
  5
ad5
  8
Layer_0
  10
277.27356
  20
347.97119
  0
VERTEX
  5
ad6
  8
Layer_0
  10
277.26685
  20
347.9292
  0
VERTEX
  5
ad7
  8
Layer_0
  10
277.27216
  20
347.71713
  0
VERTEX
  5
ad8
  8
Layer_0
  10
277.32755
  20
347.50909
  0
SEQEND
  0
POLYLINE
  5
ada
  8
Layer_0
  62
0
  66
1
  10
0
  20
0
  30
0
  0
VERTEX
  5
ada
  8
Layer_0
  10
337.96631
  20
224.71675
  0
VERTEX
  5
adb
  8
Layer_0
  10
337.98557
  20
224.65173
  0
VERTEX
  5
adc
  8
Layer_0
  10
338.00351
  20
224.58772
  0
VERTEX
  5
add
  8
Layer_0
  10
338.15103
  20
224.28867
  0
VERTEX
  5
ade
  8
Layer_0
  10
338.36188
  20
224.03061
  0
VERTEX
  5
adf
  8
Layer_0
  10
338.4129
  20
223.9866
  0
VERTEX
  5
ae0
  8
Layer_0
  10
338.46252
  20
223.94257
  0
VERTEX
  5
ae1
  8
Layer_0
  10
338.74789
  20
223.77252
  0
VERTEX
  5
ae2
  8
Layer_0
  10
339.06345
  20
223.66852
  0
VERTEX
  5
ae3
  8
Layer_0
  10
339.13092
  20
223.65948
  0
VERTEX
  5
ae4
  8
Layer_0
  10
339.1972
  20
223.65051
  0
VERTEX
  5
ae5
  8
Layer_0
  10
339.52795
  20
223.66051
  0
VERTEX
  5
ae6
  8
Layer_0
  10
339.84912
  20
223.74454
  0
VERTEX
  5
ae7
  8
Layer_0
  10
339.91113
  20
223.77252
  0
VERTEX
  5
ae8
  8
Layer_0
  10
339.97186
  20
223.80052
  0
VERTEX
  5
ae9
  8
Layer_0
  10
340.24612
  20
223.98857
  0
VERTEX
  5
aea
  8
Layer_0
  10
340.47076
  20
224.23264
  0
VERTEX
  5
aeb
  8
Layer_0
  10
340.508
  20
224.28867
  0
VERTEX
  5
aec
  8
Layer_0
  10
340.54388
  20
224.34567
  0
VERTEX
  5
aed
  8
Layer_0
  10
340.67203
  20
224.65173
  0
VERTEX
  5
aee
  8
Layer_0
  10
340.72998
  20
224.94783
  0
VERTEX
  5
aef
  8
Layer_0
  10
340.72998
  20
225.04584
  0
VERTEX
  5
af0
  8
Layer_0
  10
340.72998
  20
225.14485
  0
VERTEX
  5
af1
  8
Layer_0
  10
340.67203
  20
225.44092
  0
VERTEX
  5
af2
  8
Layer_0
  10
340.54388
  20
225.74599
  0
VERTEX
  5
af3
  8
Layer_0
  10
340.508
  20
225.80205
  0
VERTEX
  5
af4
  8
Layer_0
  10
340.47076
  20
225.85902
  0
VERTEX
  5
af5
  8
Layer_0
  10
340.24612
  20
226.10411
  0
VERTEX
  5
af6
  8
Layer_0
  10
339.97186
  20
226.29216
  0
VERTEX
  5
af7
  8
Layer_0
  10
339.91113
  20
226.31914
  0
VERTEX
  5
af8
  8
Layer_0
  10
339.84912
  20
226.34816
  0
VERTEX
  5
af9
  8
Layer_0
  10
339.52795
  20
226.43219
  0
VERTEX
  5
afa
  8
Layer_0
  10
339.1972
  20
226.4402
  0
VERTEX
  5
afb
  8
Layer_0
  10
339.13092
  20
226.43115
  0
VERTEX
  5
afc
  8
Layer_0
  10
339.06345
  20
226.42316
  0
VERTEX
  5
afd
  8
Layer_0
  10
338.74789
  20
226.31914
  0
VERTEX
  5
afe
  8
Layer_0
  10
338.46252
  20
226.1481
  0
VERTEX
  5
aff
  8
Layer_0
  10
338.4129
  20
226.10411
  0
VERTEX
  5
b00
  8
Layer_0
  10
338.36188
  20
226.06009
  0
VERTEX
  5
b01
  8
Layer_0
  10
338.15103
  20
225.80402
  0
VERTEX
  5
b02
  8
Layer_0
  10
338.00351
  20
225.50496
  0
VERTEX
  5
b03
  8
Layer_0
  10
337.98557
  20
225.43996
  0
VERTEX
  5
b04
  8
Layer_0
  10
337.96631
  20
225.37692
  0
VERTEX
  5
b05
  8
Layer_0
  10
337.92767
  20
225.04584
  0
VERTEX
  5
b06
  8
Layer_0
  10
337.96631
  20
224.71675
  0
SEQEND
  0
POLYLINE
  5
b08
  8
Layer_0
  62
0
  66
1
  10
0
  20
0
  30
0
  0
VERTEX
  5
b08
  8
Layer_0
  10
424.71463
  20
225.56696
  0
VERTEX
  5
b09
  8
Layer_0
  10
424.74365
  20
225.62698
  0
VERTEX
  5
b0a
  8
Layer_0
  10
424.77066
  20
225.69
  0
VERTEX
  5
b0b
  8
Layer_0
  10
424.9577
  20
225.96204
  0
VERTEX
  5
b0c
  8
Layer_0
  10
425.20377
  20
226.18712
  0
VERTEX
  5
b0d
  8
Layer_0
  10
425.25977
  20
226.22313
  0
VERTEX
  5
b0e
  8
Layer_0
  10
425.31677
  20
226.26012
  0
VERTEX
  5
b0f
  8
Layer_0
  10
425.62286
  20
226.38916
  0
VERTEX
  5
b10
  8
Layer_0
  10
425.91791
  20
226.44618
  0
VERTEX
  5
b11
  8
Layer_0
  10
426.01694
  20
226.44618
  0
VERTEX
  5
b12
  8
Layer_0
  10
426.11499
  20
226.44618
  0
VERTEX
  5
b13
  8
Layer_0
  10
426.41107
  20
226.38916
  0
VERTEX
  5
b14
  8
Layer_0
  10
426.71814
  20
226.26012
  0
VERTEX
  5
b15
  8
Layer_0
  10
426.77515
  20
226.22313
  0
VERTEX
  5
b16
  8
Layer_0
  10
426.83014
  20
226.18712
  0
VERTEX
  5
b17
  8
Layer_0
  10
427.0752
  20
225.96204
  0
VERTEX
  5
b18
  8
Layer_0
  10
427.26331
  20
225.69
  0
VERTEX
  5
b19
  8
Layer_0
  10
427.2923
  20
225.62698
  0
VERTEX
  5
b1a
  8
Layer_0
  10
427.31927
  20
225.56696
  0
VERTEX
  5
b1b
  8
Layer_0
  10
427.40329
  20
225.24586
  0
VERTEX
  5
b1c
  8
Layer_0
  10
427.41333
  20
224.91278
  0
VERTEX
  5
b1d
  8
Layer_0
  10
427.40329
  20
224.84579
  0
VERTEX
  5
b1e
  8
Layer_0
  10
427.39429
  20
224.77975
  0
VERTEX
  5
b1f
  8
Layer_0
  10
427.29025
  20
224.46571
  0
VERTEX
  5
b20
  8
Layer_0
  10
427.11923
  20
224.17963
  0
VERTEX
  5
b21
  8
Layer_0
  10
427.0752
  20
224.12962
  0
VERTEX
  5
b22
  8
Layer_0
  10
427.03119
  20
224.07762
  0
VERTEX
  5
b23
  8
Layer_0
  10
426.77515
  20
223.86855
  0
VERTEX
  5
b24
  8
Layer_0
  10
426.47607
  20
223.72054
  0
VERTEX
  5
b25
  8
Layer_0
  10
426.41205
  20
223.70149
  0
VERTEX
  5
b26
  8
Layer_0
  10
426.34805
  20
223.6835
  0
VERTEX
  5
b27
  8
Layer_0
  10
426.01694
  20
223.64551
  0
VERTEX
  5
b28
  8
Layer_0
  10
425.68585
  20
223.6835
  0
VERTEX
  5
b29
  8
Layer_0
  10
425.62286
  20
223.70149
  0
VERTEX
  5
b2a
  8
Layer_0
  10
425.55786
  20
223.72054
  0
VERTEX
  5
b2b
  8
Layer_0
  10
425.25977
  20
223.86855
  0
VERTEX
  5
b2c
  8
Layer_0
  10
425.00171
  20
224.07762
  0
VERTEX
  5
b2d
  8
Layer_0
  10
424.95972
  20
224.12962
  0
VERTEX
  5
b2e
  8
Layer_0
  10
424.91571
  20
224.17963
  0
VERTEX
  5
b2f
  8
Layer_0
  10
424.74365
  20
224.46571
  0
VERTEX
  5
b30
  8
Layer_0
  10
424.6416
  20
224.77975
  0
VERTEX
  5
b31
  8
Layer_0
  10
424.63162
  20
224.84579
  0
VERTEX
  5
b32
  8
Layer_0
  10
424.62161
  20
224.91278
  0
VERTEX
  5
b33
  8
Layer_0
  10
424.63062
  20
225.24586
  0
VERTEX
  5
b34
  8
Layer_0
  10
424.71463
  20
225.56696
  0
SEQEND
  0
POLYLINE
  5
b36
  8
Layer_0
  62
0
  66
1
  10
0
  20
0
  30
0
  0
VERTEX
  5
b36
  8
Layer_0
  10
427.3783
  20
311.40381
  0
VERTEX
  5
b37
  8
Layer_0
  10
427.36029
  20
311.33881
  0
VERTEX
  5
b38
  8
Layer_0
  10
427.34131
  20
311.27478
  0
VERTEX
  5
b39
  8
Layer_0
  10
427.19525
  20
310.97668
  0
VERTEX
  5
b3a
  8
Layer_0
  10
426.98419
  20
310.71863
  0
VERTEX
  5
b3b
  8
Layer_0
  10
426.93518
  20
310.67465
  0
VERTEX
  5
b3c
  8
Layer_0
  10
426.88318
  20
310.63165
  0
VERTEX
  5
b3d
  8
Layer_0
  10
426.59811
  20
310.45959
  0
VERTEX
  5
b3e
  8
Layer_0
  10
426.28302
  20
310.35754
  0
VERTEX
  5
b3f
  8
Layer_0
  10
426.21698
  20
310.34753
  0
VERTEX
  5
b40
  8
Layer_0
  10
426.14899
  20
310.33755
  0
VERTEX
  5
b41
  8
Layer_0
  10
425.81689
  20
310.34753
  0
VERTEX
  5
b42
  8
Layer_0
  10
425.49582
  20
310.43158
  0
VERTEX
  5
b43
  8
Layer_0
  10
425.43481
  20
310.45959
  0
VERTEX
  5
b44
  8
Layer_0
  10
425.3728
  20
310.48859
  0
VERTEX
  5
b45
  8
Layer_0
  10
425.10074
  20
310.67566
  0
VERTEX
  5
b46
  8
Layer_0
  10
424.87567
  20
310.91968
  0
VERTEX
  5
b47
  8
Layer_0
  10
424.83966
  20
310.97668
  0
VERTEX
  5
b48
  8
Layer_0
  10
424.80267
  20
311.03271
  0
VERTEX
  5
b49
  8
Layer_0
  10
424.67261
  20
311.33881
  0
VERTEX
  5
b4a
  8
Layer_0
  10
424.61661
  20
311.63483
  0
VERTEX
  5
b4b
  8
Layer_0
  10
424.61661
  20
311.73288
  0
VERTEX
  5
b4c
  8
Layer_0
  10
424.61661
  20
311.83191
  0
VERTEX
  5
b4d
  8
Layer_0
  10
424.67261
  20
312.12799
  0
VERTEX
  5
b4e
  8
Layer_0
  10
424.80267
  20
312.43506
  0
VERTEX
  5
b4f
  8
Layer_0
  10
424.83966
  20
312.49103
  0
VERTEX
  5
b50
  8
Layer_0
  10
424.87567
  20
312.54706
  0
VERTEX
  5
b51
  8
Layer_0
  10
425.10074
  20
312.79114
  0
VERTEX
  5
b52
  8
Layer_0
  10
425.3728
  20
312.97919
  0
VERTEX
  5
b53
  8
Layer_0
  10
425.43481
  20
313.00623
  0
VERTEX
  5
b54
  8
Layer_0
  10
425.49582
  20
313.03522
  0
VERTEX
  5
b55
  8
Layer_0
  10
425.81689
  20
313.11923
  0
VERTEX
  5
b56
  8
Layer_0
  10
426.14899
  20
313.12921
  0
VERTEX
  5
b57
  8
Layer_0
  10
426.21698
  20
313.11923
  0
VERTEX
  5
b58
  8
Layer_0
  10
426.28302
  20
313.11023
  0
VERTEX
  5
b59
  8
Layer_0
  10
426.59811
  20
313.00821
  0
VERTEX
  5
b5a
  8
Layer_0
  10
426.88318
  20
312.83517
  0
VERTEX
  5
b5b
  8
Layer_0
  10
426.93518
  20
312.79114
  0
VERTEX
  5
b5c
  8
Layer_0
  10
426.98419
  20
312.74713
  0
VERTEX
  5
b5d
  8
Layer_0
  10
427.19525
  20
312.49103
  0
VERTEX
  5
b5e
  8
Layer_0
  10
427.34131
  20
312.19202
  0
VERTEX
  5
b5f
  8
Layer_0
  10
427.36029
  20
312.12698
  0
VERTEX
  5
b60
  8
Layer_0
  10
427.3783
  20
312.06396
  0
VERTEX
  5
b61
  8
Layer_0
  10
427.4173
  20
311.73389
  0
VERTEX
  5
b62
  8
Layer_0
  10
427.3783
  20
311.40381
  0
SEQEND
  0
POLYLINE
  5
b64
  8
Layer_0
  62
0
  66
1
  10
0
  20
0
  30
0
  0
VERTEX
  5
b64
  8
Layer_0
  10
339.65891
  20
313.09619
  0
VERTEX
  5
b65
  8
Layer_0
  10
339.72372
  20
313.07724
  0
VERTEX
  5
b66
  8
Layer_0
  10
339.78714
  20
313.0592
  0
VERTEX
  5
b67
  8
Layer_0
  10
340.08618
  20
312.91119
  0
VERTEX
  5
b68
  8
Layer_0
  10
340.34393
  20
312.70215
  0
VERTEX
  5
b69
  8
Layer_0
  10
340.38806
  20
312.65109
  0
VERTEX
  5
b6a
  8
Layer_0
  10
340.43076
  20
312.6001
  0
VERTEX
  5
b6b
  8
Layer_0
  10
340.60315
  20
312.31601
  0
VERTEX
  5
b6c
  8
Layer_0
  10
340.70654
  20
311.99994
  0
VERTEX
  5
b6d
  8
Layer_0
  10
340.71613
  20
311.93292
  0
VERTEX
  5
b6e
  8
Layer_0
  10
340.72443
  20
311.86691
  0
VERTEX
  5
b6f
  8
Layer_0
  10
340.71478
  20
311.53482
  0
VERTEX
  5
b70
  8
Layer_0
  10
340.63062
  20
311.21378
  0
VERTEX
  5
b71
  8
Layer_0
  10
340.60315
  20
311.15173
  0
VERTEX
  5
b72
  8
Layer_0
  10
340.57422
  20
311.09073
  0
VERTEX
  5
b73
  8
Layer_0
  10
340.38669
  20
310.81665
  0
VERTEX
  5
b74
  8
Layer_0
  10
340.14273
  20
310.59262
  0
VERTEX
  5
b75
  8
Layer_0
  10
340.08618
  20
310.5556
  0
VERTEX
  5
b76
  8
Layer_0
  10
340.02966
  20
310.51959
  0
VERTEX
  5
b77
  8
Layer_0
  10
339.72372
  20
310.39056
  0
VERTEX
  5
b78
  8
Layer_0
  10
339.42734
  20
310.33255
  0
VERTEX
  5
b79
  8
Layer_0
  10
339.3295
  20
310.33255
  0
VERTEX
  5
b7a
  8
Layer_0
  10
339.23032
  20
310.33255
  0
VERTEX
  5
b7b
  8
Layer_0
  10
338.9339
  20
310.39056
  0
VERTEX
  5
b7c
  8
Layer_0
  10
338.62936
  20
310.51959
  0
VERTEX
  5
b7d
  8
Layer_0
  10
338.57275
  20
310.5556
  0
VERTEX
  5
b7e
  8
Layer_0
  10
338.5163
  20
310.59262
  0
VERTEX
  5
b7f
  8
Layer_0
  10
338.27087
  20
310.81665
  0
VERTEX
  5
b80
  8
Layer_0
  10
338.08337
  20
311.09073
  0
VERTEX
  5
b81
  8
Layer_0
  10
338.05591
  20
311.15173
  0
VERTEX
  5
b82
  8
Layer_0
  10
338.02689
  20
311.21378
  0
VERTEX
  5
b83
  8
Layer_0
  10
337.94287
  20
311.53482
  0
VERTEX
  5
b84
  8
Layer_0
  10
337.93317
  20
311.86691
  0
VERTEX
  5
b85
  8
Layer_0
  10
337.94287
  20
311.93292
  0
VERTEX
  5
b86
  8
Layer_0
  10
337.95245
  20
311.99994
  0
VERTEX
  5
b87
  8
Layer_0
  10
338.05447
  20
312.31601
  0
VERTEX
  5
b88
  8
Layer_0
  10
338.22675
  20
312.6001
  0
VERTEX
  5
b89
  8
Layer_0
  10
338.27087
  20
312.65109
  0
VERTEX
  5
b8a
  8
Layer_0
  10
338.31497
  20
312.70215
  0
VERTEX
  5
b8b
  8
Layer_0
  10
338.57141
  20
312.91119
  0
VERTEX
  5
b8c
  8
Layer_0
  10
338.87048
  20
313.0592
  0
VERTEX
  5
b8d
  8
Layer_0
  10
338.9353
  20
313.07724
  0
VERTEX
  5
b8e
  8
Layer_0
  10
338.99866
  20
313.09619
  0
VERTEX
  5
b8f
  8
Layer_0
  10
339.3295
  20
313.13522
  0
VERTEX
  5
b90
  8
Layer_0
  10
339.65891
  20
313.09619
  0
SEQEND
  0
POLYLINE
  5
b92
  8
Layer_0
  62
0
  66
1
  10
0
  20
0
  30
0
  0
VERTEX
  5
b92
  8
Layer_0
  10
332.56168
  20
318.41949
  0
VERTEX
  5
b93
  8
Layer_0
  10
332.56168
  20
318.40149
  0
VERTEX
  5
b94
  8
Layer_0
  10
332.56168
  20
218.3772
  0
VERTEX
  5
b95
  8
Layer_0
  10
332.56168
  20
218.36023
  0
VERTEX
  5
b96
  8
Layer_0
  10
332.5907
  20
218.30721
  0
VERTEX
  5
b97
  8
Layer_0
  10
332.64297
  20
218.27817
  0
VERTEX
  5
b98
  8
Layer_0
  10
332.66089
  20
218.27817
  0
VERTEX
  5
b99
  8
Layer_0
  10
432.68561
  20
218.27817
  0
VERTEX
  5
b9a
  8
Layer_0
  10
432.7016
  20
218.27817
  0
VERTEX
  5
b9b
  8
Layer_0
  10
432.75555
  20
218.30721
  0
VERTEX
  5
b9c
  8
Layer_0
  10
432.78561
  20
218.36023
  0
VERTEX
  5
b9d
  8
Layer_0
  10
432.78561
  20
218.3772
  0
VERTEX
  5
b9e
  8
Layer_0
  10
432.78561
  20
318.40149
  0
VERTEX
  5
b9f
  8
Layer_0
  10
432.78561
  20
318.41949
  0
VERTEX
  5
ba0
  8
Layer_0
  10
432.75555
  20
318.47351
  0
VERTEX
  5
ba1
  8
Layer_0
  10
432.7016
  20
318.50253
  0
VERTEX
  5
ba2
  8
Layer_0
  10
432.68561
  20
318.50253
  0
VERTEX
  5
ba3
  8
Layer_0
  10
332.66089
  20
318.50253
  0
VERTEX
  5
ba4
  8
Layer_0
  10
332.64297
  20
318.50253
  0
VERTEX
  5
ba5
  8
Layer_0
  10
332.5907
  20
318.47351
  0
VERTEX
  5
ba6
  8
Layer_0
  10
332.56168
  20
318.41949
  0
SEQEND
  0
POLYLINE
  5
ba8
  8
Layer_0
  62
0
  66
1
  10
0
  20
0
  30
0
  0
VERTEX
  5
ba8
  8
Layer_0
  10
328.67538
  20
307.30273
  0
VERTEX
  5
ba9
  8
Layer_0
  10
328.67538
  20
321.50327
  0
SEQEND
  0
POLYLINE
  5
bab
  8
Layer_0
  62
0
  66
1
  10
0
  20
0
  30
0
  0
VERTEX
  5
bab
  8
Layer_0
  10
328.67538
  20
229.4791
  0
VERTEX
  5
bac
  8
Layer_0
  10
328.67538
  20
215.27744
  0
SEQEND
  0
POLYLINE
  5
bae
  8
Layer_0
  62
0
  66
1
  10
0
  20
0
  30
0
  0
VERTEX
  5
bae
  8
Layer_0
  10
328.67538
  20
241.48099
  0
VERTEX
  5
baf
  8
Layer_0
  10
328.67538
  20
235.28427
  0
SEQEND
  0
POLYLINE
  5
bb1
  8
Layer_0
  62
0
  66
1
  10
0
  20
0
  30
0
  0
VERTEX
  5
bb1
  8
Layer_0
  10
328.67538
  20
253.48592
  0
VERTEX
  5
bb2
  8
Layer_0
  10
328.67538
  20
247.28719
  0
SEQEND
  0
POLYLINE
  5
bb4
  8
Layer_0
  62
0
  66
1
  10
0
  20
0
  30
0
  0
VERTEX
  5
bb4
  8
Layer_0
  10
328.67538
  20
265.48795
  0
VERTEX
  5
bb5
  8
Layer_0
  10
328.67538
  20
259.28922
  0
SEQEND
  0
POLYLINE
  5
bb7
  8
Layer_0
  62
0
  66
1
  10
0
  20
0
  30
0
  0
VERTEX
  5
bb7
  8
Layer_0
  10
328.67538
  20
277.48975
  0
VERTEX
  5
bb8
  8
Layer_0
  10
328.67538
  20
271.29401
  0
SEQEND
  0
POLYLINE
  5
bba
  8
Layer_0
  62
0
  66
1
  10
0
  20
0
  30
0
  0
VERTEX
  5
bba
  8
Layer_0
  10
328.67538
  20
289.49466
  0
VERTEX
  5
bbb
  8
Layer_0
  10
328.67538
  20
283.29593
  0
SEQEND
  0
POLYLINE
  5
bbd
  8
Layer_0
  62
0
  66
1
  10
0
  20
0
  30
0
  0
VERTEX
  5
bbd
  8
Layer_0
  10
222.62051
  20
289.49466
  0
VERTEX
  5
bbe
  8
Layer_0
  10
222.62051
  20
283.29593
  0
SEQEND
  0
POLYLINE
  5
bc0
  8
Layer_0
  62
0
  66
1
  10
0
  20
0
  30
0
  0
VERTEX
  5
bc0
  8
Layer_0
  10
222.62051
  20
277.48975
  0
VERTEX
  5
bc1
  8
Layer_0
  10
222.62051
  20
271.29401
  0
SEQEND
  0
POLYLINE
  5
bc3
  8
Layer_0
  62
0
  66
1
  10
0
  20
0
  30
0
  0
VERTEX
  5
bc3
  8
Layer_0
  10
222.62051
  20
265.48795
  0
VERTEX
  5
bc4
  8
Layer_0
  10
222.62051
  20
259.28925
  0
SEQEND
  0
POLYLINE
  5
bc6
  8
Layer_0
  62
0
  66
1
  10
0
  20
0
  30
0
  0
VERTEX
  5
bc6
  8
Layer_0
  10
222.62051
  20
253.48592
  0
VERTEX
  5
bc7
  8
Layer_0
  10
222.62051
  20
247.28719
  0
SEQEND
  0
POLYLINE
  5
bc9
  8
Layer_0
  62
0
  66
1
  10
0
  20
0
  30
0
  0
VERTEX
  5
bc9
  8
Layer_0
  10
222.62051
  20
241.48099
  0
VERTEX
  5
bca
  8
Layer_0
  10
222.62051
  20
235.28427
  0
SEQEND
  0
POLYLINE
  5
bcc
  8
Layer_0
  62
0
  66
1
  10
0
  20
0
  30
0
  0
VERTEX
  5
bcc
  8
Layer_0
  10
328.67538
  20
301.4967
  0
VERTEX
  5
bcd
  8
Layer_0
  10
328.67538
  20
295.29785
  0
SEQEND
  0
POLYLINE
  5
bcf
  8
Layer_0
  62
0
  66
1
  10
0
  20
0
  30
0
  0
VERTEX
  5
bcf
  8
Layer_0
  10
222.62051
  20
301.4967
  0
VERTEX
  5
bd0
  8
Layer_0
  10
222.62051
  20
295.29785
  0
SEQEND
  0
POLYLINE
  5
bd2
  8
Layer_1
  62
6
  66
1
  10
0
  20
0
  30
0
  0
VERTEX
  5
bd2
  8
Layer_1
  10
273.15738
  20
147.24901
  0
VERTEX
  5
bd3
  8
Layer_1
  10
272.89566
  20
147.24901
  0
VERTEX
  5
bd4
  8
Layer_1
  10
272.83316
  20
147.1411
  42
-0.13071458
  0
VERTEX
  5
bd5
  8
Layer_1
  10
271.93912
  20
146.41893
  0
VERTEX
  5
bd6
  8
Layer_1
  10
271.93912
  20
146.02635
  42
0.087736793
  0
VERTEX
  5
bd7
  8
Layer_1
  10
272.75113
  20
146.51585
  0
VERTEX
  5
bd8
  8
Layer_1
  10
272.75113
  20
143.92845
  0
VERTEX
  5
bd9
  8
Layer_1
  10
273.15738
  20
143.92845
  0
VERTEX
  5
bda
  8
Layer_1
  10
273.15738
  20
147.24901
  0
SEQEND
  0
POLYLINE
  5
bdc
  8
Layer_1
  62
6
  66
1
  10
0
  20
0
  30
0
  0
VERTEX
  5
bdc
  8
Layer_1
  10
276.34903
  20
144.31859
  0
VERTEX
  5
bdd
  8
Layer_1
  10
274.72696
  20
144.31859
  0
VERTEX
  5
bde
  8
Layer_1
  10
274.80386
  20
144.42894
  42
-0.043537679
  0
VERTEX
  5
bdf
  8
Layer_1
  10
275.57095
  20
145.12987
  0
VERTEX
  5
be0
  8
Layer_1
  10
275.74307
  20
145.28539
  42
0.15984374
  0
VERTEX
  5
be1
  8
Layer_1
  10
276.32413
  20
146.13402
  42
0.38505817
  0
VERTEX
  5
be2
  8
Layer_1
  10
275.7399
  20
147.18309
  42
0.25055199
  0
VERTEX
  5
be3
  8
Layer_1
  10
274.56241
  20
147.00438
  42
0.19719774
  0
VERTEX
  5
be4
  8
Layer_1
  10
274.2399
  20
146.29247
  0
VERTEX
  5
be5
  8
Layer_1
  10
274.65714
  20
146.24974
  0
VERTEX
  5
be6
  8
Layer_1
  10
274.6691
  20
146.39696
  42
-0.3937194
  0
VERTEX
  5
be7
  8
Layer_1
  10
275.3046
  20
146.91283
  42
-0.20665869
  0
VERTEX
  5
be8
  8
Layer_1
  10
275.73962
  20
146.76096
  42
-0.20665867
  0
VERTEX
  5
be9
  8
Layer_1
  10
275.92715
  20
146.34007
  42
-0.18148007
  0
VERTEX
  5
bea
  8
Layer_1
  10
275.621
  20
145.71092
  42
-0.026173131
  0
VERTEX
  5
beb
  8
Layer_1
  10
274.70255
  20
144.88377
  0
VERTEX
  5
bec
  8
Layer_1
  10
274.57999
  20
144.76292
  42
0.14232422
  0
VERTEX
  5
bed
  8
Layer_1
  10
274.17276
  20
144.07225
  0
VERTEX
  5
bee
  8
Layer_1
  10
274.16299
  20
143.92845
  0
VERTEX
  5
bef
  8
Layer_1
  10
276.34903
  20
143.92845
  0
VERTEX
  5
bf0
  8
Layer_1
  10
276.34903
  20
144.31859
  0
SEQEND
  0
POLYLINE
  5
bf2
  8
Layer_1
  62
6
  70
1
  66
1
  10
0
  20
0
  30
0
  0
VERTEX
  5
bf2
  8
Layer_1
  10
279.65591
  20
147.23558
  0
VERTEX
  5
bf3
  8
Layer_1
  10
279.20914
  20
147.23558
  42
0.0089091127
  0
VERTEX
  5
bf4
  8
Layer_1
  10
278.22061
  20
144.56224
  0
VERTEX
  5
bf5
  8
Layer_1
  10
278.1376
  20
144.29173
  0
VERTEX
  5
bf6
  8
Layer_1
  10
278.05923
  20
144.55321
  42
0.0077880841
  0
VERTEX
  5
bf7
  8
Layer_1
  10
277.1044
  20
147.23558
  0
VERTEX
  5
bf8
  8
Layer_1
  10
276.63077
  20
147.23558
  0
VERTEX
  5
bf9
  8
Layer_1
  10
277.91202
  20
143.92845
  0
VERTEX
  5
bfa
  8
Layer_1
  10
278.36099
  20
143.92845
  0
SEQEND
  0
CIRCLE
  5
bfc
  8
Layer_0
  62
0
  10
227.95389
  20
98.949387
  30
0
  40
2.0999999
  0
CIRCLE
  5
bfc
  8
Layer_0
  62
0
  10
227.95389
  20
110.85302
  30
0
  40
2.0999999
  0
CIRCLE
  5
bfc
  8
Layer_0
  62
0
  10
323.64166
  20
98.949387
  30
0
  40
2.0999999
  0
CIRCLE
  5
bfc
  8
Layer_0
  62
0
  10
323.64166
  20
110.85302
  30
0
  40
2.0999999
  0
POLYLINE
  5
bfc
  8
Layer_0
  62
0
  66
1
  10
0
  20
0
  30
0
  0
VERTEX
  5
bfc
  8
Layer_0
  10
225.68573
  20
119.7666
  0
VERTEX
  5
bfd
  8
Layer_0
  10
225.68573
  20
119.7557
  0
VERTEX
  5
bfe
  8
Layer_0
  10
225.68573
  20
113.95399
  0
VERTEX
  5
bff
  8
Layer_0
  10
225.68573
  20
113.94439
  0
VERTEX
  5
c00
  8
Layer_0
  10
225.69954
  20
113.91269
  0
VERTEX
  5
c01
  8
Layer_0
  10
225.72295
  20
113.91678
  0
VERTEX
  5
c02
  8
Layer_0
  10
225.72714
  20
113.94019
  0
VERTEX
  5
c03
  8
Layer_0
  10
225.69545
  20
113.95399
  0
VERTEX
  5
c04
  8
Layer_0
  10
225.68573
  20
113.95399
  0
VERTEX
  5
c05
  8
Layer_0
  10
222.78423
  20
113.95399
  0
VERTEX
  5
c06
  8
Layer_0
  10
222.76633
  20
113.95399
  0
VERTEX
  5
c07
  8
Layer_0
  10
222.71402
  20
113.92509
  0
VERTEX
  5
c08
  8
Layer_0
  10
222.685
  20
113.87128
  0
VERTEX
  5
c09
  8
Layer_0
  10
222.685
  20
113.85336
  0
VERTEX
  5
c0a
  8
Layer_0
  10
222.685
  20
107.85201
  0
VERTEX
  5
c0b
  8
Layer_0
  10
222.685
  20
107.8354
  0
VERTEX
  5
c0c
  8
Layer_0
  10
222.71402
  20
107.78169
  0
VERTEX
  5
c0d
  8
Layer_0
  10
222.76633
  20
107.75128
  0
VERTEX
  5
c0e
  8
Layer_0
  10
222.78423
  20
107.75128
  0
VERTEX
  5
c0f
  8
Layer_0
  10
225.68573
  20
107.75128
  0
VERTEX
  5
c10
  8
Layer_0
  10
225.69545
  20
107.75128
  0
VERTEX
  5
c11
  8
Layer_0
  10
225.72714
  20
107.76649
  0
VERTEX
  5
c12
  8
Layer_0
  10
225.72295
  20
107.7899
  0
VERTEX
  5
c13
  8
Layer_0
  10
225.69954
  20
107.7941
  0
VERTEX
  5
c14
  8
Layer_0
  10
225.68573
  20
107.76239
  0
VERTEX
  5
c15
  8
Layer_0
  10
225.68573
  20
107.75128
  0
VERTEX
  5
c16
  8
Layer_0
  10
225.68573
  20
101.95118
  0
VERTEX
  5
c17
  8
Layer_0
  10
225.68573
  20
101.94147
  0
VERTEX
  5
c18
  8
Layer_0
  10
225.69954
  20
101.90977
  0
VERTEX
  5
c19
  8
Layer_0
  10
225.72295
  20
101.91397
  0
VERTEX
  5
c1a
  8
Layer_0
  10
225.72714
  20
101.93737
  0
VERTEX
  5
c1b
  8
Layer_0
  10
225.69545
  20
101.95118
  0
VERTEX
  5
c1c
  8
Layer_0
  10
225.68573
  20
101.95118
  0
VERTEX
  5
c1d
  8
Layer_0
  10
222.78423
  20
101.95118
  0
VERTEX
  5
c1e
  8
Layer_0
  10
222.76633
  20
101.95118
  0
VERTEX
  5
c1f
  8
Layer_0
  10
222.71402
  20
101.92217
  0
VERTEX
  5
c20
  8
Layer_0
  10
222.685
  20
101.86845
  0
VERTEX
  5
c21
  8
Layer_0
  10
222.685
  20
101.85056
  0
VERTEX
  5
c22
  8
Layer_0
  10
222.685
  20
94.848358
  0
VERTEX
  5
c23
  8
Layer_0
  10
222.685
  20
94.831848
  0
VERTEX
  5
c24
  8
Layer_0
  10
222.71402
  20
94.778137
  0
VERTEX
  5
c25
  8
Layer_0
  10
222.76633
  20
94.74913
  0
VERTEX
  5
c26
  8
Layer_0
  10
222.78423
  20
94.74913
  0
VERTEX
  5
c27
  8
Layer_0
  10
225.78496
  20
94.74913
  0
VERTEX
  5
c28
  8
Layer_0
  10
236.68791
  20
94.74913
  0
VERTEX
  5
c29
  8
Layer_0
  10
236.69763
  20
94.74913
  0
VERTEX
  5
c2a
  8
Layer_0
  10
236.72922
  20
94.764336
  0
VERTEX
  5
c2b
  8
Layer_0
  10
236.72513
  20
94.786339
  0
VERTEX
  5
c2c
  8
Layer_0
  10
236.70172
  20
94.79184
  0
VERTEX
  5
c2d
  8
Layer_0
  10
236.68791
  20
94.760132
  0
VERTEX
  5
c2e
  8
Layer_0
  10
236.68791
  20
94.74913
  0
VERTEX
  5
c2f
  8
Layer_0
  10
236.68791
  20
91.847626
  0
VERTEX
  5
c30
  8
Layer_0
  10
236.68791
  20
91.831123
  0
VERTEX
  5
c31
  8
Layer_0
  10
236.71692
  20
91.777412
  0
VERTEX
  5
c32
  8
Layer_0
  10
236.77065
  20
91.748398
  0
VERTEX
  5
c33
  8
Layer_0
  10
236.78853
  20
91.748398
  0
VERTEX
  5
c34
  8
Layer_0
  10
242.78998
  20
91.748398
  0
VERTEX
  5
c35
  8
Layer_0
  10
242.8065
  20
91.748398
  0
VERTEX
  5
c36
  8
Layer_0
  10
242.86032
  20
91.777412
  0
VERTEX
  5
c37
  8
Layer_0
  10
242.88922
  20
91.831123
  0
VERTEX
  5
c38
  8
Layer_0
  10
242.88922
  20
91.847626
  0
VERTEX
  5
c39
  8
Layer_0
  10
242.88922
  20
94.74913
  0
VERTEX
  5
c3a
  8
Layer_0
  10
242.88922
  20
94.760132
  0
VERTEX
  5
c3b
  8
Layer_0
  10
242.87402
  20
94.79184
  0
VERTEX
  5
c3c
  8
Layer_0
  10
242.85201
  20
94.786339
  0
VERTEX
  5
c3d
  8
Layer_0
  10
242.84653
  20
94.764336
  0
VERTEX
  5
c3e
  8
Layer_0
  10
242.8782
  20
94.74913
  0
VERTEX
  5
c3f
  8
Layer_0
  10
242.88922
  20
94.74913
  0
VERTEX
  5
c40
  8
Layer_0
  10
248.69083
  20
94.74913
  0
VERTEX
  5
c41
  8
Layer_0
  10
248.70032
  20
94.74913
  0
VERTEX
  5
c42
  8
Layer_0
  10
248.73213
  20
94.764336
  0
VERTEX
  5
c43
  8
Layer_0
  10
248.72792
  20
94.786339
  0
VERTEX
  5
c44
  8
Layer_0
  10
248.70464
  20
94.79184
  0
VERTEX
  5
c45
  8
Layer_0
  10
248.69083
  20
94.760132
  0
VERTEX
  5
c46
  8
Layer_0
  10
248.69083
  20
94.74913
  0
VERTEX
  5
c47
  8
Layer_0
  10
248.69083
  20
91.847626
  0
VERTEX
  5
c48
  8
Layer_0
  10
248.69083
  20
91.831123
  0
VERTEX
  5
c49
  8
Layer_0
  10
248.71974
  20
91.777412
  0
VERTEX
  5
c4a
  8
Layer_0
  10
248.77342
  20
91.748398
  0
VERTEX
  5
c4b
  8
Layer_0
  10
248.79144
  20
91.748398
  0
VERTEX
  5
c4c
  8
Layer_0
  10
254.79291
  20
91.748398
  0
VERTEX
  5
c4d
  8
Layer_0
  10
254.80951
  20
91.748398
  0
VERTEX
  5
c4e
  8
Layer_0
  10
254.86313
  20
91.777412
  0
VERTEX
  5
c4f
  8
Layer_0
  10
254.89201
  20
91.831123
  0
VERTEX
  5
c50
  8
Layer_0
  10
254.89201
  20
91.847626
  0
VERTEX
  5
c51
  8
Layer_0
  10
254.89201
  20
94.74913
  0
VERTEX
  5
c52
  8
Layer_0
  10
254.89201
  20
94.760132
  0
VERTEX
  5
c53
  8
Layer_0
  10
254.87692
  20
94.79184
  0
VERTEX
  5
c54
  8
Layer_0
  10
254.85501
  20
94.786339
  0
VERTEX
  5
c55
  8
Layer_0
  10
254.8493
  20
94.764336
  0
VERTEX
  5
c56
  8
Layer_0
  10
254.88112
  20
94.74913
  0
VERTEX
  5
c57
  8
Layer_0
  10
254.89201
  20
94.74913
  0
VERTEX
  5
c58
  8
Layer_0
  10
260.69385
  20
94.74913
  0
VERTEX
  5
c59
  8
Layer_0
  10
260.70334
  20
94.74913
  0
VERTEX
  5
c5a
  8
Layer_0
  10
260.73514
  20
94.764336
  0
VERTEX
  5
c5b
  8
Layer_0
  10
260.73083
  20
94.786339
  0
VERTEX
  5
c5c
  8
Layer_0
  10
260.70764
  20
94.79184
  0
VERTEX
  5
c5d
  8
Layer_0
  10
260.69385
  20
94.760132
  0
VERTEX
  5
c5e
  8
Layer_0
  10
260.69385
  20
94.74913
  0
VERTEX
  5
c5f
  8
Layer_0
  10
260.69385
  20
91.847626
  0
VERTEX
  5
c60
  8
Layer_0
  10
260.69385
  20
91.831123
  0
VERTEX
  5
c61
  8
Layer_0
  10
260.72275
  20
91.777412
  0
VERTEX
  5
c62
  8
Layer_0
  10
260.77649
  20
91.748398
  0
VERTEX
  5
c63
  8
Layer_0
  10
260.79437
  20
91.748398
  0
VERTEX
  5
c64
  8
Layer_0
  10
266.7955
  20
91.748398
  0
VERTEX
  5
c65
  8
Layer_0
  10
266.81213
  20
91.748398
  0
VERTEX
  5
c66
  8
Layer_0
  10
266.86615
  20
91.777412
  0
VERTEX
  5
c67
  8
Layer_0
  10
266.89505
  20
91.831123
  0
VERTEX
  5
c68
  8
Layer_0
  10
266.89505
  20
91.847626
  0
VERTEX
  5
c69
  8
Layer_0
  10
266.89505
  20
94.74913
  0
VERTEX
  5
c6a
  8
Layer_0
  10
266.89505
  20
94.760132
  0
VERTEX
  5
c6b
  8
Layer_0
  10
266.87985
  20
94.79184
  0
VERTEX
  5
c6c
  8
Layer_0
  10
266.85764
  20
94.786339
  0
VERTEX
  5
c6d
  8
Layer_0
  10
266.85236
  20
94.764336
  0
VERTEX
  5
c6e
  8
Layer_0
  10
266.88376
  20
94.74913
  0
VERTEX
  5
c6f
  8
Layer_0
  10
266.89505
  20
94.74913
  0
VERTEX
  5
c70
  8
Layer_0
  10
272.69644
  20
94.74913
  0
VERTEX
  5
c71
  8
Layer_0
  10
272.70605
  20
94.74913
  0
VERTEX
  5
c72
  8
Layer_0
  10
272.73779
  20
94.764336
  0
VERTEX
  5
c73
  8
Layer_0
  10
272.73386
  20
94.786339
  0
VERTEX
  5
c74
  8
Layer_0
  10
272.71024
  20
94.79184
  0
VERTEX
  5
c75
  8
Layer_0
  10
272.69644
  20
94.760132
  0
VERTEX
  5
c76
  8
Layer_0
  10
272.69644
  20
94.74913
  0
VERTEX
  5
c77
  8
Layer_0
  10
272.69644
  20
91.847626
  0
VERTEX
  5
c78
  8
Layer_0
  10
272.69644
  20
91.831123
  0
VERTEX
  5
c79
  8
Layer_0
  10
272.72543
  20
91.777412
  0
VERTEX
  5
c7a
  8
Layer_0
  10
272.77939
  20
91.748398
  0
VERTEX
  5
c7b
  8
Layer_0
  10
272.79709
  20
91.748398
  0
VERTEX
  5
c7c
  8
Layer_0
  10
278.79855
  20
91.748398
  0
VERTEX
  5
c7d
  8
Layer_0
  10
278.81512
  20
91.748398
  0
VERTEX
  5
c7e
  8
Layer_0
  10
278.86877
  20
91.777412
  0
VERTEX
  5
c7f
  8
Layer_0
  10
278.89777
  20
91.831123
  0
VERTEX
  5
c80
  8
Layer_0
  10
278.89777
  20
91.847626
  0
VERTEX
  5
c81
  8
Layer_0
  10
278.89777
  20
94.74913
  0
VERTEX
  5
c82
  8
Layer_0
  10
278.89777
  20
94.760132
  0
VERTEX
  5
c83
  8
Layer_0
  10
278.88254
  20
94.79184
  0
VERTEX
  5
c84
  8
Layer_0
  10
278.86066
  20
94.786339
  0
VERTEX
  5
c85
  8
Layer_0
  10
278.85504
  20
94.764336
  0
VERTEX
  5
c86
  8
Layer_0
  10
278.88675
  20
94.74913
  0
VERTEX
  5
c87
  8
Layer_0
  10
278.89777
  20
94.74913
  0
VERTEX
  5
c88
  8
Layer_0
  10
284.69949
  20
94.74913
  0
VERTEX
  5
c89
  8
Layer_0
  10
284.70905
  20
94.74913
  0
VERTEX
  5
c8a
  8
Layer_0
  10
284.74078
  20
94.764336
  0
VERTEX
  5
c8b
  8
Layer_0
  10
284.73657
  20
94.786339
  0
VERTEX
  5
c8c
  8
Layer_0
  10
284.71329
  20
94.79184
  0
VERTEX
  5
c8d
  8
Layer_0
  10
284.69949
  20
94.760132
  0
VERTEX
  5
c8e
  8
Layer_0
  10
284.69949
  20
94.74913
  0
VERTEX
  5
c8f
  8
Layer_0
  10
284.69949
  20
91.847626
  0
VERTEX
  5
c90
  8
Layer_0
  10
284.69949
  20
91.831123
  0
VERTEX
  5
c91
  8
Layer_0
  10
284.72849
  20
91.777412
  0
VERTEX
  5
c92
  8
Layer_0
  10
284.78207
  20
91.748398
  0
VERTEX
  5
c93
  8
Layer_0
  10
284.80011
  20
91.748398
  0
VERTEX
  5
c94
  8
Layer_0
  10
290.80154
  20
91.748398
  0
VERTEX
  5
c95
  8
Layer_0
  10
290.81818
  20
91.748398
  0
VERTEX
  5
c96
  8
Layer_0
  10
290.87177
  20
91.777412
  0
VERTEX
  5
c97
  8
Layer_0
  10
290.90067
  20
91.831123
  0
VERTEX
  5
c98
  8
Layer_0
  10
290.90067
  20
91.847626
  0
VERTEX
  5
c99
  8
Layer_0
  10
290.90067
  20
94.74913
  0
VERTEX
  5
c9a
  8
Layer_0
  10
290.90067
  20
94.760132
  0
VERTEX
  5
c9b
  8
Layer_0
  10
290.88556
  20
94.79184
  0
VERTEX
  5
c9c
  8
Layer_0
  10
290.86368
  20
94.786339
  0
VERTEX
  5
c9d
  8
Layer_0
  10
290.85806
  20
94.764336
  0
VERTEX
  5
c9e
  8
Layer_0
  10
290.88977
  20
94.74913
  0
VERTEX
  5
c9f
  8
Layer_0
  10
290.90067
  20
94.74913
  0
VERTEX
  5
ca0
  8
Layer_0
  10
296.70218
  20
94.74913
  0
VERTEX
  5
ca1
  8
Layer_0
  10
296.71198
  20
94.74913
  0
VERTEX
  5
ca2
  8
Layer_0
  10
296.74377
  20
94.764336
  0
VERTEX
  5
ca3
  8
Layer_0
  10
296.73956
  20
94.786339
  0
VERTEX
  5
ca4
  8
Layer_0
  10
296.71588
  20
94.79184
  0
VERTEX
  5
ca5
  8
Layer_0
  10
296.70218
  20
94.760132
  0
VERTEX
  5
ca6
  8
Layer_0
  10
296.70218
  20
94.74913
  0
VERTEX
  5
ca7
  8
Layer_0
  10
296.70218
  20
91.847626
  0
VERTEX
  5
ca8
  8
Layer_0
  10
296.70218
  20
91.831123
  0
VERTEX
  5
ca9
  8
Layer_0
  10
296.73108
  20
91.777412
  0
VERTEX
  5
caa
  8
Layer_0
  10
296.7851
  20
91.748398
  0
VERTEX
  5
cab
  8
Layer_0
  10
296.8031
  20
91.748398
  0
VERTEX
  5
cac
  8
Layer_0
  10
302.80417
  20
91.748398
  0
VERTEX
  5
cad
  8
Layer_0
  10
302.82077
  20
91.748398
  0
VERTEX
  5
cae
  8
Layer_0
  10
302.87482
  20
91.777412
  0
VERTEX
  5
caf
  8
Layer_0
  10
302.90369
  20
91.831123
  0
VERTEX
  5
cb0
  8
Layer_0
  10
302.90369
  20
91.847626
  0
VERTEX
  5
cb1
  8
Layer_0
  10
302.90369
  20
94.74913
  0
VERTEX
  5
cb2
  8
Layer_0
  10
302.90369
  20
94.760132
  0
VERTEX
  5
cb3
  8
Layer_0
  10
302.88858
  20
94.79184
  0
VERTEX
  5
cb4
  8
Layer_0
  10
302.86627
  20
94.786339
  0
VERTEX
  5
cb5
  8
Layer_0
  10
302.86096
  20
94.764336
  0
VERTEX
  5
cb6
  8
Layer_0
  10
302.8924
  20
94.74913
  0
VERTEX
  5
cb7
  8
Layer_0
  10
302.90369
  20
94.74913
  0
VERTEX
  5
cb8
  8
Layer_0
  10
308.7052
  20
94.74913
  0
VERTEX
  5
cb9
  8
Layer_0
  10
308.71472
  20
94.74913
  0
VERTEX
  5
cba
  8
Layer_0
  10
308.7464
  20
94.764336
  0
VERTEX
  5
cbb
  8
Layer_0
  10
308.74219
  20
94.786339
  0
VERTEX
  5
cbc
  8
Layer_0
  10
308.7189
  20
94.79184
  0
VERTEX
  5
cbd
  8
Layer_0
  10
308.7052
  20
94.760132
  0
VERTEX
  5
cbe
  8
Layer_0
  10
308.7052
  20
94.74913
  0
VERTEX
  5
cbf
  8
Layer_0
  10
308.7052
  20
91.847626
  0
VERTEX
  5
cc0
  8
Layer_0
  10
308.7052
  20
91.831123
  0
VERTEX
  5
cc1
  8
Layer_0
  10
308.7341
  20
91.777412
  0
VERTEX
  5
cc2
  8
Layer_0
  10
308.78772
  20
91.748398
  0
VERTEX
  5
cc3
  8
Layer_0
  10
308.80573
  20
91.748398
  0
VERTEX
  5
cc4
  8
Layer_0
  10
314.80698
  20
91.748398
  0
VERTEX
  5
cc5
  8
Layer_0
  10
314.82397
  20
91.748398
  0
VERTEX
  5
cc6
  8
Layer_0
  10
314.87698
  20
91.777412
  0
VERTEX
  5
cc7
  8
Layer_0
  10
314.90601
  20
91.831123
  0
VERTEX
  5
cc8
  8
Layer_0
  10
314.90601
  20
91.847626
  0
VERTEX
  5
cc9
  8
Layer_0
  10
314.90601
  20
94.74913
  0
VERTEX
  5
cca
  8
Layer_0
  10
314.90601
  20
94.760132
  0
VERTEX
  5
ccb
  8
Layer_0
  10
314.89099
  20
94.79184
  0
VERTEX
  5
ccc
  8
Layer_0
  10
314.86899
  20
94.786339
  0
VERTEX
  5
ccd
  8
Layer_0
  10
314.86398
  20
94.764336
  0
VERTEX
  5
cce
  8
Layer_0
  10
314.89499
  20
94.74913
  0
VERTEX
  5
ccf
  8
Layer_0
  10
314.90601
  20
94.74913
  0
VERTEX
  5
cd0
  8
Layer_0
  10
325.80966
  20
94.74913
  0
VERTEX
  5
cd1
  8
Layer_0
  10
328.81036
  20
94.74913
  0
VERTEX
  5
cd2
  8
Layer_0
  10
328.82639
  20
94.74913
  0
VERTEX
  5
cd3
  8
Layer_0
  10
328.88037
  20
94.778137
  0
VERTEX
  5
cd4
  8
Layer_0
  10
328.91043
  20
94.831848
  0
VERTEX
  5
cd5
  8
Layer_0
  10
328.91043
  20
94.848358
  0
VERTEX
  5
cd6
  8
Layer_0
  10
328.91043
  20
101.85056
  0
VERTEX
  5
cd7
  8
Layer_0
  10
328.91043
  20
101.86845
  0
VERTEX
  5
cd8
  8
Layer_0
  10
328.88037
  20
101.92217
  0
VERTEX
  5
cd9
  8
Layer_0
  10
328.82639
  20
101.95118
  0
VERTEX
  5
cda
  8
Layer_0
  10
328.81036
  20
101.95118
  0
VERTEX
  5
cdb
  8
Layer_0
  10
325.9097
  20
101.95118
  0
VERTEX
  5
cdc
  8
Layer_0
  10
325.89868
  20
101.95118
  0
VERTEX
  5
cdd
  8
Layer_0
  10
325.86765
  20
101.93737
  0
VERTEX
  5
cde
  8
Layer_0
  10
325.87164
  20
101.91397
  0
VERTEX
  5
cdf
  8
Layer_0
  10
325.89465
  20
101.90977
  0
VERTEX
  5
ce0
  8
Layer_0
  10
325.9097
  20
101.94147
  0
VERTEX
  5
ce1
  8
Layer_0
  10
325.9097
  20
101.95118
  0
VERTEX
  5
ce2
  8
Layer_0
  10
325.9097
  20
107.75128
  0
VERTEX
  5
ce3
  8
Layer_0
  10
325.9097
  20
107.76239
  0
VERTEX
  5
ce4
  8
Layer_0
  10
325.89465
  20
107.7941
  0
VERTEX
  5
ce5
  8
Layer_0
  10
325.87164
  20
107.7899
  0
VERTEX
  5
ce6
  8
Layer_0
  10
325.86765
  20
107.76649
  0
VERTEX
  5
ce7
  8
Layer_0
  10
325.89868
  20
107.75128
  0
VERTEX
  5
ce8
  8
Layer_0
  10
325.9097
  20
107.75128
  0
VERTEX
  5
ce9
  8
Layer_0
  10
328.81036
  20
107.75128
  0
VERTEX
  5
cea
  8
Layer_0
  10
328.82639
  20
107.75128
  0
VERTEX
  5
ceb
  8
Layer_0
  10
328.88037
  20
107.78169
  0
VERTEX
  5
cec
  8
Layer_0
  10
328.91043
  20
107.8354
  0
VERTEX
  5
ced
  8
Layer_0
  10
328.91043
  20
107.85201
  0
VERTEX
  5
cee
  8
Layer_0
  10
328.91043
  20
113.85336
  0
VERTEX
  5
cef
  8
Layer_0
  10
328.91043
  20
113.87128
  0
VERTEX
  5
cf0
  8
Layer_0
  10
328.88037
  20
113.92509
  0
VERTEX
  5
cf1
  8
Layer_0
  10
328.82639
  20
113.95399
  0
VERTEX
  5
cf2
  8
Layer_0
  10
328.81036
  20
113.95399
  0
VERTEX
  5
cf3
  8
Layer_0
  10
325.9097
  20
113.95399
  0
VERTEX
  5
cf4
  8
Layer_0
  10
325.89868
  20
113.95399
  0
VERTEX
  5
cf5
  8
Layer_0
  10
325.86765
  20
113.94019
  0
VERTEX
  5
cf6
  8
Layer_0
  10
325.87164
  20
113.91678
  0
VERTEX
  5
cf7
  8
Layer_0
  10
325.89465
  20
113.91269
  0
VERTEX
  5
cf8
  8
Layer_0
  10
325.9097
  20
113.94439
  0
VERTEX
  5
cf9
  8
Layer_0
  10
325.9097
  20
113.95399
  0
VERTEX
  5
cfa
  8
Layer_0
  10
325.9097
  20
119.7557
  0
VERTEX
  5
cfb
  8
Layer_0
  10
325.9097
  20
119.7666
  0
VERTEX
  5
cfc
  8
Layer_0
  10
325.89465
  20
119.79841
  0
VERTEX
  5
cfd
  8
Layer_0
  10
325.87164
  20
119.79272
  0
VERTEX
  5
cfe
  8
Layer_0
  10
325.86765
  20
119.77081
  0
VERTEX
  5
cff
  8
Layer_0
  10
325.89868
  20
119.7557
  0
VERTEX
  5
d00
  8
Layer_0
  10
325.9097
  20
119.7557
  0
VERTEX
  5
d01
  8
Layer_0
  10
328.81036
  20
119.7557
  0
VERTEX
  5
d02
  8
Layer_0
  10
328.82639
  20
119.7557
  0
VERTEX
  5
d03
  8
Layer_0
  10
328.88037
  20
119.78461
  0
VERTEX
  5
d04
  8
Layer_0
  10
328.91043
  20
119.83823
  0
VERTEX
  5
d05
  8
Layer_0
  10
328.91043
  20
119.85483
  0
VERTEX
  5
d06
  8
Layer_0
  10
328.91043
  20
125.85628
  0
VERTEX
  5
d07
  8
Layer_0
  10
328.91043
  20
125.87428
  0
VERTEX
  5
d08
  8
Layer_0
  10
328.88037
  20
125.9265
  0
VERTEX
  5
d09
  8
Layer_0
  10
328.82639
  20
125.95551
  0
VERTEX
  5
d0a
  8
Layer_0
  10
328.81036
  20
125.95551
  0
VERTEX
  5
d0b
  8
Layer_0
  10
325.9097
  20
125.95551
  0
VERTEX
  5
d0c
  8
Layer_0
  10
325.89868
  20
125.95551
  0
VERTEX
  5
d0d
  8
Layer_0
  10
325.86765
  20
125.9417
  0
VERTEX
  5
d0e
  8
Layer_0
  10
325.87164
  20
125.9184
  0
VERTEX
  5
d0f
  8
Layer_0
  10
325.89465
  20
125.9142
  0
VERTEX
  5
d10
  8
Layer_0
  10
325.9097
  20
125.946
  0
VERTEX
  5
d11
  8
Layer_0
  10
325.9097
  20
125.95551
  0
VERTEX
  5
d12
  8
Layer_0
  10
325.9097
  20
131.7569
  0
VERTEX
  5
d13
  8
Layer_0
  10
325.9097
  20
131.76822
  0
VERTEX
  5
d14
  8
Layer_0
  10
325.89465
  20
131.79993
  0
VERTEX
  5
d15
  8
Layer_0
  10
325.87164
  20
131.79572
  0
VERTEX
  5
d16
  8
Layer_0
  10
325.86765
  20
131.77213
  0
VERTEX
  5
d17
  8
Layer_0
  10
325.89868
  20
131.7569
  0
VERTEX
  5
d18
  8
Layer_0
  10
325.9097
  20
131.7569
  0
VERTEX
  5
d19
  8
Layer_0
  10
328.81036
  20
131.7569
  0
VERTEX
  5
d1a
  8
Layer_0
  10
328.82639
  20
131.7569
  0
VERTEX
  5
d1b
  8
Layer_0
  10
328.88037
  20
131.78722
  0
VERTEX
  5
d1c
  8
Layer_0
  10
328.91043
  20
131.84123
  0
VERTEX
  5
d1d
  8
Layer_0
  10
328.91043
  20
131.85783
  0
VERTEX
  5
d1e
  8
Layer_0
  10
328.91043
  20
137.85899
  0
VERTEX
  5
d1f
  8
Layer_0
  10
328.91043
  20
137.877
  0
VERTEX
  5
d20
  8
Layer_0
  10
328.88037
  20
137.93091
  0
VERTEX
  5
d21
  8
Layer_0
  10
328.82639
  20
137.95992
  0
VERTEX
  5
d22
  8
Layer_0
  10
328.81036
  20
137.95992
  0
VERTEX
  5
d23
  8
Layer_0
  10
325.9097
  20
137.95992
  0
VERTEX
  5
d24
  8
Layer_0
  10
325.89868
  20
137.95992
  0
VERTEX
  5
d25
  8
Layer_0
  10
325.86765
  20
137.94612
  0
VERTEX
  5
d26
  8
Layer_0
  10
325.87164
  20
137.92252
  0
VERTEX
  5
d27
  8
Layer_0
  10
325.89465
  20
137.91821
  0
VERTEX
  5
d28
  8
Layer_0
  10
325.9097
  20
137.95001
  0
VERTEX
  5
d29
  8
Layer_0
  10
325.9097
  20
137.95992
  0
VERTEX
  5
d2a
  8
Layer_0
  10
325.9097
  20
143.75993
  0
VERTEX
  5
d2b
  8
Layer_0
  10
325.9097
  20
143.77083
  0
VERTEX
  5
d2c
  8
Layer_0
  10
325.89465
  20
143.80264
  0
VERTEX
  5
d2d
  8
Layer_0
  10
325.87164
  20
143.79834
  0
VERTEX
  5
d2e
  8
Layer_0
  10
325.86765
  20
143.77513
  0
VERTEX
  5
d2f
  8
Layer_0
  10
325.89868
  20
143.75993
  0
VERTEX
  5
d30
  8
Layer_0
  10
325.9097
  20
143.75993
  0
VERTEX
  5
d31
  8
Layer_0
  10
328.81036
  20
143.75993
  0
VERTEX
  5
d32
  8
Layer_0
  10
328.82639
  20
143.75993
  0
VERTEX
  5
d33
  8
Layer_0
  10
328.88037
  20
143.79025
  0
VERTEX
  5
d34
  8
Layer_0
  10
328.91043
  20
143.84384
  0
VERTEX
  5
d35
  8
Layer_0
  10
328.91043
  20
143.86044
  0
VERTEX
  5
d36
  8
Layer_0
  10
328.91043
  20
150.86266
  0
VERTEX
  5
d37
  8
Layer_0
  10
328.91043
  20
150.88065
  0
VERTEX
  5
d38
  8
Layer_0
  10
328.88037
  20
150.93297
  0
VERTEX
  5
d39
  8
Layer_0
  10
328.82639
  20
150.96188
  0
VERTEX
  5
d3a
  8
Layer_0
  10
328.81036
  20
150.96188
  0
VERTEX
  5
d3b
  8
Layer_0
  10
325.80966
  20
150.96188
  0
VERTEX
  5
d3c
  8
Layer_0
  10
225.78496
  20
150.96188
  0
VERTEX
  5
d3d
  8
Layer_0
  10
222.78423
  20
150.96188
  0
VERTEX
  5
d3e
  8
Layer_0
  10
222.76633
  20
150.96188
  0
VERTEX
  5
d3f
  8
Layer_0
  10
222.71402
  20
150.93297
  0
VERTEX
  5
d40
  8
Layer_0
  10
222.685
  20
150.88065
  0
VERTEX
  5
d41
  8
Layer_0
  10
222.685
  20
150.86266
  0
VERTEX
  5
d42
  8
Layer_0
  10
222.685
  20
143.86044
  0
VERTEX
  5
d43
  8
Layer_0
  10
222.685
  20
143.84384
  0
VERTEX
  5
d44
  8
Layer_0
  10
222.71402
  20
143.79025
  0
VERTEX
  5
d45
  8
Layer_0
  10
222.76633
  20
143.75993
  0
VERTEX
  5
d46
  8
Layer_0
  10
222.78423
  20
143.75993
  0
VERTEX
  5
d47
  8
Layer_0
  10
225.68573
  20
143.75993
  0
VERTEX
  5
d48
  8
Layer_0
  10
225.69545
  20
143.75993
  0
VERTEX
  5
d49
  8
Layer_0
  10
225.72714
  20
143.77513
  0
VERTEX
  5
d4a
  8
Layer_0
  10
225.72295
  20
143.79834
  0
VERTEX
  5
d4b
  8
Layer_0
  10
225.69954
  20
143.80264
  0
VERTEX
  5
d4c
  8
Layer_0
  10
225.68573
  20
143.77083
  0
VERTEX
  5
d4d
  8
Layer_0
  10
225.68573
  20
143.75993
  0
VERTEX
  5
d4e
  8
Layer_0
  10
225.68573
  20
137.95992
  0
VERTEX
  5
d4f
  8
Layer_0
  10
225.68573
  20
137.95001
  0
VERTEX
  5
d50
  8
Layer_0
  10
225.69954
  20
137.91821
  0
VERTEX
  5
d51
  8
Layer_0
  10
225.72295
  20
137.92252
  0
VERTEX
  5
d52
  8
Layer_0
  10
225.72714
  20
137.94612
  0
VERTEX
  5
d53
  8
Layer_0
  10
225.69545
  20
137.95992
  0
VERTEX
  5
d54
  8
Layer_0
  10
225.68573
  20
137.95992
  0
VERTEX
  5
d55
  8
Layer_0
  10
222.78423
  20
137.95992
  0
VERTEX
  5
d56
  8
Layer_0
  10
222.76633
  20
137.95992
  0
VERTEX
  5
d57
  8
Layer_0
  10
222.71402
  20
137.93091
  0
VERTEX
  5
d58
  8
Layer_0
  10
222.685
  20
137.877
  0
VERTEX
  5
d59
  8
Layer_0
  10
222.685
  20
137.85899
  0
VERTEX
  5
d5a
  8
Layer_0
  10
222.685
  20
131.85783
  0
VERTEX
  5
d5b
  8
Layer_0
  10
222.685
  20
131.84123
  0
VERTEX
  5
d5c
  8
Layer_0
  10
222.71402
  20
131.78722
  0
VERTEX
  5
d5d
  8
Layer_0
  10
222.76633
  20
131.7569
  0
VERTEX
  5
d5e
  8
Layer_0
  10
222.78423
  20
131.7569
  0
VERTEX
  5
d5f
  8
Layer_0
  10
225.68573
  20
131.7569
  0
VERTEX
  5
d60
  8
Layer_0
  10
225.69545
  20
131.7569
  0
VERTEX
  5
d61
  8
Layer_0
  10
225.72714
  20
131.77213
  0
VERTEX
  5
d62
  8
Layer_0
  10
225.72295
  20
131.79572
  0
VERTEX
  5
d63
  8
Layer_0
  10
225.69954
  20
131.79993
  0
VERTEX
  5
d64
  8
Layer_0
  10
225.68573
  20
131.76822
  0
VERTEX
  5
d65
  8
Layer_0
  10
225.68573
  20
131.7569
  0
VERTEX
  5
d66
  8
Layer_0
  10
225.68573
  20
125.95551
  0
VERTEX
  5
d67
  8
Layer_0
  10
225.68573
  20
125.946
  0
VERTEX
  5
d68
  8
Layer_0
  10
225.69954
  20
125.9142
  0
VERTEX
  5
d69
  8
Layer_0
  10
225.72295
  20
125.9184
  0
VERTEX
  5
d6a
  8
Layer_0
  10
225.72714
  20
125.9417
  0
VERTEX
  5
d6b
  8
Layer_0
  10
225.69545
  20
125.95551
  0
VERTEX
  5
d6c
  8
Layer_0
  10
225.68573
  20
125.95551
  0
VERTEX
  5
d6d
  8
Layer_0
  10
222.78423
  20
125.95551
  0
VERTEX
  5
d6e
  8
Layer_0
  10
222.76633
  20
125.95551
  0
VERTEX
  5
d6f
  8
Layer_0
  10
222.71402
  20
125.9265
  0
VERTEX
  5
d70
  8
Layer_0
  10
222.685
  20
125.87428
  0
VERTEX
  5
d71
  8
Layer_0
  10
222.685
  20
125.85628
  0
VERTEX
  5
d72
  8
Layer_0
  10
222.685
  20
119.85483
  0
VERTEX
  5
d73
  8
Layer_0
  10
222.685
  20
119.83823
  0
VERTEX
  5
d74
  8
Layer_0
  10
222.71402
  20
119.78461
  0
VERTEX
  5
d75
  8
Layer_0
  10
222.76633
  20
119.7557
  0
VERTEX
  5
d76
  8
Layer_0
  10
222.78423
  20
119.7557
  0
VERTEX
  5
d77
  8
Layer_0
  10
225.68573
  20
119.7557
  0
VERTEX
  5
d78
  8
Layer_0
  10
225.69545
  20
119.7557
  0
VERTEX
  5
d79
  8
Layer_0
  10
225.72714
  20
119.77081
  0
VERTEX
  5
d7a
  8
Layer_0
  10
225.72295
  20
119.79272
  0
VERTEX
  5
d7b
  8
Layer_0
  10
225.69954
  20
119.79841
  0
VERTEX
  5
d7c
  8
Layer_0
  10
225.68573
  20
119.7666
  0
SEQEND
  0
POLYLINE
  5
d7e
  8
Layer_0
  62
0
  66
1
  10
0
  20
0
  30
0
  0
VERTEX
  5
d7e
  8
Layer_0
  10
318.74493
  20
147.7998
  0
VERTEX
  5
d7f
  8
Layer_0
  10
318.74896
  20
147.77661
  0
VERTEX
  5
d80
  8
Layer_0
  10
318.71793
  20
147.7614
  0
VERTEX
  5
d81
  8
Layer_0
  10
318.70792
  20
147.7614
  0
VERTEX
  5
d82
  8
Layer_0
  10
315.80823
  20
147.7614
  0
VERTEX
  5
d83
  8
Layer_0
  10
312.90652
  20
147.7614
  0
VERTEX
  5
d84
  8
Layer_0
  10
312.89551
  20
147.7614
  0
VERTEX
  5
d85
  8
Layer_0
  10
312.86349
  20
147.77661
  0
VERTEX
  5
d86
  8
Layer_0
  10
312.86752
  20
147.7998
  0
VERTEX
  5
d87
  8
Layer_0
  10
312.89151
  20
147.80412
  0
VERTEX
  5
d88
  8
Layer_0
  10
312.90652
  20
147.77231
  0
VERTEX
  5
d89
  8
Layer_0
  10
312.90652
  20
147.7614
  0
VERTEX
  5
d8a
  8
Layer_0
  10
312.90652
  20
144.96033
  0
VERTEX
  5
d8b
  8
Layer_0
  10
312.90652
  20
144.95082
  0
VERTEX
  5
d8c
  8
Layer_0
  10
312.89151
  20
144.91913
  0
VERTEX
  5
d8d
  8
Layer_0
  10
312.86752
  20
144.92331
  0
VERTEX
  5
d8e
  8
Layer_0
  10
312.86349
  20
144.94662
  0
VERTEX
  5
d8f
  8
Layer_0
  10
312.89551
  20
144.96033
  0
VERTEX
  5
d90
  8
Layer_0
  10
312.90652
  20
144.96033
  0
VERTEX
  5
d91
  8
Layer_0
  10
318.70792
  20
144.96033
  0
VERTEX
  5
d92
  8
Layer_0
  10
318.71793
  20
144.96033
  0
VERTEX
  5
d93
  8
Layer_0
  10
318.74896
  20
144.94662
  0
VERTEX
  5
d94
  8
Layer_0
  10
318.74493
  20
144.92331
  0
VERTEX
  5
d95
  8
Layer_0
  10
318.72192
  20
144.91913
  0
VERTEX
  5
d96
  8
Layer_0
  10
318.70792
  20
144.95082
  0
VERTEX
  5
d97
  8
Layer_0
  10
318.70792
  20
144.96033
  0
VERTEX
  5
d98
  8
Layer_0
  10
318.70792
  20
147.7614
  0
VERTEX
  5
d99
  8
Layer_0
  10
318.70792
  20
147.77231
  0
VERTEX
  5
d9a
  8
Layer_0
  10
318.72192
  20
147.80412
  0
VERTEX
  5
d9b
  8
Layer_0
  10
318.74493
  20
147.7998
  0
SEQEND
  0
POLYLINE
  5
d9d
  8
Layer_0
  62
0
  66
1
  10
0
  20
0
  30
0
  0
VERTEX
  5
d9d
  8
Layer_0
  10
238.72522
  20
147.7998
  0
VERTEX
  5
d9e
  8
Layer_0
  10
238.72931
  20
147.77661
  0
VERTEX
  5
d9f
  8
Layer_0
  10
238.6976
  20
147.7614
  0
VERTEX
  5
da0
  8
Layer_0
  10
238.68788
  20
147.7614
  0
VERTEX
  5
da1
  8
Layer_0
  10
232.88779
  20
147.7614
  0
VERTEX
  5
da2
  8
Layer_0
  10
232.87669
  20
147.7614
  0
VERTEX
  5
da3
  8
Layer_0
  10
232.84497
  20
147.77661
  0
VERTEX
  5
da4
  8
Layer_0
  10
232.84917
  20
147.7998
  0
VERTEX
  5
da5
  8
Layer_0
  10
232.87259
  20
147.80412
  0
VERTEX
  5
da6
  8
Layer_0
  10
232.88779
  20
147.77231
  0
VERTEX
  5
da7
  8
Layer_0
  10
232.88779
  20
147.7614
  0
VERTEX
  5
da8
  8
Layer_0
  10
232.88779
  20
144.96033
  0
VERTEX
  5
da9
  8
Layer_0
  10
232.88779
  20
144.95082
  0
VERTEX
  5
daa
  8
Layer_0
  10
232.87259
  20
144.91913
  0
VERTEX
  5
dab
  8
Layer_0
  10
232.84917
  20
144.92331
  0
VERTEX
  5
dac
  8
Layer_0
  10
232.84497
  20
144.94662
  0
VERTEX
  5
dad
  8
Layer_0
  10
232.87669
  20
144.96033
  0
VERTEX
  5
dae
  8
Layer_0
  10
232.88779
  20
144.96033
  0
VERTEX
  5
daf
  8
Layer_0
  10
235.78789
  20
144.96033
  0
VERTEX
  5
db0
  8
Layer_0
  10
238.68788
  20
144.96033
  0
VERTEX
  5
db1
  8
Layer_0
  10
238.6976
  20
144.96033
  0
VERTEX
  5
db2
  8
Layer_0
  10
238.72931
  20
144.94662
  0
VERTEX
  5
db3
  8
Layer_0
  10
238.72522
  20
144.92331
  0
VERTEX
  5
db4
  8
Layer_0
  10
238.70172
  20
144.91913
  0
VERTEX
  5
db5
  8
Layer_0
  10
238.68788
  20
144.95082
  0
VERTEX
  5
db6
  8
Layer_0
  10
238.68788
  20
144.96033
  0
VERTEX
  5
db7
  8
Layer_0
  10
238.68788
  20
147.7614
  0
VERTEX
  5
db8
  8
Layer_0
  10
238.68788
  20
147.77231
  0
VERTEX
  5
db9
  8
Layer_0
  10
238.70172
  20
147.80412
  0
VERTEX
  5
dba
  8
Layer_0
  10
238.72522
  20
147.7998
  0
SEQEND
  0
CIRCLE
  5
dbc
  8
Layer_0
  62
0
  10
263.19775
  20
141.58945
  30
0
  40
3.3599999
  0
CIRCLE
  5
dbc
  8
Layer_0
  62
0
  10
263.19775
  20
130.66946
  30
0
  40
3.3599999
  0
CIRCLE
  5
dbc
  8
Layer_0
  62
0
  10
275.79776
  20
136.12946
  30
0
  40
3.3599999
  0
CIRCLE
  5
dbc
  8
Layer_0
  62
0
  10
288.39777
  20
141.58945
  30
0
  40
3.3599999
  0
CIRCLE
  5
dbc
  8
Layer_0
  62
0
  10
288.39777
  20
130.66946
  30
0
  40
3.3599999
  0
POLYLINE
  5
dbc
  8
Layer_1
  62
6
  66
1
  10
0
  20
0
  30
0
  0
VERTEX
  5
dbc
  8
Layer_1
  10
250.88733
  20
137.78305
  0
VERTEX
  5
dbd
  8
Layer_1
  10
250.48108
  20
137.78305
  0
VERTEX
  5
dbe
  8
Layer_1
  10
250.48108
  20
137.31601
  0
VERTEX
  5
dbf
  8
Layer_1
  10
250.88733
  20
137.31601
  0
VERTEX
  5
dc0
  8
Layer_1
  10
250.88733
  20
137.78305
  0
SEQEND
  0
POLYLINE
  5
dc2
  8
Layer_1
  62
6
  66
1
  10
0
  20
0
  30
0
  0
VERTEX
  5
dc2
  8
Layer_1
  10
251.90149
  20
135.78427
  0
VERTEX
  5
dc3
  8
Layer_1
  10
251.91321
  20
135.99594
  42
-0.20161108
  0
VERTEX
  5
dc4
  8
Layer_1
  10
252.10388
  20
136.41609
  42
-0.20161134
  0
VERTEX
  5
dc5
  8
Layer_1
  10
252.53748
  20
136.57382
  42
-0.20180465
  0
VERTEX
  5
dc6
  8
Layer_1
  10
252.87086
  20
136.46526
  42
-0.20180501
  0
VERTEX
  5
dc7
  8
Layer_1
  10
253.02429
  20
136.14999
  42
-0.03098628
  0
VERTEX
  5
dc8
  8
Layer_1
  10
253.03601
  20
135.9332
  0
VERTEX
  5
dc9
  8
Layer_1
  10
253.03601
  20
134.47592
  0
VERTEX
  5
dca
  8
Layer_1
  10
253.44226
  20
134.47592
  42
0.0056163484
  0
VERTEX
  5
dcb
  8
Layer_1
  10
253.4408
  20
136.07944
  42
0.40183785
  0
VERTEX
  5
dcc
  8
Layer_1
  10
252.83118
  20
136.90634
  42
0.23740029
  0
VERTEX
  5
dcd
  8
Layer_1
  10
252.00745
  20
136.7037
  0
VERTEX
  5
dce
  8
Layer_1
  10
251.86072
  20
136.5311
  0
VERTEX
  5
dcf
  8
Layer_1
  10
251.86072
  20
136.87167
  0
VERTEX
  5
dd0
  8
Layer_1
  10
251.49524
  20
136.87167
  0
VERTEX
  5
dd1
  8
Layer_1
  10
251.49524
  20
134.47592
  0
VERTEX
  5
dd2
  8
Layer_1
  10
251.90149
  20
134.47592
  0
VERTEX
  5
dd3
  8
Layer_1
  10
251.90149
  20
135.78427
  0
SEQEND
  0
POLYLINE
  5
dd5
  8
Layer_1
  62
6
  70
1
  66
1
  10
0
  20
0
  30
0
  0
VERTEX
  5
dd5
  8
Layer_1
  10
250.88733
  20
136.87167
  0
VERTEX
  5
dd6
  8
Layer_1
  10
250.48108
  20
136.87167
  0
VERTEX
  5
dd7
  8
Layer_1
  10
250.48108
  20
134.47592
  0
VERTEX
  5
dd8
  8
Layer_1
  10
250.88733
  20
134.47592
  0
SEQEND
  0
POLYLINE
  5
dda
  8
Layer_1
  62
6
  66
1
  10
0
  20
0
  30
0
  0
VERTEX
  5
dda
  8
Layer_1
  10
302.34811
  20
134.51773
  0
VERTEX
  5
ddb
  8
Layer_1
  10
302.51047
  20
134.54459
  0
VERTEX
  5
ddc
  8
Layer_1
  10
302.45187
  20
134.90347
  0
VERTEX
  5
ddd
  8
Layer_1
  10
302.35202
  20
134.89151
  42
-0.36739799
  0
VERTEX
  5
dde
  8
Layer_1
  10
302.06491
  20
134.99576
  42
-0.079070717
  0
VERTEX
  5
ddf
  8
Layer_1
  10
302.04343
  20
135.21915
  0
VERTEX
  5
de0
  8
Layer_1
  10
302.04343
  20
136.62003
  0
VERTEX
  5
de1
  8
Layer_1
  10
302.45187
  20
136.62003
  0
VERTEX
  5
de2
  8
Layer_1
  10
302.45187
  20
136.93594
  0
VERTEX
  5
de3
  8
Layer_1
  10
302.04343
  20
136.93594
  0
VERTEX
  5
de4
  8
Layer_1
  10
302.04343
  20
137.77286
  0
VERTEX
  5
de5
  8
Layer_1
  10
301.63962
  20
137.52921
  0
VERTEX
  5
de6
  8
Layer_1
  10
301.63962
  20
136.93594
  0
VERTEX
  5
de7
  8
Layer_1
  10
301.34201
  20
136.93594
  0
VERTEX
  5
de8
  8
Layer_1
  10
301.34201
  20
136.62003
  0
VERTEX
  5
de9
  8
Layer_1
  10
301.63962
  20
136.62003
  0
VERTEX
  5
dea
  8
Layer_1
  10
301.63962
  20
135.24185
  42
0.082639498
  0
VERTEX
  5
deb
  8
Layer_1
  10
301.68918
  20
134.76236
  42
0.24418493
  0
VERTEX
  5
dec
  8
Layer_1
  10
302.00729
  20
134.52603
  42
0.07539233
  0
VERTEX
  5
ded
  8
Layer_1
  10
302.34811
  20
134.51773
  0
SEQEND
  0
POLYLINE
  5
def
  8
Layer_1
  62
6
  66
1
  10
0
  20
0
  30
0
  0
VERTEX
  5
def
  8
Layer_1
  10
297.51682
  20
134.49527
  0
VERTEX
  5
df0
  8
Layer_1
  10
297.66452
  20
134.52261
  42
0.34769205
  0
VERTEX
  5
df1
  8
Layer_1
  10
298.47556
  20
135.55289
  42
0.15862377
  0
VERTEX
  5
df2
  8
Layer_1
  10
298.30783
  20
136.48892
  42
0.3487099
  0
VERTEX
  5
df3
  8
Layer_1
  10
296.95261
  20
136.92349
  42
0.31343735
  0
VERTEX
  5
df4
  8
Layer_1
  10
296.24557
  20
135.89908
  42
0.14784888
  0
VERTEX
  5
df5
  8
Layer_1
  10
296.41428
  20
134.9877
  42
0.30252842
  0
VERTEX
  5
df6
  8
Layer_1
  10
297.51682
  20
134.49527
  0
SEQEND
  0
POLYLINE
  5
df8
  8
Layer_1
  62
6
  66
1
  10
0
  20
0
  30
0
  0
VERTEX
  5
df8
  8
Layer_1
  10
300.01559
  20
134.51138
  42
0.18880119
  0
VERTEX
  5
df9
  8
Layer_1
  10
300.54807
  20
134.892
  0
VERTEX
  5
dfa
  8
Layer_1
  10
300.54807
  20
134.54019
  0
VERTEX
  5
dfb
  8
Layer_1
  10
300.91135
  20
134.54019
  0
VERTEX
  5
dfc
  8
Layer_1
  10
300.91135
  20
136.93594
  0
VERTEX
  5
dfd
  8
Layer_1
  10
300.50534
  20
136.93594
  0
VERTEX
  5
dfe
  8
Layer_1
  10
300.50534
  20
135.65225
  42
-0.18577511
  0
VERTEX
  5
dff
  8
Layer_1
  10
300.34885
  20
135.03995
  42
-0.35821332
  0
VERTEX
  5
e00
  8
Layer_1
  10
299.56223
  20
134.92715
  42
-0.25146546
  0
VERTEX
  5
e01
  8
Layer_1
  10
299.37668
  20
135.46109
  42
-0.005851983
  0
VERTEX
  5
e02
  8
Layer_1
  10
299.37497
  20
136.93594
  0
VERTEX
  5
e03
  8
Layer_1
  10
298.96896
  20
136.93594
  42
0.0060467465
  0
VERTEX
  5
e04
  8
Layer_1
  10
298.97043
  20
135.33047
  42
0.3972444
  0
VERTEX
  5
e05
  8
Layer_1
  10
299.58298
  20
134.50626
  42
0.10519351
  0
VERTEX
  5
e06
  8
Layer_1
  10
300.01559
  20
134.51138
  0
SEQEND
  0
POLYLINE
  5
e08
  8
Layer_1
  62
6
  70
1
  66
1
  10
0
  20
0
  30
0
  0
VERTEX
  5
e08
  8
Layer_1
  10
297.21725
  20
134.83414
  42
-0.33730441
  0
VERTEX
  5
e09
  8
Layer_1
  10
296.66965
  20
135.52237
  42
-0.14309119
  0
VERTEX
  5
e0a
  8
Layer_1
  10
296.76999
  20
136.29752
  42
-0.34164858
  0
VERTEX
  5
e0b
  8
Layer_1
  10
297.50705
  20
136.63956
  42
-0.33211246
  0
VERTEX
  5
e0c
  8
Layer_1
  10
298.05441
  20
135.96036
  42
-0.14051275
  0
VERTEX
  5
e0d
  8
Layer_1
  10
297.95407
  20
135.18008
  42
-0.34385107
  0
SEQEND
  0
POLYLINE
  5
e0f
  8
Layer_1
  62
6
  66
1
  10
0
  20
0
  30
0
  0
VERTEX
  5
e0f
  8
Layer_1
  10
234.53468
  20
109.93904
  42
0.012903414
  0
VERTEX
  5
e10
  8
Layer_1
  10
234.6924
  20
110.18709
  0
VERTEX
  5
e11
  8
Layer_1
  10
234.76588
  20
110.0721
  42
0.01241175
  0
VERTEX
  5
e12
  8
Layer_1
  10
235.6692
  20
108.78621
  0
VERTEX
  5
e13
  8
Layer_1
  10
236.21071
  20
108.78621
  0
VERTEX
  5
e14
  8
Layer_1
  10
234.95876
  20
110.5345
  0
VERTEX
  5
e15
  8
Layer_1
  10
236.12038
  20
112.09334
  0
VERTEX
  5
e16
  8
Layer_1
  10
235.64455
  20
112.09334
  42
0.0076533996
  0
VERTEX
  5
e17
  8
Layer_1
  10
234.83791
  20
111.02351
  0
VERTEX
  5
e18
  8
Layer_1
  10
234.7173
  20
110.83894
  0
VERTEX
  5
e19
  8
Layer_1
  10
234.67116
  20
110.9178
  42
0.017043509
  0
VERTEX
  5
e1a
  8
Layer_1
  10
233.85109
  20
112.09334
  0
VERTEX
  5
e1b
  8
Layer_1
  10
233.32985
  20
112.09334
  0
VERTEX
  5
e1c
  8
Layer_1
  10
234.45778
  20
110.5096
  0
VERTEX
  5
e1d
  8
Layer_1
  10
233.17873
  20
108.78621
  0
VERTEX
  5
e1e
  8
Layer_1
  10
233.70436
  20
108.78621
  0
VERTEX
  5
e1f
  8
Layer_1
  10
234.53468
  20
109.93904
  0
SEQEND
  0
POLYLINE
  5
e21
  8
Layer_1
  62
6
  66
1
  10
0
  20
0
  30
0
  0
VERTEX
  5
e21
  8
Layer_1
  10
233.97504
  20
98.86792
  0
VERTEX
  5
e22
  8
Layer_1
  10
235.35785
  20
98.86792
  0
VERTEX
  5
e23
  8
Layer_1
  10
235.74359
  20
97.866211
  0
VERTEX
  5
e24
  8
Layer_1
  10
236.24213
  20
97.866211
  0
VERTEX
  5
e25
  8
Layer_1
  10
234.88861
  20
101.17334
  0
VERTEX
  5
e26
  8
Layer_1
  10
234.41718
  20
101.17334
  0
VERTEX
  5
e27
  8
Layer_1
  10
233.14716
  20
97.866211
  0
VERTEX
  5
e28
  8
Layer_1
  10
233.61176
  20
97.866211
  0
VERTEX
  5
e29
  8
Layer_1
  10
233.97504
  20
98.86792
  0
SEQEND
  0
POLYLINE
  5
e2b
  8
Layer_1
  62
6
  70
1
  66
1
  10
0
  20
0
  30
0
  0
VERTEX
  5
e2b
  8
Layer_1
  10
234.10126
  20
99.224121
  0
VERTEX
  5
e2c
  8
Layer_1
  10
234.46454
  20
100.19434
  42
0.038863161
  0
VERTEX
  5
e2d
  8
Layer_1
  10
234.64276
  20
100.82593
  0
VERTEX
  5
e2e
  8
Layer_1
  10
234.68622
  20
100.68237
  42
0.015451632
  0
VERTEX
  5
e2f
  8
Layer_1
  10
235.2226
  20
99.224121
  0
SEQEND
  0
POLYLINE
  5
e31
  8
Layer_1
  62
6
  66
1
  10
0
  20
0
  30
0
  0
VERTEX
  5
e31
  8
Layer_1
  10
316.371
  20
110.18709
  0
VERTEX
  5
e32
  8
Layer_1
  10
317.69058
  20
112.09334
  0
VERTEX
  5
e33
  8
Layer_1
  10
317.18082
  20
112.09334
  42
0.019170359
  0
VERTEX
  5
e34
  8
Layer_1
  10
316.17911
  20
110.5367
  0
VERTEX
  5
e35
  8
Layer_1
  10
316.01724
  20
110.81648
  42
0.011316172
  0
VERTEX
  5
e36
  8
Layer_1
  10
315.19107
  20
112.09334
  0
VERTEX
  5
e37
  8
Layer_1
  10
314.65884
  20
112.09334
  0
VERTEX
  5
e38
  8
Layer_1
  10
315.93326
  20
110.18709
  0
VERTEX
  5
e39
  8
Layer_1
  10
315.93326
  20
108.78621
  0
VERTEX
  5
e3a
  8
Layer_1
  10
316.371
  20
108.78621
  0
VERTEX
  5
e3b
  8
Layer_1
  10
316.371
  20
110.18709
  0
SEQEND
  0
POLYLINE
  5
e3d
  8
Layer_1
  62
6
  66
1
  10
0
  20
0
  30
0
  0
VERTEX
  5
e3d
  8
Layer_1
  10
317.48196
  20
98.256348
  0
VERTEX
  5
e3e
  8
Layer_1
  10
315.37064
  20
98.256348
  0
VERTEX
  5
e3f
  8
Layer_1
  10
315.57132
  20
98.48877
  0
VERTEX
  5
e40
  8
Layer_1
  10
317.42801
  20
100.78296
  0
VERTEX
  5
e41
  8
Layer_1
  10
317.42801
  20
101.17334
  0
VERTEX
  5
e42
  8
Layer_1
  10
315.05936
  20
101.17334
  0
VERTEX
  5
e43
  8
Layer_1
  10
315.05936
  20
100.78296
  0
VERTEX
  5
e44
  8
Layer_1
  10
316.90457
  20
100.78296
  0
VERTEX
  5
e45
  8
Layer_1
  10
316.73758
  20
100.60132
  0
VERTEX
  5
e46
  8
Layer_1
  10
316.56155
  20
100.39063
  0
VERTEX
  5
e47
  8
Layer_1
  10
314.86746
  20
98.272217
  0
VERTEX
  5
e48
  8
Layer_1
  10
314.86746
  20
97.866211
  0
VERTEX
  5
e49
  8
Layer_1
  10
317.48196
  20
97.866211
  0
VERTEX
  5
e4a
  8
Layer_1
  10
317.48196
  20
98.256348
  0
SEQEND
  0
ENDSEC
  0
EOF
