  0
SECTION
  2
HEADER
  9
$ACADVER
  1
AC1024
  9
$ACADMAINTVER
 70
     6
  9
$DWGCODEPAGE
  3
ANSI_1252
  9
$INSBASE
 10
0.0
 20
0.0
 30
0.0
  9
$EXTMIN
 10
-0.0635
 20
-0.0635
 30
0.0
  9
$EXTMAX
 10
2440.0635
 20
1220.0635
 30
0.0
  9
$LIMMIN
 10
-0.0635
 20
-0.0635
  9
$LIMMAX
 10
2440.0635
 20
1220.0635
  9
$ORTHOMODE
 70
     0
  9
$REGENMODE
 70
     1
  9
$FILLMODE
 70
     1
  9
$QTEXTMODE
 70
     0
  9
$MIRRTEXT
 70
     1
  9
$LTSCALE
 40
1.0
  9
$ATTMODE
 70
     1
  9
$TEXTSIZE
 40
0.2
  9
$TRACEWID
 40
0.05
  9
$TEXTSTYLE
  7
STANDARD
  9
$CLAYER
  8
default
  9
$CELTYPE
  6
BYLAYER
  9
$CECOLOR
 62
   256
  9
$CELTSCALE
 40
1.0
  9
$DISPSILH
 70
     0
  9
$DIMSCALE
 40
1.0
  9
$DIMASZ
 40
0.18
  9
$DIMEXO
 40
0.0625
  9
$DIMDLI
 40
0.38
  9
$DIMRND
 40
0.0
  9
$DIMDLE
 40
0.0
  9
$DIMEXE
 40
0.18
  9
$DIMTP
 40
0.0
  9
$DIMTM
 40
0.0
  9
$DIMTXT
 40
0.18
  9
$DIMCEN
 40
0.09
  9
$DIMTSZ
 40
0.0
  9
$DIMTOL
 70
     0
  9
$DIMLIM
 70
     0
  9
$DIMTIH
 70
     1
  9
$DIMTOH
 70
     1
  9
$DIMSE1
 70
     0
  9
$DIMSE2
 70
     0
  9
$DIMTAD
 70
     0
  9
$DIMZIN
 70
     0
  9
$DIMBLK
  1

  9
$DIMASO
 70
     1
  9
$DIMSHO
 70
     1
  9
$DIMPOST
  1

  9
$DIMAPOST
  1

  9
$DIMALT
 70
     0
  9
$DIMALTD
 70
     2
  9
$DIMALTF
 40
25.4
  9
$DIMLFAC
 40
1.0
  9
$DIMTOFL
 70
     0
  9
$DIMTVP
 40
0.0
  9
$DIMTIX
 70
     0
  9
$DIMSOXD
 70
     0
  9
$DIMSAH
 70
     0
  9
$DIMBLK1
  1

  9
$DIMBLK2
  1

  9
$DIMSTYLE
  2
STANDARD
  9
$DIMCLRD
 70
     0
  9
$DIMCLRE
 70
     0
  9
$DIMCLRT
 70
     0
  9
$DIMTFAC
 40
1.0
  9
$DIMGAP
 40
0.09
  9
$DIMJUST
 70
     0
  9
$DIMSD1
 70
     0
  9
$DIMSD2
 70
     0
  9
$DIMTOLJ
 70
     1
  9
$DIMTZIN
 70
     0
  9
$DIMALTZ
 70
     0
  9
$DIMALTTZ
 70
     0
  9
$DIMUPT
 70
     0
  9
$DIMDEC
 70
     4
  9
$DIMTDEC
 70
     4
  9
$DIMALTU
 70
     2
  9
$DIMALTTD
 70
     2
  9
$DIMTXSTY
  7
STANDARD
  9
$DIMAUNIT
 70
     0
  9
$DIMADEC
 70
     0
  9
$DIMALTRND
 40
0.0
  9
$DIMAZIN
 70
     0
  9
$DIMDSEP
 70
    46
  9
$DIMATFIT
 70
     3
  9
$DIMFRAC
 70
     0
  9
$DIMLDRBLK
  1

  9
$DIMLUNIT
 70
     2
  9
$DIMLWD
 70
    -2
  9
$DIMLWE
 70
    -2
  9
$DIMTMOVE
 70
     2
  9
$DIMFXL
 40
1.0
  9
$DIMFXLON
 70
     0
  9
$DIMJOGANG
 40
0.7853981633974483
  9
$DIMTFILL
 70
     0
  9
$DIMTFILLCLR
 70
     0
  9
$DIMARCSYM
 70
     0
  9
$DIMLTYPE
  6

  9
$DIMLTEX1
  6

  9
$DIMLTEX2
  6

  9
$DIMTXTDIRECTION
 70
     0
  9
$LUNITS
 70
     2
  9
$LUPREC
 70
     6
  9
$SKETCHINC
 40
0.1
  9
$FILLETRAD
 40
0.5
  9
$AUNITS
 70
     0
  9
$AUPREC
 70
     0
  9
$MENU
  1
.
  9
$ELEVATION
 40
0.0
  9
$PELEVATION
 40
0.0
  9
$THICKNESS
 40
0.0
  9
$LIMCHECK
 70
     0
  9
$CHAMFERA
 40
0.5
  9
$CHAMFERB
 40
0.5
  9
$CHAMFERC
 40
1.0
  9
$CHAMFERD
 40
0.0
  9
$SKPOLY
 70
     0
  9
$TDCREATE
 40
2457844.885729167
  9
$TDUCREATE
 40
2457844.552395833
  9
$TDUPDATE
 40
2457844.885741852
  9
$TDUUPDATE
 40
2457844.552408519
  9
$TDINDWG
 40
0.0
  9
$TDUSRTIMER
 40
0.0
  9
$USRTIMER
 70
     1
  9
$ANGBASE
 50
0.0
  9
$ANGDIR
 70
     0
  9
$PDMODE
 70
     0
  9
$PDSIZE
 40
0.0
  9
$PLINEWID
 40
0.0
  9
$SPLFRAME
 70
     0
  9
$SPLINETYPE
 70
     6
  9
$SPLINESEGS
 70
     8
  9
$HANDSEED
  5
18C
  9
$SURFTAB1
 70
     6
  9
$SURFTAB2
 70
     6
  9
$SURFTYPE
 70
     6
  9
$SURFU
 70
     6
  9
$SURFV
 70
     6
  9
$UCSBASE
  2

  9
$UCSNAME
  2

  9
$UCSORG
 10
0.0
 20
0.0
 30
0.0
  9
$UCSXDIR
 10
1.0
 20
0.0
 30
0.0
  9
$UCSYDIR
 10
0.0
 20
1.0
 30
0.0
  9
$UCSORTHOREF
  2

  9
$UCSORTHOVIEW
 70
     0
  9
$UCSORGTOP
 10
0.0
 20
0.0
 30
0.0
  9
$UCSORGBOTTOM
 10
0.0
 20
0.0
 30
0.0
  9
$UCSORGLEFT
 10
0.0
 20
0.0
 30
0.0
  9
$UCSORGRIGHT
 10
0.0
 20
0.0
 30
0.0
  9
$UCSORGFRONT
 10
0.0
 20
0.0
 30
0.0
  9
$UCSORGBACK
 10
0.0
 20
0.0
 30
0.0
  9
$PUCSBASE
  2

  9
$PUCSNAME
  2

  9
$PUCSORG
 10
0.0
 20
0.0
 30
0.0
  9
$PUCSXDIR
 10
1.0
 20
0.0
 30
0.0
  9
$PUCSYDIR
 10
0.0
 20
1.0
 30
0.0
  9
$PUCSORTHOREF
  2

  9
$PUCSORTHOVIEW
 70
     0
  9
$PUCSORGTOP
 10
0.0
 20
0.0
 30
0.0
  9
$PUCSORGBOTTOM
 10
0.0
 20
0.0
 30
0.0
  9
$PUCSORGLEFT
 10
0.0
 20
0.0
 30
0.0
  9
$PUCSORGRIGHT
 10
0.0
 20
0.0
 30
0.0
  9
$PUCSORGFRONT
 10
0.0
 20
0.0
 30
0.0
  9
$PUCSORGBACK
 10
0.0
 20
0.0
 30
0.0
  9
$USERI1
 70
     0
  9
$USERI2
 70
     0
  9
$USERI3
 70
     0
  9
$USERI4
 70
     0
  9
$USERI5
 70
     0
  9
$USERR1
 40
0.0
  9
$USERR2
 40
0.0
  9
$USERR3
 40
0.0
  9
$USERR4
 40
0.0
  9
$USERR5
 40
0.0
  9
$WORLDVIEW
 70
     1
  9
$SHADEDGE
 70
     3
  9
$SHADEDIF
 70
    70
  9
$TILEMODE
 70
     1
  9
$MAXACTVP
 70
    48
  9
$PINSBASE
 10
0.0
 20
0.0
 30
0.0
  9
$PLIMCHECK
 70
     0
  9
$PEXTMIN
 10
1.000000000000000E+20
 20
1.000000000000000E+20
 30
1.000000000000000E+20
  9
$PEXTMAX
 10
-1.000000000000000E+20
 20
-1.000000000000000E+20
 30
-1.000000000000000E+20
  9
$PLIMMIN
 10
0.0
 20
0.0
  9
$PLIMMAX
 10
12.0
 20
9.0
  9
$UNITMODE
 70
     0
  9
$VISRETAIN
 70
     1
  9
$PLINEGEN
 70
     0
  9
$PSLTSCALE
 70
     1
  9
$TREEDEPTH
 70
  3020
  9
$CMLSTYLE
  2
STANDARD
  9
$CMLJUST
 70
     0
  9
$CMLSCALE
 40
1.0
  9
$PROXYGRAPHICS
 70
     1
  9
$MEASUREMENT
 70
     1
  9
$CELWEIGHT
370
    -1
  9
$ENDCAPS
280
     0
  9
$JOINSTYLE
280
     0
  9
$LWDISPLAY
290
     0
  9
$INSUNITS
 70
     4
  9
$HYPERLINKBASE
  1

  9
$STYLESHEET
  1

  9
$XEDIT
290
     1
  9
$CEPSNTYPE
380
     0
  9
$PSTYLEMODE
290
     1
  9
$FINGERPRINTGUID
  2
{0B8D9553-DDF2-4B97-B25B-91CDEB4F899A}
  9
$VERSIONGUID
  2
{FAEB1C32-E019-11D5-929B-00C0DF256EC4}
  9
$EXTNAMES
290
     1
  9
$PSVPSCALE
 40
0.0
  9
$OLESTARTUP
290
     0
  9
$SORTENTS
280
   127
  9
$INDEXCTL
280
     0
  9
$HIDETEXT
280
     1
  9
$XCLIPFRAME
280
     2
  9
$HALOGAP
280
     0
  9
$OBSCOLOR
 70
   257
  9
$OBSLTYPE
280
     0
  9
$INTERSECTIONDISPLAY
280
     0
  9
$INTERSECTIONCOLOR
 70
   257
  9
$DIMASSOC
280
     2
  9
$PROJECTNAME
  1

  9
$CAMERADISPLAY
290
     0
  9
$LENSLENGTH
 40
50.0
  9
$CAMERAHEIGHT
 40
0.0
  9
$STEPSPERSEC
 40
2.0
  9
$STEPSIZE
 40
6.0
  9
$3DDWFPREC
 40
2.0
  9
$PSOLWIDTH
 40
0.25
  9
$PSOLHEIGHT
 40
4.0
  9
$LOFTANG1
 40
1.570796326794897
  9
$LOFTANG2
 40
1.570796326794897
  9
$LOFTMAG1
 40
0.0
  9
$LOFTMAG2
 40
0.0
  9
$LOFTPARAM
 70
     7
  9
$LOFTNORMALS
280
     1
  9
$LATITUDE
 40
37.795
  9
$LONGITUDE
 40
-122.394
  9
$NORTHDIRECTION
 40
0.0
  9
$TIMEZONE
 70
 -8000
  9
$LIGHTGLYPHDISPLAY
280
     1
  9
$TILEMODELIGHTSYNCH
280
     1
  9
$SOLIDHIST
280
     1
  9
$SHOWHIST
280
     1
  9
$DWFFRAME
280
     2
  9
$DGNFRAME
280
     2
  9
$REALWORLDSCALE
290
     1
  9
$INTERFERECOLOR
 62
   256
  9
$CSHADOW
280
     0
  9
$SHADOWPLANELOCATION
 40
0.0
  0
ENDSEC
  0
SECTION
  2
CLASSES
  0
CLASS
  1
SCALE
  2
AcDbScale
  3
ObjectDBX Classes
 90
     1153
 91
        4
280
     0
281
     0
  0
CLASS
  1
VISUALSTYLE
  2
AcDbVisualStyle
  3
ObjectDBX Classes
 90
     4095
 91
        4
280
     0
281
     0
  0
CLASS
  1
MATERIAL
  2
AcDbMaterial
  3
ObjectDBX Classes
 90
     1153
 91
        4
280
     0
281
     0
  0
CLASS
  1
DICTIONARYVAR
  2
AcDbDictionaryVar
  3
ObjectDBX Classes
 90
        0
 91
        4
280
     0
281
     0
  0
ENDSEC
  0
SECTION
  2
TABLES
  0
TABLE
  2
VPORT
  5
8
330
0
100
AcDbSymbolTable
 70
     1
  0
VPORT
  5
1E
330
8
100
AcDbSymbolTableRecord
100
AcDbViewportTableRecord
  2
*ACTIVE
 70
     0
 10
0.0
 20
0.0
 11
1.0
 21
1.0
 12
1220.0
 22
610.0
 13
0.0
 23
0.0
 14
0.25
 24
0.25
 15
0.25
 25
0.25
 16
0.0
 26
0.0
 36
1.0
 17
0.0
 27
0.0
 37
0.0
 40
1220.127
 41
1.999896
 42
50.0
 43
0.0
 44
0.0
 50
0.0
 51
0.0
 71
     0
 72
   100
 73
     1
 74
     1
 75
     0
 76
     0
 77
     0
 78
     0
281
     0
 65
     1
110
0.0
120
0.0
130
0.0
111
1.0
121
0.0
131
0.0
112
0.0
122
1.0
132
0.0
 79
     0
146
0.0
348
13D
 60
     3
 61
     5
292
     1
282
     1
141
0.0
142
0.0
 63
   256
  0
ENDTAB
  0
TABLE
  2
LTYPE
  5
5
330
0
100
AcDbSymbolTable
 70
     1
  0
LTYPE
  5
12
330
5
100
AcDbSymbolTableRecord
100
AcDbLinetypeTableRecord
  2
BYBLOCK
 70
     0
  3

 72
    65
 73
     0
 40
0.0
  0
LTYPE
  5
13
330
5
100
AcDbSymbolTableRecord
100
AcDbLinetypeTableRecord
  2
BYLAYER
 70
     0
  3

 72
    65
 73
     0
 40
0.0
  0
LTYPE
  5
14
330
5
100
AcDbSymbolTableRecord
100
AcDbLinetypeTableRecord
  2
CONTINUOUS
 70
     0
  3
Solid line
 72
    65
 73
     0
 40
0.0
  0
ENDTAB
  0
TABLE
  2
LAYER
  5
2
330
0
100
AcDbSymbolTable
 70
    10
  0
LAYER
  5
E
330
2
100
AcDbSymbolTableRecord
100
AcDbLayerTableRecord
  2
0
 70
     0
 62
     7
  6
CONTINUOUS
370
    -3
390
0
347
154
  0
LAYER
  5
20
330
2
100
AcDbSymbolTableRecord
100
AcDbLayerTableRecord
  2
default
 70
     0
 62
     7
  6
CONTINUOUS
370
    -3
390
0
347
154
  0
LAYER
  5
21
330
2
100
AcDbSymbolTableRecord
100
AcDbLayerTableRecord
  2
ISOMETRIC
 70
     0
 62
     7
  6
CONTINUOUS
370
    -3
390
0
347
154
  0
LAYER
  5
22
330
2
100
AcDbSymbolTableRecord
100
AcDbLayerTableRecord
  2
PLAN
 70
     0
 62
     7
  6
CONTINUOUS
370
    -3
390
0
347
154
  0
LAYER
  5
23
330
2
100
AcDbSymbolTableRecord
100
AcDbLayerTableRecord
  2
LONG
 70
     0
 62
     7
  6
CONTINUOUS
370
    -3
390
0
347
154
  0
LAYER
  5
24
330
2
100
AcDbSymbolTableRecord
100
AcDbLayerTableRecord
  2
FRONT
 70
     0
 62
     7
  6
CONTINUOUS
370
    -3
390
0
347
154
  0
LAYER
  5
25
330
2
100
AcDbSymbolTableRecord
100
AcDbLayerTableRecord
  2
UNFOLD
 70
     0
 62
     7
  6
CONTINUOUS
370
    -3
390
0
347
154
  0
LAYER
  5
26
330
2
100
AcDbSymbolTableRecord
100
AcDbLayerTableRecord
  2
PLAN_SECTIONS
 70
     0
 62
     7
  6
CONTINUOUS
370
    -3
390
0
347
154
  0
LAYER
  5
27
330
2
100
AcDbSymbolTableRecord
100
AcDbLayerTableRecord
  2
CROSS_SECTIONS
 70
     0
 62
     7
  6
CONTINUOUS
370
    -3
390
0
347
154
  0
LAYER
  5
28
330
2
100
AcDbSymbolTableRecord
100
AcDbLayerTableRecord
  2
LONG_SECTIONS
 70
     0
 62
     7
  6
CONTINUOUS
370
    -3
390
0
347
154
  0
ENDTAB
  0
TABLE
  2
STYLE
  5
3
330
0
100
AcDbSymbolTable
 70
     1
  0
STYLE
  5
F
330
3
100
AcDbSymbolTableRecord
100
AcDbTextStyleTableRecord
  2
STANDARD
 70
     0
 40
0.0
 41
1.0
 50
0.0
 71
     0
 42
0.2
  3
txt
  4

  0
ENDTAB
  0
TABLE
  2
VIEW
  5
6
330
0
100
AcDbSymbolTable
 70
     0
  0
ENDTAB
  0
TABLE
  2
UCS
  5
7
330
0
100
AcDbSymbolTable
 70
     0
  0
ENDTAB
  0
TABLE
  2
APPID
  5
9
330
0
100
AcDbSymbolTable
 70
     1
  0
APPID
  5
10
330
9
100
AcDbSymbolTableRecord
100
AcDbRegAppTableRecord
  2
ACAD
 70
     0
  0
ENDTAB
  0
TABLE
  2
DIMSTYLE
  5
A
330
0
100
AcDbSymbolTable
 70
     1
100
AcDbDimStyleTable
  0
DIMSTYLE
105
1D
330
A
100
AcDbSymbolTableRecord
100
AcDbDimStyleTableRecord
  2
STANDARD
 70
     0
178
     0
340
F
  0
ENDTAB
  0
TABLE
  2
BLOCK_RECORD
  5
1
330
0
100
AcDbSymbolTable
 70
     0
  0
BLOCK_RECORD
  5
18
330
1
100
AcDbSymbolTableRecord
100
AcDbBlockTableRecord
  2
*MODEL_SPACE
340
136
 70
     0
280
     1
281
     0
  0
BLOCK_RECORD
  5
15
330
1
100
AcDbSymbolTableRecord
100
AcDbBlockTableRecord
  2
*PAPER_SPACE
340
137
 70
     0
280
     1
281
     0
  0
ENDTAB
  0
ENDSEC
  0
SECTION
  2
BLOCKS
  0
BLOCK
  5
19
330
18
100
AcDbEntity
  8
0
100
AcDbBlockBegin
  2
*MODEL_SPACE
 70
     0
 10
0.0
 20
0.0
 30
0.0
  3
*MODEL_SPACE
  1
     0
  0
ENDBLK
  5
1A
330
18
100
AcDbEntity
  8
0
100
AcDbBlockEnd
  0
BLOCK
  5
16
330
15
100
AcDbEntity
 67
     1
  8
0
100
AcDbBlockBegin
  2
*PAPER_SPACE
 70
     0
 10
0.0
 20
0.0
 30
0.0
  3
*PAPER_SPACE
  1
     0
  0
ENDBLK
  5
17
330
15
100
AcDbEntity
 67
     1
  8
0
100
AcDbBlockEnd
  0
ENDSEC
  0
SECTION
  2
ENTITIES
  0
LWPOLYLINE
  5
29
330
18
100
AcDbEntity
  8
default
 62
     5
100
AcDbPolyline
 90
        2
 70
     0
 43
0.127
 10
2389.690379
 20
684.809984
 10
2229.998766
 20
723.294976
  0
LWPOLYLINE
  5
2A
330
18
100
AcDbEntity
  8
default
 62
     5
100
AcDbPolyline
 90
        2
 70
     0
 43
0.127
 10
2388.753226
 20
680.921315
 10
2389.690379
 20
684.809984
  0
LWPOLYLINE
  5
2B
330
18
100
AcDbEntity
  8
default
 62
     5
100
AcDbPolyline
 90
        2
 70
     0
 43
0.127
 10
2437.361587
 20
669.206909
 10
2388.753226
 20
680.921315
  0
LWPOLYLINE
  5
2C
330
18
100
AcDbEntity
  8
default
 62
     5
100
AcDbPolyline
 90
        2
 70
     0
 43
0.127
 10
2414.100116
 20
535.396132
 10
2437.361587
 20
669.206909
  0
LWPOLYLINE
  5
2D
330
18
100
AcDbEntity
  8
default
 62
     5
100
AcDbPolyline
 90
        2
 70
     0
 43
0.127
 10
2229.998913
 20
511.19546
 10
2414.100116
 20
535.396132
  0
LWPOLYLINE
  5
2E
330
18
100
AcDbEntity
  8
default
 62
     5
100
AcDbPolyline
 90
        2
 70
     0
 43
0.127
 10
2045.899884
 20
535.396132
 10
2229.998913
 20
511.19546
  0
LWPOLYLINE
  5
2F
330
18
100
AcDbEntity
  8
default
 62
     5
100
AcDbPolyline
 90
        2
 70
     0
 43
0.127
 10
2022.638424
 20
669.206911
 10
2045.899884
 20
535.396132
  0
LWPOLYLINE
  5
30
330
18
100
AcDbEntity
  8
default
 62
     5
100
AcDbPolyline
 90
        2
 70
     0
 43
0.127
 10
2071.246752
 20
680.921448
 10
2022.638424
 20
669.206911
  0
LWPOLYLINE
  5
31
330
18
100
AcDbEntity
  8
default
 62
     5
100
AcDbPolyline
 90
        2
 70
     0
 43
0.127
 10
2070.309589
 20
684.810115
 10
2071.246752
 20
680.921448
  0
LWPOLYLINE
  5
32
330
18
100
AcDbEntity
  8
default
 62
     5
100
AcDbPolyline
 90
        2
 70
     0
 43
0.127
 10
2229.998766
 20
723.294976
 10
2070.309589
 20
684.810115
  0
LWPOLYLINE
  5
33
330
18
100
AcDbEntity
  8
default
 62
     5
100
AcDbPolyline
 90
        2
 70
     0
 43
0.127
 10
215.215788
 20
712.911442
 10
202.288889
 20
610.0
  0
LWPOLYLINE
  5
34
330
18
100
AcDbEntity
  8
default
 62
     5
100
AcDbPolyline
 90
        2
 70
     0
 43
0.127
 10
219.1846
 20
712.412912
 10
215.215788
 20
712.911442
  0
LWPOLYLINE
  5
35
330
18
100
AcDbEntity
  8
default
 62
     5
100
AcDbPolyline
 90
        2
 70
     0
 43
0.127
 10
225.416224
 20
762.023061
 10
219.1846
 20
712.412912
  0
LWPOLYLINE
  5
36
330
18
100
AcDbEntity
  8
default
 62
     5
100
AcDbPolyline
 90
        2
 70
     0
 43
0.127
 10
339.462753
 20
737.682955
 10
225.416224
 20
762.023061
  0
LWPOLYLINE
  5
37
330
18
100
AcDbEntity
  8
default
 62
     5
100
AcDbPolyline
 90
        2
 70
     0
 43
0.127
 10
363.153093
 20
610.0
 10
339.462753
 20
737.682955
  0
LWPOLYLINE
  5
38
330
18
100
AcDbEntity
  8
default
 62
     5
100
AcDbPolyline
 90
        2
 70
     0
 43
0.127
 10
339.462753
 20
482.317045
 10
363.153093
 20
610.0
  0
LWPOLYLINE
  5
39
330
18
100
AcDbEntity
  8
default
 62
     5
100
AcDbPolyline
 90
        2
 70
     0
 43
0.127
 10
225.416224
 20
457.976939
 10
339.462753
 20
482.317045
  0
LWPOLYLINE
  5
3A
330
18
100
AcDbEntity
  8
default
 62
     5
100
AcDbPolyline
 90
        2
 70
     0
 43
0.127
 10
219.1846
 20
507.587088
 10
225.416224
 20
457.976939
  0
LWPOLYLINE
  5
3B
330
18
100
AcDbEntity
  8
default
 62
     5
100
AcDbPolyline
 90
        2
 70
     0
 43
0.127
 10
215.215788
 20
507.088558
 10
219.1846
 20
507.587088
  0
LWPOLYLINE
  5
3C
330
18
100
AcDbEntity
  8
default
 62
     5
100
AcDbPolyline
 90
        2
 70
     0
 43
0.127
 10
202.288889
 20
610.0
 10
215.215788
 20
507.088558
  0
LWPOLYLINE
  5
3D
330
18
100
AcDbEntity
  8
default
 62
     5
100
AcDbPolyline
 90
        2
 70
     0
 43
0.127
 10
31.215659
 20
718.097436
 10
5.0
 20
610.0
  0
LWPOLYLINE
  5
3E
330
18
100
AcDbEntity
  8
default
 62
     5
100
AcDbPolyline
 90
        2
 70
     0
 43
0.127
 10
35.102976
 20
717.154689
 10
31.215659
 20
718.097436
  0
LWPOLYLINE
  5
3F
330
18
100
AcDbEntity
  8
default
 62
     5
100
AcDbPolyline
 90
        2
 70
     0
 43
0.127
 10
46.887316
 20
765.746142
 10
35.102976
 20
717.154689
  0
LWPOLYLINE
  5
40
330
18
100
AcDbEntity
  8
default
 62
     5
100
AcDbPolyline
 90
        2
 70
     0
 43
0.127
 10
173.177778
 20
741.522222
 10
46.887316
 20
765.746142
  0
LWPOLYLINE
  5
41
330
18
100
AcDbEntity
  8
default
 62
     5
100
AcDbPolyline
 90
        2
 70
     0
 43
0.127
 10
197.288889
 20
610.0
 10
173.177778
 20
741.522222
  0
LWPOLYLINE
  5
42
330
18
100
AcDbEntity
  8
default
 62
     5
100
AcDbPolyline
 90
        2
 70
     0
 43
0.127
 10
173.177778
 20
478.877778
 10
197.288889
 20
610.0
  0
LWPOLYLINE
  5
43
330
18
100
AcDbEntity
  8
default
 62
     5
100
AcDbPolyline
 90
        2
 70
     0
 43
0.127
 10
46.886763
 20
454.656137
 10
173.177778
 20
478.877778
  0
LWPOLYLINE
  5
44
330
18
100
AcDbEntity
  8
default
 62
     5
100
AcDbPolyline
 90
        2
 70
     0
 43
0.127
 10
35.073944
 20
503.240674
 10
46.886763
 20
454.656137
  0
LWPOLYLINE
  5
45
330
18
100
AcDbEntity
  8
default
 62
     5
100
AcDbPolyline
 90
        2
 70
     0
 43
0.127
 10
31.187181
 20
502.295649
 10
35.073944
 20
503.240674
  0
LWPOLYLINE
  5
46
330
18
100
AcDbEntity
  8
default
 62
     5
100
AcDbPolyline
 90
        2
 70
     0
 43
0.127
 10
5.0
 20
610.0
 10
31.187181
 20
502.295649
  0
LWPOLYLINE
  5
47
330
18
100
AcDbEntity
  8
default
100
AcDbPolyline
 90
        2
 70
     0
 43
0.127
 10
0.0
 20
1220.0
 10
0.0
 20
0.0
  0
LWPOLYLINE
  5
48
330
18
100
AcDbEntity
  8
default
100
AcDbPolyline
 90
        2
 70
     0
 43
0.127
 10
2440.0
 20
1220.0
 10
2440.0
 20
0.0
  0
LWPOLYLINE
  5
49
330
18
100
AcDbEntity
  8
default
100
AcDbPolyline
 90
        2
 70
     0
 43
0.127
 10
0.0
 20
1220.0
 10
2440.0
 20
1220.0
  0
LWPOLYLINE
  5
4A
330
18
100
AcDbEntity
  8
default
100
AcDbPolyline
 90
        2
 70
     0
 43
0.127
 10
0.0
 20
0.0
 10
2440.0
 20
0.0
  0
LWPOLYLINE
  5
4B
330
18
100
AcDbEntity
  8
default
 62
     5
100
AcDbPolyline
 90
        2
 70
     0
 43
0.127
 10
34.110061
 20
955.895231
 10
153.045867
 20
812.163244
  0
LWPOLYLINE
  5
4C
330
18
100
AcDbEntity
  8
default
 62
     5
100
AcDbPolyline
 90
        2
 70
     0
 43
0.127
 10
219.270898
 20
952.840196
 10
34.110061
 20
955.895231
  0
LWPOLYLINE
  5
4D
330
18
100
AcDbEntity
  8
default
 62
     5
100
AcDbPolyline
 90
        2
 70
     0
 43
0.127
 10
422.979347
 20
950.287168
 10
219.270898
 20
952.840196
  0
LWPOLYLINE
  5
4E
330
18
100
AcDbEntity
  8
default
 62
     5
100
AcDbPolyline
 90
        2
 70
     0
 43
0.127
 10
640.925536
 20
948.497426
 10
422.979347
 20
950.287168
  0
LWPOLYLINE
  5
4F
330
18
100
AcDbEntity
  8
default
 62
     5
100
AcDbPolyline
 90
        2
 70
     0
 43
0.127
 10
820.011131
 20
947.749494
 10
640.925536
 20
948.497426
  0
LWPOLYLINE
  5
50
330
18
100
AcDbEntity
  8
default
 62
     5
100
AcDbPolyline
 90
        2
 70
     0
 43
0.127
 10
1016.900677
 20
947.294865
 10
820.011131
 20
947.749494
  0
LWPOLYLINE
  5
51
330
18
100
AcDbEntity
  8
default
 62
     5
100
AcDbPolyline
 90
        2
 70
     0
 43
0.127
 10
1240.026657
 20
946.894385
 10
1016.900677
 20
947.294865
  0
LWPOLYLINE
  5
52
330
18
100
AcDbEntity
  8
default
 62
     5
100
AcDbPolyline
 90
        2
 70
     0
 43
0.127
 10
1407.087987
 20
946.260208
 10
1240.026657
 20
946.894385
  0
LWPOLYLINE
  5
53
330
18
100
AcDbEntity
  8
default
 62
     5
100
AcDbPolyline
 90
        2
 70
     0
 43
0.127
 10
1603.724943
 20
944.608787
 10
1407.087987
 20
946.260208
  0
LWPOLYLINE
  5
54
330
18
100
AcDbEntity
  8
default
 62
     5
100
AcDbPolyline
 90
        2
 70
     0
 43
0.127
 10
1800.611768
 20
941.188493
 10
1603.724943
 20
944.608787
  0
LWPOLYLINE
  5
55
330
18
100
AcDbEntity
  8
default
 62
     5
100
AcDbPolyline
 90
        2
 70
     0
 43
0.127
 10
1999.418957
 20
935.473148
 10
1800.611768
 20
941.188493
  0
LWPOLYLINE
  5
56
330
18
100
AcDbEntity
  8
default
 62
     5
100
AcDbPolyline
 90
        2
 70
     0
 43
0.127
 10
2201.841534
 20
926.936157
 10
1999.418957
 20
935.473148
  0
LWPOLYLINE
  5
57
330
18
100
AcDbEntity
  8
default
 62
     5
100
AcDbPolyline
 90
        2
 70
     0
 43
0.127
 10
2427.633222
 20
914.116129
 10
2201.841534
 20
926.936157
  0
LWPOLYLINE
  5
58
330
18
100
AcDbEntity
  8
default
 62
     5
100
AcDbPolyline
 90
        2
 70
     0
 43
0.127
 10
2392.354724
 20
823.221478
 10
2427.633222
 20
914.116129
  0
LWPOLYLINE
  5
59
330
18
100
AcDbEntity
  8
default
 62
     5
100
AcDbPolyline
 90
        2
 70
     0
 43
0.127
 10
2202.012384
 20
823.978783
 10
2392.354724
 20
823.221478
  0
LWPOLYLINE
  5
5A
330
18
100
AcDbEntity
  8
default
 62
     5
100
AcDbPolyline
 90
        2
 70
     0
 43
0.127
 10
2000.317657
 20
822.294341
 10
2202.012384
 20
823.978783
  0
LWPOLYLINE
  5
5B
330
18
100
AcDbEntity
  8
default
 62
     5
100
AcDbPolyline
 90
        2
 70
     0
 43
0.127
 10
1820.90986
 20
819.055175
 10
2000.317657
 20
822.294341
  0
LWPOLYLINE
  5
5C
330
18
100
AcDbEntity
  8
default
 62
     5
100
AcDbPolyline
 90
        2
 70
     0
 43
0.127
 10
1604.642404
 20
814.155507
 10
1820.90986
 20
819.055175
  0
LWPOLYLINE
  5
5D
330
18
100
AcDbEntity
  8
default
 62
     5
100
AcDbPolyline
 90
        2
 70
     0
 43
0.127
 10
1407.885842
 20
809.753785
 10
1604.642404
 20
814.155507
  0
LWPOLYLINE
  5
5E
330
18
100
AcDbEntity
  8
default
 62
     5
100
AcDbPolyline
 90
        2
 70
     0
 43
0.127
 10
1240.801241
 20
807.086195
 10
1407.885842
 20
809.753785
  0
LWPOLYLINE
  5
5F
330
18
100
AcDbEntity
  8
default
 62
     5
100
AcDbPolyline
 90
        2
 70
     0
 43
0.127
 10
1017.677965
 20
809.709815
 10
1240.801241
 20
807.086195
  0
LWPOLYLINE
  5
60
330
18
100
AcDbEntity
  8
default
 62
     5
100
AcDbPolyline
 90
        2
 70
     0
 43
0.127
 10
820.692038
 20
813.16589
 10
1017.677965
 20
809.709815
  0
LWPOLYLINE
  5
61
330
18
100
AcDbEntity
  8
default
 62
     5
100
AcDbPolyline
 90
        2
 70
     0
 43
0.127
 10
641.300814
 20
815.900634
 10
820.692038
 20
813.16589
  0
LWPOLYLINE
  5
62
330
18
100
AcDbEntity
  8
default
 62
     5
100
AcDbPolyline
 90
        2
 70
     0
 43
0.127
 10
422.409253
 20
817.102916
 10
641.300814
 20
815.900634
  0
LWPOLYLINE
  5
63
330
18
100
AcDbEntity
  8
default
 62
     5
100
AcDbPolyline
 90
        2
 70
     0
 43
0.127
 10
216.914122
 20
814.144682
 10
422.409253
 20
817.102916
  0
LWPOLYLINE
  5
64
330
18
100
AcDbEntity
  8
default
 62
     5
100
AcDbPolyline
 90
        2
 70
     0
 43
0.127
 10
153.045867
 20
812.163244
 10
216.914122
 20
814.144682
  0
LWPOLYLINE
  5
65
330
18
100
AcDbEntity
  8
default
 62
     5
100
AcDbPolyline
 90
        2
 70
     0
 43
0.127
 10
34.110061
 20
264.104769
 10
153.045867
 20
407.836756
  0
LWPOLYLINE
  5
66
330
18
100
AcDbEntity
  8
default
 62
     5
100
AcDbPolyline
 90
        2
 70
     0
 43
0.127
 10
219.270898
 20
267.159804
 10
34.110061
 20
264.104769
  0
LWPOLYLINE
  5
67
330
18
100
AcDbEntity
  8
default
 62
     5
100
AcDbPolyline
 90
        2
 70
     0
 43
0.127
 10
422.979347
 20
269.712832
 10
219.270898
 20
267.159804
  0
LWPOLYLINE
  5
68
330
18
100
AcDbEntity
  8
default
 62
     5
100
AcDbPolyline
 90
        2
 70
     0
 43
0.127
 10
640.925536
 20
271.502574
 10
422.979347
 20
269.712832
  0
LWPOLYLINE
  5
69
330
18
100
AcDbEntity
  8
default
 62
     5
100
AcDbPolyline
 90
        2
 70
     0
 43
0.127
 10
820.011131
 20
272.250506
 10
640.925536
 20
271.502574
  0
LWPOLYLINE
  5
6A
330
18
100
AcDbEntity
  8
default
 62
     5
100
AcDbPolyline
 90
        2
 70
     0
 43
0.127
 10
1016.900677
 20
272.705135
 10
820.011131
 20
272.250506
  0
LWPOLYLINE
  5
6B
330
18
100
AcDbEntity
  8
default
 62
     5
100
AcDbPolyline
 90
        2
 70
     0
 43
0.127
 10
1240.026657
 20
273.105615
 10
1016.900677
 20
272.705135
  0
LWPOLYLINE
  5
6C
330
18
100
AcDbEntity
  8
default
 62
     5
100
AcDbPolyline
 90
        2
 70
     0
 43
0.127
 10
1407.087987
 20
273.739792
 10
1240.026657
 20
273.105615
  0
LWPOLYLINE
  5
6D
330
18
100
AcDbEntity
  8
default
 62
     5
100
AcDbPolyline
 90
        2
 70
     0
 43
0.127
 10
1603.724943
 20
275.391213
 10
1407.087987
 20
273.739792
  0
LWPOLYLINE
  5
6E
330
18
100
AcDbEntity
  8
default
 62
     5
100
AcDbPolyline
 90
        2
 70
     0
 43
0.127
 10
1800.611768
 20
278.811507
 10
1603.724943
 20
275.391213
  0
LWPOLYLINE
  5
6F
330
18
100
AcDbEntity
  8
default
 62
     5
100
AcDbPolyline
 90
        2
 70
     0
 43
0.127
 10
1999.418957
 20
284.526852
 10
1800.611768
 20
278.811507
  0
LWPOLYLINE
  5
70
330
18
100
AcDbEntity
  8
default
 62
     5
100
AcDbPolyline
 90
        2
 70
     0
 43
0.127
 10
2201.841534
 20
293.063843
 10
1999.418957
 20
284.526852
  0
LWPOLYLINE
  5
71
330
18
100
AcDbEntity
  8
default
 62
     5
100
AcDbPolyline
 90
        2
 70
     0
 43
0.127
 10
2427.633222
 20
305.883871
 10
2201.841534
 20
293.063843
  0
LWPOLYLINE
  5
72
330
18
100
AcDbEntity
  8
default
 62
     5
100
AcDbPolyline
 90
        2
 70
     0
 43
0.127
 10
2392.354724
 20
396.778522
 10
2427.633222
 20
305.883871
  0
LWPOLYLINE
  5
73
330
18
100
AcDbEntity
  8
default
 62
     5
100
AcDbPolyline
 90
        2
 70
     0
 43
0.127
 10
2202.012384
 20
396.021217
 10
2392.354724
 20
396.778522
  0
LWPOLYLINE
  5
74
330
18
100
AcDbEntity
  8
default
 62
     5
100
AcDbPolyline
 90
        2
 70
     0
 43
0.127
 10
2000.317657
 20
397.705659
 10
2202.012384
 20
396.021217
  0
LWPOLYLINE
  5
75
330
18
100
AcDbEntity
  8
default
 62
     5
100
AcDbPolyline
 90
        2
 70
     0
 43
0.127
 10
1820.90986
 20
400.944825
 10
2000.317657
 20
397.705659
  0
LWPOLYLINE
  5
76
330
18
100
AcDbEntity
  8
default
 62
     5
100
AcDbPolyline
 90
        2
 70
     0
 43
0.127
 10
1604.642404
 20
405.844493
 10
1820.90986
 20
400.944825
  0
LWPOLYLINE
  5
77
330
18
100
AcDbEntity
  8
default
 62
     5
100
AcDbPolyline
 90
        2
 70
     0
 43
0.127
 10
1407.885842
 20
410.246215
 10
1604.642404
 20
405.844493
  0
LWPOLYLINE
  5
78
330
18
100
AcDbEntity
  8
default
 62
     5
100
AcDbPolyline
 90
        2
 70
     0
 43
0.127
 10
1240.801241
 20
412.913805
 10
1407.885842
 20
410.246215
  0
LWPOLYLINE
  5
79
330
18
100
AcDbEntity
  8
default
 62
     5
100
AcDbPolyline
 90
        2
 70
     0
 43
0.127
 10
1017.677965
 20
410.290185
 10
1240.801241
 20
412.913805
  0
LWPOLYLINE
  5
7A
330
18
100
AcDbEntity
  8
default
 62
     5
100
AcDbPolyline
 90
        2
 70
     0
 43
0.127
 10
820.692038
 20
406.83411
 10
1017.677965
 20
410.290185
  0
LWPOLYLINE
  5
7B
330
18
100
AcDbEntity
  8
default
 62
     5
100
AcDbPolyline
 90
        2
 70
     0
 43
0.127
 10
641.300814
 20
404.099366
 10
820.692038
 20
406.83411
  0
LWPOLYLINE
  5
7C
330
18
100
AcDbEntity
  8
default
 62
     5
100
AcDbPolyline
 90
        2
 70
     0
 43
0.127
 10
422.409253
 20
402.897084
 10
641.300814
 20
404.099366
  0
LWPOLYLINE
  5
7D
330
18
100
AcDbEntity
  8
default
 62
     5
100
AcDbPolyline
 90
        2
 70
     0
 43
0.127
 10
216.914122
 20
405.855318
 10
422.409253
 20
402.897084
  0
LWPOLYLINE
  5
7E
330
18
100
AcDbEntity
  8
default
 62
     5
100
AcDbPolyline
 90
        2
 70
     0
 43
0.127
 10
153.045867
 20
407.836756
 10
216.914122
 20
405.855318
  0
LWPOLYLINE
  5
7F
330
18
100
AcDbEntity
  8
default
 62
     5
100
AcDbPolyline
 90
        2
 70
     0
 43
0.127
 10
235.159287
 20
967.297178
 10
60.15837
 20
969.910077
  0
LWPOLYLINE
  5
80
330
18
100
AcDbEntity
  8
default
 62
     5
100
AcDbPolyline
 90
        2
 70
     0
 43
0.127
 10
431.131759
 20
963.914824
 10
235.159287
 20
967.297178
  0
LWPOLYLINE
  5
81
330
18
100
AcDbEntity
  8
default
 62
     5
100
AcDbPolyline
 90
        2
 70
     0
 43
0.127
 10
644.096638
 20
959.981591
 10
431.131759
 20
963.914824
  0
LWPOLYLINE
  5
82
330
18
100
AcDbEntity
  8
default
 62
     5
100
AcDbPolyline
 90
        2
 70
     0
 43
0.127
 10
821.067302
 20
956.683986
 10
644.096638
 20
959.981591
  0
LWPOLYLINE
  5
83
330
18
100
AcDbEntity
  8
default
 62
     5
100
AcDbPolyline
 90
        2
 70
     0
 43
0.127
 10
1017.037101
 20
953.241882
 10
821.067302
 20
956.683986
  0
LWPOLYLINE
  5
84
330
18
100
AcDbEntity
  8
default
 62
     5
100
AcDbPolyline
 90
        2
 70
     0
 43
0.127
 10
1240.026657
 20
949.894385
 10
1017.037101
 20
953.241882
  0
LWPOLYLINE
  5
85
330
18
100
AcDbEntity
  8
default
 62
     5
100
AcDbPolyline
 90
        2
 70
     0
 43
0.127
 10
1407.19022
 20
948.632196
 10
1240.026657
 20
949.894385
  0
LWPOLYLINE
  5
86
330
18
100
AcDbEntity
  8
default
 62
     5
100
AcDbPolyline
 90
        2
 70
     0
 43
0.127
 10
1603.461799
 20
947.356519
 10
1407.19022
 20
948.632196
  0
LWPOLYLINE
  5
87
330
18
100
AcDbEntity
  8
default
 62
     5
100
AcDbPolyline
 90
        2
 70
     0
 43
0.127
 10
1798.761824
 20
946.048715
 10
1603.461799
 20
947.356519
  0
LWPOLYLINE
  5
88
330
18
100
AcDbEntity
  8
default
 62
     5
100
AcDbPolyline
 90
        2
 70
     0
 43
0.127
 10
1994.006871
 20
944.501653
 10
1798.761824
 20
946.048715
  0
LWPOLYLINE
  5
89
330
18
100
AcDbEntity
  8
default
 62
     5
100
AcDbPolyline
 90
        2
 70
     0
 43
0.127
 10
2190.145416
 20
942.649239
 10
1994.006871
 20
944.501653
  0
LWPOLYLINE
  5
8A
330
18
100
AcDbEntity
  8
default
 62
     5
100
AcDbPolyline
 90
        2
 70
     0
 43
0.127
 10
2405.172049
 20
940.435796
 10
2190.145416
 20
942.649239
  0
LWPOLYLINE
  5
8B
330
18
100
AcDbEntity
  8
default
 62
     5
100
AcDbPolyline
 90
        2
 70
     0
 43
0.127
 10
2190.924279
 20
1012.80908
 10
2405.172049
 20
940.435796
  0
LWPOLYLINE
  5
8C
330
18
100
AcDbEntity
  8
default
 62
     5
100
AcDbPolyline
 90
        2
 70
     0
 43
0.127
 10
1995.532652
 20
1066.380453
 10
2190.924279
 20
1012.80908
  0
LWPOLYLINE
  5
8D
330
18
100
AcDbEntity
  8
default
 62
     5
100
AcDbPolyline
 90
        2
 70
     0
 43
0.127
 10
1820.000844
 20
1104.414444
 10
1995.532652
 20
1066.380453
  0
LWPOLYLINE
  5
8E
330
18
100
AcDbEntity
  8
default
 62
     5
100
AcDbPolyline
 90
        2
 70
     0
 43
0.127
 10
1606.450201
 20
1138.108923
 10
1820.000844
 20
1104.414444
  0
LWPOLYLINE
  5
8F
330
18
100
AcDbEntity
  8
default
 62
     5
100
AcDbPolyline
 90
        2
 70
     0
 43
0.127
 10
1410.715156
 20
1156.993096
 10
1606.450201
 20
1138.108923
  0
LWPOLYLINE
  5
90
330
18
100
AcDbEntity
  8
default
 62
     5
100
AcDbPolyline
 90
        2
 70
     0
 43
0.127
 10
1243.804913
 20
1164.124763
 10
1410.715156
 20
1156.993096
  0
LWPOLYLINE
  5
91
330
18
100
AcDbEntity
  8
default
 62
     5
100
AcDbPolyline
 90
        2
 70
     0
 43
0.127
 10
1020.713258
 20
1161.087344
 10
1243.804913
 20
1164.124763
  0
LWPOLYLINE
  5
92
330
18
100
AcDbEntity
  8
default
 62
     5
100
AcDbPolyline
 90
        2
 70
     0
 43
0.127
 10
824.413107
 20
1145.857414
 10
1020.713258
 20
1161.087344
  0
LWPOLYLINE
  5
93
330
18
100
AcDbEntity
  8
default
 62
     5
100
AcDbPolyline
 90
        2
 70
     0
 43
0.127
 10
628.90297
 20
1118.751635
 10
824.413107
 20
1145.857414
  0
LWPOLYLINE
  5
94
330
18
100
AcDbEntity
  8
default
 62
     5
100
AcDbPolyline
 90
        2
 70
     0
 43
0.127
 10
433.174603
 20
1079.355488
 10
628.90297
 20
1118.751635
  0
LWPOLYLINE
  5
95
330
18
100
AcDbEntity
  8
default
 62
     5
100
AcDbPolyline
 90
        2
 70
     0
 43
0.127
 10
236.218102
 20
1027.280667
 10
433.174603
 20
1079.355488
  0
LWPOLYLINE
  5
96
330
18
100
AcDbEntity
  8
default
 62
     5
100
AcDbPolyline
 90
        2
 70
     0
 43
0.127
 10
60.15837
 20
969.910077
 10
236.218102
 20
1027.280667
  0
LWPOLYLINE
  5
97
330
18
100
AcDbEntity
  8
default
 62
     5
100
AcDbPolyline
 90
        2
 70
     0
 43
0.127
 10
433.174603
 20
140.644512
 10
236.218102
 20
192.719333
  0
LWPOLYLINE
  5
98
330
18
100
AcDbEntity
  8
default
 62
     5
100
AcDbPolyline
 90
        2
 70
     0
 43
0.127
 10
628.90297
 20
101.248365
 10
433.174603
 20
140.644512
  0
LWPOLYLINE
  5
99
330
18
100
AcDbEntity
  8
default
 62
     5
100
AcDbPolyline
 90
        2
 70
     0
 43
0.127
 10
824.413107
 20
74.142586
 10
628.90297
 20
101.248365
  0
LWPOLYLINE
  5
9A
330
18
100
AcDbEntity
  8
default
 62
     5
100
AcDbPolyline
 90
        2
 70
     0
 43
0.127
 10
1020.713258
 20
58.912656
 10
824.413107
 20
74.142586
  0
LWPOLYLINE
  5
9B
330
18
100
AcDbEntity
  8
default
 62
     5
100
AcDbPolyline
 90
        2
 70
     0
 43
0.127
 10
1243.804913
 20
55.875237
 10
1020.713258
 20
58.912656
  0
LWPOLYLINE
  5
9C
330
18
100
AcDbEntity
  8
default
 62
     5
100
AcDbPolyline
 90
        2
 70
     0
 43
0.127
 10
1410.715156
 20
63.006904
 10
1243.804913
 20
55.875237
  0
LWPOLYLINE
  5
9D
330
18
100
AcDbEntity
  8
default
 62
     5
100
AcDbPolyline
 90
        2
 70
     0
 43
0.127
 10
1606.450201
 20
81.891077
 10
1410.715156
 20
63.006904
  0
LWPOLYLINE
  5
9E
330
18
100
AcDbEntity
  8
default
 62
     5
100
AcDbPolyline
 90
        2
 70
     0
 43
0.127
 10
1820.000844
 20
115.585556
 10
1606.450201
 20
81.891077
  0
LWPOLYLINE
  5
9F
330
18
100
AcDbEntity
  8
default
 62
     5
100
AcDbPolyline
 90
        2
 70
     0
 43
0.127
 10
1995.532652
 20
153.619547
 10
1820.000844
 20
115.585556
  0
LWPOLYLINE
  5
A0
330
18
100
AcDbEntity
  8
default
 62
     5
100
AcDbPolyline
 90
        2
 70
     0
 43
0.127
 10
2190.924279
 20
207.19092
 10
1995.532652
 20
153.619547
  0
LWPOLYLINE
  5
A1
330
18
100
AcDbEntity
  8
default
 62
     5
100
AcDbPolyline
 90
        2
 70
     0
 43
0.127
 10
2405.172049
 20
279.564204
 10
2190.924279
 20
207.19092
  0
LWPOLYLINE
  5
A2
330
18
100
AcDbEntity
  8
default
 62
     5
100
AcDbPolyline
 90
        2
 70
     0
 43
0.127
 10
2190.145416
 20
277.350761
 10
2405.172049
 20
279.564204
  0
LWPOLYLINE
  5
A3
330
18
100
AcDbEntity
  8
default
 62
     5
100
AcDbPolyline
 90
        2
 70
     0
 43
0.127
 10
1994.006871
 20
275.498347
 10
2190.145416
 20
277.350761
  0
LWPOLYLINE
  5
A4
330
18
100
AcDbEntity
  8
default
 62
     5
100
AcDbPolyline
 90
        2
 70
     0
 43
0.127
 10
1798.761824
 20
273.951285
 10
1994.006871
 20
275.498347
  0
LWPOLYLINE
  5
A5
330
18
100
AcDbEntity
  8
default
 62
     5
100
AcDbPolyline
 90
        2
 70
     0
 43
0.127
 10
1603.461799
 20
272.643481
 10
1798.761824
 20
273.951285
  0
LWPOLYLINE
  5
A6
330
18
100
AcDbEntity
  8
default
 62
     5
100
AcDbPolyline
 90
        2
 70
     0
 43
0.127
 10
1407.19022
 20
271.367804
 10
1603.461799
 20
272.643481
  0
LWPOLYLINE
  5
A7
330
18
100
AcDbEntity
  8
default
 62
     5
100
AcDbPolyline
 90
        2
 70
     0
 43
0.127
 10
1240.026657
 20
270.105615
 10
1407.19022
 20
271.367804
  0
LWPOLYLINE
  5
A8
330
18
100
AcDbEntity
  8
default
 62
     5
100
AcDbPolyline
 90
        2
 70
     0
 43
0.127
 10
1017.037101
 20
266.758118
 10
1240.026657
 20
270.105615
  0
LWPOLYLINE
  5
A9
330
18
100
AcDbEntity
  8
default
 62
     5
100
AcDbPolyline
 90
        2
 70
     0
 43
0.127
 10
821.067302
 20
263.316014
 10
1017.037101
 20
266.758118
  0
LWPOLYLINE
  5
AA
330
18
100
AcDbEntity
  8
default
 62
     5
100
AcDbPolyline
 90
        2
 70
     0
 43
0.127
 10
644.096638
 20
260.018409
 10
821.067302
 20
263.316014
  0
LWPOLYLINE
  5
AB
330
18
100
AcDbEntity
  8
default
 62
     5
100
AcDbPolyline
 90
        2
 70
     0
 43
0.127
 10
431.131759
 20
256.085176
 10
644.096638
 20
260.018409
  0
LWPOLYLINE
  5
AC
330
18
100
AcDbEntity
  8
default
 62
     5
100
AcDbPolyline
 90
        2
 70
     0
 43
0.127
 10
235.159287
 20
252.702822
 10
431.131759
 20
256.085176
  0
LWPOLYLINE
  5
AD
330
18
100
AcDbEntity
  8
default
 62
     5
100
AcDbPolyline
 90
        2
 70
     0
 43
0.127
 10
60.15837
 20
250.089923
 10
235.159287
 20
252.702822
  0
LWPOLYLINE
  5
AE
330
18
100
AcDbEntity
  8
default
 62
     5
100
AcDbPolyline
 90
        2
 70
     0
 43
0.127
 10
236.218102
 20
192.719333
 10
60.15837
 20
250.089923
  0
LWPOLYLINE
  5
AF
330
18
100
AcDbEntity
  8
default
 62
     5
100
AcDbPolyline
 90
        2
 70
     0
 43
0.127
 10
433.174603
 20
87.644512
 10
236.218102
 20
139.719333
  0
LWPOLYLINE
  5
B0
330
18
100
AcDbEntity
  8
default
 62
     5
100
AcDbPolyline
 90
        2
 70
     0
 43
0.127
 10
628.90297
 20
48.248365
 10
433.174603
 20
87.644512
  0
LWPOLYLINE
  5
B1
330
18
100
AcDbEntity
  8
default
 62
     5
100
AcDbPolyline
 90
        2
 70
     0
 43
0.127
 10
824.413107
 20
21.142586
 10
628.90297
 20
48.248365
  0
LWPOLYLINE
  5
B2
330
18
100
AcDbEntity
  8
default
 62
     5
100
AcDbPolyline
 90
        2
 70
     0
 43
0.127
 10
1020.713258
 20
5.912656
 10
824.413107
 20
21.142586
  0
LWPOLYLINE
  5
B3
330
18
100
AcDbEntity
  8
default
 62
     5
100
AcDbPolyline
 90
        2
 70
     0
 43
0.127
 10
1243.804913
 20
2.875237
 10
1020.713258
 20
5.912656
  0
LWPOLYLINE
  5
B4
330
18
100
AcDbEntity
  8
default
 62
     5
100
AcDbPolyline
 90
        2
 70
     0
 43
0.127
 10
1410.715156
 20
10.006904
 10
1243.804913
 20
2.875237
  0
LWPOLYLINE
  5
B5
330
18
100
AcDbEntity
  8
default
 62
     5
100
AcDbPolyline
 90
        2
 70
     0
 43
0.127
 10
1606.450201
 20
28.891077
 10
1410.715156
 20
10.006904
  0
LWPOLYLINE
  5
B6
330
18
100
AcDbEntity
  8
default
 62
     5
100
AcDbPolyline
 90
        2
 70
     0
 43
0.127
 10
1820.000844
 20
62.585556
 10
1606.450201
 20
28.891077
  0
LWPOLYLINE
  5
B7
330
18
100
AcDbEntity
  8
default
 62
     5
100
AcDbPolyline
 90
        2
 70
     0
 43
0.127
 10
1995.532652
 20
100.619547
 10
1820.000844
 20
62.585556
  0
LWPOLYLINE
  5
B8
330
18
100
AcDbEntity
  8
default
 62
     5
100
AcDbPolyline
 90
        2
 70
     0
 43
0.127
 10
2190.924279
 20
154.19092
 10
1995.532652
 20
100.619547
  0
LWPOLYLINE
  5
B9
330
18
100
AcDbEntity
  8
default
 62
     5
100
AcDbPolyline
 90
        2
 70
     0
 43
0.127
 10
2405.172049
 20
226.564204
 10
2190.924279
 20
154.19092
  0
LWPOLYLINE
  5
BA
330
18
100
AcDbEntity
  8
default
 62
     5
100
AcDbPolyline
 90
        2
 70
     0
 43
0.127
 10
2252.504023
 20
224.992669
 10
2405.172049
 20
226.564204
  0
LWPOLYLINE
  5
BB
330
18
100
AcDbEntity
  8
default
 62
     5
100
AcDbPolyline
 90
        2
 70
     0
 43
0.127
 10
2190.924279
 20
204.19092
 10
2252.504023
 20
224.992669
  0
LWPOLYLINE
  5
BC
330
18
100
AcDbEntity
  8
default
 62
     5
100
AcDbPolyline
 90
        2
 70
     0
 43
0.127
 10
1995.532652
 20
150.619547
 10
2190.924279
 20
204.19092
  0
LWPOLYLINE
  5
BD
330
18
100
AcDbEntity
  8
default
 62
     5
100
AcDbPolyline
 90
        2
 70
     0
 43
0.127
 10
1820.000844
 20
112.585556
 10
1995.532652
 20
150.619547
  0
LWPOLYLINE
  5
BE
330
18
100
AcDbEntity
  8
default
 62
     5
100
AcDbPolyline
 90
        2
 70
     0
 43
0.127
 10
1606.450201
 20
78.891077
 10
1820.000844
 20
112.585556
  0
LWPOLYLINE
  5
BF
330
18
100
AcDbEntity
  8
default
 62
     5
100
AcDbPolyline
 90
        2
 70
     0
 43
0.127
 10
1410.715156
 20
60.006904
 10
1606.450201
 20
78.891077
  0
LWPOLYLINE
  5
C0
330
18
100
AcDbEntity
  8
default
 62
     5
100
AcDbPolyline
 90
        2
 70
     0
 43
0.127
 10
1243.804913
 20
52.875237
 10
1410.715156
 20
60.006904
  0
LWPOLYLINE
  5
C1
330
18
100
AcDbEntity
  8
default
 62
     5
100
AcDbPolyline
 90
        2
 70
     0
 43
0.127
 10
1020.713258
 20
55.912656
 10
1243.804913
 20
52.875237
  0
LWPOLYLINE
  5
C2
330
18
100
AcDbEntity
  8
default
 62
     5
100
AcDbPolyline
 90
        2
 70
     0
 43
0.127
 10
824.413107
 20
71.142586
 10
1020.713258
 20
55.912656
  0
LWPOLYLINE
  5
C3
330
18
100
AcDbEntity
  8
default
 62
     5
100
AcDbPolyline
 90
        2
 70
     0
 43
0.127
 10
628.90297
 20
98.248365
 10
824.413107
 20
71.142586
  0
LWPOLYLINE
  5
C4
330
18
100
AcDbEntity
  8
default
 62
     5
100
AcDbPolyline
 90
        2
 70
     0
 43
0.127
 10
433.174603
 20
137.644512
 10
628.90297
 20
98.248365
  0
LWPOLYLINE
  5
C5
330
18
100
AcDbEntity
  8
default
 62
     5
100
AcDbPolyline
 90
        2
 70
     0
 43
0.127
 10
236.218102
 20
189.719333
 10
433.174603
 20
137.644512
  0
LWPOLYLINE
  5
C6
330
18
100
AcDbEntity
  8
default
 62
     5
100
AcDbPolyline
 90
        2
 70
     0
 43
0.127
 10
206.876531
 20
199.280538
 10
236.218102
 20
189.719333
  0
LWPOLYLINE
  5
C7
330
18
100
AcDbEntity
  8
default
 62
     5
100
AcDbPolyline
 90
        2
 70
     0
 43
0.127
 10
60.15837
 20
197.089923
 10
206.876531
 20
199.280538
  0
LWPOLYLINE
  5
C8
330
18
100
AcDbEntity
  8
default
 62
     5
100
AcDbPolyline
 90
        2
 70
     0
 43
0.127
 10
236.218102
 20
139.719333
 10
60.15837
 20
197.089923
  0
LWPOLYLINE
  5
C9
330
18
100
AcDbEntity
  8
default
 62
     5
100
AcDbPolyline
 90
        2
 70
     0
 43
0.127
 10
206.876531
 20
1020.719462
 10
60.15837
 20
1022.910077
  0
LWPOLYLINE
  5
CA
330
18
100
AcDbEntity
  8
default
 62
     5
100
AcDbPolyline
 90
        2
 70
     0
 43
0.127
 10
236.218102
 20
1030.280667
 10
206.876531
 20
1020.719462
  0
LWPOLYLINE
  5
CB
330
18
100
AcDbEntity
  8
default
 62
     5
100
AcDbPolyline
 90
        2
 70
     0
 43
0.127
 10
433.174603
 20
1082.355488
 10
236.218102
 20
1030.280667
  0
LWPOLYLINE
  5
CC
330
18
100
AcDbEntity
  8
default
 62
     5
100
AcDbPolyline
 90
        2
 70
     0
 43
0.127
 10
628.90297
 20
1121.751635
 10
433.174603
 20
1082.355488
  0
LWPOLYLINE
  5
CD
330
18
100
AcDbEntity
  8
default
 62
     5
100
AcDbPolyline
 90
        2
 70
     0
 43
0.127
 10
824.413107
 20
1148.857414
 10
628.90297
 20
1121.751635
  0
LWPOLYLINE
  5
CE
330
18
100
AcDbEntity
  8
default
 62
     5
100
AcDbPolyline
 90
        2
 70
     0
 43
0.127
 10
1020.713258
 20
1164.087344
 10
824.413107
 20
1148.857414
  0
LWPOLYLINE
  5
CF
330
18
100
AcDbEntity
  8
default
 62
     5
100
AcDbPolyline
 90
        2
 70
     0
 43
0.127
 10
1243.804913
 20
1167.124763
 10
1020.713258
 20
1164.087344
  0
LWPOLYLINE
  5
D0
330
18
100
AcDbEntity
  8
default
 62
     5
100
AcDbPolyline
 90
        2
 70
     0
 43
0.127
 10
1410.715156
 20
1159.993096
 10
1243.804913
 20
1167.124763
  0
LWPOLYLINE
  5
D1
330
18
100
AcDbEntity
  8
default
 62
     5
100
AcDbPolyline
 90
        2
 70
     0
 43
0.127
 10
1606.450201
 20
1141.108923
 10
1410.715156
 20
1159.993096
  0
LWPOLYLINE
  5
D2
330
18
100
AcDbEntity
  8
default
 62
     5
100
AcDbPolyline
 90
        2
 70
     0
 43
0.127
 10
1820.000844
 20
1107.414444
 10
1606.450201
 20
1141.108923
  0
LWPOLYLINE
  5
D3
330
18
100
AcDbEntity
  8
default
 62
     5
100
AcDbPolyline
 90
        2
 70
     0
 43
0.127
 10
1995.532652
 20
1069.380453
 10
1820.000844
 20
1107.414444
  0
LWPOLYLINE
  5
D4
330
18
100
AcDbEntity
  8
default
 62
     5
100
AcDbPolyline
 90
        2
 70
     0
 43
0.127
 10
2190.924279
 20
1015.80908
 10
1995.532652
 20
1069.380453
  0
LWPOLYLINE
  5
D5
330
18
100
AcDbEntity
  8
default
 62
     5
100
AcDbPolyline
 90
        2
 70
     0
 43
0.127
 10
2252.504023
 20
995.007331
 10
2190.924279
 20
1015.80908
  0
LWPOLYLINE
  5
D6
330
18
100
AcDbEntity
  8
default
 62
     5
100
AcDbPolyline
 90
        2
 70
     0
 43
0.127
 10
2405.172049
 20
993.435796
 10
2252.504023
 20
995.007331
  0
LWPOLYLINE
  5
D7
330
18
100
AcDbEntity
  8
default
 62
     5
100
AcDbPolyline
 90
        2
 70
     0
 43
0.127
 10
2190.924279
 20
1065.80908
 10
2405.172049
 20
993.435796
  0
LWPOLYLINE
  5
D8
330
18
100
AcDbEntity
  8
default
 62
     5
100
AcDbPolyline
 90
        2
 70
     0
 43
0.127
 10
1995.532652
 20
1119.380453
 10
2190.924279
 20
1065.80908
  0
LWPOLYLINE
  5
D9
330
18
100
AcDbEntity
  8
default
 62
     5
100
AcDbPolyline
 90
        2
 70
     0
 43
0.127
 10
1820.000844
 20
1157.414444
 10
1995.532652
 20
1119.380453
  0
LWPOLYLINE
  5
DA
330
18
100
AcDbEntity
  8
default
 62
     5
100
AcDbPolyline
 90
        2
 70
     0
 43
0.127
 10
1606.450201
 20
1191.108923
 10
1820.000844
 20
1157.414444
  0
LWPOLYLINE
  5
DB
330
18
100
AcDbEntity
  8
default
 62
     5
100
AcDbPolyline
 90
        2
 70
     0
 43
0.127
 10
1410.715156
 20
1209.993096
 10
1606.450201
 20
1191.108923
  0
LWPOLYLINE
  5
DC
330
18
100
AcDbEntity
  8
default
 62
     5
100
AcDbPolyline
 90
        2
 70
     0
 43
0.127
 10
1243.804913
 20
1217.124763
 10
1410.715156
 20
1209.993096
  0
LWPOLYLINE
  5
DD
330
18
100
AcDbEntity
  8
default
 62
     5
100
AcDbPolyline
 90
        2
 70
     0
 43
0.127
 10
1020.713258
 20
1214.087344
 10
1243.804913
 20
1217.124763
  0
LWPOLYLINE
  5
DE
330
18
100
AcDbEntity
  8
default
 62
     5
100
AcDbPolyline
 90
        2
 70
     0
 43
0.127
 10
824.413107
 20
1198.857414
 10
1020.713258
 20
1214.087344
  0
LWPOLYLINE
  5
DF
330
18
100
AcDbEntity
  8
default
 62
     5
100
AcDbPolyline
 90
        2
 70
     0
 43
0.127
 10
628.90297
 20
1171.751635
 10
824.413107
 20
1198.857414
  0
LWPOLYLINE
  5
E0
330
18
100
AcDbEntity
  8
default
 62
     5
100
AcDbPolyline
 90
        2
 70
     0
 43
0.127
 10
433.174603
 20
1132.355488
 10
628.90297
 20
1171.751635
  0
LWPOLYLINE
  5
E1
330
18
100
AcDbEntity
  8
default
 62
     5
100
AcDbPolyline
 90
        2
 70
     0
 43
0.127
 10
236.218102
 20
1080.280667
 10
433.174603
 20
1132.355488
  0
LWPOLYLINE
  5
E2
330
18
100
AcDbEntity
  8
default
 62
     5
100
AcDbPolyline
 90
        2
 70
     0
 43
0.127
 10
60.15837
 20
1022.910077
 10
236.218102
 20
1080.280667
  0
LWPOLYLINE
  5
E3
330
18
100
AcDbEntity
  8
default
 62
     5
100
AcDbPolyline
 90
        2
 70
     0
 43
0.127
 10
427.381221
 20
410.820527
 10
230.129388
 20
411.565225
  0
LWPOLYLINE
  5
E4
330
18
100
AcDbEntity
  8
default
 62
     5
100
AcDbPolyline
 90
        2
 70
     0
 43
0.127
 10
641.17612
 20
411.152393
 10
427.381221
 20
410.820527
  0
LWPOLYLINE
  5
E5
330
18
100
AcDbEntity
  8
default
 62
     5
100
AcDbPolyline
 90
        2
 70
     0
 43
0.127
 10
818.508906
 20
412.102759
 10
641.17612
 20
411.152393
  0
LWPOLYLINE
  5
E6
330
18
100
AcDbEntity
  8
default
 62
     5
100
AcDbPolyline
 90
        2
 70
     0
 43
0.127
 10
1014.643354
 20
413.981048
 10
818.508906
 20
412.102759
  0
LWPOLYLINE
  5
E7
330
18
100
AcDbEntity
  8
default
 62
     5
100
AcDbPolyline
 90
        2
 70
     0
 43
0.127
 10
1237.647504
 20
416.780666
 10
1014.643354
 20
413.981048
  0
LWPOLYLINE
  5
E8
330
18
100
AcDbEntity
  8
default
 62
     5
100
AcDbPolyline
 90
        2
 70
     0
 43
0.127
 10
1404.633974
 20
419.441276
 10
1237.647504
 20
416.780666
  0
LWPOLYLINE
  5
E9
330
18
100
AcDbEntity
  8
default
 62
     5
100
AcDbPolyline
 90
        2
 70
     0
 43
0.127
 10
1600.685563
 20
423.103851
 10
1404.633974
 20
419.441276
  0
LWPOLYLINE
  5
EA
330
18
100
AcDbEntity
  8
default
 62
     5
100
AcDbPolyline
 90
        2
 70
     0
 43
0.127
 10
1814.927221
 20
427.842971
 10
1600.685563
 20
423.103851
  0
LWPOLYLINE
  5
EB
330
18
100
AcDbEntity
  8
default
 62
     5
100
AcDbPolyline
 90
        2
 70
     0
 43
0.127
 10
1991.334386
 20
432.354318
 10
1814.927221
 20
427.842971
  0
LWPOLYLINE
  5
EC
330
18
100
AcDbEntity
  8
default
 62
     5
100
AcDbPolyline
 90
        2
 70
     0
 43
0.127
 10
2188.083837
 20
438.121757
 10
1991.334386
 20
432.354318
  0
LWPOLYLINE
  5
ED
330
18
100
AcDbEntity
  8
default
 62
     5
100
AcDbPolyline
 90
        2
 70
     0
 43
0.127
 10
2372.104293
 20
444.250528
 10
2188.083837
 20
438.121757
  0
LWPOLYLINE
  5
EE
330
18
100
AcDbEntity
  8
default
 62
     5
100
AcDbPolyline
 90
        2
 70
     0
 43
0.127
 10
2187.640031
 20
491.194283
 10
2372.104293
 20
444.250528
  0
LWPOLYLINE
  5
EF
330
18
100
AcDbEntity
  8
default
 62
     5
100
AcDbPolyline
 90
        2
 70
     0
 43
0.127
 10
1990.259725
 20
532.722765
 10
2187.640031
 20
491.194283
  0
LWPOLYLINE
  5
F0
330
18
100
AcDbEntity
  8
default
 62
     5
100
AcDbPolyline
 90
        2
 70
     0
 43
0.127
 10
1813.248949
 20
562.130847
 10
1990.259725
 20
532.722765
  0
LWPOLYLINE
  5
F1
330
18
100
AcDbEntity
  8
default
 62
     5
100
AcDbPolyline
 90
        2
 70
     0
 43
0.127
 10
1598.407399
 20
587.342884
 10
1813.248949
 20
562.130847
  0
LWPOLYLINE
  5
F2
330
18
100
AcDbEntity
  8
default
 62
     5
100
AcDbPolyline
 90
        2
 70
     0
 43
0.127
 10
1402.009247
 20
600.00329
 10
1598.407399
 20
587.342884
  0
LWPOLYLINE
  5
F3
330
18
100
AcDbEntity
  8
default
 62
     5
100
AcDbPolyline
 90
        2
 70
     0
 43
0.127
 10
1234.921183
 20
602.444386
 10
1402.009247
 20
600.00329
  0
LWPOLYLINE
  5
F4
330
18
100
AcDbEntity
  8
default
 62
     5
100
AcDbPolyline
 90
        2
 70
     0
 43
0.127
 10
1011.943658
 20
594.259948
 10
1234.921183
 20
602.444386
  0
LWPOLYLINE
  5
F5
330
18
100
AcDbEntity
  8
default
 62
     5
100
AcDbPolyline
 90
        2
 70
     0
 43
0.127
 10
815.946624
 20
574.245889
 10
1011.943658
 20
594.259948
  0
LWPOLYLINE
  5
F6
330
18
100
AcDbEntity
  8
default
 62
     5
100
AcDbPolyline
 90
        2
 70
     0
 43
0.127
 10
638.895678
 20
545.234642
 10
815.946624
 20
574.245889
  0
LWPOLYLINE
  5
F7
330
18
100
AcDbEntity
  8
default
 62
     5
100
AcDbPolyline
 90
        2
 70
     0
 43
0.127
 10
425.766655
 20
495.372719
 10
638.895678
 20
545.234642
  0
LWPOLYLINE
  5
F8
330
18
100
AcDbEntity
  8
default
 62
     5
100
AcDbPolyline
 90
        2
 70
     0
 43
0.127
 10
229.651077
 20
433.926156
 10
425.766655
 20
495.372719
  0
LWPOLYLINE
  5
F9
330
18
100
AcDbEntity
  8
default
 62
     5
100
AcDbPolyline
 90
        2
 70
     0
 43
0.127
 10
169.626185
 20
412.015145
 10
229.651077
 20
433.926156
  0
LWPOLYLINE
  5
FA
330
18
100
AcDbEntity
  8
default
 62
     5
100
AcDbPolyline
 90
        2
 70
     0
 43
0.127
 10
230.129388
 20
411.565225
 10
169.626185
 20
412.015145
  0
LWPOLYLINE
  5
FB
330
18
100
AcDbEntity
  8
default
 62
     5
100
AcDbPolyline
 90
        2
 70
     0
 43
0.127
 10
229.651077
 20
786.073844
 10
169.626185
 20
807.984855
  0
LWPOLYLINE
  5
FC
330
18
100
AcDbEntity
  8
default
 62
     5
100
AcDbPolyline
 90
        2
 70
     0
 43
0.127
 10
425.766655
 20
724.627281
 10
229.651077
 20
786.073844
  0
LWPOLYLINE
  5
FD
330
18
100
AcDbEntity
  8
default
 62
     5
100
AcDbPolyline
 90
        2
 70
     0
 43
0.127
 10
638.895678
 20
674.765358
 10
425.766655
 20
724.627281
  0
LWPOLYLINE
  5
FE
330
18
100
AcDbEntity
  8
default
 62
     5
100
AcDbPolyline
 90
        2
 70
     0
 43
0.127
 10
815.946624
 20
645.754111
 10
638.895678
 20
674.765358
  0
LWPOLYLINE
  5
FF
330
18
100
AcDbEntity
  8
default
 62
     5
100
AcDbPolyline
 90
        2
 70
     0
 43
0.127
 10
1011.943658
 20
625.740052
 10
815.946624
 20
645.754111
  0
LWPOLYLINE
  5
100
330
18
100
AcDbEntity
  8
default
 62
     5
100
AcDbPolyline
 90
        2
 70
     0
 43
0.127
 10
1234.921183
 20
617.555614
 10
1011.943658
 20
625.740052
  0
LWPOLYLINE
  5
101
330
18
100
AcDbEntity
  8
default
 62
     5
100
AcDbPolyline
 90
        2
 70
     0
 43
0.127
 10
1402.009247
 20
619.99671
 10
1234.921183
 20
617.555614
  0
LWPOLYLINE
  5
102
330
18
100
AcDbEntity
  8
default
 62
     5
100
AcDbPolyline
 90
        2
 70
     0
 43
0.127
 10
1598.407399
 20
632.657116
 10
1402.009247
 20
619.99671
  0
LWPOLYLINE
  5
103
330
18
100
AcDbEntity
  8
default
 62
     5
100
AcDbPolyline
 90
        2
 70
     0
 43
0.127
 10
1813.248949
 20
657.869153
 10
1598.407399
 20
632.657116
  0
LWPOLYLINE
  5
104
330
18
100
AcDbEntity
  8
default
 62
     5
100
AcDbPolyline
 90
        2
 70
     0
 43
0.127
 10
1990.259725
 20
687.277235
 10
1813.248949
 20
657.869153
  0
LWPOLYLINE
  5
105
330
18
100
AcDbEntity
  8
default
 62
     5
100
AcDbPolyline
 90
        2
 70
     0
 43
0.127
 10
2187.640031
 20
728.805717
 10
1990.259725
 20
687.277235
  0
LWPOLYLINE
  5
106
330
18
100
AcDbEntity
  8
default
 62
     5
100
AcDbPolyline
 90
        2
 70
     0
 43
0.127
 10
2372.104293
 20
775.749472
 10
2187.640031
 20
728.805717
  0
LWPOLYLINE
  5
107
330
18
100
AcDbEntity
  8
default
 62
     5
100
AcDbPolyline
 90
        2
 70
     0
 43
0.127
 10
2188.083837
 20
781.878243
 10
2372.104293
 20
775.749472
  0
LWPOLYLINE
  5
108
330
18
100
AcDbEntity
  8
default
 62
     5
100
AcDbPolyline
 90
        2
 70
     0
 43
0.127
 10
1991.334386
 20
787.645682
 10
2188.083837
 20
781.878243
  0
LWPOLYLINE
  5
109
330
18
100
AcDbEntity
  8
default
 62
     5
100
AcDbPolyline
 90
        2
 70
     0
 43
0.127
 10
1814.927221
 20
792.157029
 10
1991.334386
 20
787.645682
  0
LWPOLYLINE
  5
10A
330
18
100
AcDbEntity
  8
default
 62
     5
100
AcDbPolyline
 90
        2
 70
     0
 43
0.127
 10
1600.685563
 20
796.896149
 10
1814.927221
 20
792.157029
  0
LWPOLYLINE
  5
10B
330
18
100
AcDbEntity
  8
default
 62
     5
100
AcDbPolyline
 90
        2
 70
     0
 43
0.127
 10
1404.633974
 20
800.558724
 10
1600.685563
 20
796.896149
  0
LWPOLYLINE
  5
10C
330
18
100
AcDbEntity
  8
default
 62
     5
100
AcDbPolyline
 90
        2
 70
     0
 43
0.127
 10
1237.647504
 20
803.219334
 10
1404.633974
 20
800.558724
  0
LWPOLYLINE
  5
10D
330
18
100
AcDbEntity
  8
default
 62
     5
100
AcDbPolyline
 90
        2
 70
     0
 43
0.127
 10
1014.643354
 20
806.018952
 10
1237.647504
 20
803.219334
  0
LWPOLYLINE
  5
10E
330
18
100
AcDbEntity
  8
default
 62
     5
100
AcDbPolyline
 90
        2
 70
     0
 43
0.127
 10
818.508906
 20
807.897241
 10
1014.643354
 20
806.018952
  0
LWPOLYLINE
  5
10F
330
18
100
AcDbEntity
  8
default
 62
     5
100
AcDbPolyline
 90
        2
 70
     0
 43
0.127
 10
641.17612
 20
808.847607
 10
818.508906
 20
807.897241
  0
LWPOLYLINE
  5
110
330
18
100
AcDbEntity
  8
default
 62
     5
100
AcDbPolyline
 90
        2
 70
     0
 43
0.127
 10
427.381221
 20
809.179473
 10
641.17612
 20
808.847607
  0
LWPOLYLINE
  5
111
330
18
100
AcDbEntity
  8
default
 62
     5
100
AcDbPolyline
 90
        2
 70
     0
 43
0.127
 10
230.129388
 20
808.434775
 10
427.381221
 20
809.179473
  0
LWPOLYLINE
  5
112
330
18
100
AcDbEntity
  8
default
 62
     5
100
AcDbPolyline
 90
        2
 70
     0
 43
0.127
 10
169.626185
 20
807.984855
 10
230.129388
 20
808.434775
  0
ENDSEC
  0
SECTION
  2
OBJECTS
  0
DICTIONARY
  5
C
330
0
100
AcDbDictionary
281
     1
  3
ACAD_DETAILVIEWSTYLE
350
18A
  3
ACAD_GROUP
350
D
  3
ACAD_LAYOUT
350
135
  3
ACAD_MATERIAL
350
151
  3
ACAD_MLEADERSTYLE
350
188
  3
ACAD_MLINESTYLE
350
1B
  3
ACAD_SCALELIST
350
113
  3
ACAD_SECTIONVIEWSTYLE
350
18B
  3
ACAD_TABLESTYLE
350
187
  3
ACAD_VISUALSTYLE
350
138
  3
AcDbVariableDictionary
350
155
  0
DICTIONARY
  5
18A
102
{ACAD_REACTORS
330
C
102
}
330
C
100
AcDbDictionary
281
     1
  0
DICTIONARY
  5
D
102
{ACAD_REACTORS
330
C
102
}
330
C
100
AcDbDictionary
281
     1
  0
DICTIONARY
  5
135
102
{ACAD_REACTORS
330
C
102
}
330
C
100
AcDbDictionary
281
     1
  3
Layout1
350
137
  3
Model
350
136
  0
DICTIONARY
  5
151
102
{ACAD_REACTORS
330
C
102
}
330
C
100
AcDbDictionary
281
     1
  3
ByBlock
350
153
  3
ByLayer
350
152
  3
Global
350
154
  0
DICTIONARY
  5
188
102
{ACAD_REACTORS
330
C
102
}
330
C
100
AcDbDictionary
281
     1
  0
DICTIONARY
  5
1B
102
{ACAD_REACTORS
330
C
102
}
330
C
100
AcDbDictionary
281
     1
  3
STANDARD
350
1C
  0
DICTIONARY
  5
113
102
{ACAD_REACTORS
330
C
102
}
330
C
100
AcDbDictionary
281
     1
  3
A0
350
114
  3
A1
350
115
  3
A2
350
116
  3
A3
350
117
  3
A4
350
118
  3
A5
350
119
  3
A6
350
11A
  3
A7
350
11B
  3
A8
350
11C
  3
A9
350
11D
  3
B0
350
11E
  3
B1
350
11F
  3
B2
350
120
  3
B3
350
121
  3
B4
350
122
  3
B5
350
123
  3
B6
350
124
  3
B7
350
125
  3
B8
350
126
  3
B9
350
127
  3
C0
350
128
  3
C1
350
129
  3
C2
350
12A
  3
C3
350
12B
  3
C4
350
12C
  3
C5
350
12D
  3
C6
350
12E
  3
C7
350
12F
  3
C8
350
130
  3
C9
350
131
  3
D0
350
132
  3
D1
350
133
  3
D2
350
134
  0
DICTIONARY
  5
18B
102
{ACAD_REACTORS
330
C
102
}
330
C
100
AcDbDictionary
281
     1
  0
DICTIONARY
  5
187
102
{ACAD_REACTORS
330
C
102
}
330
C
100
AcDbDictionary
281
     1
  0
DICTIONARY
  5
138
102
{ACAD_REACTORS
330
C
102
}
330
C
100
AcDbDictionary
281
     1
  3
2dWireframe
350
13D
  3
Basic
350
140
  3
Brighten
350
144
  3
ColorChange
350
148
  3
Conceptual
350
142
  3
Dim
350
143
  3
EdgeColorOff
350
14B
  3
Facepattern
350
147
  3
Flat
350
139
  3
FlatWithEdges
350
13A
  3
Gouraud
350
13B
  3
GouraudWithEdges
350
13C
  3
Hidden
350
13F
  3
JitterOff
350
149
  3
Linepattern
350
146
  3
OverhangOff
350
14A
  3
Realistic
350
141
  3
Shaded
350
150
  3
Shaded with edges
350
14F
  3
Shades of Gray
350
14C
  3
Sketchy
350
14D
  3
Thicken
350
145
  3
Wireframe
350
13E
  3
X-Ray
350
14E
  0
DICTIONARY
  5
155
102
{ACAD_REACTORS
330
C
102
}
330
C
100
AcDbDictionary
281
     1
  3
CANNOSCALE
350
156
  3
MSLTSCALE
350
189
  0
LAYOUT
  5
137
102
{ACAD_REACTORS
330
135
102
}
330
135
100
AcDbPlotSettings
  1

  2
none_device
  4

  6

 40
0.0
 41
0.0
 42
0.0
 43
0.0
 44
0.0
 45
0.0
 46
0.0
 47
0.0
 48
0.0
 49
0.0
140
0.0
141
0.0
142
1.0
143
1.0
 70
   688
 72
     1
 73
     0
 74
     5
  7

 75
    16
 76
     0
 77
     2
 78
   300
147
1.0
148
0.0
149
0.0
100
AcDbLayout
  1
Layout1
 70
     1
 71
     1
 10
0.0
 20
0.0
 11
12.0
 21
9.0
 12
0.0
 22
0.0
 32
0.0
 14
1.000000000000000E+20
 24
1.000000000000000E+20
 34
1.000000000000000E+20
 15
-1.000000000000000E+20
 25
-1.000000000000000E+20
 35
-1.000000000000000E+20
146
0.0
 13
0.0
 23
0.0
 33
0.0
 16
1.0
 26
0.0
 36
0.0
 17
0.0
 27
1.0
 37
0.0
 76
     0
330
15
  0
LAYOUT
  5
136
102
{ACAD_REACTORS
330
135
102
}
330
135
100
AcDbPlotSettings
  1

  2
none_device
  4
Letter_(8.50_x_11.00_Inches)
  6

 40
6.35
 41
6.35
 42
6.35000508
 43
6.35000508
 44
215.9
 45
279.4
 46
0.0
 47
0.0
 48
0.0
 49
0.0
140
0.0
141
0.0
142
1.0
143
12.00849984151171
 70
  1712
 72
     1
 73
     0
 74
     0
  7

 75
     0
 76
     0
 77
     2
 78
   300
147
0.0832743484363584
148
0.0635533959998611
149
0.0634999999999764
100
AcDbLayout
  1
Model
 70
     1
 71
     0
 10
0.0
 20
0.0
 11
2440.0635
 21
1220.0635
 12
0.0
 22
0.0
 32
0.0
 14
-0.0635
 24
-0.0635
 34
0.0
 15
2440.0635
 25
1220.0635
 35
0.0
146
0.0
 13
0.0
 23
0.0
 33
0.0
 16
1.0
 26
0.0
 36
0.0
 17
0.0
 27
1.0
 37
0.0
 76
     0
330
18
331
1E
  0
MATERIAL
  5
153
102
{ACAD_REACTORS
330
151
102
}
330
151
100
AcDbMaterial
  1
ByBlock
 72
     1
 94
      127
  0
MATERIAL
  5
152
102
{ACAD_REACTORS
330
151
102
}
330
151
100
AcDbMaterial
  1
ByLayer
 72
     1
 94
      127
  0
MATERIAL
  5
154
102
{ACAD_REACTORS
330
151
102
}
330
151
100
AcDbMaterial
  1
Global
 72
     1
 94
      127
  0
MLINESTYLE
  5
1C
102
{ACAD_REACTORS
330
1B
102
}
330
1B
100
AcDbMlineStyle
  2
STANDARD
 70
     0
  3

 62
   256
 51
90.0
 52
90.0
 71
     2
 49
0.5
 62
   256
  6
BYLAYER
 49
-0.5
 62
   256
  6
BYLAYER
  0
SCALE
  5
114
102
{ACAD_REACTORS
330
113
102
}
330
113
100
AcDbScale
 70
     0
300
1:1
140
1.0
141
1.0
290
     1
  0
SCALE
  5
115
102
{ACAD_REACTORS
330
113
102
}
330
113
100
AcDbScale
 70
     0
300
1:2
140
1.0
141
2.0
290
     0
  0
SCALE
  5
116
102
{ACAD_REACTORS
330
113
102
}
330
113
100
AcDbScale
 70
     0
300
1:4
140
1.0
141
4.0
290
     0
  0
SCALE
  5
117
102
{ACAD_REACTORS
330
113
102
}
330
113
100
AcDbScale
 70
     0
300
1:5
140
1.0
141
5.0
290
     0
  0
SCALE
  5
118
102
{ACAD_REACTORS
330
113
102
}
330
113
100
AcDbScale
 70
     0
300
1:8
140
1.0
141
8.0
290
     0
  0
SCALE
  5
119
102
{ACAD_REACTORS
330
113
102
}
330
113
100
AcDbScale
 70
     0
300
1:10
140
1.0
141
10.0
290
     0
  0
SCALE
  5
11A
102
{ACAD_REACTORS
330
113
102
}
330
113
100
AcDbScale
 70
     0
300
1:16
140
1.0
141
16.0
290
     0
  0
SCALE
  5
11B
102
{ACAD_REACTORS
330
113
102
}
330
113
100
AcDbScale
 70
     0
300
1:20
140
1.0
141
20.0
290
     0
  0
SCALE
  5
11C
102
{ACAD_REACTORS
330
113
102
}
330
113
100
AcDbScale
 70
     0
300
1:30
140
1.0
141
30.0
290
     0
  0
SCALE
  5
11D
102
{ACAD_REACTORS
330
113
102
}
330
113
100
AcDbScale
 70
     0
300
1:40
140
1.0
141
40.0
290
     0
  0
SCALE
  5
11E
102
{ACAD_REACTORS
330
113
102
}
330
113
100
AcDbScale
 70
     0
300
1:50
140
1.0
141
50.0
290
     0
  0
SCALE
  5
11F
102
{ACAD_REACTORS
330
113
102
}
330
113
100
AcDbScale
 70
     0
300
1:100
140
1.0
141
100.0
290
     0
  0
SCALE
  5
120
102
{ACAD_REACTORS
330
113
102
}
330
113
100
AcDbScale
 70
     0
300
2:1
140
2.0
141
1.0
290
     0
  0
SCALE
  5
121
102
{ACAD_REACTORS
330
113
102
}
330
113
100
AcDbScale
 70
     0
300
4:1
140
4.0
141
1.0
290
     0
  0
SCALE
  5
122
102
{ACAD_REACTORS
330
113
102
}
330
113
100
AcDbScale
 70
     0
300
8:1
140
8.0
141
1.0
290
     0
  0
SCALE
  5
123
102
{ACAD_REACTORS
330
113
102
}
330
113
100
AcDbScale
 70
     0
300
10:1
140
10.0
141
1.0
290
     0
  0
SCALE
  5
124
102
{ACAD_REACTORS
330
113
102
}
330
113
100
AcDbScale
 70
     0
300
100:1
140
100.0
141
1.0
290
     0
  0
SCALE
  5
125
102
{ACAD_REACTORS
330
113
102
}
330
113
100
AcDbScale
 70
     0
300
1/128" = 1'-0"
140
0.0078125
141
12.0
290
     0
  0
SCALE
  5
126
102
{ACAD_REACTORS
330
113
102
}
330
113
100
AcDbScale
 70
     0
300
1/64" = 1'-0"
140
0.015625
141
12.0
290
     0
  0
SCALE
  5
127
102
{ACAD_REACTORS
330
113
102
}
330
113
100
AcDbScale
 70
     0
300
1/32" = 1'-0"
140
0.03125
141
12.0
290
     0
  0
SCALE
  5
128
102
{ACAD_REACTORS
330
113
102
}
330
113
100
AcDbScale
 70
     0
300
1/16" = 1'-0"
140
0.0625
141
12.0
290
     0
  0
SCALE
  5
129
102
{ACAD_REACTORS
330
113
102
}
330
113
100
AcDbScale
 70
     0
300
3/32" = 1'-0"
140
0.09375
141
12.0
290
     0
  0
SCALE
  5
12A
102
{ACAD_REACTORS
330
113
102
}
330
113
100
AcDbScale
 70
     0
300
1/8" = 1'-0"
140
0.125
141
12.0
290
     0
  0
SCALE
  5
12B
102
{ACAD_REACTORS
330
113
102
}
330
113
100
AcDbScale
 70
     0
300
3/16" = 1'-0"
140
0.1875
141
12.0
290
     0
  0
SCALE
  5
12C
102
{ACAD_REACTORS
330
113
102
}
330
113
100
AcDbScale
 70
     0
300
1/4" = 1'-0"
140
0.25
141
12.0
290
     0
  0
SCALE
  5
12D
102
{ACAD_REACTORS
330
113
102
}
330
113
100
AcDbScale
 70
     0
300
3/8" = 1'-0"
140
0.375
141
12.0
290
     0
  0
SCALE
  5
12E
102
{ACAD_REACTORS
330
113
102
}
330
113
100
AcDbScale
 70
     0
300
1/2" = 1'-0"
140
0.5
141
12.0
290
     0
  0
SCALE
  5
12F
102
{ACAD_REACTORS
330
113
102
}
330
113
100
AcDbScale
 70
     0
300
3/4" = 1'-0"
140
0.75
141
12.0
290
     0
  0
SCALE
  5
130
102
{ACAD_REACTORS
330
113
102
}
330
113
100
AcDbScale
 70
     0
300
1" = 1'-0"
140
1.0
141
12.0
290
     0
  0
SCALE
  5
131
102
{ACAD_REACTORS
330
113
102
}
330
113
100
AcDbScale
 70
     0
300
1-1/2" = 1'-0"
140
1.5
141
12.0
290
     0
  0
SCALE
  5
132
102
{ACAD_REACTORS
330
113
102
}
330
113
100
AcDbScale
 70
     0
300
3" = 1'-0"
140
3.0
141
12.0
290
     0
  0
SCALE
  5
133
102
{ACAD_REACTORS
330
113
102
}
330
113
100
AcDbScale
 70
     0
300
6" = 1'-0"
140
6.0
141
12.0
290
     0
  0
SCALE
  5
134
102
{ACAD_REACTORS
330
113
102
}
330
113
100
AcDbScale
 70
     0
300
1'-0" = 1'-0"
140
12.0
141
12.0
290
     0
  0
VISUALSTYLE
  5
13D
102
{ACAD_REACTORS
330
138
102
}
102
{ACAD_XDICTIONARY
360
15F
102
}
330
138
100
AcDbVisualStyle
  2
2dWireframe
 70
     4
177
     2
291
     0
 71
     0
176
     1
 72
     2
176
     1
 73
     0
176
     1
 90
        0
176
     1
 40
0.6
176
     1
 41
30.0
176
     1
 62
     5
 63
     7
421
 16777215
176
     1
 74
     1
176
     1
 91
        4
176
     1
 64
     7
176
     1
 65
   257
176
     1
 75
     1
176
     1
175
     1
176
     1
 42
1.0
176
     1
 92
        0
176
     1
 66
   257
176
     1
 43
1.0
176
     1
 76
     1
176
     1
 77
     6
176
     1
 78
     2
176
     1
 67
     7
176
     1
 79
     5
176
     1
170
     0
176
     1
171
     0
176
     1
290
     0
176
     1
 93
        1
176
     1
 44
0.0
176
     1
173
     0
176
     1
  0
VISUALSTYLE
  5
140
102
{ACAD_REACTORS
330
138
102
}
102
{ACAD_XDICTIONARY
360
165
102
}
330
138
100
AcDbVisualStyle
  2
Basic
 70
     7
177
     2
291
     1
 71
     1
176
     1
 72
     0
176
     1
 73
     1
176
     1
 90
        0
176
     1
 40
0.6
176
     1
 41
30.0
176
     1
 62
     5
 63
     7
421
 16777215
176
     1
 74
     0
176
     1
 91
        4
176
     1
 64
     7
176
     1
 65
   257
176
     1
 75
     1
176
     1
175
     1
176
     1
 42
1.0
176
     1
 92
        8
176
     1
 66
     7
176
     1
 43
1.0
176
     1
 76
     1
176
     1
 77
     6
176
     1
 78
     2
176
     1
 67
     7
176
     1
 79
     5
176
     1
170
     0
176
     1
171
     0
176
     1
290
     0
176
     1
 93
        1
176
     1
 44
0.0
176
     1
173
     0
176
     1
  0
VISUALSTYLE
  5
144
102
{ACAD_REACTORS
330
138
102
}
102
{ACAD_XDICTIONARY
360
16D
102
}
330
138
100
AcDbVisualStyle
  2
Brighten
 70
    12
177
     2
291
     1
 71
     2
176
     1
 72
     2
176
     1
 73
     0
176
     1
 90
        0
176
     1
 40
0.6
176
     1
 41
30.0
176
     1
 62
     5
 63
     7
421
 16777215
176
     1
 74
     1
176
     1
 91
        4
176
     1
 64
     7
176
     1
 65
   257
176
     1
 75
     1
176
     1
175
     1
176
     1
 42
1.0
176
     1
 92
        8
176
     1
 66
     7
176
     1
 43
1.0
176
     1
 76
     1
176
     1
 77
     6
176
     1
 78
     2
176
     1
 67
     7
176
     1
 79
     5
176
     1
170
     0
176
     1
171
     0
176
     1
290
     0
176
     1
 93
        1
176
     1
 44
50.0
176
     1
173
     0
176
     1
  0
VISUALSTYLE
  5
148
102
{ACAD_REACTORS
330
138
102
}
102
{ACAD_XDICTIONARY
360
175
102
}
330
138
100
AcDbVisualStyle
  2
ColorChange
 70
    16
177
     2
291
     1
 71
     2
176
     1
 72
     2
176
     1
 73
     3
176
     1
 90
        0
176
     1
 40
0.6
176
     1
 41
30.0
176
     1
 62
     5
 63
     8
421
  8421504
176
     1
 74
     1
176
     1
 91
        4
176
     1
 64
     7
176
     1
 65
   257
176
     1
 75
     1
176
     1
175
     1
176
     1
 42
1.0
176
     1
 92
        8
176
     1
 66
     8
424
  8421504
176
     1
 43
1.0
176
     1
 76
     1
176
     1
 77
     6
176
     1
 78
     2
176
     1
 67
     7
176
     1
 79
     5
176
     1
170
     0
176
     1
171
     0
176
     1
290
     0
176
     1
 93
        1
176
     1
 44
0.0
176
     1
173
     0
176
     1
  0
VISUALSTYLE
  5
142
102
{ACAD_REACTORS
330
138
102
}
102
{ACAD_XDICTIONARY
360
169
102
}
330
138
100
AcDbVisualStyle
  2
Conceptual
 70
     9
177
     2
291
     0
 71
     3
176
     1
 72
     2
176
     1
 73
     0
176
     1
 90
        0
176
     1
 40
0.6
176
     1
 41
30.0
176
     1
 62
     5
 63
     7
421
 16777215
176
     1
 74
     2
176
     1
 91
        2
176
     1
 64
     7
176
     1
 65
   257
176
     1
 75
     1
176
     1
175
     1
176
     1
 42
179.0
176
     1
 92
        8
176
     1
 66
     7
176
     1
 43
1.0
176
     1
 76
     1
176
     1
 77
     6
176
     1
 78
     2
176
     1
 67
     7
176
     1
 79
     3
176
     1
170
     0
176
     1
171
     0
176
     1
290
     0
176
     1
 93
        1
176
     1
 44
0.0
176
     1
173
     0
176
     1
  0
VISUALSTYLE
  5
143
102
{ACAD_REACTORS
330
138
102
}
102
{ACAD_XDICTIONARY
360
16B
102
}
330
138
100
AcDbVisualStyle
  2
Dim
 70
    11
177
     2
291
     1
 71
     2
176
     1
 72
     2
176
     1
 73
     0
176
     1
 90
        0
176
     1
 40
0.6
176
     1
 41
30.0
176
     1
 62
     5
 63
     7
421
 16777215
176
     1
 74
     1
176
     1
 91
        4
176
     1
 64
     7
176
     1
 65
   257
176
     1
 75
     1
176
     1
175
     1
176
     1
 42
1.0
176
     1
 92
        8
176
     1
 66
     7
176
     1
 43
1.0
176
     1
 76
     1
176
     1
 77
     6
176
     1
 78
     2
176
     1
 67
     7
176
     1
 79
     5
176
     1
170
     0
176
     1
171
     0
176
     1
290
     0
176
     1
 93
        1
176
     1
 44
-50.0
176
     1
173
     0
176
     1
  0
VISUALSTYLE
  5
14B
102
{ACAD_REACTORS
330
138
102
}
102
{ACAD_XDICTIONARY
360
17B
102
}
330
138
100
AcDbVisualStyle
  2
EdgeColorOff
 70
    22
177
     2
291
     1
 71
     2
176
     0
 72
     2
176
     0
 73
     0
176
     0
 90
        0
176
     0
 40
0.6
176
     0
 41
30.0
176
     0
 62
     5
 63
     7
421
 16777215
176
     0
 74
     1
176
     0
 91
        4
176
     0
 64
     7
176
     0
 65
   257
176
     0
 75
     1
176
     0
175
     1
176
     0
 42
1.0
176
     0
 92
        8
176
     2
 66
     7
176
     0
 43
1.0
176
     0
 76
     1
176
     0
 77
     6
176
     0
 78
     2
176
     0
 67
     7
176
     0
 79
     5
176
     0
170
     0
176
     0
171
     0
176
     0
290
     0
176
     0
 93
        1
176
     0
 44
0.0
176
     0
173
     0
176
     0
  0
VISUALSTYLE
  5
147
102
{ACAD_REACTORS
330
138
102
}
102
{ACAD_XDICTIONARY
360
173
102
}
330
138
100
AcDbVisualStyle
  2
Facepattern
 70
    15
177
     2
291
     1
 71
     2
176
     1
 72
     2
176
     1
 73
     0
176
     1
 90
        0
176
     1
 40
0.6
176
     1
 41
30.0
176
     1
 62
     5
 63
     7
421
 16777215
176
     1
 74
     1
176
     1
 91
        4
176
     1
 64
     7
176
     1
 65
   257
176
     1
 75
     1
176
     1
175
     1
176
     1
 42
1.0
176
     1
 92
        8
176
     1
 66
     7
176
     1
 43
1.0
176
     1
 76
     1
176
     1
 77
     6
176
     1
 78
     2
176
     1
 67
     7
176
     1
 79
     5
176
     1
170
     0
176
     1
171
     0
176
     1
290
     0
176
     1
 93
        1
176
     1
 44
0.0
176
     1
173
     0
176
     1
  0
VISUALSTYLE
  5
139
102
{ACAD_REACTORS
330
138
102
}
102
{ACAD_XDICTIONARY
360
157
102
}
330
138
100
AcDbVisualStyle
  2
Flat
 70
     0
177
     2
291
     1
 71
     2
176
     1
 72
     1
176
     1
 73
     1
176
     1
 90
        2
176
     1
 40
0.6
176
     1
 41
30.0
176
     1
 62
     5
 63
     7
421
 16777215
176
     1
 74
     0
176
     1
 91
        0
176
     1
 64
     7
176
     1
 65
   257
176
     1
 75
     1
176
     1
175
     1
176
     1
 42
1.0
176
     1
 92
        8
176
     1
 66
     7
176
     1
 43
1.0
176
     1
 76
     1
176
     1
 77
     6
176
     1
 78
     2
176
     1
 67
     7
176
     1
 79
     5
176
     1
170
     0
176
     1
171
     0
176
     1
290
     0
176
     1
 93
       13
176
     1
 44
0.0
176
     1
173
     0
176
     1
  0
VISUALSTYLE
  5
13A
102
{ACAD_REACTORS
330
138
102
}
102
{ACAD_XDICTIONARY
360
159
102
}
330
138
100
AcDbVisualStyle
  2
FlatWithEdges
 70
     1
177
     2
291
     1
 71
     2
176
     1
 72
     1
176
     1
 73
     1
176
     1
 90
        2
176
     1
 40
0.6
176
     1
 41
30.0
176
     1
 62
     5
 63
     7
421
 16777215
176
     1
 74
     1
176
     1
 91
        0
176
     1
 64
     7
176
     1
 65
   257
176
     1
 75
     1
176
     1
175
     1
176
     1
 42
1.0
176
     1
 92
        0
176
     1
 66
   257
176
     1
 43
1.0
176
     1
 76
     1
176
     1
 77
     6
176
     1
 78
     2
176
     1
 67
     7
176
     1
 79
     5
176
     1
170
     0
176
     1
171
     0
176
     1
290
     0
176
     1
 93
       13
176
     1
 44
0.0
176
     1
173
     0
176
     1
  0
VISUALSTYLE
  5
13B
102
{ACAD_REACTORS
330
138
102
}
102
{ACAD_XDICTIONARY
360
15B
102
}
330
138
100
AcDbVisualStyle
  2
Gouraud
 70
     2
177
     2
291
     1
 71
     2
176
     1
 72
     2
176
     1
 73
     1
176
     1
 90
        2
176
     1
 40
0.6
176
     1
 41
30.0
176
     1
 62
     5
 63
     7
421
 16777215
176
     1
 74
     0
176
     1
 91
        0
176
     1
 64
     7
176
     1
 65
   257
176
     1
 75
     1
176
     1
175
     1
176
     1
 42
1.0
176
     1
 92
        0
176
     1
 66
     7
176
     1
 43
1.0
176
     1
 76
     1
176
     1
 77
     6
176
     1
 78
     2
176
     1
 67
     7
176
     1
 79
     5
176
     1
170
     0
176
     1
171
     0
176
     1
290
     0
176
     1
 93
       13
176
     1
 44
0.0
176
     1
173
     0
176
     1
  0
VISUALSTYLE
  5
13C
102
{ACAD_REACTORS
330
138
102
}
102
{ACAD_XDICTIONARY
360
15D
102
}
330
138
100
AcDbVisualStyle
  2
GouraudWithEdges
 70
     3
177
     2
291
     1
 71
     2
176
     1
 72
     2
176
     1
 73
     1
176
     1
 90
        2
176
     1
 40
0.6
176
     1
 41
30.0
176
     1
 62
     5
 63
     7
421
 16777215
176
     1
 74
     1
176
     1
 91
        0
176
     1
 64
     7
176
     1
 65
   257
176
     1
 75
     1
176
     1
175
     1
176
     1
 42
1.0
176
     1
 92
        0
176
     1
 66
   257
176
     1
 43
1.0
176
     1
 76
     1
176
     1
 77
     6
176
     1
 78
     2
176
     1
 67
     7
176
     1
 79
     5
176
     1
170
     0
176
     1
171
     0
176
     1
290
     0
176
     1
 93
       13
176
     1
 44
0.0
176
     1
173
     0
176
     1
  0
VISUALSTYLE
  5
13F
102
{ACAD_REACTORS
330
138
102
}
102
{ACAD_XDICTIONARY
360
163
102
}
330
138
100
AcDbVisualStyle
  2
Hidden
 70
     6
177
     2
291
     0
 71
     1
176
     1
 72
     2
176
     1
 73
     2
176
     1
 90
        0
176
     1
 40
0.6
176
     1
 41
30.0
176
     1
 62
     5
 63
     7
421
 16777215
176
     1
 74
     2
176
     1
 91
        2
176
     1
 64
     7
176
     1
 65
   257
176
     1
 75
     2
176
     1
175
     1
176
     1
 42
40.0
176
     1
 92
        0
176
     1
 66
   257
176
     1
 43
1.0
176
     1
 76
     1
176
     1
 77
     6
176
     1
 78
     2
176
     1
 67
     7
176
     1
 79
     3
176
     1
170
     0
176
     1
171
     0
176
     1
290
     0
176
     1
 93
        1
176
     1
 44
0.0
176
     1
173
     0
176
     1
  0
VISUALSTYLE
  5
149
102
{ACAD_REACTORS
330
138
102
}
102
{ACAD_XDICTIONARY
360
177
102
}
330
138
100
AcDbVisualStyle
  2
JitterOff
 70
    20
177
     2
291
     1
 71
     2
176
     0
 72
     2
176
     0
 73
     0
176
     0
 90
        0
176
     0
 40
0.6
176
     0
 41
30.0
176
     0
 62
     5
 63
     7
421
 16777215
176
     0
 74
     1
176
     0
 91
        4
176
     0
 64
     7
176
     0
 65
   257
176
     0
 75
     1
176
     0
175
     1
176
     0
 42
1.0
176
     0
 92
       10
176
     2
 66
     7
176
     0
 43
1.0
176
     0
 76
     1
176
     0
 77
     6
176
     0
 78
     2
176
     0
 67
     7
176
     0
 79
     5
176
     0
170
     0
176
     0
171
     0
176
     0
290
     0
176
     0
 93
        1
176
     0
 44
0.0
176
     0
173
     0
176
     0
  0
VISUALSTYLE
  5
146
102
{ACAD_REACTORS
330
138
102
}
102
{ACAD_XDICTIONARY
360
171
102
}
330
138
100
AcDbVisualStyle
  2
Linepattern
 70
    14
177
     2
291
     1
 71
     2
176
     1
 72
     2
176
     1
 73
     0
176
     1
 90
        0
176
     1
 40
0.6
176
     1
 41
30.0
176
     1
 62
     5
 63
     7
421
 16777215
176
     1
 74
     1
176
     1
 91
        4
176
     1
 64
     7
176
     1
 65
   257
176
     1
 75
     7
176
     1
175
     7
176
     1
 42
1.0
176
     1
 92
        8
176
     1
 66
     7
176
     1
 43
1.0
176
     1
 76
     1
176
     1
 77
     6
176
     1
 78
     2
176
     1
 67
     7
176
     1
 79
     5
176
     1
170
     0
176
     1
171
     0
176
     1
290
     0
176
     1
 93
        1
176
     1
 44
0.0
176
     1
173
     0
176
     1
  0
VISUALSTYLE
  5
14A
102
{ACAD_REACTORS
330
138
102
}
102
{ACAD_XDICTIONARY
360
179
102
}
330
138
100
AcDbVisualStyle
  2
OverhangOff
 70
    21
177
     2
291
     1
 71
     2
176
     0
 72
     2
176
     0
 73
     0
176
     0
 90
        0
176
     0
 40
0.6
176
     0
 41
30.0
176
     0
 62
     5
 63
     7
421
 16777215
176
     0
 74
     1
176
     0
 91
        4
176
     0
 64
     7
176
     0
 65
   257
176
     0
 75
     1
176
     0
175
     1
176
     0
 42
1.0
176
     0
 92
        9
176
     2
 66
     7
176
     0
 43
1.0
176
     0
 76
     1
176
     0
 77
     6
176
     0
 78
     2
176
     0
 67
     7
176
     0
 79
     5
176
     0
170
     0
176
     0
171
     0
176
     0
290
     0
176
     0
 93
        1
176
     0
 44
0.0
176
     0
173
     0
176
     0
  0
VISUALSTYLE
  5
141
102
{ACAD_REACTORS
330
138
102
}
102
{ACAD_XDICTIONARY
360
167
102
}
330
138
100
AcDbVisualStyle
  2
Realistic
 70
     8
177
     2
291
     0
 71
     2
176
     1
 72
     3
176
     1
 73
     0
176
     1
 90
        2
176
     1
 40
0.6
176
     1
 41
30.0
176
     1
 62
     5
 63
     7
421
 16777215
176
     1
 74
     0
176
     1
 91
        0
176
     1
 64
     7
176
     1
 65
   257
176
     1
 75
     1
176
     1
175
     1
176
     1
 42
1.0
176
     1
 92
        8
176
     1
 66
   257
176
     1
 43
1.0
176
     1
 76
     1
176
     1
 77
     6
176
     1
 78
     2
176
     1
 67
     7
176
     1
 79
     3
176
     1
170
     0
176
     1
171
     0
176
     1
290
     0
176
     1
 93
       13
176
     1
 44
0.0
176
     1
173
     0
176
     1
  0
VISUALSTYLE
  5
150
102
{ACAD_REACTORS
330
138
102
}
102
{ACAD_XDICTIONARY
360
185
102
}
330
138
100
AcDbVisualStyle
  2
Shaded
 70
    27
177
     2
291
     0
 71
     2
176
     1
 72
     2
176
     1
 73
     1
176
     1
 90
        2
176
     1
 40
0.6
176
     1
 41
30.0
176
     1
 62
     5
 63
     7
421
 16777215
176
     1
 74
     0
176
     1
 91
        4
176
     1
 64
     7
176
     1
 65
   257
176
     1
 75
     1
176
     1
175
     1
176
     1
 42
1.0
176
     1
 92
        8
176
     1
 66
   257
176
     1
 43
1.0
176
     1
 76
     1
176
     1
 77
     6
176
     1
 78
     2
176
     1
 67
     8
425
  7895160
176
     1
 79
     3
176
     1
170
     0
176
     1
171
     0
176
     1
290
     0
176
     1
 93
        5
176
     1
 44
0.0
176
     1
173
     0
176
     1
  0
VISUALSTYLE
  5
14F
102
{ACAD_REACTORS
330
138
102
}
102
{ACAD_XDICTIONARY
360
183
102
}
330
138
100
AcDbVisualStyle
  2
Shaded with edges
 70
    26
177
     2
291
     0
 71
     2
176
     1
 72
     2
176
     1
 73
     1
176
     1
 90
        2
176
     1
 40
0.6
176
     1
 41
30.0
176
     1
 62
     5
 63
     7
421
 16777215
176
     1
 74
     1
176
     1
 91
       10
176
     1
 64
     7
176
     1
 65
   257
176
     1
 75
     2
176
     1
175
     1
176
     1
 42
1.0
176
     1
 92
        8
176
     1
 66
   257
176
     1
 43
1.0
176
     1
 76
     1
176
     1
 77
     6
176
     1
 78
     2
176
     1
 67
     7
176
     1
 79
     3
176
     1
170
     0
176
     1
171
     0
176
     1
290
     0
176
     1
 93
        5
176
     1
 44
0.0
176
     1
173
     0
176
     1
  0
VISUALSTYLE
  5
14C
102
{ACAD_REACTORS
330
138
102
}
102
{ACAD_XDICTIONARY
360
17D
102
}
330
138
100
AcDbVisualStyle
  2
Shades of Gray
 70
    23
177
     2
291
     0
 71
     2
176
     1
 72
     2
176
     1
 73
     3
176
     1
 90
        0
176
     1
 40
0.6
176
     1
 41
30.0
176
     1
 62
     5
 63
     7
421
 16777215
176
     1
 74
     2
176
     1
 91
        2
176
     1
 64
     7
176
     1
 65
     7
176
     1
 75
     1
176
     1
175
     1
176
     1
 42
40.0
176
     1
 92
        8
176
     1
 66
     7
176
     1
 43
1.0
176
     1
 76
     1
176
     1
 77
     6
176
     1
 78
     2
176
     1
 67
     7
176
     1
 79
     3
176
     1
170
     0
176
     1
171
     0
176
     1
290
     0
176
     1
 93
        1
176
     1
 44
0.0
176
     1
173
     0
176
     1
  0
VISUALSTYLE
  5
14D
102
{ACAD_REACTORS
330
138
102
}
102
{ACAD_XDICTIONARY
360
17F
102
}
330
138
100
AcDbVisualStyle
  2
Sketchy
 70
    24
177
     2
291
     0
 71
     1
176
     1
 72
     2
176
     1
 73
     2
176
     1
 90
        0
176
     1
 40
0.6
176
     1
 41
30.0
176
     1
 62
     5
 63
     7
421
 16777215
176
     1
 74
     2
176
     1
 91
        2
176
     1
 64
     7
176
     1
 65
     7
176
     1
 75
     1
176
     1
175
     1
176
     1
 42
40.0
176
     1
 92
       11
176
     1
 66
     7
176
     1
 43
1.0
176
     1
 76
     1
176
     1
 77
     6
176
     1
 78
     2
176
     1
 67
     7
176
     1
 79
     6
176
     1
170
     0
176
     1
171
     0
176
     1
290
     0
176
     1
 93
        1
176
     1
 44
0.0
176
     1
173
     0
176
     1
  0
VISUALSTYLE
  5
145
102
{ACAD_REACTORS
330
138
102
}
102
{ACAD_XDICTIONARY
360
16F
102
}
330
138
100
AcDbVisualStyle
  2
Thicken
 70
    13
177
     2
291
     1
 71
     2
176
     1
 72
     2
176
     1
 73
     0
176
     1
 90
        0
176
     1
 40
0.6
176
     1
 41
30.0
176
     1
 62
     5
 63
     7
421
 16777215
176
     1
 74
     1
176
     1
 91
        4
176
     1
 64
     7
176
     1
 65
   257
176
     1
 75
     1
176
     1
175
     1
176
     1
 42
1.0
176
     1
 92
       12
176
     1
 66
     7
176
     1
 43
1.0
176
     1
 76
     1
176
     1
 77
     6
176
     1
 78
     2
176
     1
 67
     7
176
     1
 79
     5
176
     1
170
     0
176
     1
171
     0
176
     1
290
     0
176
     1
 93
        1
176
     1
 44
0.0
176
     1
173
     0
176
     1
  0
VISUALSTYLE
  5
13E
102
{ACAD_REACTORS
330
138
102
}
102
{ACAD_XDICTIONARY
360
161
102
}
330
138
100
AcDbVisualStyle
  2
Wireframe
 70
     5
177
     2
291
     0
 71
     0
176
     1
 72
     2
176
     1
 73
     0
176
     1
 90
        0
176
     1
 40
0.6
176
     1
 41
30.0
176
     1
 62
     5
 63
     7
421
 16777215
176
     1
 74
     1
176
     1
 91
        4
176
     1
 64
     7
176
     1
 65
   257
176
     1
 75
     1
176
     1
175
     1
176
     1
 42
1.0
176
     1
 92
        0
176
     1
 66
   257
176
     1
 43
1.0
176
     1
 76
     1
176
     1
 77
     6
176
     1
 78
     2
176
     1
 67
     7
176
     1
 79
     3
176
     1
170
     0
176
     1
171
     0
176
     1
290
     0
176
     1
 93
        1
176
     1
 44
0.0
176
     1
173
     0
176
     1
  0
VISUALSTYLE
  5
14E
102
{ACAD_REACTORS
330
138
102
}
102
{ACAD_XDICTIONARY
360
181
102
}
330
138
100
AcDbVisualStyle
  2
X-Ray
 70
    25
177
     2
291
     0
 71
     2
176
     1
 72
     2
176
     1
 73
     1
176
     1
 90
        1
176
     1
 40
0.5
176
     1
 41
30.0
176
     1
 62
     5
 63
     7
421
 16777215
176
     1
 74
     1
176
     1
 91
        0
176
     1
 64
     7
176
     1
 65
   257
176
     1
 75
     1
176
     1
175
     1
176
     1
 42
1.0
176
     1
 92
        8
176
     1
 66
     7
176
     1
 43
1.0
176
     1
 76
     1
176
     1
 77
     6
176
     1
 78
     2
176
     1
 67
     7
176
     1
 79
     3
176
     1
170
     0
176
     1
171
     0
176
     1
290
     0
176
     1
 93
       13
176
     1
 44
0.0
176
     1
173
     0
176
     1
  0
DICTIONARYVAR
  5
156
102
{ACAD_REACTORS
330
155
102
}
330
155
100
DictionaryVariables
280
     0
  1
1:1
  0
DICTIONARYVAR
  5
189
102
{ACAD_REACTORS
330
155
102
}
330
155
100
DictionaryVariables
280
     0
  1
0
  0
DICTIONARY
  5
15F
330
13D
100
AcDbDictionary
280
     1
281
     1
  3
ACAD_XREC_ROUNDTRIP
360
160
  0
DICTIONARY
  5
165
330
140
100
AcDbDictionary
280
     1
281
     1
  3
ACAD_XREC_ROUNDTRIP
360
166
  0
DICTIONARY
  5
16D
330
144
100
AcDbDictionary
280
     1
281
     1
  3
ACAD_XREC_ROUNDTRIP
360
16E
  0
DICTIONARY
  5
175
330
148
100
AcDbDictionary
280
     1
281
     1
  3
ACAD_XREC_ROUNDTRIP
360
176
  0
DICTIONARY
  5
169
330
142
100
AcDbDictionary
280
     1
281
     1
  3
ACAD_XREC_ROUNDTRIP
360
16A
  0
DICTIONARY
  5
16B
330
143
100
AcDbDictionary
280
     1
281
     1
  3
ACAD_XREC_ROUNDTRIP
360
16C
  0
DICTIONARY
  5
17B
330
14B
100
AcDbDictionary
280
     1
281
     1
  3
ACAD_XREC_ROUNDTRIP
360
17C
  0
DICTIONARY
  5
173
330
147
100
AcDbDictionary
280
     1
281
     1
  3
ACAD_XREC_ROUNDTRIP
360
174
  0
DICTIONARY
  5
157
330
139
100
AcDbDictionary
280
     1
281
     1
  3
ACAD_XREC_ROUNDTRIP
360
158
  0
DICTIONARY
  5
159
330
13A
100
AcDbDictionary
280
     1
281
     1
  3
ACAD_XREC_ROUNDTRIP
360
15A
  0
DICTIONARY
  5
15B
330
13B
100
AcDbDictionary
280
     1
281
     1
  3
ACAD_XREC_ROUNDTRIP
360
15C
  0
DICTIONARY
  5
15D
330
13C
100
AcDbDictionary
280
     1
281
     1
  3
ACAD_XREC_ROUNDTRIP
360
15E
  0
DICTIONARY
  5
163
330
13F
100
AcDbDictionary
280
     1
281
     1
  3
ACAD_XREC_ROUNDTRIP
360
164
  0
DICTIONARY
  5
177
330
149
100
AcDbDictionary
280
     1
281
     1
  3
ACAD_XREC_ROUNDTRIP
360
178
  0
DICTIONARY
  5
171
330
146
100
AcDbDictionary
280
     1
281
     1
  3
ACAD_XREC_ROUNDTRIP
360
172
  0
DICTIONARY
  5
179
330
14A
100
AcDbDictionary
280
     1
281
     1
  3
ACAD_XREC_ROUNDTRIP
360
17A
  0
DICTIONARY
  5
167
330
141
100
AcDbDictionary
280
     1
281
     1
  3
ACAD_XREC_ROUNDTRIP
360
168
  0
DICTIONARY
  5
185
330
150
100
AcDbDictionary
280
     1
281
     1
  3
ACAD_XREC_ROUNDTRIP
360
186
  0
DICTIONARY
  5
183
330
14F
100
AcDbDictionary
280
     1
281
     1
  3
ACAD_XREC_ROUNDTRIP
360
184
  0
DICTIONARY
  5
17D
330
14C
100
AcDbDictionary
280
     1
281
     1
  3
ACAD_XREC_ROUNDTRIP
360
17E
  0
DICTIONARY
  5
17F
330
14D
100
AcDbDictionary
280
     1
281
     1
  3
ACAD_XREC_ROUNDTRIP
360
180
  0
DICTIONARY
  5
16F
330
145
100
AcDbDictionary
280
     1
281
     1
  3
ACAD_XREC_ROUNDTRIP
360
170
  0
DICTIONARY
  5
161
330
13E
100
AcDbDictionary
280
     1
281
     1
  3
ACAD_XREC_ROUNDTRIP
360
162
  0
DICTIONARY
  5
181
330
14E
100
AcDbDictionary
280
     1
281
     1
  3
ACAD_XREC_ROUNDTRIP
360
182
  0
XRECORD
  5
160
102
{ACAD_REACTORS
330
15F
102
}
330
15F
100
AcDbXrecord
280
     1
102
RTVSPost2010Prop28
280
     1
102
RTVSPost2010PropOp28
 70
     1
102
RTVSPost2010Prop29
280
     1
102
RTVSPost2010PropOp29
 70
     1
102
RTVSPost2010Prop30
280
     0
102
RTVSPost2010PropOp30
 70
     1
102
RTVSPost2010Prop31
280
     0
102
RTVSPost2010PropOp31
 70
     1
102
RTVSPost2010Prop32
280
     0
102
RTVSPost2010PropOp32
 70
     1
102
RTVSPost2010Prop33
280
     0
102
RTVSPost2010PropOp33
 70
     1
102
RTVSPost2010Prop34
280
     0
102
RTVSPost2010PropOp34
 70
     1
102
RTVSPost2010Prop35
280
     0
102
RTVSPost2010PropOp35
 70
     1
102
RTVSPost2010Prop36
280
     0
102
RTVSPost2010PropOp36
 70
     1
102
RTVSPost2010Prop37
 90
       50
102
RTVSPost2010PropOp37
 70
     1
102
RTVSPost2010Prop38
140
0.0
102
RTVSPost2010PropOp38
 70
     1
102
RTVSPost2010Prop39
140
1.0
102
RTVSPost2010PropOp39
 70
     1
102
RTVSPost2010Prop40
 90
        0
102
RTVSPost2010PropOp40
 70
     1
102
RTVSPost2010Prop41ColorIndex
 90
       18
102
RTVSPost2010Prop41ColorRGB
 90
        0
102
RTVSPost2010PropOp41
 70
     1
102
RTVSPost2010Prop42
 90
       50
102
RTVSPost2010PropOp42
 70
     1
102
RTVSPost2010Prop43
 90
        3
102
RTVSPost2010PropOp43
 70
     1
102
RTVSPost2010Prop44ColorIndex
 90
        5
102
RTVSPost2010Prop44ColorRGB
 90
      255
102
RTVSPost2010PropOp44
 70
     1
102
RTVSPost2010Prop45
280
     0
102
RTVSPost2010PropOp45
 70
     1
102
RTVSPost2010Prop46
 90
       50
102
RTVSPost2010PropOp46
 70
     1
102
RTVSPost2010Prop47
 90
       50
102
RTVSPost2010PropOp47
 70
     1
102
RTVSPost2010Prop48
 90
       50
102
RTVSPost2010PropOp48
 70
     1
102
RTVSPost2010Prop49
280
     0
102
RTVSPost2010PropOp49
 70
     1
102
RTVSPost2010Prop50
 90
       50
102
RTVSPost2010PropOp50
 70
     1
102
RTVSPost2010Prop51ColorIndex
 90
      256
102
RTVSPost2010Prop51ColorRGB
 90
-16777216
102
RTVSPost2010PropOp51
 70
     0
102
RTVSPost2010Prop52
140
1.0
102
RTVSPost2010PropOp52
 70
     0
102
RTVSPost2010Prop53
 90
        2
102
RTVSPost2010PropOp53
 70
     1
102
RTVSPost2010Prop54
  1
strokes_ogs.tif
102
RTVSPost2010PropOp54
 70
     1
102
RTVSPost2010Prop55
280
     0
102
RTVSPost2010PropOp55
 70
     1
102
RTVSPost2010Prop56
140
1.0
102
RTVSPost2010PropOp56
 70
     1
102
RTVSPost2010Prop57
140
1.0
102
RTVSPost2010PropOp57
 70
     1
  0
XRECORD
  5
166
102
{ACAD_REACTORS
330
165
102
}
330
165
100
AcDbXrecord
280
     1
102
RTVSPost2010Prop28
280
     0
102
RTVSPost2010PropOp28
 70
     1
102
RTVSPost2010Prop29
280
     1
102
RTVSPost2010PropOp29
 70
     1
102
RTVSPost2010Prop30
280
     1
102
RTVSPost2010PropOp30
 70
     1
102
RTVSPost2010Prop31
280
     0
102
RTVSPost2010PropOp31
 70
     1
102
RTVSPost2010Prop32
280
     0
102
RTVSPost2010PropOp32
 70
     1
102
RTVSPost2010Prop33
280
     0
102
RTVSPost2010PropOp33
 70
     1
102
RTVSPost2010Prop34
280
     0
102
RTVSPost2010PropOp34
 70
     1
102
RTVSPost2010Prop35
280
     0
102
RTVSPost2010PropOp35
 70
     1
102
RTVSPost2010Prop36
280
     0
102
RTVSPost2010PropOp36
 70
     1
102
RTVSPost2010Prop37
 90
       50
102
RTVSPost2010PropOp37
 70
     1
102
RTVSPost2010Prop38
140
0.0
102
RTVSPost2010PropOp38
 70
     1
102
RTVSPost2010Prop39
140
1.0
102
RTVSPost2010PropOp39
 70
     1
102
RTVSPost2010Prop40
 90
        0
102
RTVSPost2010PropOp40
 70
     1
102
RTVSPost2010Prop41ColorIndex
 90
       18
102
RTVSPost2010Prop41ColorRGB
 90
        0
102
RTVSPost2010PropOp41
 70
     1
102
RTVSPost2010Prop42
 90
       50
102
RTVSPost2010PropOp42
 70
     1
102
RTVSPost2010Prop43
 90
        3
102
RTVSPost2010PropOp43
 70
     1
102
RTVSPost2010Prop44ColorIndex
 90
        5
102
RTVSPost2010Prop44ColorRGB
 90
      255
102
RTVSPost2010PropOp44
 70
     1
102
RTVSPost2010Prop45
280
     0
102
RTVSPost2010PropOp45
 70
     1
102
RTVSPost2010Prop46
 90
       50
102
RTVSPost2010PropOp46
 70
     1
102
RTVSPost2010Prop47
 90
       50
102
RTVSPost2010PropOp47
 70
     1
102
RTVSPost2010Prop48
 90
       50
102
RTVSPost2010PropOp48
 70
     1
102
RTVSPost2010Prop49
280
     0
102
RTVSPost2010PropOp49
 70
     1
102
RTVSPost2010Prop50
 90
       50
102
RTVSPost2010PropOp50
 70
     1
102
RTVSPost2010Prop51ColorIndex
 90
      256
102
RTVSPost2010Prop51ColorRGB
 90
-16777216
102
RTVSPost2010PropOp51
 70
     0
102
RTVSPost2010Prop52
140
1.0
102
RTVSPost2010PropOp52
 70
     0
102
RTVSPost2010Prop53
 90
        2
102
RTVSPost2010PropOp53
 70
     1
102
RTVSPost2010Prop54
  1
strokes_ogs.tif
102
RTVSPost2010PropOp54
 70
     1
102
RTVSPost2010Prop55
280
     0
102
RTVSPost2010PropOp55
 70
     1
102
RTVSPost2010Prop56
140
1.0
102
RTVSPost2010PropOp56
 70
     1
102
RTVSPost2010Prop57
140
1.0
102
RTVSPost2010PropOp57
 70
     1
  0
XRECORD
  5
16E
102
{ACAD_REACTORS
330
16D
102
}
330
16D
100
AcDbXrecord
280
     1
102
RTVSPost2010Prop28
280
     0
102
RTVSPost2010PropOp28
 70
     1
102
RTVSPost2010Prop29
280
     1
102
RTVSPost2010PropOp29
 70
     1
102
RTVSPost2010Prop30
280
     1
102
RTVSPost2010PropOp30
 70
     1
102
RTVSPost2010Prop31
280
     0
102
RTVSPost2010PropOp31
 70
     1
102
RTVSPost2010Prop32
280
     0
102
RTVSPost2010PropOp32
 70
     1
102
RTVSPost2010Prop33
280
     0
102
RTVSPost2010PropOp33
 70
     1
102
RTVSPost2010Prop34
280
     0
102
RTVSPost2010PropOp34
 70
     1
102
RTVSPost2010Prop35
280
     0
102
RTVSPost2010PropOp35
 70
     1
102
RTVSPost2010Prop36
280
     0
102
RTVSPost2010PropOp36
 70
     1
102
RTVSPost2010Prop37
 90
       50
102
RTVSPost2010PropOp37
 70
     1
102
RTVSPost2010Prop38
140
0.0
102
RTVSPost2010PropOp38
 70
     1
102
RTVSPost2010Prop39
140
1.0
102
RTVSPost2010PropOp39
 70
     1
102
RTVSPost2010Prop40
 90
        0
102
RTVSPost2010PropOp40
 70
     1
102
RTVSPost2010Prop41ColorIndex
 90
       18
102
RTVSPost2010Prop41ColorRGB
 90
        0
102
RTVSPost2010PropOp41
 70
     1
102
RTVSPost2010Prop42
 90
       50
102
RTVSPost2010PropOp42
 70
     1
102
RTVSPost2010Prop43
 90
        3
102
RTVSPost2010PropOp43
 70
     1
102
RTVSPost2010Prop44ColorIndex
 90
        5
102
RTVSPost2010Prop44ColorRGB
 90
      255
102
RTVSPost2010PropOp44
 70
     1
102
RTVSPost2010Prop45
280
     0
102
RTVSPost2010PropOp45
 70
     1
102
RTVSPost2010Prop46
 90
       50
102
RTVSPost2010PropOp46
 70
     1
102
RTVSPost2010Prop47
 90
       50
102
RTVSPost2010PropOp47
 70
     1
102
RTVSPost2010Prop48
 90
       50
102
RTVSPost2010PropOp48
 70
     1
102
RTVSPost2010Prop49
280
     0
102
RTVSPost2010PropOp49
 70
     1
102
RTVSPost2010Prop50
 90
       50
102
RTVSPost2010PropOp50
 70
     1
102
RTVSPost2010Prop51ColorIndex
 90
      256
102
RTVSPost2010Prop51ColorRGB
 90
-16777216
102
RTVSPost2010PropOp51
 70
     0
102
RTVSPost2010Prop52
140
1.0
102
RTVSPost2010PropOp52
 70
     0
102
RTVSPost2010Prop53
 90
        2
102
RTVSPost2010PropOp53
 70
     1
102
RTVSPost2010Prop54
  1
strokes_ogs.tif
102
RTVSPost2010PropOp54
 70
     1
102
RTVSPost2010Prop55
280
     0
102
RTVSPost2010PropOp55
 70
     1
102
RTVSPost2010Prop56
140
1.0
102
RTVSPost2010PropOp56
 70
     1
102
RTVSPost2010Prop57
140
1.0
102
RTVSPost2010PropOp57
 70
     1
  0
XRECORD
  5
176
102
{ACAD_REACTORS
330
175
102
}
330
175
100
AcDbXrecord
280
     1
102
RTVSPost2010Prop28
280
     0
102
RTVSPost2010PropOp28
 70
     1
102
RTVSPost2010Prop29
280
     1
102
RTVSPost2010PropOp29
 70
     1
102
RTVSPost2010Prop30
280
     1
102
RTVSPost2010PropOp30
 70
     1
102
RTVSPost2010Prop31
280
     0
102
RTVSPost2010PropOp31
 70
     1
102
RTVSPost2010Prop32
280
     0
102
RTVSPost2010PropOp32
 70
     1
102
RTVSPost2010Prop33
280
     0
102
RTVSPost2010PropOp33
 70
     1
102
RTVSPost2010Prop34
280
     0
102
RTVSPost2010PropOp34
 70
     1
102
RTVSPost2010Prop35
280
     0
102
RTVSPost2010PropOp35
 70
     1
102
RTVSPost2010Prop36
280
     0
102
RTVSPost2010PropOp36
 70
     1
102
RTVSPost2010Prop37
 90
       50
102
RTVSPost2010PropOp37
 70
     1
102
RTVSPost2010Prop38
140
0.0
102
RTVSPost2010PropOp38
 70
     1
102
RTVSPost2010Prop39
140
1.0
102
RTVSPost2010PropOp39
 70
     1
102
RTVSPost2010Prop40
 90
        0
102
RTVSPost2010PropOp40
 70
     1
102
RTVSPost2010Prop41ColorIndex
 90
       18
102
RTVSPost2010Prop41ColorRGB
 90
        0
102
RTVSPost2010PropOp41
 70
     1
102
RTVSPost2010Prop42
 90
       50
102
RTVSPost2010PropOp42
 70
     1
102
RTVSPost2010Prop43
 90
        3
102
RTVSPost2010PropOp43
 70
     1
102
RTVSPost2010Prop44ColorIndex
 90
        5
102
RTVSPost2010Prop44ColorRGB
 90
      255
102
RTVSPost2010PropOp44
 70
     1
102
RTVSPost2010Prop45
280
     0
102
RTVSPost2010PropOp45
 70
     1
102
RTVSPost2010Prop46
 90
       50
102
RTVSPost2010PropOp46
 70
     1
102
RTVSPost2010Prop47
 90
       50
102
RTVSPost2010PropOp47
 70
     1
102
RTVSPost2010Prop48
 90
       50
102
RTVSPost2010PropOp48
 70
     1
102
RTVSPost2010Prop49
280
     0
102
RTVSPost2010PropOp49
 70
     1
102
RTVSPost2010Prop50
 90
       50
102
RTVSPost2010PropOp50
 70
     1
102
RTVSPost2010Prop51ColorIndex
 90
      256
102
RTVSPost2010Prop51ColorRGB
 90
-16777216
102
RTVSPost2010PropOp51
 70
     0
102
RTVSPost2010Prop52
140
1.0
102
RTVSPost2010PropOp52
 70
     0
102
RTVSPost2010Prop53
 90
        2
102
RTVSPost2010PropOp53
 70
     1
102
RTVSPost2010Prop54
  1
strokes_ogs.tif
102
RTVSPost2010PropOp54
 70
     1
102
RTVSPost2010Prop55
280
     0
102
RTVSPost2010PropOp55
 70
     1
102
RTVSPost2010Prop56
140
1.0
102
RTVSPost2010PropOp56
 70
     1
102
RTVSPost2010Prop57
140
1.0
102
RTVSPost2010PropOp57
 70
     1
  0
XRECORD
  5
16A
102
{ACAD_REACTORS
330
169
102
}
330
169
100
AcDbXrecord
280
     1
102
RTVSPost2010Prop28
280
     0
102
RTVSPost2010PropOp28
 70
     1
102
RTVSPost2010Prop29
280
     1
102
RTVSPost2010PropOp29
 70
     1
102
RTVSPost2010Prop30
280
     1
102
RTVSPost2010PropOp30
 70
     1
102
RTVSPost2010Prop31
280
     0
102
RTVSPost2010PropOp31
 70
     1
102
RTVSPost2010Prop32
280
     0
102
RTVSPost2010PropOp32
 70
     1
102
RTVSPost2010Prop33
280
     0
102
RTVSPost2010PropOp33
 70
     1
102
RTVSPost2010Prop34
280
     0
102
RTVSPost2010PropOp34
 70
     1
102
RTVSPost2010Prop35
280
     0
102
RTVSPost2010PropOp35
 70
     1
102
RTVSPost2010Prop36
280
     0
102
RTVSPost2010PropOp36
 70
     1
102
RTVSPost2010Prop37
 90
       50
102
RTVSPost2010PropOp37
 70
     1
102
RTVSPost2010Prop38
140
0.0
102
RTVSPost2010PropOp38
 70
     1
102
RTVSPost2010Prop39
140
1.0
102
RTVSPost2010PropOp39
 70
     1
102
RTVSPost2010Prop40
 90
        0
102
RTVSPost2010PropOp40
 70
     1
102
RTVSPost2010Prop41ColorIndex
 90
       18
102
RTVSPost2010Prop41ColorRGB
 90
        0
102
RTVSPost2010PropOp41
 70
     1
102
RTVSPost2010Prop42
 90
       50
102
RTVSPost2010PropOp42
 70
     1
102
RTVSPost2010Prop43
 90
        3
102
RTVSPost2010PropOp43
 70
     1
102
RTVSPost2010Prop44ColorIndex
 90
        5
102
RTVSPost2010Prop44ColorRGB
 90
      255
102
RTVSPost2010PropOp44
 70
     1
102
RTVSPost2010Prop45
280
     0
102
RTVSPost2010PropOp45
 70
     1
102
RTVSPost2010Prop46
 90
       50
102
RTVSPost2010PropOp46
 70
     1
102
RTVSPost2010Prop47
 90
       50
102
RTVSPost2010PropOp47
 70
     1
102
RTVSPost2010Prop48
 90
       50
102
RTVSPost2010PropOp48
 70
     1
102
RTVSPost2010Prop49
280
     0
102
RTVSPost2010PropOp49
 70
     1
102
RTVSPost2010Prop50
 90
       50
102
RTVSPost2010PropOp50
 70
     1
102
RTVSPost2010Prop51ColorIndex
 90
      256
102
RTVSPost2010Prop51ColorRGB
 90
-16777216
102
RTVSPost2010PropOp51
 70
     0
102
RTVSPost2010Prop52
140
1.0
102
RTVSPost2010PropOp52
 70
     0
102
RTVSPost2010Prop53
 90
        2
102
RTVSPost2010PropOp53
 70
     1
102
RTVSPost2010Prop54
  1
strokes_ogs.tif
102
RTVSPost2010PropOp54
 70
     1
102
RTVSPost2010Prop55
280
     0
102
RTVSPost2010PropOp55
 70
     1
102
RTVSPost2010Prop56
140
1.0
102
RTVSPost2010PropOp56
 70
     1
102
RTVSPost2010Prop57
140
1.0
102
RTVSPost2010PropOp57
 70
     1
  0
XRECORD
  5
16C
102
{ACAD_REACTORS
330
16B
102
}
330
16B
100
AcDbXrecord
280
     1
102
RTVSPost2010Prop28
280
     0
102
RTVSPost2010PropOp28
 70
     1
102
RTVSPost2010Prop29
280
     1
102
RTVSPost2010PropOp29
 70
     1
102
RTVSPost2010Prop30
280
     1
102
RTVSPost2010PropOp30
 70
     1
102
RTVSPost2010Prop31
280
     0
102
RTVSPost2010PropOp31
 70
     1
102
RTVSPost2010Prop32
280
     0
102
RTVSPost2010PropOp32
 70
     1
102
RTVSPost2010Prop33
280
     0
102
RTVSPost2010PropOp33
 70
     1
102
RTVSPost2010Prop34
280
     0
102
RTVSPost2010PropOp34
 70
     1
102
RTVSPost2010Prop35
280
     0
102
RTVSPost2010PropOp35
 70
     1
102
RTVSPost2010Prop36
280
     0
102
RTVSPost2010PropOp36
 70
     1
102
RTVSPost2010Prop37
 90
       50
102
RTVSPost2010PropOp37
 70
     1
102
RTVSPost2010Prop38
140
0.0
102
RTVSPost2010PropOp38
 70
     1
102
RTVSPost2010Prop39
140
1.0
102
RTVSPost2010PropOp39
 70
     1
102
RTVSPost2010Prop40
 90
        0
102
RTVSPost2010PropOp40
 70
     1
102
RTVSPost2010Prop41ColorIndex
 90
       18
102
RTVSPost2010Prop41ColorRGB
 90
        0
102
RTVSPost2010PropOp41
 70
     1
102
RTVSPost2010Prop42
 90
       50
102
RTVSPost2010PropOp42
 70
     1
102
RTVSPost2010Prop43
 90
        3
102
RTVSPost2010PropOp43
 70
     1
102
RTVSPost2010Prop44ColorIndex
 90
        5
102
RTVSPost2010Prop44ColorRGB
 90
      255
102
RTVSPost2010PropOp44
 70
     1
102
RTVSPost2010Prop45
280
     0
102
RTVSPost2010PropOp45
 70
     1
102
RTVSPost2010Prop46
 90
       50
102
RTVSPost2010PropOp46
 70
     1
102
RTVSPost2010Prop47
 90
       50
102
RTVSPost2010PropOp47
 70
     1
102
RTVSPost2010Prop48
 90
       50
102
RTVSPost2010PropOp48
 70
     1
102
RTVSPost2010Prop49
280
     0
102
RTVSPost2010PropOp49
 70
     1
102
RTVSPost2010Prop50
 90
       50
102
RTVSPost2010PropOp50
 70
     1
102
RTVSPost2010Prop51ColorIndex
 90
      256
102
RTVSPost2010Prop51ColorRGB
 90
-16777216
102
RTVSPost2010PropOp51
 70
     0
102
RTVSPost2010Prop52
140
1.0
102
RTVSPost2010PropOp52
 70
     0
102
RTVSPost2010Prop53
 90
        2
102
RTVSPost2010PropOp53
 70
     1
102
RTVSPost2010Prop54
  1
strokes_ogs.tif
102
RTVSPost2010PropOp54
 70
     1
102
RTVSPost2010Prop55
280
     0
102
RTVSPost2010PropOp55
 70
     1
102
RTVSPost2010Prop56
140
1.0
102
RTVSPost2010PropOp56
 70
     1
102
RTVSPost2010Prop57
140
1.0
102
RTVSPost2010PropOp57
 70
     1
  0
XRECORD
  5
17C
102
{ACAD_REACTORS
330
17B
102
}
330
17B
100
AcDbXrecord
280
     1
102
RTVSPost2010Prop28
280
     0
102
RTVSPost2010PropOp28
 70
     0
102
RTVSPost2010Prop29
280
     1
102
RTVSPost2010PropOp29
 70
     0
102
RTVSPost2010Prop30
280
     1
102
RTVSPost2010PropOp30
 70
     0
102
RTVSPost2010Prop31
280
     0
102
RTVSPost2010PropOp31
 70
     0
102
RTVSPost2010Prop32
280
     0
102
RTVSPost2010PropOp32
 70
     0
102
RTVSPost2010Prop33
280
     0
102
RTVSPost2010PropOp33
 70
     0
102
RTVSPost2010Prop34
280
     0
102
RTVSPost2010PropOp34
 70
     0
102
RTVSPost2010Prop35
280
     0
102
RTVSPost2010PropOp35
 70
     0
102
RTVSPost2010Prop36
280
     0
102
RTVSPost2010PropOp36
 70
     0
102
RTVSPost2010Prop37
 90
       50
102
RTVSPost2010PropOp37
 70
     0
102
RTVSPost2010Prop38
140
0.0
102
RTVSPost2010PropOp38
 70
     0
102
RTVSPost2010Prop39
140
1.0
102
RTVSPost2010PropOp39
 70
     0
102
RTVSPost2010Prop40
 90
        0
102
RTVSPost2010PropOp40
 70
     0
102
RTVSPost2010Prop41ColorIndex
 90
       18
102
RTVSPost2010Prop41ColorRGB
 90
        0
102
RTVSPost2010PropOp41
 70
     0
102
RTVSPost2010Prop42
 90
       50
102
RTVSPost2010PropOp42
 70
     0
102
RTVSPost2010Prop43
 90
        3
102
RTVSPost2010PropOp43
 70
     0
102
RTVSPost2010Prop44ColorIndex
 90
        5
102
RTVSPost2010Prop44ColorRGB
 90
      255
102
RTVSPost2010PropOp44
 70
     0
102
RTVSPost2010Prop45
280
     0
102
RTVSPost2010PropOp45
 70
     0
102
RTVSPost2010Prop46
 90
       50
102
RTVSPost2010PropOp46
 70
     0
102
RTVSPost2010Prop47
 90
       50
102
RTVSPost2010PropOp47
 70
     0
102
RTVSPost2010Prop48
 90
       50
102
RTVSPost2010PropOp48
 70
     0
102
RTVSPost2010Prop49
280
     0
102
RTVSPost2010PropOp49
 70
     0
102
RTVSPost2010Prop50
 90
       50
102
RTVSPost2010PropOp50
 70
     0
102
RTVSPost2010Prop51ColorIndex
 90
      256
102
RTVSPost2010Prop51ColorRGB
 90
-16777216
102
RTVSPost2010PropOp51
 70
     0
102
RTVSPost2010Prop52
140
1.0
102
RTVSPost2010PropOp52
 70
     0
102
RTVSPost2010Prop53
 90
        2
102
RTVSPost2010PropOp53
 70
     0
102
RTVSPost2010Prop54
  1
strokes_ogs.tif
102
RTVSPost2010PropOp54
 70
     0
102
RTVSPost2010Prop55
280
     0
102
RTVSPost2010PropOp55
 70
     0
102
RTVSPost2010Prop56
140
1.0
102
RTVSPost2010PropOp56
 70
     0
102
RTVSPost2010Prop57
140
1.0
102
RTVSPost2010PropOp57
 70
     0
  0
XRECORD
  5
174
102
{ACAD_REACTORS
330
173
102
}
330
173
100
AcDbXrecord
280
     1
102
RTVSPost2010Prop28
280
     0
102
RTVSPost2010PropOp28
 70
     1
102
RTVSPost2010Prop29
280
     1
102
RTVSPost2010PropOp29
 70
     1
102
RTVSPost2010Prop30
280
     1
102
RTVSPost2010PropOp30
 70
     1
102
RTVSPost2010Prop31
280
     0
102
RTVSPost2010PropOp31
 70
     1
102
RTVSPost2010Prop32
280
     0
102
RTVSPost2010PropOp32
 70
     1
102
RTVSPost2010Prop33
280
     0
102
RTVSPost2010PropOp33
 70
     1
102
RTVSPost2010Prop34
280
     0
102
RTVSPost2010PropOp34
 70
     1
102
RTVSPost2010Prop35
280
     0
102
RTVSPost2010PropOp35
 70
     1
102
RTVSPost2010Prop36
280
     0
102
RTVSPost2010PropOp36
 70
     1
102
RTVSPost2010Prop37
 90
       50
102
RTVSPost2010PropOp37
 70
     1
102
RTVSPost2010Prop38
140
0.0
102
RTVSPost2010PropOp38
 70
     1
102
RTVSPost2010Prop39
140
1.0
102
RTVSPost2010PropOp39
 70
     1
102
RTVSPost2010Prop40
 90
        0
102
RTVSPost2010PropOp40
 70
     1
102
RTVSPost2010Prop41ColorIndex
 90
       18
102
RTVSPost2010Prop41ColorRGB
 90
        0
102
RTVSPost2010PropOp41
 70
     1
102
RTVSPost2010Prop42
 90
       50
102
RTVSPost2010PropOp42
 70
     1
102
RTVSPost2010Prop43
 90
        3
102
RTVSPost2010PropOp43
 70
     1
102
RTVSPost2010Prop44ColorIndex
 90
        5
102
RTVSPost2010Prop44ColorRGB
 90
      255
102
RTVSPost2010PropOp44
 70
     1
102
RTVSPost2010Prop45
280
     0
102
RTVSPost2010PropOp45
 70
     1
102
RTVSPost2010Prop46
 90
       50
102
RTVSPost2010PropOp46
 70
     1
102
RTVSPost2010Prop47
 90
       50
102
RTVSPost2010PropOp47
 70
     1
102
RTVSPost2010Prop48
 90
       50
102
RTVSPost2010PropOp48
 70
     1
102
RTVSPost2010Prop49
280
     0
102
RTVSPost2010PropOp49
 70
     1
102
RTVSPost2010Prop50
 90
       50
102
RTVSPost2010PropOp50
 70
     1
102
RTVSPost2010Prop51ColorIndex
 90
      256
102
RTVSPost2010Prop51ColorRGB
 90
-16777216
102
RTVSPost2010PropOp51
 70
     0
102
RTVSPost2010Prop52
140
1.0
102
RTVSPost2010PropOp52
 70
     0
102
RTVSPost2010Prop53
 90
        2
102
RTVSPost2010PropOp53
 70
     1
102
RTVSPost2010Prop54
  1
strokes_ogs.tif
102
RTVSPost2010PropOp54
 70
     1
102
RTVSPost2010Prop55
280
     0
102
RTVSPost2010PropOp55
 70
     1
102
RTVSPost2010Prop56
140
1.0
102
RTVSPost2010PropOp56
 70
     1
102
RTVSPost2010Prop57
140
1.0
102
RTVSPost2010PropOp57
 70
     1
  0
XRECORD
  5
158
102
{ACAD_REACTORS
330
157
102
}
330
157
100
AcDbXrecord
280
     1
102
RTVSPost2010Prop28
280
     0
102
RTVSPost2010PropOp28
 70
     1
102
RTVSPost2010Prop29
280
     1
102
RTVSPost2010PropOp29
 70
     1
102
RTVSPost2010Prop30
280
     1
102
RTVSPost2010PropOp30
 70
     1
102
RTVSPost2010Prop31
280
     0
102
RTVSPost2010PropOp31
 70
     1
102
RTVSPost2010Prop32
280
     0
102
RTVSPost2010PropOp32
 70
     1
102
RTVSPost2010Prop33
280
     0
102
RTVSPost2010PropOp33
 70
     1
102
RTVSPost2010Prop34
280
     0
102
RTVSPost2010PropOp34
 70
     1
102
RTVSPost2010Prop35
280
     0
102
RTVSPost2010PropOp35
 70
     1
102
RTVSPost2010Prop36
280
     0
102
RTVSPost2010PropOp36
 70
     1
102
RTVSPost2010Prop37
 90
       50
102
RTVSPost2010PropOp37
 70
     1
102
RTVSPost2010Prop38
140
0.0
102
RTVSPost2010PropOp38
 70
     1
102
RTVSPost2010Prop39
140
1.0
102
RTVSPost2010PropOp39
 70
     1
102
RTVSPost2010Prop40
 90
        0
102
RTVSPost2010PropOp40
 70
     1
102
RTVSPost2010Prop41ColorIndex
 90
       18
102
RTVSPost2010Prop41ColorRGB
 90
        0
102
RTVSPost2010PropOp41
 70
     1
102
RTVSPost2010Prop42
 90
       50
102
RTVSPost2010PropOp42
 70
     1
102
RTVSPost2010Prop43
 90
        3
102
RTVSPost2010PropOp43
 70
     1
102
RTVSPost2010Prop44ColorIndex
 90
        5
102
RTVSPost2010Prop44ColorRGB
 90
      255
102
RTVSPost2010PropOp44
 70
     1
102
RTVSPost2010Prop45
280
     0
102
RTVSPost2010PropOp45
 70
     1
102
RTVSPost2010Prop46
 90
       50
102
RTVSPost2010PropOp46
 70
     1
102
RTVSPost2010Prop47
 90
       50
102
RTVSPost2010PropOp47
 70
     1
102
RTVSPost2010Prop48
 90
       50
102
RTVSPost2010PropOp48
 70
     1
102
RTVSPost2010Prop49
280
     0
102
RTVSPost2010PropOp49
 70
     1
102
RTVSPost2010Prop50
 90
       50
102
RTVSPost2010PropOp50
 70
     1
102
RTVSPost2010Prop51ColorIndex
 90
      256
102
RTVSPost2010Prop51ColorRGB
 90
-16777216
102
RTVSPost2010PropOp51
 70
     0
102
RTVSPost2010Prop52
140
1.0
102
RTVSPost2010PropOp52
 70
     0
102
RTVSPost2010Prop53
 90
        2
102
RTVSPost2010PropOp53
 70
     1
102
RTVSPost2010Prop54
  1
strokes_ogs.tif
102
RTVSPost2010PropOp54
 70
     1
102
RTVSPost2010Prop55
280
     0
102
RTVSPost2010PropOp55
 70
     1
102
RTVSPost2010Prop56
140
1.0
102
RTVSPost2010PropOp56
 70
     1
102
RTVSPost2010Prop57
140
1.0
102
RTVSPost2010PropOp57
 70
     1
  0
XRECORD
  5
15A
102
{ACAD_REACTORS
330
159
102
}
330
159
100
AcDbXrecord
280
     1
102
RTVSPost2010Prop28
280
     0
102
RTVSPost2010PropOp28
 70
     1
102
RTVSPost2010Prop29
280
     1
102
RTVSPost2010PropOp29
 70
     1
102
RTVSPost2010Prop30
280
     1
102
RTVSPost2010PropOp30
 70
     1
102
RTVSPost2010Prop31
280
     0
102
RTVSPost2010PropOp31
 70
     1
102
RTVSPost2010Prop32
280
     0
102
RTVSPost2010PropOp32
 70
     1
102
RTVSPost2010Prop33
280
     0
102
RTVSPost2010PropOp33
 70
     1
102
RTVSPost2010Prop34
280
     0
102
RTVSPost2010PropOp34
 70
     1
102
RTVSPost2010Prop35
280
     0
102
RTVSPost2010PropOp35
 70
     1
102
RTVSPost2010Prop36
280
     0
102
RTVSPost2010PropOp36
 70
     1
102
RTVSPost2010Prop37
 90
       50
102
RTVSPost2010PropOp37
 70
     1
102
RTVSPost2010Prop38
140
0.0
102
RTVSPost2010PropOp38
 70
     1
102
RTVSPost2010Prop39
140
1.0
102
RTVSPost2010PropOp39
 70
     1
102
RTVSPost2010Prop40
 90
        0
102
RTVSPost2010PropOp40
 70
     1
102
RTVSPost2010Prop41ColorIndex
 90
       18
102
RTVSPost2010Prop41ColorRGB
 90
        0
102
RTVSPost2010PropOp41
 70
     1
102
RTVSPost2010Prop42
 90
       50
102
RTVSPost2010PropOp42
 70
     1
102
RTVSPost2010Prop43
 90
        3
102
RTVSPost2010PropOp43
 70
     1
102
RTVSPost2010Prop44ColorIndex
 90
        5
102
RTVSPost2010Prop44ColorRGB
 90
      255
102
RTVSPost2010PropOp44
 70
     1
102
RTVSPost2010Prop45
280
     0
102
RTVSPost2010PropOp45
 70
     1
102
RTVSPost2010Prop46
 90
       50
102
RTVSPost2010PropOp46
 70
     1
102
RTVSPost2010Prop47
 90
       50
102
RTVSPost2010PropOp47
 70
     1
102
RTVSPost2010Prop48
 90
       50
102
RTVSPost2010PropOp48
 70
     1
102
RTVSPost2010Prop49
280
     0
102
RTVSPost2010PropOp49
 70
     1
102
RTVSPost2010Prop50
 90
       50
102
RTVSPost2010PropOp50
 70
     1
102
RTVSPost2010Prop51ColorIndex
 90
      256
102
RTVSPost2010Prop51ColorRGB
 90
-16777216
102
RTVSPost2010PropOp51
 70
     0
102
RTVSPost2010Prop52
140
1.0
102
RTVSPost2010PropOp52
 70
     0
102
RTVSPost2010Prop53
 90
        2
102
RTVSPost2010PropOp53
 70
     1
102
RTVSPost2010Prop54
  1
strokes_ogs.tif
102
RTVSPost2010PropOp54
 70
     1
102
RTVSPost2010Prop55
280
     0
102
RTVSPost2010PropOp55
 70
     1
102
RTVSPost2010Prop56
140
1.0
102
RTVSPost2010PropOp56
 70
     1
102
RTVSPost2010Prop57
140
1.0
102
RTVSPost2010PropOp57
 70
     1
  0
XRECORD
  5
15C
102
{ACAD_REACTORS
330
15B
102
}
330
15B
100
AcDbXrecord
280
     1
102
RTVSPost2010Prop28
280
     0
102
RTVSPost2010PropOp28
 70
     1
102
RTVSPost2010Prop29
280
     1
102
RTVSPost2010PropOp29
 70
     1
102
RTVSPost2010Prop30
280
     1
102
RTVSPost2010PropOp30
 70
     1
102
RTVSPost2010Prop31
280
     0
102
RTVSPost2010PropOp31
 70
     1
102
RTVSPost2010Prop32
280
     0
102
RTVSPost2010PropOp32
 70
     1
102
RTVSPost2010Prop33
280
     0
102
RTVSPost2010PropOp33
 70
     1
102
RTVSPost2010Prop34
280
     0
102
RTVSPost2010PropOp34
 70
     1
102
RTVSPost2010Prop35
280
     0
102
RTVSPost2010PropOp35
 70
     1
102
RTVSPost2010Prop36
280
     0
102
RTVSPost2010PropOp36
 70
     1
102
RTVSPost2010Prop37
 90
       50
102
RTVSPost2010PropOp37
 70
     1
102
RTVSPost2010Prop38
140
0.0
102
RTVSPost2010PropOp38
 70
     1
102
RTVSPost2010Prop39
140
1.0
102
RTVSPost2010PropOp39
 70
     1
102
RTVSPost2010Prop40
 90
        0
102
RTVSPost2010PropOp40
 70
     1
102
RTVSPost2010Prop41ColorIndex
 90
       18
102
RTVSPost2010Prop41ColorRGB
 90
        0
102
RTVSPost2010PropOp41
 70
     1
102
RTVSPost2010Prop42
 90
       50
102
RTVSPost2010PropOp42
 70
     1
102
RTVSPost2010Prop43
 90
        3
102
RTVSPost2010PropOp43
 70
     1
102
RTVSPost2010Prop44ColorIndex
 90
        5
102
RTVSPost2010Prop44ColorRGB
 90
      255
102
RTVSPost2010PropOp44
 70
     1
102
RTVSPost2010Prop45
280
     0
102
RTVSPost2010PropOp45
 70
     1
102
RTVSPost2010Prop46
 90
       50
102
RTVSPost2010PropOp46
 70
     1
102
RTVSPost2010Prop47
 90
       50
102
RTVSPost2010PropOp47
 70
     1
102
RTVSPost2010Prop48
 90
       50
102
RTVSPost2010PropOp48
 70
     1
102
RTVSPost2010Prop49
280
     0
102
RTVSPost2010PropOp49
 70
     1
102
RTVSPost2010Prop50
 90
       50
102
RTVSPost2010PropOp50
 70
     1
102
RTVSPost2010Prop51ColorIndex
 90
      256
102
RTVSPost2010Prop51ColorRGB
 90
-16777216
102
RTVSPost2010PropOp51
 70
     0
102
RTVSPost2010Prop52
140
1.0
102
RTVSPost2010PropOp52
 70
     0
102
RTVSPost2010Prop53
 90
        2
102
RTVSPost2010PropOp53
 70
     1
102
RTVSPost2010Prop54
  1
strokes_ogs.tif
102
RTVSPost2010PropOp54
 70
     1
102
RTVSPost2010Prop55
280
     0
102
RTVSPost2010PropOp55
 70
     1
102
RTVSPost2010Prop56
140
1.0
102
RTVSPost2010PropOp56
 70
     1
102
RTVSPost2010Prop57
140
1.0
102
RTVSPost2010PropOp57
 70
     1
  0
XRECORD
  5
15E
102
{ACAD_REACTORS
330
15D
102
}
330
15D
100
AcDbXrecord
280
     1
102
RTVSPost2010Prop28
280
     0
102
RTVSPost2010PropOp28
 70
     1
102
RTVSPost2010Prop29
280
     1
102
RTVSPost2010PropOp29
 70
     1
102
RTVSPost2010Prop30
280
     1
102
RTVSPost2010PropOp30
 70
     1
102
RTVSPost2010Prop31
280
     0
102
RTVSPost2010PropOp31
 70
     1
102
RTVSPost2010Prop32
280
     0
102
RTVSPost2010PropOp32
 70
     1
102
RTVSPost2010Prop33
280
     0
102
RTVSPost2010PropOp33
 70
     1
102
RTVSPost2010Prop34
280
     0
102
RTVSPost2010PropOp34
 70
     1
102
RTVSPost2010Prop35
280
     0
102
RTVSPost2010PropOp35
 70
     1
102
RTVSPost2010Prop36
280
     0
102
RTVSPost2010PropOp36
 70
     1
102
RTVSPost2010Prop37
 90
       50
102
RTVSPost2010PropOp37
 70
     1
102
RTVSPost2010Prop38
140
0.0
102
RTVSPost2010PropOp38
 70
     1
102
RTVSPost2010Prop39
140
1.0
102
RTVSPost2010PropOp39
 70
     1
102
RTVSPost2010Prop40
 90
        0
102
RTVSPost2010PropOp40
 70
     1
102
RTVSPost2010Prop41ColorIndex
 90
       18
102
RTVSPost2010Prop41ColorRGB
 90
        0
102
RTVSPost2010PropOp41
 70
     1
102
RTVSPost2010Prop42
 90
       50
102
RTVSPost2010PropOp42
 70
     1
102
RTVSPost2010Prop43
 90
        3
102
RTVSPost2010PropOp43
 70
     1
102
RTVSPost2010Prop44ColorIndex
 90
        5
102
RTVSPost2010Prop44ColorRGB
 90
      255
102
RTVSPost2010PropOp44
 70
     1
102
RTVSPost2010Prop45
280
     0
102
RTVSPost2010PropOp45
 70
     1
102
RTVSPost2010Prop46
 90
       50
102
RTVSPost2010PropOp46
 70
     1
102
RTVSPost2010Prop47
 90
       50
102
RTVSPost2010PropOp47
 70
     1
102
RTVSPost2010Prop48
 90
       50
102
RTVSPost2010PropOp48
 70
     1
102
RTVSPost2010Prop49
280
     0
102
RTVSPost2010PropOp49
 70
     1
102
RTVSPost2010Prop50
 90
       50
102
RTVSPost2010PropOp50
 70
     1
102
RTVSPost2010Prop51ColorIndex
 90
      256
102
RTVSPost2010Prop51ColorRGB
 90
-16777216
102
RTVSPost2010PropOp51
 70
     0
102
RTVSPost2010Prop52
140
1.0
102
RTVSPost2010PropOp52
 70
     0
102
RTVSPost2010Prop53
 90
        2
102
RTVSPost2010PropOp53
 70
     1
102
RTVSPost2010Prop54
  1
strokes_ogs.tif
102
RTVSPost2010PropOp54
 70
     1
102
RTVSPost2010Prop55
280
     0
102
RTVSPost2010PropOp55
 70
     1
102
RTVSPost2010Prop56
140
1.0
102
RTVSPost2010PropOp56
 70
     1
102
RTVSPost2010Prop57
140
1.0
102
RTVSPost2010PropOp57
 70
     1
  0
XRECORD
  5
164
102
{ACAD_REACTORS
330
163
102
}
330
163
100
AcDbXrecord
280
     1
102
RTVSPost2010Prop28
280
     0
102
RTVSPost2010PropOp28
 70
     1
102
RTVSPost2010Prop29
280
     1
102
RTVSPost2010PropOp29
 70
     1
102
RTVSPost2010Prop30
280
     1
102
RTVSPost2010PropOp30
 70
     1
102
RTVSPost2010Prop31
280
     0
102
RTVSPost2010PropOp31
 70
     1
102
RTVSPost2010Prop32
280
     0
102
RTVSPost2010PropOp32
 70
     1
102
RTVSPost2010Prop33
280
     0
102
RTVSPost2010PropOp33
 70
     1
102
RTVSPost2010Prop34
280
     0
102
RTVSPost2010PropOp34
 70
     1
102
RTVSPost2010Prop35
280
     0
102
RTVSPost2010PropOp35
 70
     1
102
RTVSPost2010Prop36
280
     0
102
RTVSPost2010PropOp36
 70
     1
102
RTVSPost2010Prop37
 90
       50
102
RTVSPost2010PropOp37
 70
     1
102
RTVSPost2010Prop38
140
0.0
102
RTVSPost2010PropOp38
 70
     1
102
RTVSPost2010Prop39
140
1.0
102
RTVSPost2010PropOp39
 70
     1
102
RTVSPost2010Prop40
 90
        0
102
RTVSPost2010PropOp40
 70
     1
102
RTVSPost2010Prop41ColorIndex
 90
       18
102
RTVSPost2010Prop41ColorRGB
 90
        0
102
RTVSPost2010PropOp41
 70
     1
102
RTVSPost2010Prop42
 90
       50
102
RTVSPost2010PropOp42
 70
     1
102
RTVSPost2010Prop43
 90
        3
102
RTVSPost2010PropOp43
 70
     1
102
RTVSPost2010Prop44ColorIndex
 90
        5
102
RTVSPost2010Prop44ColorRGB
 90
      255
102
RTVSPost2010PropOp44
 70
     1
102
RTVSPost2010Prop45
280
     0
102
RTVSPost2010PropOp45
 70
     1
102
RTVSPost2010Prop46
 90
       50
102
RTVSPost2010PropOp46
 70
     1
102
RTVSPost2010Prop47
 90
       50
102
RTVSPost2010PropOp47
 70
     1
102
RTVSPost2010Prop48
 90
       50
102
RTVSPost2010PropOp48
 70
     1
102
RTVSPost2010Prop49
280
     0
102
RTVSPost2010PropOp49
 70
     1
102
RTVSPost2010Prop50
 90
       50
102
RTVSPost2010PropOp50
 70
     1
102
RTVSPost2010Prop51ColorIndex
 90
      256
102
RTVSPost2010Prop51ColorRGB
 90
-16777216
102
RTVSPost2010PropOp51
 70
     0
102
RTVSPost2010Prop52
140
1.0
102
RTVSPost2010PropOp52
 70
     0
102
RTVSPost2010Prop53
 90
        2
102
RTVSPost2010PropOp53
 70
     1
102
RTVSPost2010Prop54
  1
strokes_ogs.tif
102
RTVSPost2010PropOp54
 70
     1
102
RTVSPost2010Prop55
280
     0
102
RTVSPost2010PropOp55
 70
     1
102
RTVSPost2010Prop56
140
1.0
102
RTVSPost2010PropOp56
 70
     1
102
RTVSPost2010Prop57
140
1.0
102
RTVSPost2010PropOp57
 70
     1
  0
XRECORD
  5
178
102
{ACAD_REACTORS
330
177
102
}
330
177
100
AcDbXrecord
280
     1
102
RTVSPost2010Prop28
280
     0
102
RTVSPost2010PropOp28
 70
     0
102
RTVSPost2010Prop29
280
     1
102
RTVSPost2010PropOp29
 70
     0
102
RTVSPost2010Prop30
280
     1
102
RTVSPost2010PropOp30
 70
     0
102
RTVSPost2010Prop31
280
     0
102
RTVSPost2010PropOp31
 70
     0
102
RTVSPost2010Prop32
280
     0
102
RTVSPost2010PropOp32
 70
     0
102
RTVSPost2010Prop33
280
     0
102
RTVSPost2010PropOp33
 70
     0
102
RTVSPost2010Prop34
280
     0
102
RTVSPost2010PropOp34
 70
     0
102
RTVSPost2010Prop35
280
     0
102
RTVSPost2010PropOp35
 70
     0
102
RTVSPost2010Prop36
280
     0
102
RTVSPost2010PropOp36
 70
     0
102
RTVSPost2010Prop37
 90
       50
102
RTVSPost2010PropOp37
 70
     0
102
RTVSPost2010Prop38
140
0.0
102
RTVSPost2010PropOp38
 70
     0
102
RTVSPost2010Prop39
140
1.0
102
RTVSPost2010PropOp39
 70
     0
102
RTVSPost2010Prop40
 90
        0
102
RTVSPost2010PropOp40
 70
     0
102
RTVSPost2010Prop41ColorIndex
 90
       18
102
RTVSPost2010Prop41ColorRGB
 90
        0
102
RTVSPost2010PropOp41
 70
     0
102
RTVSPost2010Prop42
 90
       50
102
RTVSPost2010PropOp42
 70
     0
102
RTVSPost2010Prop43
 90
        3
102
RTVSPost2010PropOp43
 70
     0
102
RTVSPost2010Prop44ColorIndex
 90
        5
102
RTVSPost2010Prop44ColorRGB
 90
      255
102
RTVSPost2010PropOp44
 70
     0
102
RTVSPost2010Prop45
280
     0
102
RTVSPost2010PropOp45
 70
     0
102
RTVSPost2010Prop46
 90
       50
102
RTVSPost2010PropOp46
 70
     0
102
RTVSPost2010Prop47
 90
       50
102
RTVSPost2010PropOp47
 70
     0
102
RTVSPost2010Prop48
 90
       50
102
RTVSPost2010PropOp48
 70
     0
102
RTVSPost2010Prop49
280
     0
102
RTVSPost2010PropOp49
 70
     0
102
RTVSPost2010Prop50
 90
       50
102
RTVSPost2010PropOp50
 70
     0
102
RTVSPost2010Prop51ColorIndex
 90
      256
102
RTVSPost2010Prop51ColorRGB
 90
-16777216
102
RTVSPost2010PropOp51
 70
     0
102
RTVSPost2010Prop52
140
1.0
102
RTVSPost2010PropOp52
 70
     0
102
RTVSPost2010Prop53
 90
        2
102
RTVSPost2010PropOp53
 70
     0
102
RTVSPost2010Prop54
  1
strokes_ogs.tif
102
RTVSPost2010PropOp54
 70
     0
102
RTVSPost2010Prop55
280
     0
102
RTVSPost2010PropOp55
 70
     0
102
RTVSPost2010Prop56
140
1.0
102
RTVSPost2010PropOp56
 70
     0
102
RTVSPost2010Prop57
140
1.0
102
RTVSPost2010PropOp57
 70
     0
  0
XRECORD
  5
172
102
{ACAD_REACTORS
330
171
102
}
330
171
100
AcDbXrecord
280
     1
102
RTVSPost2010Prop28
280
     0
102
RTVSPost2010PropOp28
 70
     1
102
RTVSPost2010Prop29
280
     1
102
RTVSPost2010PropOp29
 70
     1
102
RTVSPost2010Prop30
280
     1
102
RTVSPost2010PropOp30
 70
     1
102
RTVSPost2010Prop31
280
     0
102
RTVSPost2010PropOp31
 70
     1
102
RTVSPost2010Prop32
280
     0
102
RTVSPost2010PropOp32
 70
     1
102
RTVSPost2010Prop33
280
     0
102
RTVSPost2010PropOp33
 70
     1
102
RTVSPost2010Prop34
280
     0
102
RTVSPost2010PropOp34
 70
     1
102
RTVSPost2010Prop35
280
     0
102
RTVSPost2010PropOp35
 70
     1
102
RTVSPost2010Prop36
280
     0
102
RTVSPost2010PropOp36
 70
     1
102
RTVSPost2010Prop37
 90
       50
102
RTVSPost2010PropOp37
 70
     1
102
RTVSPost2010Prop38
140
0.0
102
RTVSPost2010PropOp38
 70
     1
102
RTVSPost2010Prop39
140
1.0
102
RTVSPost2010PropOp39
 70
     1
102
RTVSPost2010Prop40
 90
        0
102
RTVSPost2010PropOp40
 70
     1
102
RTVSPost2010Prop41ColorIndex
 90
       18
102
RTVSPost2010Prop41ColorRGB
 90
        0
102
RTVSPost2010PropOp41
 70
     1
102
RTVSPost2010Prop42
 90
       50
102
RTVSPost2010PropOp42
 70
     1
102
RTVSPost2010Prop43
 90
        3
102
RTVSPost2010PropOp43
 70
     1
102
RTVSPost2010Prop44ColorIndex
 90
        5
102
RTVSPost2010Prop44ColorRGB
 90
      255
102
RTVSPost2010PropOp44
 70
     1
102
RTVSPost2010Prop45
280
     0
102
RTVSPost2010PropOp45
 70
     1
102
RTVSPost2010Prop46
 90
       50
102
RTVSPost2010PropOp46
 70
     1
102
RTVSPost2010Prop47
 90
       50
102
RTVSPost2010PropOp47
 70
     1
102
RTVSPost2010Prop48
 90
       50
102
RTVSPost2010PropOp48
 70
     1
102
RTVSPost2010Prop49
280
     0
102
RTVSPost2010PropOp49
 70
     1
102
RTVSPost2010Prop50
 90
       50
102
RTVSPost2010PropOp50
 70
     1
102
RTVSPost2010Prop51ColorIndex
 90
      256
102
RTVSPost2010Prop51ColorRGB
 90
-16777216
102
RTVSPost2010PropOp51
 70
     0
102
RTVSPost2010Prop52
140
1.0
102
RTVSPost2010PropOp52
 70
     0
102
RTVSPost2010Prop53
 90
        2
102
RTVSPost2010PropOp53
 70
     1
102
RTVSPost2010Prop54
  1
strokes_ogs.tif
102
RTVSPost2010PropOp54
 70
     1
102
RTVSPost2010Prop55
280
     0
102
RTVSPost2010PropOp55
 70
     1
102
RTVSPost2010Prop56
140
1.0
102
RTVSPost2010PropOp56
 70
     1
102
RTVSPost2010Prop57
140
1.0
102
RTVSPost2010PropOp57
 70
     1
  0
XRECORD
  5
17A
102
{ACAD_REACTORS
330
179
102
}
330
179
100
AcDbXrecord
280
     1
102
RTVSPost2010Prop28
280
     0
102
RTVSPost2010PropOp28
 70
     0
102
RTVSPost2010Prop29
280
     1
102
RTVSPost2010PropOp29
 70
     0
102
RTVSPost2010Prop30
280
     1
102
RTVSPost2010PropOp30
 70
     0
102
RTVSPost2010Prop31
280
     0
102
RTVSPost2010PropOp31
 70
     0
102
RTVSPost2010Prop32
280
     0
102
RTVSPost2010PropOp32
 70
     0
102
RTVSPost2010Prop33
280
     0
102
RTVSPost2010PropOp33
 70
     0
102
RTVSPost2010Prop34
280
     0
102
RTVSPost2010PropOp34
 70
     0
102
RTVSPost2010Prop35
280
     0
102
RTVSPost2010PropOp35
 70
     0
102
RTVSPost2010Prop36
280
     0
102
RTVSPost2010PropOp36
 70
     0
102
RTVSPost2010Prop37
 90
       50
102
RTVSPost2010PropOp37
 70
     0
102
RTVSPost2010Prop38
140
0.0
102
RTVSPost2010PropOp38
 70
     0
102
RTVSPost2010Prop39
140
1.0
102
RTVSPost2010PropOp39
 70
     0
102
RTVSPost2010Prop40
 90
        0
102
RTVSPost2010PropOp40
 70
     0
102
RTVSPost2010Prop41ColorIndex
 90
       18
102
RTVSPost2010Prop41ColorRGB
 90
        0
102
RTVSPost2010PropOp41
 70
     0
102
RTVSPost2010Prop42
 90
       50
102
RTVSPost2010PropOp42
 70
     0
102
RTVSPost2010Prop43
 90
        3
102
RTVSPost2010PropOp43
 70
     0
102
RTVSPost2010Prop44ColorIndex
 90
        5
102
RTVSPost2010Prop44ColorRGB
 90
      255
102
RTVSPost2010PropOp44
 70
     0
102
RTVSPost2010Prop45
280
     0
102
RTVSPost2010PropOp45
 70
     0
102
RTVSPost2010Prop46
 90
       50
102
RTVSPost2010PropOp46
 70
     0
102
RTVSPost2010Prop47
 90
       50
102
RTVSPost2010PropOp47
 70
     0
102
RTVSPost2010Prop48
 90
       50
102
RTVSPost2010PropOp48
 70
     0
102
RTVSPost2010Prop49
280
     0
102
RTVSPost2010PropOp49
 70
     0
102
RTVSPost2010Prop50
 90
       50
102
RTVSPost2010PropOp50
 70
     0
102
RTVSPost2010Prop51ColorIndex
 90
      256
102
RTVSPost2010Prop51ColorRGB
 90
-16777216
102
RTVSPost2010PropOp51
 70
     0
102
RTVSPost2010Prop52
140
1.0
102
RTVSPost2010PropOp52
 70
     0
102
RTVSPost2010Prop53
 90
        2
102
RTVSPost2010PropOp53
 70
     0
102
RTVSPost2010Prop54
  1
strokes_ogs.tif
102
RTVSPost2010PropOp54
 70
     0
102
RTVSPost2010Prop55
280
     0
102
RTVSPost2010PropOp55
 70
     0
102
RTVSPost2010Prop56
140
1.0
102
RTVSPost2010PropOp56
 70
     0
102
RTVSPost2010Prop57
140
1.0
102
RTVSPost2010PropOp57
 70
     0
  0
XRECORD
  5
168
102
{ACAD_REACTORS
330
167
102
}
330
167
100
AcDbXrecord
280
     1
102
RTVSPost2010Prop28
280
     0
102
RTVSPost2010PropOp28
 70
     1
102
RTVSPost2010Prop29
280
     1
102
RTVSPost2010PropOp29
 70
     1
102
RTVSPost2010Prop30
280
     1
102
RTVSPost2010PropOp30
 70
     1
102
RTVSPost2010Prop31
280
     0
102
RTVSPost2010PropOp31
 70
     1
102
RTVSPost2010Prop32
280
     0
102
RTVSPost2010PropOp32
 70
     1
102
RTVSPost2010Prop33
280
     0
102
RTVSPost2010PropOp33
 70
     1
102
RTVSPost2010Prop34
280
     0
102
RTVSPost2010PropOp34
 70
     1
102
RTVSPost2010Prop35
280
     0
102
RTVSPost2010PropOp35
 70
     1
102
RTVSPost2010Prop36
280
     0
102
RTVSPost2010PropOp36
 70
     1
102
RTVSPost2010Prop37
 90
       50
102
RTVSPost2010PropOp37
 70
     1
102
RTVSPost2010Prop38
140
0.0
102
RTVSPost2010PropOp38
 70
     1
102
RTVSPost2010Prop39
140
1.0
102
RTVSPost2010PropOp39
 70
     1
102
RTVSPost2010Prop40
 90
        0
102
RTVSPost2010PropOp40
 70
     1
102
RTVSPost2010Prop41ColorIndex
 90
       18
102
RTVSPost2010Prop41ColorRGB
 90
        0
102
RTVSPost2010PropOp41
 70
     1
102
RTVSPost2010Prop42
 90
       50
102
RTVSPost2010PropOp42
 70
     1
102
RTVSPost2010Prop43
 90
        3
102
RTVSPost2010PropOp43
 70
     1
102
RTVSPost2010Prop44ColorIndex
 90
        5
102
RTVSPost2010Prop44ColorRGB
 90
      255
102
RTVSPost2010PropOp44
 70
     1
102
RTVSPost2010Prop45
280
     0
102
RTVSPost2010PropOp45
 70
     1
102
RTVSPost2010Prop46
 90
       50
102
RTVSPost2010PropOp46
 70
     1
102
RTVSPost2010Prop47
 90
       50
102
RTVSPost2010PropOp47
 70
     1
102
RTVSPost2010Prop48
 90
       50
102
RTVSPost2010PropOp48
 70
     1
102
RTVSPost2010Prop49
280
     0
102
RTVSPost2010PropOp49
 70
     1
102
RTVSPost2010Prop50
 90
       50
102
RTVSPost2010PropOp50
 70
     1
102
RTVSPost2010Prop51ColorIndex
 90
      256
102
RTVSPost2010Prop51ColorRGB
 90
-16777216
102
RTVSPost2010PropOp51
 70
     0
102
RTVSPost2010Prop52
140
1.0
102
RTVSPost2010PropOp52
 70
     0
102
RTVSPost2010Prop53
 90
        2
102
RTVSPost2010PropOp53
 70
     1
102
RTVSPost2010Prop54
  1
strokes_ogs.tif
102
RTVSPost2010PropOp54
 70
     1
102
RTVSPost2010Prop55
280
     0
102
RTVSPost2010PropOp55
 70
     1
102
RTVSPost2010Prop56
140
1.0
102
RTVSPost2010PropOp56
 70
     1
102
RTVSPost2010Prop57
140
1.0
102
RTVSPost2010PropOp57
 70
     1
  0
XRECORD
  5
186
102
{ACAD_REACTORS
330
185
102
}
330
185
100
AcDbXrecord
280
     1
102
RTVSPost2010Prop28
280
     0
102
RTVSPost2010PropOp28
 70
     1
102
RTVSPost2010Prop29
280
     1
102
RTVSPost2010PropOp29
 70
     1
102
RTVSPost2010Prop30
280
     1
102
RTVSPost2010PropOp30
 70
     1
102
RTVSPost2010Prop31
280
     0
102
RTVSPost2010PropOp31
 70
     1
102
RTVSPost2010Prop32
280
     0
102
RTVSPost2010PropOp32
 70
     1
102
RTVSPost2010Prop33
280
     0
102
RTVSPost2010PropOp33
 70
     1
102
RTVSPost2010Prop34
280
     0
102
RTVSPost2010PropOp34
 70
     1
102
RTVSPost2010Prop35
280
     0
102
RTVSPost2010PropOp35
 70
     1
102
RTVSPost2010Prop36
280
     0
102
RTVSPost2010PropOp36
 70
     1
102
RTVSPost2010Prop37
 90
       50
102
RTVSPost2010PropOp37
 70
     1
102
RTVSPost2010Prop38
140
0.0
102
RTVSPost2010PropOp38
 70
     1
102
RTVSPost2010Prop39
140
1.0
102
RTVSPost2010PropOp39
 70
     1
102
RTVSPost2010Prop40
 90
        0
102
RTVSPost2010PropOp40
 70
     1
102
RTVSPost2010Prop41ColorIndex
 90
       18
102
RTVSPost2010Prop41ColorRGB
 90
        0
102
RTVSPost2010PropOp41
 70
     1
102
RTVSPost2010Prop42
 90
       50
102
RTVSPost2010PropOp42
 70
     1
102
RTVSPost2010Prop43
 90
        3
102
RTVSPost2010PropOp43
 70
     1
102
RTVSPost2010Prop44ColorIndex
 90
        5
102
RTVSPost2010Prop44ColorRGB
 90
      255
102
RTVSPost2010PropOp44
 70
     1
102
RTVSPost2010Prop45
280
     0
102
RTVSPost2010PropOp45
 70
     1
102
RTVSPost2010Prop46
 90
       50
102
RTVSPost2010PropOp46
 70
     1
102
RTVSPost2010Prop47
 90
       50
102
RTVSPost2010PropOp47
 70
     1
102
RTVSPost2010Prop48
 90
       50
102
RTVSPost2010PropOp48
 70
     1
102
RTVSPost2010Prop49
280
     0
102
RTVSPost2010PropOp49
 70
     1
102
RTVSPost2010Prop50
 90
       50
102
RTVSPost2010PropOp50
 70
     1
102
RTVSPost2010Prop51ColorIndex
 90
      256
102
RTVSPost2010Prop51ColorRGB
 90
-16777216
102
RTVSPost2010PropOp51
 70
     0
102
RTVSPost2010Prop52
140
1.0
102
RTVSPost2010PropOp52
 70
     0
102
RTVSPost2010Prop53
 90
        2
102
RTVSPost2010PropOp53
 70
     1
102
RTVSPost2010Prop54
  1
strokes_ogs.tif
102
RTVSPost2010PropOp54
 70
     1
102
RTVSPost2010Prop55
280
     0
102
RTVSPost2010PropOp55
 70
     1
102
RTVSPost2010Prop56
140
1.0
102
RTVSPost2010PropOp56
 70
     1
102
RTVSPost2010Prop57
140
1.0
102
RTVSPost2010PropOp57
 70
     1
  0
XRECORD
  5
184
102
{ACAD_REACTORS
330
183
102
}
330
183
100
AcDbXrecord
280
     1
102
RTVSPost2010Prop28
280
     0
102
RTVSPost2010PropOp28
 70
     1
102
RTVSPost2010Prop29
280
     1
102
RTVSPost2010PropOp29
 70
     1
102
RTVSPost2010Prop30
280
     1
102
RTVSPost2010PropOp30
 70
     1
102
RTVSPost2010Prop31
280
     0
102
RTVSPost2010PropOp31
 70
     1
102
RTVSPost2010Prop32
280
     0
102
RTVSPost2010PropOp32
 70
     1
102
RTVSPost2010Prop33
280
     0
102
RTVSPost2010PropOp33
 70
     1
102
RTVSPost2010Prop34
280
     0
102
RTVSPost2010PropOp34
 70
     1
102
RTVSPost2010Prop35
280
     0
102
RTVSPost2010PropOp35
 70
     1
102
RTVSPost2010Prop36
280
     0
102
RTVSPost2010PropOp36
 70
     1
102
RTVSPost2010Prop37
 90
       50
102
RTVSPost2010PropOp37
 70
     1
102
RTVSPost2010Prop38
140
0.0
102
RTVSPost2010PropOp38
 70
     1
102
RTVSPost2010Prop39
140
1.0
102
RTVSPost2010PropOp39
 70
     1
102
RTVSPost2010Prop40
 90
        0
102
RTVSPost2010PropOp40
 70
     1
102
RTVSPost2010Prop41ColorIndex
 90
       18
102
RTVSPost2010Prop41ColorRGB
 90
        0
102
RTVSPost2010PropOp41
 70
     1
102
RTVSPost2010Prop42
 90
       50
102
RTVSPost2010PropOp42
 70
     1
102
RTVSPost2010Prop43
 90
        3
102
RTVSPost2010PropOp43
 70
     1
102
RTVSPost2010Prop44ColorIndex
 90
        5
102
RTVSPost2010Prop44ColorRGB
 90
      255
102
RTVSPost2010PropOp44
 70
     1
102
RTVSPost2010Prop45
280
     0
102
RTVSPost2010PropOp45
 70
     1
102
RTVSPost2010Prop46
 90
       50
102
RTVSPost2010PropOp46
 70
     1
102
RTVSPost2010Prop47
 90
       50
102
RTVSPost2010PropOp47
 70
     1
102
RTVSPost2010Prop48
 90
       50
102
RTVSPost2010PropOp48
 70
     1
102
RTVSPost2010Prop49
280
     0
102
RTVSPost2010PropOp49
 70
     1
102
RTVSPost2010Prop50
 90
       50
102
RTVSPost2010PropOp50
 70
     1
102
RTVSPost2010Prop51ColorIndex
 90
      256
102
RTVSPost2010Prop51ColorRGB
 90
-16777216
102
RTVSPost2010PropOp51
 70
     0
102
RTVSPost2010Prop52
140
1.0
102
RTVSPost2010PropOp52
 70
     0
102
RTVSPost2010Prop53
 90
        2
102
RTVSPost2010PropOp53
 70
     1
102
RTVSPost2010Prop54
  1
strokes_ogs.tif
102
RTVSPost2010PropOp54
 70
     1
102
RTVSPost2010Prop55
280
     0
102
RTVSPost2010PropOp55
 70
     1
102
RTVSPost2010Prop56
140
1.0
102
RTVSPost2010PropOp56
 70
     1
102
RTVSPost2010Prop57
140
1.0
102
RTVSPost2010PropOp57
 70
     1
  0
XRECORD
  5
17E
102
{ACAD_REACTORS
330
17D
102
}
330
17D
100
AcDbXrecord
280
     1
102
RTVSPost2010Prop28
280
     0
102
RTVSPost2010PropOp28
 70
     1
102
RTVSPost2010Prop29
280
     1
102
RTVSPost2010PropOp29
 70
     1
102
RTVSPost2010Prop30
280
     1
102
RTVSPost2010PropOp30
 70
     1
102
RTVSPost2010Prop31
280
     0
102
RTVSPost2010PropOp31
 70
     1
102
RTVSPost2010Prop32
280
     0
102
RTVSPost2010PropOp32
 70
     1
102
RTVSPost2010Prop33
280
     0
102
RTVSPost2010PropOp33
 70
     1
102
RTVSPost2010Prop34
280
     0
102
RTVSPost2010PropOp34
 70
     1
102
RTVSPost2010Prop35
280
     0
102
RTVSPost2010PropOp35
 70
     1
102
RTVSPost2010Prop36
280
     0
102
RTVSPost2010PropOp36
 70
     1
102
RTVSPost2010Prop37
 90
       50
102
RTVSPost2010PropOp37
 70
     1
102
RTVSPost2010Prop38
140
0.0
102
RTVSPost2010PropOp38
 70
     1
102
RTVSPost2010Prop39
140
1.0
102
RTVSPost2010PropOp39
 70
     1
102
RTVSPost2010Prop40
 90
        0
102
RTVSPost2010PropOp40
 70
     1
102
RTVSPost2010Prop41ColorIndex
 90
       18
102
RTVSPost2010Prop41ColorRGB
 90
        0
102
RTVSPost2010PropOp41
 70
     1
102
RTVSPost2010Prop42
 90
       50
102
RTVSPost2010PropOp42
 70
     1
102
RTVSPost2010Prop43
 90
        3
102
RTVSPost2010PropOp43
 70
     1
102
RTVSPost2010Prop44ColorIndex
 90
        5
102
RTVSPost2010Prop44ColorRGB
 90
      255
102
RTVSPost2010PropOp44
 70
     1
102
RTVSPost2010Prop45
280
     0
102
RTVSPost2010PropOp45
 70
     1
102
RTVSPost2010Prop46
 90
       50
102
RTVSPost2010PropOp46
 70
     1
102
RTVSPost2010Prop47
 90
       50
102
RTVSPost2010PropOp47
 70
     1
102
RTVSPost2010Prop48
 90
       50
102
RTVSPost2010PropOp48
 70
     1
102
RTVSPost2010Prop49
280
     0
102
RTVSPost2010PropOp49
 70
     1
102
RTVSPost2010Prop50
 90
       50
102
RTVSPost2010PropOp50
 70
     1
102
RTVSPost2010Prop51ColorIndex
 90
      256
102
RTVSPost2010Prop51ColorRGB
 90
-16777216
102
RTVSPost2010PropOp51
 70
     0
102
RTVSPost2010Prop52
140
1.0
102
RTVSPost2010PropOp52
 70
     0
102
RTVSPost2010Prop53
 90
        2
102
RTVSPost2010PropOp53
 70
     1
102
RTVSPost2010Prop54
  1
strokes_ogs.tif
102
RTVSPost2010PropOp54
 70
     1
102
RTVSPost2010Prop55
280
     0
102
RTVSPost2010PropOp55
 70
     1
102
RTVSPost2010Prop56
140
1.0
102
RTVSPost2010PropOp56
 70
     1
102
RTVSPost2010Prop57
140
1.0
102
RTVSPost2010PropOp57
 70
     1
  0
XRECORD
  5
180
102
{ACAD_REACTORS
330
17F
102
}
330
17F
100
AcDbXrecord
280
     1
102
RTVSPost2010Prop28
280
     0
102
RTVSPost2010PropOp28
 70
     1
102
RTVSPost2010Prop29
280
     1
102
RTVSPost2010PropOp29
 70
     1
102
RTVSPost2010Prop30
280
     1
102
RTVSPost2010PropOp30
 70
     1
102
RTVSPost2010Prop31
280
     0
102
RTVSPost2010PropOp31
 70
     1
102
RTVSPost2010Prop32
280
     0
102
RTVSPost2010PropOp32
 70
     1
102
RTVSPost2010Prop33
280
     0
102
RTVSPost2010PropOp33
 70
     1
102
RTVSPost2010Prop34
280
     0
102
RTVSPost2010PropOp34
 70
     1
102
RTVSPost2010Prop35
280
     0
102
RTVSPost2010PropOp35
 70
     1
102
RTVSPost2010Prop36
280
     0
102
RTVSPost2010PropOp36
 70
     1
102
RTVSPost2010Prop37
 90
       50
102
RTVSPost2010PropOp37
 70
     1
102
RTVSPost2010Prop38
140
0.0
102
RTVSPost2010PropOp38
 70
     1
102
RTVSPost2010Prop39
140
1.0
102
RTVSPost2010PropOp39
 70
     1
102
RTVSPost2010Prop40
 90
        0
102
RTVSPost2010PropOp40
 70
     1
102
RTVSPost2010Prop41ColorIndex
 90
       18
102
RTVSPost2010Prop41ColorRGB
 90
        0
102
RTVSPost2010PropOp41
 70
     1
102
RTVSPost2010Prop42
 90
       50
102
RTVSPost2010PropOp42
 70
     1
102
RTVSPost2010Prop43
 90
        3
102
RTVSPost2010PropOp43
 70
     1
102
RTVSPost2010Prop44ColorIndex
 90
        5
102
RTVSPost2010Prop44ColorRGB
 90
      255
102
RTVSPost2010PropOp44
 70
     1
102
RTVSPost2010Prop45
280
     0
102
RTVSPost2010PropOp45
 70
     1
102
RTVSPost2010Prop46
 90
       50
102
RTVSPost2010PropOp46
 70
     1
102
RTVSPost2010Prop47
 90
       50
102
RTVSPost2010PropOp47
 70
     1
102
RTVSPost2010Prop48
 90
       50
102
RTVSPost2010PropOp48
 70
     1
102
RTVSPost2010Prop49
280
     0
102
RTVSPost2010PropOp49
 70
     1
102
RTVSPost2010Prop50
 90
       50
102
RTVSPost2010PropOp50
 70
     1
102
RTVSPost2010Prop51ColorIndex
 90
      256
102
RTVSPost2010Prop51ColorRGB
 90
-16777216
102
RTVSPost2010PropOp51
 70
     0
102
RTVSPost2010Prop52
140
1.0
102
RTVSPost2010PropOp52
 70
     0
102
RTVSPost2010Prop53
 90
        2
102
RTVSPost2010PropOp53
 70
     1
102
RTVSPost2010Prop54
  1
strokes_ogs.tif
102
RTVSPost2010PropOp54
 70
     1
102
RTVSPost2010Prop55
280
     0
102
RTVSPost2010PropOp55
 70
     1
102
RTVSPost2010Prop56
140
1.0
102
RTVSPost2010PropOp56
 70
     1
102
RTVSPost2010Prop57
140
1.0
102
RTVSPost2010PropOp57
 70
     1
  0
XRECORD
  5
170
102
{ACAD_REACTORS
330
16F
102
}
330
16F
100
AcDbXrecord
280
     1
102
RTVSPost2010Prop28
280
     0
102
RTVSPost2010PropOp28
 70
     1
102
RTVSPost2010Prop29
280
     1
102
RTVSPost2010PropOp29
 70
     1
102
RTVSPost2010Prop30
280
     1
102
RTVSPost2010PropOp30
 70
     1
102
RTVSPost2010Prop31
280
     0
102
RTVSPost2010PropOp31
 70
     1
102
RTVSPost2010Prop32
280
     0
102
RTVSPost2010PropOp32
 70
     1
102
RTVSPost2010Prop33
280
     0
102
RTVSPost2010PropOp33
 70
     1
102
RTVSPost2010Prop34
280
     0
102
RTVSPost2010PropOp34
 70
     1
102
RTVSPost2010Prop35
280
     0
102
RTVSPost2010PropOp35
 70
     1
102
RTVSPost2010Prop36
280
     0
102
RTVSPost2010PropOp36
 70
     1
102
RTVSPost2010Prop37
 90
       50
102
RTVSPost2010PropOp37
 70
     1
102
RTVSPost2010Prop38
140
0.0
102
RTVSPost2010PropOp38
 70
     1
102
RTVSPost2010Prop39
140
1.0
102
RTVSPost2010PropOp39
 70
     1
102
RTVSPost2010Prop40
 90
        0
102
RTVSPost2010PropOp40
 70
     1
102
RTVSPost2010Prop41ColorIndex
 90
       18
102
RTVSPost2010Prop41ColorRGB
 90
        0
102
RTVSPost2010PropOp41
 70
     1
102
RTVSPost2010Prop42
 90
       50
102
RTVSPost2010PropOp42
 70
     1
102
RTVSPost2010Prop43
 90
        3
102
RTVSPost2010PropOp43
 70
     1
102
RTVSPost2010Prop44ColorIndex
 90
        5
102
RTVSPost2010Prop44ColorRGB
 90
      255
102
RTVSPost2010PropOp44
 70
     1
102
RTVSPost2010Prop45
280
     0
102
RTVSPost2010PropOp45
 70
     1
102
RTVSPost2010Prop46
 90
       50
102
RTVSPost2010PropOp46
 70
     1
102
RTVSPost2010Prop47
 90
       50
102
RTVSPost2010PropOp47
 70
     1
102
RTVSPost2010Prop48
 90
       50
102
RTVSPost2010PropOp48
 70
     1
102
RTVSPost2010Prop49
280
     0
102
RTVSPost2010PropOp49
 70
     1
102
RTVSPost2010Prop50
 90
       50
102
RTVSPost2010PropOp50
 70
     1
102
RTVSPost2010Prop51ColorIndex
 90
      256
102
RTVSPost2010Prop51ColorRGB
 90
-16777216
102
RTVSPost2010PropOp51
 70
     0
102
RTVSPost2010Prop52
140
1.0
102
RTVSPost2010PropOp52
 70
     0
102
RTVSPost2010Prop53
 90
        2
102
RTVSPost2010PropOp53
 70
     1
102
RTVSPost2010Prop54
  1
strokes_ogs.tif
102
RTVSPost2010PropOp54
 70
     1
102
RTVSPost2010Prop55
280
     0
102
RTVSPost2010PropOp55
 70
     1
102
RTVSPost2010Prop56
140
1.0
102
RTVSPost2010PropOp56
 70
     1
102
RTVSPost2010Prop57
140
1.0
102
RTVSPost2010PropOp57
 70
     1
  0
XRECORD
  5
162
102
{ACAD_REACTORS
330
161
102
}
330
161
100
AcDbXrecord
280
     1
102
RTVSPost2010Prop28
280
     0
102
RTVSPost2010PropOp28
 70
     1
102
RTVSPost2010Prop29
280
     1
102
RTVSPost2010PropOp29
 70
     1
102
RTVSPost2010Prop30
280
     1
102
RTVSPost2010PropOp30
 70
     1
102
RTVSPost2010Prop31
280
     0
102
RTVSPost2010PropOp31
 70
     1
102
RTVSPost2010Prop32
280
     0
102
RTVSPost2010PropOp32
 70
     1
102
RTVSPost2010Prop33
280
     0
102
RTVSPost2010PropOp33
 70
     1
102
RTVSPost2010Prop34
280
     0
102
RTVSPost2010PropOp34
 70
     1
102
RTVSPost2010Prop35
280
     0
102
RTVSPost2010PropOp35
 70
     1
102
RTVSPost2010Prop36
280
     0
102
RTVSPost2010PropOp36
 70
     1
102
RTVSPost2010Prop37
 90
       50
102
RTVSPost2010PropOp37
 70
     1
102
RTVSPost2010Prop38
140
0.0
102
RTVSPost2010PropOp38
 70
     1
102
RTVSPost2010Prop39
140
1.0
102
RTVSPost2010PropOp39
 70
     1
102
RTVSPost2010Prop40
 90
        0
102
RTVSPost2010PropOp40
 70
     1
102
RTVSPost2010Prop41ColorIndex
 90
       18
102
RTVSPost2010Prop41ColorRGB
 90
        0
102
RTVSPost2010PropOp41
 70
     1
102
RTVSPost2010Prop42
 90
       50
102
RTVSPost2010PropOp42
 70
     1
102
RTVSPost2010Prop43
 90
        3
102
RTVSPost2010PropOp43
 70
     1
102
RTVSPost2010Prop44ColorIndex
 90
        5
102
RTVSPost2010Prop44ColorRGB
 90
      255
102
RTVSPost2010PropOp44
 70
     1
102
RTVSPost2010Prop45
280
     0
102
RTVSPost2010PropOp45
 70
     1
102
RTVSPost2010Prop46
 90
       50
102
RTVSPost2010PropOp46
 70
     1
102
RTVSPost2010Prop47
 90
       50
102
RTVSPost2010PropOp47
 70
     1
102
RTVSPost2010Prop48
 90
       50
102
RTVSPost2010PropOp48
 70
     1
102
RTVSPost2010Prop49
280
     0
102
RTVSPost2010PropOp49
 70
     1
102
RTVSPost2010Prop50
 90
       50
102
RTVSPost2010PropOp50
 70
     1
102
RTVSPost2010Prop51ColorIndex
 90
      256
102
RTVSPost2010Prop51ColorRGB
 90
-16777216
102
RTVSPost2010PropOp51
 70
     0
102
RTVSPost2010Prop52
140
1.0
102
RTVSPost2010PropOp52
 70
     0
102
RTVSPost2010Prop53
 90
        2
102
RTVSPost2010PropOp53
 70
     1
102
RTVSPost2010Prop54
  1
strokes_ogs.tif
102
RTVSPost2010PropOp54
 70
     1
102
RTVSPost2010Prop55
280
     0
102
RTVSPost2010PropOp55
 70
     1
102
RTVSPost2010Prop56
140
1.0
102
RTVSPost2010PropOp56
 70
     1
102
RTVSPost2010Prop57
140
1.0
102
RTVSPost2010PropOp57
 70
     1
  0
XRECORD
  5
182
102
{ACAD_REACTORS
330
181
102
}
330
181
100
AcDbXrecord
280
     1
102
RTVSPost2010Prop28
280
     0
102
RTVSPost2010PropOp28
 70
     1
102
RTVSPost2010Prop29
280
     1
102
RTVSPost2010PropOp29
 70
     1
102
RTVSPost2010Prop30
280
     1
102
RTVSPost2010PropOp30
 70
     1
102
RTVSPost2010Prop31
280
     0
102
RTVSPost2010PropOp31
 70
     1
102
RTVSPost2010Prop32
280
     0
102
RTVSPost2010PropOp32
 70
     1
102
RTVSPost2010Prop33
280
     0
102
RTVSPost2010PropOp33
 70
     1
102
RTVSPost2010Prop34
280
     0
102
RTVSPost2010PropOp34
 70
     1
102
RTVSPost2010Prop35
280
     0
102
RTVSPost2010PropOp35
 70
     1
102
RTVSPost2010Prop36
280
     0
102
RTVSPost2010PropOp36
 70
     1
102
RTVSPost2010Prop37
 90
       50
102
RTVSPost2010PropOp37
 70
     1
102
RTVSPost2010Prop38
140
0.0
102
RTVSPost2010PropOp38
 70
     1
102
RTVSPost2010Prop39
140
1.0
102
RTVSPost2010PropOp39
 70
     1
102
RTVSPost2010Prop40
 90
        0
102
RTVSPost2010PropOp40
 70
     1
102
RTVSPost2010Prop41ColorIndex
 90
       18
102
RTVSPost2010Prop41ColorRGB
 90
        0
102
RTVSPost2010PropOp41
 70
     1
102
RTVSPost2010Prop42
 90
       50
102
RTVSPost2010PropOp42
 70
     1
102
RTVSPost2010Prop43
 90
        3
102
RTVSPost2010PropOp43
 70
     1
102
RTVSPost2010Prop44ColorIndex
 90
        5
102
RTVSPost2010Prop44ColorRGB
 90
      255
102
RTVSPost2010PropOp44
 70
     1
102
RTVSPost2010Prop45
280
     0
102
RTVSPost2010PropOp45
 70
     1
102
RTVSPost2010Prop46
 90
       50
102
RTVSPost2010PropOp46
 70
     1
102
RTVSPost2010Prop47
 90
       50
102
RTVSPost2010PropOp47
 70
     1
102
RTVSPost2010Prop48
 90
       50
102
RTVSPost2010PropOp48
 70
     1
102
RTVSPost2010Prop49
280
     0
102
RTVSPost2010PropOp49
 70
     1
102
RTVSPost2010Prop50
 90
       50
102
RTVSPost2010PropOp50
 70
     1
102
RTVSPost2010Prop51ColorIndex
 90
      256
102
RTVSPost2010Prop51ColorRGB
 90
-16777216
102
RTVSPost2010PropOp51
 70
     0
102
RTVSPost2010Prop52
140
1.0
102
RTVSPost2010PropOp52
 70
     0
102
RTVSPost2010Prop53
 90
        2
102
RTVSPost2010PropOp53
 70
     1
102
RTVSPost2010Prop54
  1
strokes_ogs.tif
102
RTVSPost2010PropOp54
 70
     1
102
RTVSPost2010Prop55
280
     0
102
RTVSPost2010PropOp55
 70
     1
102
RTVSPost2010Prop56
140
1.0
102
RTVSPost2010PropOp56
 70
     1
102
RTVSPost2010Prop57
140
1.0
102
RTVSPost2010PropOp57
 70
     1
  0
ENDSEC
  0
EOF
