  0
SECTION
  2
HEADER
  9
$ACADVER
  1
AC1012
  9
$DWGCODEPAGE
  3
gb2312
  9
$INSBASE
 10
0.0
 20
0.0
 30
0.0
  9
$EXTMIN
 10
1.000000000000000E+20
 20
1.000000000000000E+20
 30
1.000000000000000E+20
  9
$EXTMAX
 10
-1.000000000000000E+20
 20
-1.000000000000000E+20
 30
-1.000000000000000E+20
  9
$LIMMIN
 10
0.0
 20
0.0
  9
$LIMMAX
 10
420.0
 20
297.0
  9
$ORTHOMODE
 70
     0
  9
$REGENMODE
 70
     1
  9
$FILLMODE
 70
     1
  9
$QTEXTMODE
 70
     0
  9
$MIRRTEXT
 70
     1
  9
$DRAGMODE
 70
     2
  9
$LTSCALE
 40
1.0
  9
$OSMODE
 70
    37
  9
$ATTMODE
 70
     1
  9
$TEXTSIZE
 40
2.5
  9
$TRACEWID
 40
1.0
  9
$TEXTSTYLE
  7
STANDARD
  9
$CLAYER
  8
0
  9
$CELTYPE
  6
BYLAYER
  9
$CECOLOR
 62
   256
  9
$CELTSCALE
 40
1.0
  9
$DELOBJ
 70
     1
  9
$DISPSILH
 70
     0
  9
$DIMSCALE
 40
1.0
  9
$DIMASZ
 40
2.5
  9
$DIMEXO
 40
0.625
  9
$DIMDLI
 40
3.75
  9
$DIMRND
 40
0.0
  9
$DIMDLE
 40
0.0
  9
$DIMEXE
 40
1.25
  9
$DIMTP
 40
0.0
  9
$DIMTM
 40
0.0
  9
$DIMTXT
 40
2.5
  9
$DIMCEN
 40
2.5
  9
$DIMTSZ
 40
0.0
  9
$DIMTOL
 70
     0
  9
$DIMLIM
 70
     0
  9
$DIMTIH
 70
     0
  9
$DIMTOH
 70
     0
  9
$DIMSE1
 70
     0
  9
$DIMSE2
 70
     0
  9
$DIMTAD
 70
     1
  9
$DIMZIN
 70
     8
  9
$DIMBLK
  1

  9
$DIMASO
 70
     1
  9
$DIMSHO
 70
     1
  9
$DIMPOST
  1

  9
$DIMAPOST
  1

  9
$DIMALT
 70
     0
  9
$DIMALTD
 70
     3
  9
$DIMALTF
 40
0.03937007874016
  9
$DIMLFAC
 40
1.0
  9
$DIMTOFL
 70
     1
  9
$DIMTVP
 40
0.0
  9
$DIMTIX
 70
     0
  9
$DIMSOXD
 70
     0
  9
$DIMSAH
 70
     0
  9
$DIMBLK1
  1

  9
$DIMBLK2
  1

  9
$DIMSTYLE
  2
ISO-25
  9
$DIMCLRD
 70
     0
  9
$DIMCLRE
 70
     0
  9
$DIMCLRT
 70
     0
  9
$DIMTFAC
 40
1.0
  9
$DIMGAP
 40
0.625
  9
$DIMJUST
 70
     0
  9
$DIMSD1
 70
     0
  9
$DIMSD2
 70
     0
  9
$DIMTOLJ
 70
     0
  9
$DIMTZIN
 70
     8
  9
$DIMALTZ
 70
     0
  9
$DIMALTTZ
 70
     0
  9
$DIMFIT
 70
     3
  9
$DIMUPT
 70
     0
  9
$DIMUNIT
 70
     2
  9
$DIMDEC
 70
     2
  9
$DIMTDEC
 70
     2
  9
$DIMALTU
 70
     2
  9
$DIMALTTD
 70
     3
  9
$DIMTXSTY
  7
STANDARD
  9
$DIMAUNIT
 70
     0
  9
$LUNITS
 70
     2
  9
$LUPREC
 70
     4
  9
$SKETCHINC
 40
1.0
  9
$FILLETRAD
 40
10.0
  9
$AUNITS
 70
     0
  9
$AUPREC
 70
     0
  9
$MENU
  1
.
  9
$ELEVATION
 40
0.0
  9
$PELEVATION
 40
0.0
  9
$THICKNESS
 40
0.0
  9
$LIMCHECK
 70
     0
  9
$BLIPMODE
 70
     0
  9
$CHAMFERA
 40
10.0
  9
$CHAMFERB
 40
10.0
  9
$CHAMFERC
 40
20.0
  9
$CHAMFERD
 40
0.0
  9
$SKPOLY
 70
     0
  9
$TDCREATE
 40
2453935.933843252
  9
$TDUPDATE
 40
2453935.934398680
  9
$TDINDWG
 40
0.0005563542
  9
$TDUSRTIMER
 40
0.0005562384
  9
$USRTIMER
 70
     1
  9
$ANGBASE
 50
0.0
  9
$ANGDIR
 70
     0
  9
$PDMODE
 70
     0
  9
$PDSIZE
 40
0.0
  9
$PLINEWID
 40
0.0
  9
$COORDS
 70
     1
  9
$SPLFRAME
 70
     0
  9
$SPLINETYPE
 70
     6
  9
$SPLINESEGS
 70
     8
  9
$ATTDIA
 70
     0
  9
$ATTREQ
 70
     1
  9
$HANDLING
 70
 22529
  9
$HANDSEED
  5
4A
  9
$SURFTAB1
 70
     6
  9
$SURFTAB2
 70
     6
  9
$SURFTYPE
 70
     6
  9
$SURFU
 70
     6
  9
$SURFV
 70
     6
  9
$UCSNAME
  2

  9
$UCSORG
 10
0.0
 20
0.0
 30
0.0
  9
$UCSXDIR
 10
1.0
 20
0.0
 30
0.0
  9
$UCSYDIR
 10
0.0
 20
1.0
 30
0.0
  9
$PUCSNAME
  2

  9
$PUCSORG
 10
0.0
 20
0.0
 30
0.0
  9
$PUCSXDIR
 10
1.0
 20
0.0
 30
0.0
  9
$PUCSYDIR
 10
0.0
 20
1.0
 30
0.0
  9
$USERI1
 70
     0
  9
$USERI2
 70
     0
  9
$USERI3
 70
     0
  9
$USERI4
 70
     0
  9
$USERI5
 70
     0
  9
$USERR1
 40
0.0
  9
$USERR2
 40
0.0
  9
$USERR3
 40
0.0
  9
$USERR4
 40
0.0
  9
$USERR5
 40
0.0
  9
$WORLDVIEW
 70
     1
  9
$SHADEDGE
 70
     3
  9
$SHADEDIF
 70
    70
  9
$TILEMODE
 70
     1
  9
$MAXACTVP
 70
    64
  9
$PINSBASE
 10
0.0
 20
0.0
 30
0.0
  9
$PLIMCHECK
 70
     0
  9
$PEXTMIN
 10
1.000000000000000E+20
 20
1.000000000000000E+20
 30
1.000000000000000E+20
  9
$PEXTMAX
 10
-1.000000000000000E+20
 20
-1.000000000000000E+20
 30
-1.000000000000000E+20
  9
$PLIMMIN
 10
0.0
 20
0.0
  9
$PLIMMAX
 10
420.0
 20
297.0
  9
$UNITMODE
 70
     0
  9
$VISRETAIN
 70
     1
  9
$PLINEGEN
 70
     0
  9
$PSLTSCALE
 70
     1
  9
$TREEDEPTH
 70
  3020
  9
$PICKSTYLE
 70
     1
  9
$CMLSTYLE
  2
STANDARD
  9
$CMLJUST
 70
     0
  9
$CMLSCALE
 40
20.0
  9
$SAVEIMAGES
 70
     1
  0
ENDSEC
  0
SECTION
  2
CLASSES
  0
CLASS
  1
ACDBDICTIONARYWDFLT
  2
AcDbDictionaryWithDefault
  3
AutoCAD 2000
 90
    32768
280
     0
281
     0
  0
CLASS
  1
ACDBPLACEHOLDER
  2
AcDbPlaceHolder
  3
AutoCAD 2000
 90
    32768
280
     0
281
     0
  0
CLASS
  1
LAYOUT
  2
AcDbLayout
  3
AutoCAD 2000
 90
    32768
280
     0
281
     0
  0
CLASS
  1
DICTIONARYVAR
  2
AcDbDictionaryVar
  3
AutoCAD 2000
 90
    32768
280
     0
281
     0
  0
CLASS
  1
LONG_TRANSACTION
  2
AcDbLongTransaction
  3
AutoCAD 2000
 90
    32768
280
     0
281
     0
  0
CLASS
  1
LWPOLYLINE
  2
AcDbPolyline
  3
AutoCAD 2000
 90
    32768
280
     0
281
     1
  0
CLASS
  1
HATCH
  2
AcDbHatch
  3
AutoCAD 2000
 90
    32768
280
     0
281
     1
  0
CLASS
  1
XRECORD
  2
AcDbXrecord
  3
AutoCAD 2000
 90
    32768
280
     0
281
     0
  0
ENDSEC
  0
SECTION
  2
TABLES
  0
TABLE
  2
VPORT
  5
8
330
0
100
AcDbSymbolTable
 70
     2
  0
VPORT
  5
43
330
8
100
AcDbSymbolTableRecord
100
AcDbViewportTableRecord
  2
*ACTIVE
 70
     0
 10
0.0
 20
0.0
 11
1.0
 21
1.0
 12
505.3812210517317
 22
257.5500453436709
 13
0.0
 23
0.0
 14
10.0
 24
10.0
 15
10.0
 25
10.0
 16
0.0
 26
0.0
 36
1.0
 17
0.0
 27
0.0
 37
0.0
 40
515.1000906873419
 41
1.962264150943396
 42
50.0
 43
0.0
 44
0.0
 50
0.0
 51
0.0
 71
     0
 72
   100
 73
     1
 74
     3
 75
     0
 76
     0
 77
     0
 78
     0
  0
ENDTAB
  0
TABLE
  2
LTYPE
  5
5
330
0
100
AcDbSymbolTable
 70
     1
  0
LTYPE
  5
14
330
5
100
AcDbSymbolTableRecord
100
AcDbLinetypeTableRecord
  2
BYBLOCK
 70
     0
  3

 72
    65
 73
     0
 40
0.0
  0
LTYPE
  5
15
330
5
100
AcDbSymbolTableRecord
100
AcDbLinetypeTableRecord
  2
BYLAYER
 70
     0
  3

 72
    65
 73
     0
 40
0.0
  0
LTYPE
  5
16
330
5
100
AcDbSymbolTableRecord
100
AcDbLinetypeTableRecord
  2
CONTINUOUS
 70
     0
  3
Solid line
 72
    65
 73
     0
 40
0.0
  0
ENDTAB
  0
TABLE
  2
LAYER
  5
2
330
0
100
AcDbSymbolTable
 70
     1
  0
LAYER
  5
10
330
2
100
AcDbSymbolTableRecord
100
AcDbLayerTableRecord
  2
0
 70
     0
 62
     7
  6
CONTINUOUS
  0
ENDTAB
  0
TABLE
  2
STYLE
  5
3
330
0
100
AcDbSymbolTable
 70
     1
  0
STYLE
  5
11
330
3
100
AcDbSymbolTableRecord
100
AcDbTextStyleTableRecord
  2
STANDARD
 70
     0
 40
0.0
 41
1.0
 50
0.0
 71
     0
 42
2.5
  3
txt
  4

  0
ENDTAB
  0
TABLE
  2
VIEW
  5
6
330
0
100
AcDbSymbolTable
 70
     0
  0
ENDTAB
  0
TABLE
  2
UCS
  5
7
330
0
100
AcDbSymbolTable
 70
     0
  0
ENDTAB
  0
TABLE
  2
APPID
  5
9
330
0
100
AcDbSymbolTable
 70
     1
  0
APPID
  5
12
330
9
100
AcDbSymbolTableRecord
100
AcDbRegAppTableRecord
  2
ACAD
 70
     0
  0
ENDTAB
  0
TABLE
  2
DIMSTYLE
  5
A
330
0
100
AcDbSymbolTable
 70
     1
  0
DIMSTYLE
105
27
330
A
100
AcDbSymbolTableRecord
100
AcDbDimStyleTableRecord
  2
ISO-25
 70
     0
  3

  4

  5

  6

  7

 40
1.0
 41
2.5
 42
0.625
 43
3.75
 44
1.25
 45
0.0
 46
0.0
 47
0.0
 48
0.0
140
2.5
141
2.5
142
0.0
143
0.03937007874016
144
1.0
145
0.0
146
1.0
147
0.625
 71
     0
 72
     0
 73
     0
 74
     0
 75
     0
 76
     0
 77
     1
 78
     8
170
     0
171
     3
172
     1
173
     0
174
     0
175
     0
176
     0
177
     0
178
     0
270
     2
271
     2
272
     2
273
     2
274
     3
340
11
275
     0
280
     0
281
     0
282
     0
283
     0
284
     8
285
     0
286
     0
287
     3
288
     0
  0
ENDTAB
  0
TABLE
  2
BLOCK_RECORD
  5
1
330
0
100
AcDbSymbolTable
 70
     1
  0
BLOCK_RECORD
  5
1F
102
{ACAD_XDICTIONARY
360
46
102
}
330
1
100
AcDbSymbolTableRecord
100
AcDbBlockTableRecord
  2
*MODEL_SPACE
  0
BLOCK_RECORD
  5
1B
102
{ACAD_XDICTIONARY
360
44
102
}
330
1
100
AcDbSymbolTableRecord
100
AcDbBlockTableRecord
  2
*PAPER_SPACE
  0
ENDTAB
  0
ENDSEC
  0
SECTION
  2
BLOCKS
  0
BLOCK
  5
20
330
1F
100
AcDbEntity
  8
0
100
AcDbBlockBegin
  2
*MODEL_SPACE
 70
     0
 10
0.0
 20
0.0
 30
0.0
  3
*MODEL_SPACE
  1

  0
ENDBLK
  5
21
330
1F
100
AcDbEntity
  8
0
100
AcDbBlockEnd
  0
BLOCK
  5
1C
330
1B
100
AcDbEntity
 67
     1
  8
0
100
AcDbBlockBegin
  2
*PAPER_SPACE
 70
     0
 10
0.0
 20
0.0
 30
0.0
  3
*PAPER_SPACE
  1

  0
ENDBLK
  5
1D
330
1B
100
AcDbEntity
 67
     1
  8
0
100
AcDbBlockEnd
  0
ENDSEC
  0
SECTION
  2
ENTITIES
  0
SPLINE
  5
100
330
1F
100
AcDbEntity
  8
0
 62
     7
100
AcDbSpline
210
0.000000
220
0.000000
230
1.0
 70
     8
 71
     3
 72
     8
 73
     4
 42
0.0000000001
 43
0.0000000001
 44
0.0000000001
 12
0.000000
 22
0.000000
 32
0.000000
 13
0.000000
 23
0.000000
 33
0.000000
 40
0.000000
 40
0.000000
 40
0.000000
 40
0.000000
 40
1.000000
 40
1.000000
 40
1.000000
 40
1.000000
 10
723.214898
 20
496.523272
 30
0.000000
 10
722.276660
 20
498.165188
 30
0.000000
 10
721.807541
 20
500.188264
 30
0.000000
 10
721.807541
 20
502.533859
 30
0.000000
  0
SPLINE
  5
101
330
1F
100
AcDbEntity
  8
0
 62
     7
100
AcDbSpline
210
0.000000
220
0.000000
230
1.0
 70
     8
 71
     3
 72
     8
 73
     4
 42
0.0000000001
 43
0.0000000001
 44
0.0000000001
 12
0.000000
 22
0.000000
 32
0.000000
 13
0.000000
 23
0.000000
 33
0.000000
 40
0.000000
 40
0.000000
 40
0.000000
 40
0.000000
 40
1.000000
 40
1.000000
 40
1.000000
 40
1.000000
 10
721.807541
 20
502.533859
 30
0.000000
 10
721.807541
 20
504.527614
 30
0.000000
 10
722.100740
 20
506.228171
 30
0.000000
 10
722.716459
 20
507.694168
 30
0.000000
  0
SPLINE
  5
102
330
1F
100
AcDbEntity
  8
0
 62
     7
100
AcDbSpline
210
0.000000
220
0.000000
230
1.0
 70
     8
 71
     3
 72
     8
 73
     4
 42
0.0000000001
 43
0.0000000001
 44
0.0000000001
 12
0.000000
 22
0.000000
 32
0.000000
 13
0.000000
 23
0.000000
 33
0.000000
 40
0.000000
 40
0.000000
 40
0.000000
 40
0.000000
 40
1.000000
 40
1.000000
 40
1.000000
 40
1.000000
 10
722.716459
 20
507.694168
 30
0.000000
 10
723.302858
 20
509.101524
 30
0.000000
 10
724.123816
 20
510.186362
 30
0.000000
 10
725.120694
 20
510.890041
 30
0.000000
  0
SPLINE
  5
103
330
1F
100
AcDbEntity
  8
0
 62
     7
100
AcDbSpline
210
0.000000
220
0.000000
230
1.0
 70
     8
 71
     3
 72
     8
 73
     4
 42
0.0000000001
 43
0.0000000001
 44
0.0000000001
 12
0.000000
 22
0.000000
 32
0.000000
 13
0.000000
 23
0.000000
 33
0.000000
 40
0.000000
 40
0.000000
 40
0.000000
 40
0.000000
 40
1.000000
 40
1.000000
 40
1.000000
 40
1.000000
 10
725.120694
 20
510.890041
 30
0.000000
 10
725.883012
 20
511.447119
 30
0.000000
 10
726.703971
 20
511.740319
 30
0.000000
 10
727.524929
 20
511.740319
 30
0.000000
  0
SPLINE
  5
104
330
1F
100
AcDbEntity
  8
0
 62
     7
100
AcDbSpline
210
0.000000
220
0.000000
230
1.0
 70
     8
 71
     3
 72
     8
 73
     4
 42
0.0000000001
 43
0.0000000001
 44
0.0000000001
 12
0.000000
 22
0.000000
 32
0.000000
 13
0.000000
 23
0.000000
 33
0.000000
 40
0.000000
 40
0.000000
 40
0.000000
 40
0.000000
 40
1.000000
 40
1.000000
 40
1.000000
 40
1.000000
 10
727.524929
 20
511.740319
 30
0.000000
 10
728.873646
 20
511.740319
 30
0.000000
 10
730.075764
 20
511.065960
 30
0.000000
 10
731.160601
 20
509.687923
 30
0.000000
  0
SPLINE
  5
105
330
1F
100
AcDbEntity
  8
0
 62
     7
100
AcDbSpline
210
0.000000
220
0.000000
230
1.0
 70
     8
 71
     3
 72
     8
 73
     4
 42
0.0000000001
 43
0.0000000001
 44
0.0000000001
 12
0.000000
 22
0.000000
 32
0.000000
 13
0.000000
 23
0.000000
 33
0.000000
 40
0.000000
 40
0.000000
 40
0.000000
 40
0.000000
 40
1.000000
 40
1.000000
 40
1.000000
 40
1.000000
 10
731.160601
 20
509.687923
 30
0.000000
 10
732.479998
 20
507.987367
 30
0.000000
 10
733.154357
 20
505.700412
 30
0.000000
 10
733.154357
 20
502.797738
 30
0.000000
  0
SPLINE
  5
106
330
1F
100
AcDbEntity
  8
0
 62
     7
100
AcDbSpline
210
0.000000
220
0.000000
230
1.0
 70
     8
 71
     3
 72
     8
 73
     4
 42
0.0000000001
 43
0.0000000001
 44
0.0000000001
 12
0.000000
 22
0.000000
 32
0.000000
 13
0.000000
 23
0.000000
 33
0.000000
 40
0.000000
 40
0.000000
 40
0.000000
 40
0.000000
 40
1.000000
 40
1.000000
 40
1.000000
 40
1.000000
 10
733.154357
 20
502.797738
 30
0.000000
 10
733.154357
 20
500.774663
 30
0.000000
 10
732.861158
 20
499.044787
 30
0.000000
 10
732.274759
 20
497.608110
 30
0.000000
  0
SPLINE
  5
107
330
1F
100
AcDbEntity
  8
0
 62
     7
100
AcDbSpline
210
0.000000
220
0.000000
230
1.0
 70
     8
 71
     3
 72
     8
 73
     4
 42
0.0000000001
 43
0.0000000001
 44
0.0000000001
 12
0.000000
 22
0.000000
 32
0.000000
 13
0.000000
 23
0.000000
 33
0.000000
 40
0.000000
 40
0.000000
 40
0.000000
 40
0.000000
 40
1.000000
 40
1.000000
 40
1.000000
 40
1.000000
 10
732.274759
 20
497.608110
 30
0.000000
 10
731.688360
 20
496.200753
 30
0.000000
 10
730.955362
 20
495.174555
 30
0.000000
 10
730.017124
 20
494.529516
 30
0.000000
  0
SPLINE
  5
108
330
1F
100
AcDbEntity
  8
0
 62
     7
100
AcDbSpline
210
0.000000
220
0.000000
230
1.0
 70
     8
 71
     3
 72
     8
 73
     4
 42
0.0000000001
 43
0.0000000001
 44
0.0000000001
 12
0.000000
 22
0.000000
 32
0.000000
 13
0.000000
 23
0.000000
 33
0.000000
 40
0.000000
 40
0.000000
 40
0.000000
 40
0.000000
 40
1.000000
 40
1.000000
 40
1.000000
 40
1.000000
 10
730.017124
 20
494.529516
 30
0.000000
 10
729.137525
 20
493.884478
 30
0.000000
 10
728.257927
 20
493.561959
 30
0.000000
 10
727.407649
 20
493.561959
 30
0.000000
  0
SPLINE
  5
109
330
1F
100
AcDbEntity
  8
0
 62
     7
100
AcDbSpline
210
0.000000
220
0.000000
230
1.0
 70
     8
 71
     3
 72
     8
 73
     4
 42
0.0000000001
 43
0.0000000001
 44
0.0000000001
 12
0.000000
 22
0.000000
 32
0.000000
 13
0.000000
 23
0.000000
 33
0.000000
 40
0.000000
 40
0.000000
 40
0.000000
 40
0.000000
 40
1.000000
 40
1.000000
 40
1.000000
 40
1.000000
 10
727.407649
 20
493.561959
 30
0.000000
 10
725.736413
 20
493.561959
 30
0.000000
 10
724.329056
 20
494.529516
 30
0.000000
 10
723.214898
 20
496.523272
 30
0.000000
  0
SPLINE
  5
110
330
1F
100
AcDbEntity
  8
0
 62
     7
100
AcDbSpline
210
0.000000
220
0.000000
230
1.0
 70
     8
 71
     3
 72
     8
 73
     4
 42
0.0000000001
 43
0.0000000001
 44
0.0000000001
 12
0.000000
 22
0.000000
 32
0.000000
 13
0.000000
 23
0.000000
 33
0.000000
 40
0.000000
 40
0.000000
 40
0.000000
 40
0.000000
 40
1.000000
 40
1.000000
 40
1.000000
 40
1.000000
 10
724.680895
 20
506.726610
 30
0.000000
 10
724.446335
 20
505.201973
 30
0.000000
 10
724.329056
 20
503.706656
 30
0.000000
 10
724.329056
 20
502.211340
 30
0.000000
  0
SPLINE
  5
111
330
1F
100
AcDbEntity
  8
0
 62
     7
100
AcDbSpline
210
0.000000
220
0.000000
230
1.0
 70
     8
 71
     3
 72
     8
 73
     4
 42
0.0000000001
 43
0.0000000001
 44
0.0000000001
 12
0.000000
 22
0.000000
 32
0.000000
 13
0.000000
 23
0.000000
 33
0.000000
 40
0.000000
 40
0.000000
 40
0.000000
 40
0.000000
 40
1.000000
 40
1.000000
 40
1.000000
 40
1.000000
 10
724.329056
 20
502.211340
 30
0.000000
 10
724.329056
 20
499.807105
 30
0.000000
 10
724.622255
 20
497.842669
 30
0.000000
 10
725.237974
 20
496.318032
 30
0.000000
  0
SPLINE
  5
112
330
1F
100
AcDbEntity
  8
0
 62
     7
100
AcDbSpline
210
0.000000
220
0.000000
230
1.0
 70
     8
 71
     3
 72
     8
 73
     4
 42
0.0000000001
 43
0.0000000001
 44
0.0000000001
 12
0.000000
 22
0.000000
 32
0.000000
 13
0.000000
 23
0.000000
 33
0.000000
 40
0.000000
 40
0.000000
 40
0.000000
 40
0.000000
 40
1.000000
 40
1.000000
 40
1.000000
 40
1.000000
 10
725.237974
 20
496.318032
 30
0.000000
 10
725.707093
 20
495.027955
 30
0.000000
 10
726.440091
 20
494.382917
 30
0.000000
 10
727.436969
 20
494.382917
 30
0.000000
  0
SPLINE
  5
113
330
1F
100
AcDbEntity
  8
0
 62
     7
100
AcDbSpline
210
0.000000
220
0.000000
230
1.0
 70
     8
 71
     3
 72
     8
 73
     4
 42
0.0000000001
 43
0.0000000001
 44
0.0000000001
 12
0.000000
 22
0.000000
 32
0.000000
 13
0.000000
 23
0.000000
 33
0.000000
 40
0.000000
 40
0.000000
 40
0.000000
 40
0.000000
 40
1.000000
 40
1.000000
 40
1.000000
 40
1.000000
 10
727.436969
 20
494.382917
 30
0.000000
 10
727.906088
 20
494.382917
 30
0.000000
 10
728.375207
 20
494.588156
 30
0.000000
 10
728.902966
 20
494.998635
 30
0.000000
  0
SPLINE
  5
114
330
1F
100
AcDbEntity
  8
0
 62
     7
100
AcDbSpline
210
0.000000
220
0.000000
230
1.0
 70
     8
 71
     3
 72
     8
 73
     4
 42
0.0000000001
 43
0.0000000001
 44
0.0000000001
 12
0.000000
 22
0.000000
 32
0.000000
 13
0.000000
 23
0.000000
 33
0.000000
 40
0.000000
 40
0.000000
 40
0.000000
 40
0.000000
 40
1.000000
 40
1.000000
 40
1.000000
 40
1.000000
 10
728.902966
 20
494.998635
 30
0.000000
 10
729.372085
 20
495.409114
 30
0.000000
 10
729.753244
 20
496.112793
 30
0.000000
 10
730.046444
 20
497.109671
 30
0.000000
  0
SPLINE
  5
115
330
1F
100
AcDbEntity
  8
0
 62
     7
100
AcDbSpline
210
0.000000
220
0.000000
230
1.0
 70
     8
 71
     3
 72
     8
 73
     4
 42
0.0000000001
 43
0.0000000001
 44
0.0000000001
 12
0.000000
 22
0.000000
 32
0.000000
 13
0.000000
 23
0.000000
 33
0.000000
 40
0.000000
 40
0.000000
 40
0.000000
 40
0.000000
 40
1.000000
 40
1.000000
 40
1.000000
 40
1.000000
 10
730.046444
 20
497.109671
 30
0.000000
 10
730.427603
 20
498.575668
 30
0.000000
 10
730.632842
 20
500.657383
 30
0.000000
 10
730.632842
 20
503.354817
 30
0.000000
  0
SPLINE
  5
116
330
1F
100
AcDbEntity
  8
0
 62
     7
100
AcDbSpline
210
0.000000
220
0.000000
230
1.0
 70
     8
 71
     3
 72
     8
 73
     4
 42
0.0000000001
 43
0.0000000001
 44
0.0000000001
 12
0.000000
 22
0.000000
 32
0.000000
 13
0.000000
 23
0.000000
 33
0.000000
 40
0.000000
 40
0.000000
 40
0.000000
 40
0.000000
 40
1.000000
 40
1.000000
 40
1.000000
 40
1.000000
 10
730.632842
 20
503.354817
 30
0.000000
 10
730.632842
 20
505.348573
 30
0.000000
 10
730.427603
 20
507.019809
 30
0.000000
 10
730.017124
 20
508.368526
 30
0.000000
  0
SPLINE
  5
117
330
1F
100
AcDbEntity
  8
0
 62
     7
100
AcDbSpline
210
0.000000
220
0.000000
230
1.0
 70
     8
 71
     3
 72
     8
 73
     4
 42
0.0000000001
 43
0.0000000001
 44
0.0000000001
 12
0.000000
 22
0.000000
 32
0.000000
 13
0.000000
 23
0.000000
 33
0.000000
 40
0.000000
 40
0.000000
 40
0.000000
 40
0.000000
 40
1.000000
 40
1.000000
 40
1.000000
 40
1.000000
 10
730.017124
 20
508.368526
 30
0.000000
 10
729.723924
 20
509.336084
 30
0.000000
 10
729.313445
 20
510.039762
 30
0.000000
 10
728.815006
 20
510.450241
 30
0.000000
  0
SPLINE
  5
118
330
1F
100
AcDbEntity
  8
0
 62
     7
100
AcDbSpline
210
0.000000
220
0.000000
230
1.0
 70
     8
 71
     3
 72
     8
 73
     4
 42
0.0000000001
 43
0.0000000001
 44
0.0000000001
 12
0.000000
 22
0.000000
 32
0.000000
 13
0.000000
 23
0.000000
 33
0.000000
 40
0.000000
 40
0.000000
 40
0.000000
 40
0.000000
 40
1.000000
 40
1.000000
 40
1.000000
 40
1.000000
 10
728.815006
 20
510.450241
 30
0.000000
 10
728.463167
 20
510.743441
 30
0.000000
 10
728.023368
 20
510.890041
 30
0.000000
 10
727.524929
 20
510.890041
 30
0.000000
  0
SPLINE
  5
119
330
1F
100
AcDbEntity
  8
0
 62
     7
100
AcDbSpline
210
0.000000
220
0.000000
230
1.0
 70
     8
 71
     3
 72
     8
 73
     4
 42
0.0000000001
 43
0.0000000001
 44
0.0000000001
 12
0.000000
 22
0.000000
 32
0.000000
 13
0.000000
 23
0.000000
 33
0.000000
 40
0.000000
 40
0.000000
 40
0.000000
 40
0.000000
 40
1.000000
 40
1.000000
 40
1.000000
 40
1.000000
 10
727.524929
 20
510.890041
 30
0.000000
 10
726.938530
 20
510.890041
 30
0.000000
 10
726.410771
 20
510.626161
 30
0.000000
 10
725.941652
 20
510.098402
 30
0.000000
  0
SPLINE
  5
120
330
1F
100
AcDbEntity
  8
0
 62
     7
100
AcDbSpline
210
0.000000
220
0.000000
230
1.0
 70
     8
 71
     3
 72
     8
 73
     4
 42
0.0000000001
 43
0.0000000001
 44
0.0000000001
 12
0.000000
 22
0.000000
 32
0.000000
 13
0.000000
 23
0.000000
 33
0.000000
 40
0.000000
 40
0.000000
 40
0.000000
 40
0.000000
 40
1.000000
 40
1.000000
 40
1.000000
 40
1.000000
 10
725.941652
 20
510.098402
 30
0.000000
 10
725.325934
 20
509.394724
 30
0.000000
 10
724.915454
 20
508.280566
 30
0.000000
 10
724.680895
 20
506.726610
 30
0.000000
  0
LINE
  5
121
330
1F
100
AcDbEntity
  8
0
  62
7
100
AcDbLine
 10
754.059473
 20
509.248124
 30
0.000000
 11
753.854233
 21
509.658603
 31
0.000000
  0
LINE
  5
122
330
1F
100
AcDbEntity
  8
0
  62
7
100
AcDbLine
 10
753.854233
 20
509.658603
 30
0.000000
 11
758.105624
 21
511.740319
 31
0.000000
  0
LINE
  5
123
330
1F
100
AcDbEntity
  8
0
  62
7
100
AcDbLine
 10
758.105624
 20
511.740319
 30
0.000000
 11
758.545423
 21
511.740319
 31
0.000000
  0
LINE
  5
124
330
1F
100
AcDbEntity
  8
0
  62
7
100
AcDbLine
 10
758.545423
 20
511.740319
 30
0.000000
 11
758.545423
 21
496.933751
 31
0.000000
  0
SPLINE
  5
125
330
1F
100
AcDbEntity
  8
0
 62
     7
100
AcDbSpline
210
0.000000
220
0.000000
230
1.0
 70
     8
 71
     3
 72
     8
 73
     4
 42
0.0000000001
 43
0.0000000001
 44
0.0000000001
 12
0.000000
 22
0.000000
 32
0.000000
 13
0.000000
 23
0.000000
 33
0.000000
 40
0.000000
 40
0.000000
 40
0.000000
 40
0.000000
 40
1.000000
 40
1.000000
 40
1.000000
 40
1.000000
 10
758.545423
 20
496.933751
 30
0.000000
 10
758.545423
 20
495.966193
 30
0.000000
 10
758.574743
 20
495.350475
 30
0.000000
 10
758.662703
 20
495.086595
 30
0.000000
  0
SPLINE
  5
126
330
1F
100
AcDbEntity
  8
0
 62
     7
100
AcDbSpline
210
0.000000
220
0.000000
230
1.0
 70
     8
 71
     3
 72
     8
 73
     4
 42
0.0000000001
 43
0.0000000001
 44
0.0000000001
 12
0.000000
 22
0.000000
 32
0.000000
 13
0.000000
 23
0.000000
 33
0.000000
 40
0.000000
 40
0.000000
 40
0.000000
 40
0.000000
 40
1.000000
 40
1.000000
 40
1.000000
 40
1.000000
 10
758.662703
 20
495.086595
 30
0.000000
 10
758.721343
 20
494.852036
 30
0.000000
 10
758.897263
 20
494.676116
 30
0.000000
 10
759.161142
 20
494.529516
 30
0.000000
  0
SPLINE
  5
127
330
1F
100
AcDbEntity
  8
0
 62
     7
100
AcDbSpline
210
0.000000
220
0.000000
230
1.0
 70
     8
 71
     3
 72
     8
 73
     4
 42
0.0000000001
 43
0.0000000001
 44
0.0000000001
 12
0.000000
 22
0.000000
 32
0.000000
 13
0.000000
 23
0.000000
 33
0.000000
 40
0.000000
 40
0.000000
 40
0.000000
 40
0.000000
 40
1.000000
 40
1.000000
 40
1.000000
 40
1.000000
 10
759.161142
 20
494.529516
 30
0.000000
 10
759.425022
 20
494.412237
 30
0.000000
 10
759.952780
 20
494.353597
 30
0.000000
 10
760.744419
 20
494.324277
 30
0.000000
  0
LINE
  5
128
330
1F
100
AcDbEntity
  8
0
  62
7
100
AcDbLine
 10
760.744419
 20
494.324277
 30
0.000000
 11
760.744419
 21
493.855158
 31
0.000000
  0
LINE
  5
129
330
1F
100
AcDbEntity
  8
0
  62
7
100
AcDbLine
 10
760.744419
 20
493.855158
 30
0.000000
 11
754.206073
 21
493.855158
 31
0.000000
  0
LINE
  5
130
330
1F
100
AcDbEntity
  8
0
  62
7
100
AcDbLine
 10
754.206073
 20
493.855158
 30
0.000000
 11
754.206073
 21
494.324277
 31
0.000000
  0
SPLINE
  5
131
330
1F
100
AcDbEntity
  8
0
 62
     7
100
AcDbSpline
210
0.000000
220
0.000000
230
1.0
 70
     8
 71
     3
 72
     8
 73
     4
 42
0.0000000001
 43
0.0000000001
 44
0.0000000001
 12
0.000000
 22
0.000000
 32
0.000000
 13
0.000000
 23
0.000000
 33
0.000000
 40
0.000000
 40
0.000000
 40
0.000000
 40
0.000000
 40
1.000000
 40
1.000000
 40
1.000000
 40
1.000000
 10
754.206073
 20
494.324277
 30
0.000000
 10
754.997711
 20
494.324277
 30
0.000000
 10
755.525470
 20
494.412237
 30
0.000000
 10
755.760029
 20
494.529516
 30
0.000000
  0
SPLINE
  5
132
330
1F
100
AcDbEntity
  8
0
 62
     7
100
AcDbSpline
210
0.000000
220
0.000000
230
1.0
 70
     8
 71
     3
 72
     8
 73
     4
 42
0.0000000001
 43
0.0000000001
 44
0.0000000001
 12
0.000000
 22
0.000000
 32
0.000000
 13
0.000000
 23
0.000000
 33
0.000000
 40
0.000000
 40
0.000000
 40
0.000000
 40
0.000000
 40
1.000000
 40
1.000000
 40
1.000000
 40
1.000000
 10
755.760029
 20
494.529516
 30
0.000000
 10
755.994589
 20
494.646796
 30
0.000000
 10
756.170508
 20
494.822716
 30
0.000000
 10
756.258468
 20
495.027955
 30
0.000000
  0
SPLINE
  5
133
330
1F
100
AcDbEntity
  8
0
 62
     7
100
AcDbSpline
210
0.000000
220
0.000000
230
1.0
 70
     8
 71
     3
 72
     8
 73
     4
 42
0.0000000001
 43
0.0000000001
 44
0.0000000001
 12
0.000000
 22
0.000000
 32
0.000000
 13
0.000000
 23
0.000000
 33
0.000000
 40
0.000000
 40
0.000000
 40
0.000000
 40
0.000000
 40
1.000000
 40
1.000000
 40
1.000000
 40
1.000000
 10
756.258468
 20
495.027955
 30
0.000000
 10
756.346428
 20
495.233195
 30
0.000000
 10
756.405068
 20
495.878233
 30
0.000000
 10
756.405068
 20
496.933751
 30
0.000000
  0
LINE
  5
134
330
1F
100
AcDbEntity
  8
0
  62
7
100
AcDbLine
 10
756.405068
 20
496.933751
 30
0.000000
 11
756.405068
 21
506.404090
 31
0.000000
  0
SPLINE
  5
135
330
1F
100
AcDbEntity
  8
0
 62
     7
100
AcDbSpline
210
0.000000
220
0.000000
230
1.0
 70
     8
 71
     3
 72
     8
 73
     4
 42
0.0000000001
 43
0.0000000001
 44
0.0000000001
 12
0.000000
 22
0.000000
 32
0.000000
 13
0.000000
 23
0.000000
 33
0.000000
 40
0.000000
 40
0.000000
 40
0.000000
 40
0.000000
 40
1.000000
 40
1.000000
 40
1.000000
 40
1.000000
 10
756.405068
 20
506.404090
 30
0.000000
 10
756.405068
 20
507.664848
 30
0.000000
 10
756.375748
 20
508.485806
 30
0.000000
 10
756.287788
 20
508.837645
 30
0.000000
  0
SPLINE
  5
136
330
1F
100
AcDbEntity
  8
0
 62
     7
100
AcDbSpline
210
0.000000
220
0.000000
230
1.0
 70
     8
 71
     3
 72
     8
 73
     4
 42
0.0000000001
 43
0.0000000001
 44
0.0000000001
 12
0.000000
 22
0.000000
 32
0.000000
 13
0.000000
 23
0.000000
 33
0.000000
 40
0.000000
 40
0.000000
 40
0.000000
 40
0.000000
 40
1.000000
 40
1.000000
 40
1.000000
 40
1.000000
 10
756.287788
 20
508.837645
 30
0.000000
 10
756.229148
 20
509.101524
 30
0.000000
 10
756.111869
 20
509.306764
 30
0.000000
 10
755.935949
 20
509.453364
 30
0.000000
  0
SPLINE
  5
137
330
1F
100
AcDbEntity
  8
0
 62
     7
100
AcDbSpline
210
0.000000
220
0.000000
230
1.0
 70
     8
 71
     3
 72
     8
 73
     4
 42
0.0000000001
 43
0.0000000001
 44
0.0000000001
 12
0.000000
 22
0.000000
 32
0.000000
 13
0.000000
 23
0.000000
 33
0.000000
 40
0.000000
 40
0.000000
 40
0.000000
 40
0.000000
 40
1.000000
 40
1.000000
 40
1.000000
 40
1.000000
 10
755.935949
 20
509.453364
 30
0.000000
 10
755.789349
 20
509.570643
 30
0.000000
 10
755.613430
 20
509.658603
 30
0.000000
 10
755.378870
 20
509.658603
 30
0.000000
  0
SPLINE
  5
138
330
1F
100
AcDbEntity
  8
0
 62
     7
100
AcDbSpline
210
0.000000
220
0.000000
230
1.0
 70
     8
 71
     3
 72
     8
 73
     4
 42
0.0000000001
 43
0.0000000001
 44
0.0000000001
 12
0.000000
 22
0.000000
 32
0.000000
 13
0.000000
 23
0.000000
 33
0.000000
 40
0.000000
 40
0.000000
 40
0.000000
 40
0.000000
 40
1.000000
 40
1.000000
 40
1.000000
 40
1.000000
 10
755.378870
 20
509.658603
 30
0.000000
 10
755.085671
 20
509.658603
 30
0.000000
 10
754.645872
 20
509.541323
 30
0.000000
 10
754.059473
 20
509.248124
 30
0.000000
  0
LINE
  5
139
330
1F
100
AcDbEntity
  8
0
  62
7
100
AcDbLine
 10
789.947077
 20
497.256270
 30
0.000000
 11
790.445516
 21
497.256270
 31
0.000000
  0
LINE
  5
140
330
1F
100
AcDbEntity
  8
0
  62
7
100
AcDbLine
 10
790.445516
 20
497.256270
 30
0.000000
 11
789.214079
 21
493.855158
 31
0.000000
  0
LINE
  5
141
330
1F
100
AcDbEntity
  8
0
  62
7
100
AcDbLine
 10
789.214079
 20
493.855158
 30
0.000000
 11
778.893460
 21
493.855158
 31
0.000000
  0
LINE
  5
142
330
1F
100
AcDbEntity
  8
0
  62
7
100
AcDbLine
 10
778.893460
 20
493.855158
 30
0.000000
 11
778.893460
 21
494.324277
 31
0.000000
  0
SPLINE
  5
143
330
1F
100
AcDbEntity
  8
0
 62
     7
100
AcDbSpline
210
0.000000
220
0.000000
230
1.0
 70
     8
 71
     3
 72
     8
 73
     4
 42
0.0000000001
 43
0.0000000001
 44
0.0000000001
 12
0.000000
 22
0.000000
 32
0.000000
 13
0.000000
 23
0.000000
 33
0.000000
 40
0.000000
 40
0.000000
 40
0.000000
 40
0.000000
 40
1.000000
 40
1.000000
 40
1.000000
 40
1.000000
 10
778.893460
 20
494.324277
 30
0.000000
 10
781.942734
 20
497.080351
 30
0.000000
 10
784.083090
 20
499.367306
 30
0.000000
 10
785.314527
 20
501.126502
 30
0.000000
  0
SPLINE
  5
144
330
1F
100
AcDbEntity
  8
0
 62
     7
100
AcDbSpline
210
0.000000
220
0.000000
230
1.0
 70
     8
 71
     3
 72
     8
 73
     4
 42
0.0000000001
 43
0.0000000001
 44
0.0000000001
 12
0.000000
 22
0.000000
 32
0.000000
 13
0.000000
 23
0.000000
 33
0.000000
 40
0.000000
 40
0.000000
 40
0.000000
 40
0.000000
 40
1.000000
 40
1.000000
 40
1.000000
 40
1.000000
 10
785.314527
 20
501.126502
 30
0.000000
 10
786.545964
 20
502.885698
 30
0.000000
 10
787.191003
 20
504.498295
 30
0.000000
 10
787.191003
 20
505.964291
 30
0.000000
  0
SPLINE
  5
145
330
1F
100
AcDbEntity
  8
0
 62
     7
100
AcDbSpline
210
0.000000
220
0.000000
230
1.0
 70
     8
 71
     3
 72
     8
 73
     4
 42
0.0000000001
 43
0.0000000001
 44
0.0000000001
 12
0.000000
 22
0.000000
 32
0.000000
 13
0.000000
 23
0.000000
 33
0.000000
 40
0.000000
 40
0.000000
 40
0.000000
 40
0.000000
 40
1.000000
 40
1.000000
 40
1.000000
 40
1.000000
 10
787.191003
 20
505.964291
 30
0.000000
 10
787.191003
 20
507.078449
 30
0.000000
 10
786.868484
 20
507.987367
 30
0.000000
 10
786.164805
 20
508.691045
 30
0.000000
  0
SPLINE
  5
146
330
1F
100
AcDbEntity
  8
0
 62
     7
100
AcDbSpline
210
0.000000
220
0.000000
230
1.0
 70
     8
 71
     3
 72
     8
 73
     4
 42
0.0000000001
 43
0.0000000001
 44
0.0000000001
 12
0.000000
 22
0.000000
 32
0.000000
 13
0.000000
 23
0.000000
 33
0.000000
 40
0.000000
 40
0.000000
 40
0.000000
 40
0.000000
 40
1.000000
 40
1.000000
 40
1.000000
 40
1.000000
 10
786.164805
 20
508.691045
 30
0.000000
 10
785.490447
 20
509.394724
 30
0.000000
 10
784.669488
 20
509.775883
 30
0.000000
 10
783.731250
 20
509.775883
 30
0.000000
  0
SPLINE
  5
147
330
1F
100
AcDbEntity
  8
0
 62
     7
100
AcDbSpline
210
0.000000
220
0.000000
230
1.0
 70
     8
 71
     3
 72
     8
 73
     4
 42
0.0000000001
 43
0.0000000001
 44
0.0000000001
 12
0.000000
 22
0.000000
 32
0.000000
 13
0.000000
 23
0.000000
 33
0.000000
 40
0.000000
 40
0.000000
 40
0.000000
 40
0.000000
 40
1.000000
 40
1.000000
 40
1.000000
 40
1.000000
 10
783.731250
 20
509.775883
 30
0.000000
 10
782.851652
 20
509.775883
 30
0.000000
 10
782.089334
 20
509.541323
 30
0.000000
 10
781.385655
 20
509.013565
 30
0.000000
  0
SPLINE
  5
148
330
1F
100
AcDbEntity
  8
0
 62
     7
100
AcDbSpline
210
0.000000
220
0.000000
230
1.0
 70
     8
 71
     3
 72
     8
 73
     4
 42
0.0000000001
 43
0.0000000001
 44
0.0000000001
 12
0.000000
 22
0.000000
 32
0.000000
 13
0.000000
 23
0.000000
 33
0.000000
 40
0.000000
 40
0.000000
 40
0.000000
 40
0.000000
 40
1.000000
 40
1.000000
 40
1.000000
 40
1.000000
 10
781.385655
 20
509.013565
 30
0.000000
 10
780.711297
 20
508.544446
 30
0.000000
 10
780.212858
 20
507.811447
 30
0.000000
 10
779.861018
 20
506.814569
 30
0.000000
  0
LINE
  5
149
330
1F
100
AcDbEntity
  8
0
  62
7
100
AcDbLine
 10
779.861018
 20
506.814569
 30
0.000000
 11
779.391899
 21
506.814569
 31
0.000000
  0
SPLINE
  5
150
330
1F
100
AcDbEntity
  8
0
 62
     7
100
AcDbSpline
210
0.000000
220
0.000000
230
1.0
 70
     8
 71
     3
 72
     8
 73
     4
 42
0.0000000001
 43
0.0000000001
 44
0.0000000001
 12
0.000000
 22
0.000000
 32
0.000000
 13
0.000000
 23
0.000000
 33
0.000000
 40
0.000000
 40
0.000000
 40
0.000000
 40
0.000000
 40
1.000000
 40
1.000000
 40
1.000000
 40
1.000000
 10
779.391899
 20
506.814569
 30
0.000000
 10
779.597139
 20
508.397846
 30
0.000000
 10
780.154218
 20
509.599963
 30
0.000000
 10
781.063136
 20
510.479561
 30
0.000000
  0
SPLINE
  5
151
330
1F
100
AcDbEntity
  8
0
 62
     7
100
AcDbSpline
210
0.000000
220
0.000000
230
1.0
 70
     8
 71
     3
 72
     8
 73
     4
 42
0.0000000001
 43
0.0000000001
 44
0.0000000001
 12
0.000000
 22
0.000000
 32
0.000000
 13
0.000000
 23
0.000000
 33
0.000000
 40
0.000000
 40
0.000000
 40
0.000000
 40
0.000000
 40
1.000000
 40
1.000000
 40
1.000000
 40
1.000000
 10
781.063136
 20
510.479561
 30
0.000000
 10
781.942734
 20
511.300520
 30
0.000000
 10
783.056892
 20
511.740319
 30
0.000000
 10
784.405609
 20
511.740319
 30
0.000000
  0
SPLINE
  5
152
330
1F
100
AcDbEntity
  8
0
 62
     7
100
AcDbSpline
210
0.000000
220
0.000000
230
1.0
 70
     8
 71
     3
 72
     8
 73
     4
 42
0.0000000001
 43
0.0000000001
 44
0.0000000001
 12
0.000000
 22
0.000000
 32
0.000000
 13
0.000000
 23
0.000000
 33
0.000000
 40
0.000000
 40
0.000000
 40
0.000000
 40
0.000000
 40
1.000000
 40
1.000000
 40
1.000000
 40
1.000000
 10
784.405609
 20
511.740319
 30
0.000000
 10
785.812966
 20
511.740319
 30
0.000000
 10
787.015083
 20
511.300520
 30
0.000000
 10
787.953321
 20
510.362282
 30
0.000000
  0
SPLINE
  5
153
330
1F
100
AcDbEntity
  8
0
 62
     7
100
AcDbSpline
210
0.000000
220
0.000000
230
1.0
 70
     8
 71
     3
 72
     8
 73
     4
 42
0.0000000001
 43
0.0000000001
 44
0.0000000001
 12
0.000000
 22
0.000000
 32
0.000000
 13
0.000000
 23
0.000000
 33
0.000000
 40
0.000000
 40
0.000000
 40
0.000000
 40
0.000000
 40
1.000000
 40
1.000000
 40
1.000000
 40
1.000000
 10
787.953321
 20
510.362282
 30
0.000000
 10
788.891559
 20
509.482684
 30
0.000000
 10
789.389998
 20
508.397846
 30
0.000000
 10
789.389998
 20
507.137089
 30
0.000000
  0
SPLINE
  5
154
330
1F
100
AcDbEntity
  8
0
 62
     7
100
AcDbSpline
210
0.000000
220
0.000000
230
1.0
 70
     8
 71
     3
 72
     8
 73
     4
 42
0.0000000001
 43
0.0000000001
 44
0.0000000001
 12
0.000000
 22
0.000000
 32
0.000000
 13
0.000000
 23
0.000000
 33
0.000000
 40
0.000000
 40
0.000000
 40
0.000000
 40
0.000000
 40
1.000000
 40
1.000000
 40
1.000000
 40
1.000000
 10
789.389998
 20
507.137089
 30
0.000000
 10
789.389998
 20
506.257491
 30
0.000000
 10
789.184759
 20
505.377893
 30
0.000000
 10
788.774280
 20
504.468975
 30
0.000000
  0
SPLINE
  5
155
330
1F
100
AcDbEntity
  8
0
 62
     7
100
AcDbSpline
210
0.000000
220
0.000000
230
1.0
 70
     8
 71
     3
 72
     8
 73
     4
 42
0.0000000001
 43
0.0000000001
 44
0.0000000001
 12
0.000000
 22
0.000000
 32
0.000000
 13
0.000000
 23
0.000000
 33
0.000000
 40
0.000000
 40
0.000000
 40
0.000000
 40
0.000000
 40
1.000000
 40
1.000000
 40
1.000000
 40
1.000000
 10
788.774280
 20
504.468975
 30
0.000000
 10
788.129241
 20
503.090938
 30
0.000000
 10
787.103043
 20
501.624941
 30
0.000000
 10
785.666366
 20
500.041664
 30
0.000000
  0
SPLINE
  5
156
330
1F
100
AcDbEntity
  8
0
 62
     7
100
AcDbSpline
210
0.000000
220
0.000000
230
1.0
 70
     8
 71
     3
 72
     8
 73
     4
 42
0.0000000001
 43
0.0000000001
 44
0.0000000001
 12
0.000000
 22
0.000000
 32
0.000000
 13
0.000000
 23
0.000000
 33
0.000000
 40
0.000000
 40
0.000000
 40
0.000000
 40
0.000000
 40
1.000000
 40
1.000000
 40
1.000000
 40
1.000000
 10
785.666366
 20
500.041664
 30
0.000000
 10
783.526011
 20
497.725389
 30
0.000000
 10
782.177294
 20
496.318032
 30
0.000000
 10
781.649535
 20
495.819594
 30
0.000000
  0
LINE
  5
157
330
1F
100
AcDbEntity
  8
0
  62
7
100
AcDbLine
 10
781.649535
 20
495.819594
 30
0.000000
 11
786.194125
 21
495.819594
 31
0.000000
  0
SPLINE
  5
158
330
1F
100
AcDbEntity
  8
0
 62
     7
100
AcDbSpline
210
0.000000
220
0.000000
230
1.0
 70
     8
 71
     3
 72
     8
 73
     4
 42
0.0000000001
 43
0.0000000001
 44
0.0000000001
 12
0.000000
 22
0.000000
 32
0.000000
 13
0.000000
 23
0.000000
 33
0.000000
 40
0.000000
 40
0.000000
 40
0.000000
 40
0.000000
 40
1.000000
 40
1.000000
 40
1.000000
 40
1.000000
 10
786.194125
 20
495.819594
 30
0.000000
 10
787.132363
 20
495.819594
 30
0.000000
 10
787.777402
 20
495.848914
 30
0.000000
 10
788.158561
 20
495.936873
 30
0.000000
  0
SPLINE
  5
159
330
1F
100
AcDbEntity
  8
0
 62
     7
100
AcDbSpline
210
0.000000
220
0.000000
230
1.0
 70
     8
 71
     3
 72
     8
 73
     4
 42
0.0000000001
 43
0.0000000001
 44
0.0000000001
 12
0.000000
 22
0.000000
 32
0.000000
 13
0.000000
 23
0.000000
 33
0.000000
 40
0.000000
 40
0.000000
 40
0.000000
 40
0.000000
 40
1.000000
 40
1.000000
 40
1.000000
 40
1.000000
 10
788.158561
 20
495.936873
 30
0.000000
 10
788.510400
 20
495.995513
 30
0.000000
 10
788.862239
 20
496.112793
 30
0.000000
 10
789.155439
 20
496.347352
 30
0.000000
  0
SPLINE
  5
160
330
1F
100
AcDbEntity
  8
0
 62
     7
100
AcDbSpline
210
0.000000
220
0.000000
230
1.0
 70
     8
 71
     3
 72
     8
 73
     4
 42
0.0000000001
 43
0.0000000001
 44
0.0000000001
 12
0.000000
 22
0.000000
 32
0.000000
 13
0.000000
 23
0.000000
 33
0.000000
 40
0.000000
 40
0.000000
 40
0.000000
 40
0.000000
 40
1.000000
 40
1.000000
 40
1.000000
 40
1.000000
 10
789.155439
 20
496.347352
 30
0.000000
 10
789.448638
 20
496.552592
 30
0.000000
 10
789.712518
 20
496.845791
 30
0.000000
 10
789.947077
 20
497.256270
 30
0.000000
  0
LINE
  5
161
330
1F
100
AcDbEntity
  8
0
  62
7
100
AcDbLine
 10
809.767355
 20
507.840767
 30
0.000000
 11
809.327556
 21
508.046007
 31
0.000000
  0
SPLINE
  5
162
330
1F
100
AcDbEntity
  8
0
 62
     7
100
AcDbSpline
210
0.000000
220
0.000000
230
1.0
 70
     8
 71
     3
 72
     8
 73
     4
 42
0.0000000001
 43
0.0000000001
 44
0.0000000001
 12
0.000000
 22
0.000000
 32
0.000000
 13
0.000000
 23
0.000000
 33
0.000000
 40
0.000000
 40
0.000000
 40
0.000000
 40
0.000000
 40
1.000000
 40
1.000000
 40
1.000000
 40
1.000000
 10
809.327556
 20
508.046007
 30
0.000000
 10
809.825995
 20
509.218804
 30
0.000000
 10
810.471034
 20
510.127722
 30
0.000000
 10
811.233352
 20
510.772761
 30
0.000000
  0
SPLINE
  5
163
330
1F
100
AcDbEntity
  8
0
 62
     7
100
AcDbSpline
210
0.000000
220
0.000000
230
1.0
 70
     8
 71
     3
 72
     8
 73
     4
 42
0.0000000001
 43
0.0000000001
 44
0.0000000001
 12
0.000000
 22
0.000000
 32
0.000000
 13
0.000000
 23
0.000000
 33
0.000000
 40
0.000000
 40
0.000000
 40
0.000000
 40
0.000000
 40
1.000000
 40
1.000000
 40
1.000000
 40
1.000000
 10
811.233352
 20
510.772761
 30
0.000000
 10
811.995671
 20
511.417799
 30
0.000000
 10
812.933909
 20
511.740319
 30
0.000000
 10
814.106706
 20
511.740319
 30
0.000000
  0
SPLINE
  5
164
330
1F
100
AcDbEntity
  8
0
 62
     7
100
AcDbSpline
210
0.000000
220
0.000000
230
1.0
 70
     8
 71
     3
 72
     8
 73
     4
 42
0.0000000001
 43
0.0000000001
 44
0.0000000001
 12
0.000000
 22
0.000000
 32
0.000000
 13
0.000000
 23
0.000000
 33
0.000000
 40
0.000000
 40
0.000000
 40
0.000000
 40
0.000000
 40
1.000000
 40
1.000000
 40
1.000000
 40
1.000000
 10
814.106706
 20
511.740319
 30
0.000000
 10
815.514063
 20
511.740319
 30
0.000000
 10
816.598901
 20
511.300520
 30
0.000000
 10
817.361219
 20
510.362282
 30
0.000000
  0
SPLINE
  5
165
330
1F
100
AcDbEntity
  8
0
 62
     7
100
AcDbSpline
210
0.000000
220
0.000000
230
1.0
 70
     8
 71
     3
 72
     8
 73
     4
 42
0.0000000001
 43
0.0000000001
 44
0.0000000001
 12
0.000000
 22
0.000000
 32
0.000000
 13
0.000000
 23
0.000000
 33
0.000000
 40
0.000000
 40
0.000000
 40
0.000000
 40
0.000000
 40
1.000000
 40
1.000000
 40
1.000000
 40
1.000000
 10
817.361219
 20
510.362282
 30
0.000000
 10
817.918298
 20
509.717243
 30
0.000000
 10
818.211498
 20
508.984245
 30
0.000000
 10
818.211498
 20
508.192606
 30
0.000000
  0
SPLINE
  5
166
330
1F
100
AcDbEntity
  8
0
 62
     7
100
AcDbSpline
210
0.000000
220
0.000000
230
1.0
 70
     8
 71
     3
 72
     8
 73
     4
 42
0.0000000001
 43
0.0000000001
 44
0.0000000001
 12
0.000000
 22
0.000000
 32
0.000000
 13
0.000000
 23
0.000000
 33
0.000000
 40
0.000000
 40
0.000000
 40
0.000000
 40
0.000000
 40
1.000000
 40
1.000000
 40
1.000000
 40
1.000000
 10
818.211498
 20
508.192606
 30
0.000000
 10
818.211498
 20
506.931849
 30
0.000000
 10
817.419859
 20
505.612452
 30
0.000000
 10
815.807263
 20
504.234415
 30
0.000000
  0
SPLINE
  5
167
330
1F
100
AcDbEntity
  8
0
 62
     7
100
AcDbSpline
210
0.000000
220
0.000000
230
1.0
 70
     8
 71
     3
 72
     8
 73
     4
 42
0.0000000001
 43
0.0000000001
 44
0.0000000001
 12
0.000000
 22
0.000000
 32
0.000000
 13
0.000000
 23
0.000000
 33
0.000000
 40
0.000000
 40
0.000000
 40
0.000000
 40
0.000000
 40
1.000000
 40
1.000000
 40
1.000000
 40
1.000000
 10
815.807263
 20
504.234415
 30
0.000000
 10
816.862780
 20
503.823936
 30
0.000000
 10
817.683739
 20
503.237537
 30
0.000000
 10
818.270137
 20
502.445899
 30
0.000000
  0
SPLINE
  5
168
330
1F
100
AcDbEntity
  8
0
 62
     7
100
AcDbSpline
210
0.000000
220
0.000000
230
1.0
 70
     8
 71
     3
 72
     8
 73
     4
 42
0.0000000001
 43
0.0000000001
 44
0.0000000001
 12
0.000000
 22
0.000000
 32
0.000000
 13
0.000000
 23
0.000000
 33
0.000000
 40
0.000000
 40
0.000000
 40
0.000000
 40
0.000000
 40
1.000000
 40
1.000000
 40
1.000000
 40
1.000000
 10
818.270137
 20
502.445899
 30
0.000000
 10
818.797896
 20
501.654261
 30
0.000000
 10
819.091096
 20
500.716023
 30
0.000000
 10
819.091096
 20
499.660505
 30
0.000000
  0
SPLINE
  5
169
330
1F
100
AcDbEntity
  8
0
 62
     7
100
AcDbSpline
210
0.000000
220
0.000000
230
1.0
 70
     8
 71
     3
 72
     8
 73
     4
 42
0.0000000001
 43
0.0000000001
 44
0.0000000001
 12
0.000000
 22
0.000000
 32
0.000000
 13
0.000000
 23
0.000000
 33
0.000000
 40
0.000000
 40
0.000000
 40
0.000000
 40
0.000000
 40
1.000000
 40
1.000000
 40
1.000000
 40
1.000000
 10
819.091096
 20
499.660505
 30
0.000000
 10
819.091096
 20
498.165188
 30
0.000000
 10
818.621977
 20
496.845791
 30
0.000000
 10
817.625099
 20
495.731634
 30
0.000000
  0
SPLINE
  5
170
330
1F
100
AcDbEntity
  8
0
 62
     7
100
AcDbSpline
210
0.000000
220
0.000000
230
1.0
 70
     8
 71
     3
 72
     8
 73
     4
 42
0.0000000001
 43
0.0000000001
 44
0.0000000001
 12
0.000000
 22
0.000000
 32
0.000000
 13
0.000000
 23
0.000000
 33
0.000000
 40
0.000000
 40
0.000000
 40
0.000000
 40
0.000000
 40
1.000000
 40
1.000000
 40
1.000000
 40
1.000000
 10
817.625099
 20
495.731634
 30
0.000000
 10
816.393661
 20
494.294957
 30
0.000000
 10
814.546505
 20
493.561959
 30
0.000000
 10
812.142270
 20
493.561959
 30
0.000000
  0
SPLINE
  5
171
330
1F
100
AcDbEntity
  8
0
 62
     7
100
AcDbSpline
210
0.000000
220
0.000000
230
1.0
 70
     8
 71
     3
 72
     8
 73
     4
 42
0.0000000001
 43
0.0000000001
 44
0.0000000001
 12
0.000000
 22
0.000000
 32
0.000000
 13
0.000000
 23
0.000000
 33
0.000000
 40
0.000000
 40
0.000000
 40
0.000000
 40
0.000000
 40
1.000000
 40
1.000000
 40
1.000000
 40
1.000000
 10
812.142270
 20
493.561959
 30
0.000000
 10
810.969473
 20
493.561959
 30
0.000000
 10
810.177834
 20
493.708558
 30
0.000000
 10
809.738035
 20
494.001758
 30
0.000000
  0
SPLINE
  5
172
330
1F
100
AcDbEntity
  8
0
 62
     7
100
AcDbSpline
210
0.000000
220
0.000000
230
1.0
 70
     8
 71
     3
 72
     8
 73
     4
 42
0.0000000001
 43
0.0000000001
 44
0.0000000001
 12
0.000000
 22
0.000000
 32
0.000000
 13
0.000000
 23
0.000000
 33
0.000000
 40
0.000000
 40
0.000000
 40
0.000000
 40
0.000000
 40
1.000000
 40
1.000000
 40
1.000000
 40
1.000000
 10
809.738035
 20
494.001758
 30
0.000000
 10
809.327556
 20
494.294957
 30
0.000000
 10
809.092997
 20
494.588156
 30
0.000000
 10
809.092997
 20
494.939996
 30
0.000000
  0
SPLINE
  5
173
330
1F
100
AcDbEntity
  8
0
 62
     7
100
AcDbSpline
210
0.000000
220
0.000000
230
1.0
 70
     8
 71
     3
 72
     8
 73
     4
 42
0.0000000001
 43
0.0000000001
 44
0.0000000001
 12
0.000000
 22
0.000000
 32
0.000000
 13
0.000000
 23
0.000000
 33
0.000000
 40
0.000000
 40
0.000000
 40
0.000000
 40
0.000000
 40
1.000000
 40
1.000000
 40
1.000000
 40
1.000000
 10
809.092997
 20
494.939996
 30
0.000000
 10
809.092997
 20
495.174555
 30
0.000000
 10
809.180957
 20
495.409114
 30
0.000000
 10
809.386196
 20
495.585034
 30
0.000000
  0
SPLINE
  5
174
330
1F
100
AcDbEntity
  8
0
 62
     7
100
AcDbSpline
210
0.000000
220
0.000000
230
1.0
 70
     8
 71
     3
 72
     8
 73
     4
 42
0.0000000001
 43
0.0000000001
 44
0.0000000001
 12
0.000000
 22
0.000000
 32
0.000000
 13
0.000000
 23
0.000000
 33
0.000000
 40
0.000000
 40
0.000000
 40
0.000000
 40
0.000000
 40
1.000000
 40
1.000000
 40
1.000000
 40
1.000000
 10
809.386196
 20
495.585034
 30
0.000000
 10
809.591436
 20
495.760954
 30
0.000000
 10
809.825995
 20
495.878233
 30
0.000000
 10
810.119195
 20
495.878233
 30
0.000000
  0
SPLINE
  5
175
330
1F
100
AcDbEntity
  8
0
 62
     7
100
AcDbSpline
210
0.000000
220
0.000000
230
1.0
 70
     8
 71
     3
 72
     8
 73
     4
 42
0.0000000001
 43
0.0000000001
 44
0.0000000001
 12
0.000000
 22
0.000000
 32
0.000000
 13
0.000000
 23
0.000000
 33
0.000000
 40
0.000000
 40
0.000000
 40
0.000000
 40
0.000000
 40
1.000000
 40
1.000000
 40
1.000000
 40
1.000000
 10
810.119195
 20
495.878233
 30
0.000000
 10
810.353754
 20
495.878233
 30
0.000000
 10
810.558994
 20
495.848914
 30
0.000000
 10
810.793553
 20
495.760954
 30
0.000000
  0
SPLINE
  5
176
330
1F
100
AcDbEntity
  8
0
 62
     7
100
AcDbSpline
210
0.000000
220
0.000000
230
1.0
 70
     8
 71
     3
 72
     8
 73
     4
 42
0.0000000001
 43
0.0000000001
 44
0.0000000001
 12
0.000000
 22
0.000000
 32
0.000000
 13
0.000000
 23
0.000000
 33
0.000000
 40
0.000000
 40
0.000000
 40
0.000000
 40
0.000000
 40
1.000000
 40
1.000000
 40
1.000000
 40
1.000000
 10
810.793553
 20
495.760954
 30
0.000000
 10
810.940153
 20
495.731634
 30
0.000000
 10
811.262672
 20
495.585034
 30
0.000000
 10
811.790431
 20
495.291835
 30
0.000000
  0
SPLINE
  5
177
330
1F
100
AcDbEntity
  8
0
 62
     7
100
AcDbSpline
210
0.000000
220
0.000000
230
1.0
 70
     8
 71
     3
 72
     8
 73
     4
 42
0.0000000001
 43
0.0000000001
 44
0.0000000001
 12
0.000000
 22
0.000000
 32
0.000000
 13
0.000000
 23
0.000000
 33
0.000000
 40
0.000000
 40
0.000000
 40
0.000000
 40
0.000000
 40
1.000000
 40
1.000000
 40
1.000000
 40
1.000000
 10
811.790431
 20
495.291835
 30
0.000000
 10
812.318190
 20
495.057275
 30
0.000000
 10
812.670029
 20
494.881356
 30
0.000000
 10
812.875269
 20
494.822716
 30
0.000000
  0
SPLINE
  5
178
330
1F
100
AcDbEntity
  8
0
 62
     7
100
AcDbSpline
210
0.000000
220
0.000000
230
1.0
 70
     8
 71
     3
 72
     8
 73
     4
 42
0.0000000001
 43
0.0000000001
 44
0.0000000001
 12
0.000000
 22
0.000000
 32
0.000000
 13
0.000000
 23
0.000000
 33
0.000000
 40
0.000000
 40
0.000000
 40
0.000000
 40
0.000000
 40
1.000000
 40
1.000000
 40
1.000000
 40
1.000000
 10
812.875269
 20
494.822716
 30
0.000000
 10
813.168468
 20
494.734756
 30
0.000000
 10
813.520307
 20
494.676116
 30
0.000000
 10
813.901467
 20
494.676116
 30
0.000000
  0
SPLINE
  5
179
330
1F
100
AcDbEntity
  8
0
 62
     7
100
AcDbSpline
210
0.000000
220
0.000000
230
1.0
 70
     8
 71
     3
 72
     8
 73
     4
 42
0.0000000001
 43
0.0000000001
 44
0.0000000001
 12
0.000000
 22
0.000000
 32
0.000000
 13
0.000000
 23
0.000000
 33
0.000000
 40
0.000000
 40
0.000000
 40
0.000000
 40
0.000000
 40
1.000000
 40
1.000000
 40
1.000000
 40
1.000000
 10
813.901467
 20
494.676116
 30
0.000000
 10
814.781065
 20
494.676116
 30
0.000000
 10
815.543383
 20
494.998635
 30
0.000000
 10
816.217742
 20
495.702314
 30
0.000000
  0
SPLINE
  5
180
330
1F
100
AcDbEntity
  8
0
 62
     7
100
AcDbSpline
210
0.000000
220
0.000000
230
1.0
 70
     8
 71
     3
 72
     8
 73
     4
 42
0.0000000001
 43
0.0000000001
 44
0.0000000001
 12
0.000000
 22
0.000000
 32
0.000000
 13
0.000000
 23
0.000000
 33
0.000000
 40
0.000000
 40
0.000000
 40
0.000000
 40
0.000000
 40
1.000000
 40
1.000000
 40
1.000000
 40
1.000000
 10
816.217742
 20
495.702314
 30
0.000000
 10
816.862780
 20
496.376672
 30
0.000000
 10
817.185300
 20
497.168311
 30
0.000000
 10
817.185300
 20
498.106549
 30
0.000000
  0
SPLINE
  5
181
330
1F
100
AcDbEntity
  8
0
 62
     7
100
AcDbSpline
210
0.000000
220
0.000000
230
1.0
 70
     8
 71
     3
 72
     8
 73
     4
 42
0.0000000001
 43
0.0000000001
 44
0.0000000001
 12
0.000000
 22
0.000000
 32
0.000000
 13
0.000000
 23
0.000000
 33
0.000000
 40
0.000000
 40
0.000000
 40
0.000000
 40
0.000000
 40
1.000000
 40
1.000000
 40
1.000000
 40
1.000000
 10
817.185300
 20
498.106549
 30
0.000000
 10
817.185300
 20
498.780907
 30
0.000000
 10
817.038700
 20
499.455266
 30
0.000000
 10
816.745501
 20
500.100304
 30
0.000000
  0
SPLINE
  5
182
330
1F
100
AcDbEntity
  8
0
 62
     7
100
AcDbSpline
210
0.000000
220
0.000000
230
1.0
 70
     8
 71
     3
 72
     8
 73
     4
 42
0.0000000001
 43
0.0000000001
 44
0.0000000001
 12
0.000000
 22
0.000000
 32
0.000000
 13
0.000000
 23
0.000000
 33
0.000000
 40
0.000000
 40
0.000000
 40
0.000000
 40
0.000000
 40
1.000000
 40
1.000000
 40
1.000000
 40
1.000000
 10
816.745501
 20
500.100304
 30
0.000000
 10
816.510941
 20
500.569423
 30
0.000000
 10
816.276382
 20
500.950582
 30
0.000000
 10
815.983182
 20
501.214462
 30
0.000000
  0
SPLINE
  5
183
330
1F
100
AcDbEntity
  8
0
 62
     7
100
AcDbSpline
210
0.000000
220
0.000000
230
1.0
 70
     8
 71
     3
 72
     8
 73
     4
 42
0.0000000001
 43
0.0000000001
 44
0.0000000001
 12
0.000000
 22
0.000000
 32
0.000000
 13
0.000000
 23
0.000000
 33
0.000000
 40
0.000000
 40
0.000000
 40
0.000000
 40
0.000000
 40
1.000000
 40
1.000000
 40
1.000000
 40
1.000000
 10
815.983182
 20
501.214462
 30
0.000000
 10
815.631343
 20
501.536981
 30
0.000000
 10
815.103584
 20
501.859500
 30
0.000000
 10
814.458545
 20
502.152700
 30
0.000000
  0
SPLINE
  5
184
330
1F
100
AcDbEntity
  8
0
 62
     7
100
AcDbSpline
210
0.000000
220
0.000000
230
1.0
 70
     8
 71
     3
 72
     8
 73
     4
 42
0.0000000001
 43
0.0000000001
 44
0.0000000001
 12
0.000000
 22
0.000000
 32
0.000000
 13
0.000000
 23
0.000000
 33
0.000000
 40
0.000000
 40
0.000000
 40
0.000000
 40
0.000000
 40
1.000000
 40
1.000000
 40
1.000000
 40
1.000000
 10
814.458545
 20
502.152700
 30
0.000000
 10
813.813507
 20
502.416579
 30
0.000000
 10
813.168468
 20
502.563179
 30
0.000000
 10
812.494110
 20
502.563179
 30
0.000000
  0
LINE
  5
185
330
1F
100
AcDbEntity
  8
0
  62
7
100
AcDbLine
 10
812.494110
 20
502.563179
 30
0.000000
 11
812.083630
 21
502.563179
 31
0.000000
  0
LINE
  5
186
330
1F
100
AcDbEntity
  8
0
  62
7
100
AcDbLine
 10
812.083630
 20
502.563179
 30
0.000000
 11
812.083630
 21
502.944338
 31
0.000000
  0
SPLINE
  5
187
330
1F
100
AcDbEntity
  8
0
 62
     7
100
AcDbSpline
210
0.000000
220
0.000000
230
1.0
 70
     8
 71
     3
 72
     8
 73
     4
 42
0.0000000001
 43
0.0000000001
 44
0.0000000001
 12
0.000000
 22
0.000000
 32
0.000000
 13
0.000000
 23
0.000000
 33
0.000000
 40
0.000000
 40
0.000000
 40
0.000000
 40
0.000000
 40
1.000000
 40
1.000000
 40
1.000000
 40
1.000000
 10
812.083630
 20
502.944338
 30
0.000000
 10
812.728669
 20
503.002978
 30
0.000000
 10
813.403028
 20
503.266857
 30
0.000000
 10
814.106706
 20
503.677336
 30
0.000000
  0
SPLINE
  5
188
330
1F
100
AcDbEntity
  8
0
 62
     7
100
AcDbSpline
210
0.000000
220
0.000000
230
1.0
 70
     8
 71
     3
 72
     8
 73
     4
 42
0.0000000001
 43
0.0000000001
 44
0.0000000001
 12
0.000000
 22
0.000000
 32
0.000000
 13
0.000000
 23
0.000000
 33
0.000000
 40
0.000000
 40
0.000000
 40
0.000000
 40
0.000000
 40
1.000000
 40
1.000000
 40
1.000000
 40
1.000000
 10
814.106706
 20
503.677336
 30
0.000000
 10
814.781065
 20
504.087815
 30
0.000000
 10
815.279504
 20
504.556934
 30
0.000000
 10
815.602023
 20
505.143333
 30
0.000000
  0
SPLINE
  5
189
330
1F
100
AcDbEntity
  8
0
 62
     7
100
AcDbSpline
210
0.000000
220
0.000000
230
1.0
 70
     8
 71
     3
 72
     8
 73
     4
 42
0.0000000001
 43
0.0000000001
 44
0.0000000001
 12
0.000000
 22
0.000000
 32
0.000000
 13
0.000000
 23
0.000000
 33
0.000000
 40
0.000000
 40
0.000000
 40
0.000000
 40
0.000000
 40
1.000000
 40
1.000000
 40
1.000000
 40
1.000000
 10
815.602023
 20
505.143333
 30
0.000000
 10
815.895222
 20
505.700412
 30
0.000000
 10
816.071142
 20
506.316131
 30
0.000000
 10
816.071142
 20
507.019809
 30
0.000000
  0
SPLINE
  5
190
330
1F
100
AcDbEntity
  8
0
 62
     7
100
AcDbSpline
210
0.000000
220
0.000000
230
1.0
 70
     8
 71
     3
 72
     8
 73
     4
 42
0.0000000001
 43
0.0000000001
 44
0.0000000001
 12
0.000000
 22
0.000000
 32
0.000000
 13
0.000000
 23
0.000000
 33
0.000000
 40
0.000000
 40
0.000000
 40
0.000000
 40
0.000000
 40
1.000000
 40
1.000000
 40
1.000000
 40
1.000000
 10
816.071142
 20
507.019809
 30
0.000000
 10
816.071142
 20
507.899407
 30
0.000000
 10
815.807263
 20
508.603086
 30
0.000000
 10
815.220864
 20
509.160164
 30
0.000000
  0
SPLINE
  5
191
330
1F
100
AcDbEntity
  8
0
 62
     7
100
AcDbSpline
210
0.000000
220
0.000000
230
1.0
 70
     8
 71
     3
 72
     8
 73
     4
 42
0.0000000001
 43
0.0000000001
 44
0.0000000001
 12
0.000000
 22
0.000000
 32
0.000000
 13
0.000000
 23
0.000000
 33
0.000000
 40
0.000000
 40
0.000000
 40
0.000000
 40
0.000000
 40
1.000000
 40
1.000000
 40
1.000000
 40
1.000000
 10
815.220864
 20
509.160164
 30
0.000000
 10
814.693105
 20
509.687923
 30
0.000000
 10
813.989426
 20
509.981123
 30
0.000000
 10
813.139148
 20
509.981123
 30
0.000000
  0
SPLINE
  5
192
330
1F
100
AcDbEntity
  8
0
 62
     7
100
AcDbSpline
210
0.000000
220
0.000000
230
1.0
 70
     8
 71
     3
 72
     8
 73
     4
 42
0.0000000001
 43
0.0000000001
 44
0.0000000001
 12
0.000000
 22
0.000000
 32
0.000000
 13
0.000000
 23
0.000000
 33
0.000000
 40
0.000000
 40
0.000000
 40
0.000000
 40
0.000000
 40
1.000000
 40
1.000000
 40
1.000000
 40
1.000000
 10
813.139148
 20
509.981123
 30
0.000000
 10
811.790431
 20
509.981123
 30
0.000000
 10
810.676273
 20
509.277444
 30
0.000000
 10
809.767355
 20
507.840767
 30
0.000000
  0
LINE
  5
193
330
1F
100
AcDbEntity
  8
0
  62
7
100
AcDbLine
 10
846.681157
 20
500.334864
 30
0.000000
 11
849.026752
 21
500.334864
 31
0.000000
  0
LINE
  5
194
330
1F
100
AcDbEntity
  8
0
  62
7
100
AcDbLine
 10
849.026752
 20
500.334864
 30
0.000000
 11
849.026752
 21
498.487708
 31
0.000000
  0
LINE
  5
195
330
1F
100
AcDbEntity
  8
0
  62
7
100
AcDbLine
 10
849.026752
 20
498.487708
 30
0.000000
 11
846.681157
 21
498.487708
 31
0.000000
  0
LINE
  5
196
330
1F
100
AcDbEntity
  8
0
  62
7
100
AcDbLine
 10
846.681157
 20
498.487708
 30
0.000000
 11
846.681157
 21
493.855158
 31
0.000000
  0
LINE
  5
197
330
1F
100
AcDbEntity
  8
0
  62
7
100
AcDbLine
 10
846.681157
 20
493.855158
 30
0.000000
 11
844.540802
 21
493.855158
 31
0.000000
  0
LINE
  5
198
330
1F
100
AcDbEntity
  8
0
  62
7
100
AcDbLine
 10
844.540802
 20
493.855158
 30
0.000000
 11
844.540802
 21
498.487708
 31
0.000000
  0
LINE
  5
199
330
1F
100
AcDbEntity
  8
0
  62
7
100
AcDbLine
 10
844.540802
 20
498.487708
 30
0.000000
 11
837.093538
 21
498.487708
 31
0.000000
  0
LINE
  5
200
330
1F
100
AcDbEntity
  8
0
  62
7
100
AcDbLine
 10
837.093538
 20
498.487708
 30
0.000000
 11
837.093538
 21
500.158944
 31
0.000000
  0
LINE
  5
201
330
1F
100
AcDbEntity
  8
0
  62
7
100
AcDbLine
 10
837.093538
 20
500.158944
 30
0.000000
 11
845.244480
 21
511.740319
 31
0.000000
  0
LINE
  5
202
330
1F
100
AcDbEntity
  8
0
  62
7
100
AcDbLine
 10
845.244480
 20
511.740319
 30
0.000000
 11
846.681157
 21
511.740319
 31
0.000000
  0
LINE
  5
203
330
1F
100
AcDbEntity
  8
0
  62
7
100
AcDbLine
 10
846.681157
 20
511.740319
 30
0.000000
 11
846.681157
 21
500.334864
 31
0.000000
  0
LINE
  5
204
330
1F
100
AcDbEntity
  8
0
  62
7
100
AcDbLine
 10
838.354295
 20
500.334864
 30
0.000000
 11
844.540802
 21
500.334864
 31
0.000000
  0
LINE
  5
205
330
1F
100
AcDbEntity
  8
0
  62
7
100
AcDbLine
 10
844.540802
 20
500.334864
 30
0.000000
 11
844.540802
 21
509.013565
 31
0.000000
  0
LINE
  5
206
330
1F
100
AcDbEntity
  8
0
  62
7
100
AcDbLine
 10
844.540802
 20
509.013565
 30
0.000000
 11
838.354295
 21
500.334864
 31
0.000000
  0
LINE
  5
207
330
1F
100
AcDbEntity
  8
0
  62
7
100
AcDbLine
 10
871.837664
 20
511.388479
 30
0.000000
 11
878.141451
 21
511.388479
 31
0.000000
  0
LINE
  5
208
330
1F
100
AcDbEntity
  8
0
  62
7
100
AcDbLine
 10
878.141451
 20
511.388479
 30
0.000000
 11
877.115253
 21
509.189484
 31
0.000000
  0
LINE
  5
209
330
1F
100
AcDbEntity
  8
0
  62
7
100
AcDbLine
 10
877.115253
 20
509.189484
 30
0.000000
 11
871.808344
 21
509.189484
 31
0.000000
  0
LINE
  5
210
330
1F
100
AcDbEntity
  8
0
  62
7
100
AcDbLine
 10
871.808344
 20
509.189484
 30
0.000000
 11
870.664867
 21
506.843889
 31
0.000000
  0
SPLINE
  5
211
330
1F
100
AcDbEntity
  8
0
 62
     7
100
AcDbSpline
210
0.000000
220
0.000000
230
1.0
 70
     8
 71
     3
 72
     8
 73
     4
 42
0.0000000001
 43
0.0000000001
 44
0.0000000001
 12
0.000000
 22
0.000000
 32
0.000000
 13
0.000000
 23
0.000000
 33
0.000000
 40
0.000000
 40
0.000000
 40
0.000000
 40
0.000000
 40
1.000000
 40
1.000000
 40
1.000000
 40
1.000000
 10
870.664867
 20
506.843889
 30
0.000000
 10
872.951822
 20
506.521370
 30
0.000000
 10
874.769658
 20
505.671092
 30
0.000000
 10
876.118375
 20
504.293055
 30
0.000000
  0
SPLINE
  5
212
330
1F
100
AcDbEntity
  8
0
 62
     7
100
AcDbSpline
210
0.000000
220
0.000000
230
1.0
 70
     8
 71
     3
 72
     8
 73
     4
 42
0.0000000001
 43
0.0000000001
 44
0.0000000001
 12
0.000000
 22
0.000000
 32
0.000000
 13
0.000000
 23
0.000000
 33
0.000000
 40
0.000000
 40
0.000000
 40
0.000000
 40
0.000000
 40
1.000000
 40
1.000000
 40
1.000000
 40
1.000000
 10
876.118375
 20
504.293055
 30
0.000000
 10
877.261853
 20
503.120258
 30
0.000000
 10
877.848252
 20
501.742221
 30
0.000000
 10
877.848252
 20
500.158944
 30
0.000000
  0
SPLINE
  5
213
330
1F
100
AcDbEntity
  8
0
 62
     7
100
AcDbSpline
210
0.000000
220
0.000000
230
1.0
 70
     8
 71
     3
 72
     8
 73
     4
 42
0.0000000001
 43
0.0000000001
 44
0.0000000001
 12
0.000000
 22
0.000000
 32
0.000000
 13
0.000000
 23
0.000000
 33
0.000000
 40
0.000000
 40
0.000000
 40
0.000000
 40
0.000000
 40
1.000000
 40
1.000000
 40
1.000000
 40
1.000000
 10
877.848252
 20
500.158944
 30
0.000000
 10
877.848252
 20
499.250026
 30
0.000000
 10
877.672332
 20
498.399748
 30
0.000000
 10
877.291173
 20
497.608110
 30
0.000000
  0
SPLINE
  5
214
330
1F
100
AcDbEntity
  8
0
 62
     7
100
AcDbSpline
210
0.000000
220
0.000000
230
1.0
 70
     8
 71
     3
 72
     8
 73
     4
 42
0.0000000001
 43
0.0000000001
 44
0.0000000001
 12
0.000000
 22
0.000000
 32
0.000000
 13
0.000000
 23
0.000000
 33
0.000000
 40
0.000000
 40
0.000000
 40
0.000000
 40
0.000000
 40
1.000000
 40
1.000000
 40
1.000000
 40
1.000000
 10
877.291173
 20
497.608110
 30
0.000000
 10
876.939334
 20
496.845791
 30
0.000000
 10
876.440895
 20
496.171433
 30
0.000000
 10
875.854496
 20
495.614354
 30
0.000000
  0
SPLINE
  5
215
330
1F
100
AcDbEntity
  8
0
 62
     7
100
AcDbSpline
210
0.000000
220
0.000000
230
1.0
 70
     8
 71
     3
 72
     8
 73
     4
 42
0.0000000001
 43
0.0000000001
 44
0.0000000001
 12
0.000000
 22
0.000000
 32
0.000000
 13
0.000000
 23
0.000000
 33
0.000000
 40
0.000000
 40
0.000000
 40
0.000000
 40
0.000000
 40
1.000000
 40
1.000000
 40
1.000000
 40
1.000000
 10
875.854496
 20
495.614354
 30
0.000000
 10
875.297417
 20
495.057275
 30
0.000000
 10
874.652378
 20
494.617476
 30
0.000000
 10
873.948700
 20
494.265637
 30
0.000000
  0
SPLINE
  5
216
330
1F
100
AcDbEntity
  8
0
 62
     7
100
AcDbSpline
210
0.000000
220
0.000000
230
1.0
 70
     8
 71
     3
 72
     8
 73
     4
 42
0.0000000001
 43
0.0000000001
 44
0.0000000001
 12
0.000000
 22
0.000000
 32
0.000000
 13
0.000000
 23
0.000000
 33
0.000000
 40
0.000000
 40
0.000000
 40
0.000000
 40
0.000000
 40
1.000000
 40
1.000000
 40
1.000000
 40
1.000000
 10
873.948700
 20
494.265637
 30
0.000000
 10
872.981142
 20
493.796518
 30
0.000000
 10
871.954944
 20
493.561959
 30
0.000000
 10
870.899426
 20
493.561959
 30
0.000000
  0
SPLINE
  5
217
330
1F
100
AcDbEntity
  8
0
 62
     7
100
AcDbSpline
210
0.000000
220
0.000000
230
1.0
 70
     8
 71
     3
 72
     8
 73
     4
 42
0.0000000001
 43
0.0000000001
 44
0.0000000001
 12
0.000000
 22
0.000000
 32
0.000000
 13
0.000000
 23
0.000000
 33
0.000000
 40
0.000000
 40
0.000000
 40
0.000000
 40
0.000000
 40
1.000000
 40
1.000000
 40
1.000000
 40
1.000000
 10
870.899426
 20
493.561959
 30
0.000000
 10
869.843909
 20
493.561959
 30
0.000000
 10
869.081590
 20
493.737878
 30
0.000000
 10
868.612471
 20
494.089717
 30
0.000000
  0
SPLINE
  5
218
330
1F
100
AcDbEntity
  8
0
 62
     7
100
AcDbSpline
210
0.000000
220
0.000000
230
1.0
 70
     8
 71
     3
 72
     8
 73
     4
 42
0.0000000001
 43
0.0000000001
 44
0.0000000001
 12
0.000000
 22
0.000000
 32
0.000000
 13
0.000000
 23
0.000000
 33
0.000000
 40
0.000000
 40
0.000000
 40
0.000000
 40
0.000000
 40
1.000000
 40
1.000000
 40
1.000000
 40
1.000000
 10
868.612471
 20
494.089717
 30
0.000000
 10
868.143352
 20
494.441557
 30
0.000000
 10
867.879473
 20
494.822716
 30
0.000000
 10
867.879473
 20
495.262515
 30
0.000000
  0
SPLINE
  5
219
330
1F
100
AcDbEntity
  8
0
 62
     7
100
AcDbSpline
210
0.000000
220
0.000000
230
1.0
 70
     8
 71
     3
 72
     8
 73
     4
 42
0.0000000001
 43
0.0000000001
 44
0.0000000001
 12
0.000000
 22
0.000000
 32
0.000000
 13
0.000000
 23
0.000000
 33
0.000000
 40
0.000000
 40
0.000000
 40
0.000000
 40
0.000000
 40
1.000000
 40
1.000000
 40
1.000000
 40
1.000000
 10
867.879473
 20
495.262515
 30
0.000000
 10
867.879473
 20
495.497074
 30
0.000000
 10
867.967433
 20
495.731634
 30
0.000000
 10
868.172672
 20
495.907553
 30
0.000000
  0
SPLINE
  5
220
330
1F
100
AcDbEntity
  8
0
 62
     7
100
AcDbSpline
210
0.000000
220
0.000000
230
1.0
 70
     8
 71
     3
 72
     8
 73
     4
 42
0.0000000001
 43
0.0000000001
 44
0.0000000001
 12
0.000000
 22
0.000000
 32
0.000000
 13
0.000000
 23
0.000000
 33
0.000000
 40
0.000000
 40
0.000000
 40
0.000000
 40
0.000000
 40
1.000000
 40
1.000000
 40
1.000000
 40
1.000000
 10
868.172672
 20
495.907553
 30
0.000000
 10
868.348592
 20
496.083473
 30
0.000000
 10
868.612471
 20
496.171433
 30
0.000000
 10
868.934990
 20
496.171433
 30
0.000000
  0
SPLINE
  5
221
330
1F
100
AcDbEntity
  8
0
 62
     7
100
AcDbSpline
210
0.000000
220
0.000000
230
1.0
 70
     8
 71
     3
 72
     8
 73
     4
 42
0.0000000001
 43
0.0000000001
 44
0.0000000001
 12
0.000000
 22
0.000000
 32
0.000000
 13
0.000000
 23
0.000000
 33
0.000000
 40
0.000000
 40
0.000000
 40
0.000000
 40
0.000000
 40
1.000000
 40
1.000000
 40
1.000000
 40
1.000000
 10
868.934990
 20
496.171433
 30
0.000000
 10
869.140230
 20
496.171433
 30
0.000000
 10
869.345470
 20
496.142113
 30
0.000000
 10
869.521389
 20
496.083473
 30
0.000000
  0
SPLINE
  5
222
330
1F
100
AcDbEntity
  8
0
 62
     7
100
AcDbSpline
210
0.000000
220
0.000000
230
1.0
 70
     8
 71
     3
 72
     8
 73
     4
 42
0.0000000001
 43
0.0000000001
 44
0.0000000001
 12
0.000000
 22
0.000000
 32
0.000000
 13
0.000000
 23
0.000000
 33
0.000000
 40
0.000000
 40
0.000000
 40
0.000000
 40
0.000000
 40
1.000000
 40
1.000000
 40
1.000000
 40
1.000000
 10
869.521389
 20
496.083473
 30
0.000000
 10
869.667989
 20
496.024833
 30
0.000000
 10
869.961188
 20
495.848914
 30
0.000000
 10
870.371667
 20
495.555714
 30
0.000000
  0
SPLINE
  5
223
330
1F
100
AcDbEntity
  8
0
 62
     7
100
AcDbSpline
210
0.000000
220
0.000000
230
1.0
 70
     8
 71
     3
 72
     8
 73
     4
 42
0.0000000001
 43
0.0000000001
 44
0.0000000001
 12
0.000000
 22
0.000000
 32
0.000000
 13
0.000000
 23
0.000000
 33
0.000000
 40
0.000000
 40
0.000000
 40
0.000000
 40
0.000000
 40
1.000000
 40
1.000000
 40
1.000000
 40
1.000000
 10
870.371667
 20
495.555714
 30
0.000000
 10
871.016706
 20
495.115915
 30
0.000000
 10
871.661745
 20
494.881356
 30
0.000000
 10
872.336103
 20
494.881356
 30
0.000000
  0
SPLINE
  5
224
330
1F
100
AcDbEntity
  8
0
 62
     7
100
AcDbSpline
210
0.000000
220
0.000000
230
1.0
 70
     8
 71
     3
 72
     8
 73
     4
 42
0.0000000001
 43
0.0000000001
 44
0.0000000001
 12
0.000000
 22
0.000000
 32
0.000000
 13
0.000000
 23
0.000000
 33
0.000000
 40
0.000000
 40
0.000000
 40
0.000000
 40
0.000000
 40
1.000000
 40
1.000000
 40
1.000000
 40
1.000000
 10
872.336103
 20
494.881356
 30
0.000000
 10
873.332981
 20
494.881356
 30
0.000000
 10
874.241899
 20
495.262515
 30
0.000000
 10
875.004218
 20
496.024833
 30
0.000000
  0
SPLINE
  5
225
330
1F
100
AcDbEntity
  8
0
 62
     7
100
AcDbSpline
210
0.000000
220
0.000000
230
1.0
 70
     8
 71
     3
 72
     8
 73
     4
 42
0.0000000001
 43
0.0000000001
 44
0.0000000001
 12
0.000000
 22
0.000000
 32
0.000000
 13
0.000000
 23
0.000000
 33
0.000000
 40
0.000000
 40
0.000000
 40
0.000000
 40
0.000000
 40
1.000000
 40
1.000000
 40
1.000000
 40
1.000000
 10
875.004218
 20
496.024833
 30
0.000000
 10
875.766536
 20
496.787151
 30
0.000000
 10
876.147695
 20
497.696069
 30
0.000000
 10
876.147695
 20
498.810227
 30
0.000000
  0
SPLINE
  5
226
330
1F
100
AcDbEntity
  8
0
 62
     7
100
AcDbSpline
210
0.000000
220
0.000000
230
1.0
 70
     8
 71
     3
 72
     8
 73
     4
 42
0.0000000001
 43
0.0000000001
 44
0.0000000001
 12
0.000000
 22
0.000000
 32
0.000000
 13
0.000000
 23
0.000000
 33
0.000000
 40
0.000000
 40
0.000000
 40
0.000000
 40
0.000000
 40
1.000000
 40
1.000000
 40
1.000000
 40
1.000000
 10
876.147695
 20
498.810227
 30
0.000000
 10
876.147695
 20
499.865745
 30
0.000000
 10
875.825176
 20
500.833303
 30
0.000000
 10
875.150817
 20
501.771541
 30
0.000000
  0
SPLINE
  5
227
330
1F
100
AcDbEntity
  8
0
 62
     7
100
AcDbSpline
210
0.000000
220
0.000000
230
1.0
 70
     8
 71
     3
 72
     8
 73
     4
 42
0.0000000001
 43
0.0000000001
 44
0.0000000001
 12
0.000000
 22
0.000000
 32
0.000000
 13
0.000000
 23
0.000000
 33
0.000000
 40
0.000000
 40
0.000000
 40
0.000000
 40
0.000000
 40
1.000000
 40
1.000000
 40
1.000000
 40
1.000000
 10
875.150817
 20
501.771541
 30
0.000000
 10
874.476459
 20
502.680459
 30
0.000000
 10
873.538221
 20
503.384137
 30
0.000000
 10
872.306783
 20
503.911896
 30
0.000000
  0
SPLINE
  5
228
330
1F
100
AcDbEntity
  8
0
 62
     7
100
AcDbSpline
210
0.000000
220
0.000000
230
1.0
 70
     8
 71
     3
 72
     8
 73
     4
 42
0.0000000001
 43
0.0000000001
 44
0.0000000001
 12
0.000000
 22
0.000000
 32
0.000000
 13
0.000000
 23
0.000000
 33
0.000000
 40
0.000000
 40
0.000000
 40
0.000000
 40
0.000000
 40
1.000000
 40
1.000000
 40
1.000000
 40
1.000000
 10
872.306783
 20
503.911896
 30
0.000000
 10
871.368545
 20
504.293055
 30
0.000000
 10
870.107788
 20
504.527614
 30
0.000000
 10
868.465871
 20
504.586254
 30
0.000000
  0
LINE
  5
229
330
1F
100
AcDbEntity
  8
0
  62
7
100
AcDbLine
 10
868.465871
 20
504.586254
 30
0.000000
 11
871.837664
 21
511.388479
 31
0.000000
  0
LINE
  5
230
330
1F
100
AcDbEntity
  8
0
  62
7
100
AcDbLine
 10
906.845670
 20
511.740319
 30
0.000000
 11
907.578669
 21
511.740319
 31
0.000000
  0
LINE
  5
231
330
1F
100
AcDbEntity
  8
0
  62
7
100
AcDbLine
 10
907.578669
 20
511.740319
 30
0.000000
 11
907.578669
 21
511.241880
 31
0.000000
  0
SPLINE
  5
232
330
1F
100
AcDbEntity
  8
0
 62
     7
100
AcDbSpline
210
0.000000
220
0.000000
230
1.0
 70
     8
 71
     3
 72
     8
 73
     4
 42
0.0000000001
 43
0.0000000001
 44
0.0000000001
 12
0.000000
 22
0.000000
 32
0.000000
 13
0.000000
 23
0.000000
 33
0.000000
 40
0.000000
 40
0.000000
 40
0.000000
 40
0.000000
 40
1.000000
 40
1.000000
 40
1.000000
 40
1.000000
 10
907.578669
 20
511.241880
 30
0.000000
 10
906.464511
 20
511.124600
 30
0.000000
 10
905.526273
 20
510.919360
 30
0.000000
 10
904.793275
 20
510.567521
 30
0.000000
  0
SPLINE
  5
233
330
1F
100
AcDbEntity
  8
0
 62
     7
100
AcDbSpline
210
0.000000
220
0.000000
230
1.0
 70
     8
 71
     3
 72
     8
 73
     4
 42
0.0000000001
 43
0.0000000001
 44
0.0000000001
 12
0.000000
 22
0.000000
 32
0.000000
 13
0.000000
 23
0.000000
 33
0.000000
 40
0.000000
 40
0.000000
 40
0.000000
 40
0.000000
 40
1.000000
 40
1.000000
 40
1.000000
 40
1.000000
 10
904.793275
 20
510.567521
 30
0.000000
 10
904.089596
 20
510.245002
 30
0.000000
 10
903.385918
 20
509.717243
 30
0.000000
 10
902.682239
 20
509.013565
 30
0.000000
  0
SPLINE
  5
234
330
1F
100
AcDbEntity
  8
0
 62
     7
100
AcDbSpline
210
0.000000
220
0.000000
230
1.0
 70
     8
 71
     3
 72
     8
 73
     4
 42
0.0000000001
 43
0.0000000001
 44
0.0000000001
 12
0.000000
 22
0.000000
 32
0.000000
 13
0.000000
 23
0.000000
 33
0.000000
 40
0.000000
 40
0.000000
 40
0.000000
 40
0.000000
 40
1.000000
 40
1.000000
 40
1.000000
 40
1.000000
 10
902.682239
 20
509.013565
 30
0.000000
 10
901.978561
 20
508.309886
 30
0.000000
 10
901.421482
 20
507.547568
 30
0.000000
 10
900.952363
 20
506.697290
 30
0.000000
  0
SPLINE
  5
235
330
1F
100
AcDbEntity
  8
0
 62
     7
100
AcDbSpline
210
0.000000
220
0.000000
230
1.0
 70
     8
 71
     3
 72
     8
 73
     4
 42
0.0000000001
 43
0.0000000001
 44
0.0000000001
 12
0.000000
 22
0.000000
 32
0.000000
 13
0.000000
 23
0.000000
 33
0.000000
 40
0.000000
 40
0.000000
 40
0.000000
 40
0.000000
 40
1.000000
 40
1.000000
 40
1.000000
 40
1.000000
 10
900.952363
 20
506.697290
 30
0.000000
 10
900.483244
 20
505.847012
 30
0.000000
 10
900.102085
 20
504.820814
 30
0.000000
 10
899.808885
 20
503.648016
 30
0.000000
  0
SPLINE
  5
236
330
1F
100
AcDbEntity
  8
0
 62
     7
100
AcDbSpline
210
0.000000
220
0.000000
230
1.0
 70
     8
 71
     3
 72
     8
 73
     4
 42
0.0000000001
 43
0.0000000001
 44
0.0000000001
 12
0.000000
 22
0.000000
 32
0.000000
 13
0.000000
 23
0.000000
 33
0.000000
 40
0.000000
 40
0.000000
 40
0.000000
 40
0.000000
 40
1.000000
 40
1.000000
 40
1.000000
 40
1.000000
 10
899.808885
 20
503.648016
 30
0.000000
 10
901.040323
 20
504.468975
 30
0.000000
 10
902.271760
 20
504.908774
 30
0.000000
 10
903.532517
 20
504.908774
 30
0.000000
  0
SPLINE
  5
237
330
1F
100
AcDbEntity
  8
0
 62
     7
100
AcDbSpline
210
0.000000
220
0.000000
230
1.0
 70
     8
 71
     3
 72
     8
 73
     4
 42
0.0000000001
 43
0.0000000001
 44
0.0000000001
 12
0.000000
 22
0.000000
 32
0.000000
 13
0.000000
 23
0.000000
 33
0.000000
 40
0.000000
 40
0.000000
 40
0.000000
 40
0.000000
 40
1.000000
 40
1.000000
 40
1.000000
 40
1.000000
 10
903.532517
 20
504.908774
 30
0.000000
 10
904.705315
 20
504.908774
 30
0.000000
 10
905.760833
 20
504.439655
 30
0.000000
 10
906.640431
 20
503.472097
 30
0.000000
  0
SPLINE
  5
238
330
1F
100
AcDbEntity
  8
0
 62
     7
100
AcDbSpline
210
0.000000
220
0.000000
230
1.0
 70
     8
 71
     3
 72
     8
 73
     4
 42
0.0000000001
 43
0.0000000001
 44
0.0000000001
 12
0.000000
 22
0.000000
 32
0.000000
 13
0.000000
 23
0.000000
 33
0.000000
 40
0.000000
 40
0.000000
 40
0.000000
 40
0.000000
 40
1.000000
 40
1.000000
 40
1.000000
 40
1.000000
 10
906.640431
 20
503.472097
 30
0.000000
 10
907.520029
 20
502.504539
 30
0.000000
 10
907.959828
 20
501.273102
 30
0.000000
 10
907.959828
 20
499.748465
 30
0.000000
  0
SPLINE
  5
239
330
1F
100
AcDbEntity
  8
0
 62
     7
100
AcDbSpline
210
0.000000
220
0.000000
230
1.0
 70
     8
 71
     3
 72
     8
 73
     4
 42
0.0000000001
 43
0.0000000001
 44
0.0000000001
 12
0.000000
 22
0.000000
 32
0.000000
 13
0.000000
 23
0.000000
 33
0.000000
 40
0.000000
 40
0.000000
 40
0.000000
 40
0.000000
 40
1.000000
 40
1.000000
 40
1.000000
 40
1.000000
 10
907.959828
 20
499.748465
 30
0.000000
 10
907.959828
 20
498.282468
 30
0.000000
 10
907.520029
 20
496.963071
 30
0.000000
 10
906.640431
 20
495.760954
 30
0.000000
  0
SPLINE
  5
240
330
1F
100
AcDbEntity
  8
0
 62
     7
100
AcDbSpline
210
0.000000
220
0.000000
230
1.0
 70
     8
 71
     3
 72
     8
 73
     4
 42
0.0000000001
 43
0.0000000001
 44
0.0000000001
 12
0.000000
 22
0.000000
 32
0.000000
 13
0.000000
 23
0.000000
 33
0.000000
 40
0.000000
 40
0.000000
 40
0.000000
 40
0.000000
 40
1.000000
 40
1.000000
 40
1.000000
 40
1.000000
 10
906.640431
 20
495.760954
 30
0.000000
 10
905.584913
 20
494.294957
 30
0.000000
 10
904.148236
 20
493.561959
 30
0.000000
 10
902.389040
 20
493.561959
 30
0.000000
  0
SPLINE
  5
241
330
1F
100
AcDbEntity
  8
0
 62
     7
100
AcDbSpline
210
0.000000
220
0.000000
230
1.0
 70
     8
 71
     3
 72
     8
 73
     4
 42
0.0000000001
 43
0.0000000001
 44
0.0000000001
 12
0.000000
 22
0.000000
 32
0.000000
 13
0.000000
 23
0.000000
 33
0.000000
 40
0.000000
 40
0.000000
 40
0.000000
 40
0.000000
 40
1.000000
 40
1.000000
 40
1.000000
 40
1.000000
 10
902.389040
 20
493.561959
 30
0.000000
 10
901.216242
 20
493.561959
 30
0.000000
 10
900.190045
 20
493.943118
 30
0.000000
 10
899.339766
 20
494.764076
 30
0.000000
  0
SPLINE
  5
242
330
1F
100
AcDbEntity
  8
0
 62
     7
100
AcDbSpline
210
0.000000
220
0.000000
230
1.0
 70
     8
 71
     3
 72
     8
 73
     4
 42
0.0000000001
 43
0.0000000001
 44
0.0000000001
 12
0.000000
 22
0.000000
 32
0.000000
 13
0.000000
 23
0.000000
 33
0.000000
 40
0.000000
 40
0.000000
 40
0.000000
 40
0.000000
 40
1.000000
 40
1.000000
 40
1.000000
 40
1.000000
 10
899.339766
 20
494.764076
 30
0.000000
 10
897.697850
 20
496.288713
 30
0.000000
 10
896.876892
 20
498.282468
 30
0.000000
 10
896.876892
 20
500.745343
 30
0.000000
  0
SPLINE
  5
243
330
1F
100
AcDbEntity
  8
0
 62
     7
100
AcDbSpline
210
0.000000
220
0.000000
230
1.0
 70
     8
 71
     3
 72
     8
 73
     4
 42
0.0000000001
 43
0.0000000001
 44
0.0000000001
 12
0.000000
 22
0.000000
 32
0.000000
 13
0.000000
 23
0.000000
 33
0.000000
 40
0.000000
 40
0.000000
 40
0.000000
 40
0.000000
 40
1.000000
 40
1.000000
 40
1.000000
 40
1.000000
 10
896.876892
 20
500.745343
 30
0.000000
 10
896.876892
 20
502.299299
 30
0.000000
 10
897.170091
 20
503.794616
 30
0.000000
 10
897.815130
 20
505.201973
 30
0.000000
  0
SPLINE
  5
244
330
1F
100
AcDbEntity
  8
0
 62
     7
100
AcDbSpline
210
0.000000
220
0.000000
230
1.0
 70
     8
 71
     3
 72
     8
 73
     4
 42
0.0000000001
 43
0.0000000001
 44
0.0000000001
 12
0.000000
 22
0.000000
 32
0.000000
 13
0.000000
 23
0.000000
 33
0.000000
 40
0.000000
 40
0.000000
 40
0.000000
 40
0.000000
 40
1.000000
 40
1.000000
 40
1.000000
 40
1.000000
 10
897.815130
 20
505.201973
 30
0.000000
 10
898.430848
 20
506.609330
 30
0.000000
 10
899.339766
 20
507.840767
 30
0.000000
 10
900.512564
 20
508.954925
 30
0.000000
  0
SPLINE
  5
245
330
1F
100
AcDbEntity
  8
0
 62
     7
100
AcDbSpline
210
0.000000
220
0.000000
230
1.0
 70
     8
 71
     3
 72
     8
 73
     4
 42
0.0000000001
 43
0.0000000001
 44
0.0000000001
 12
0.000000
 22
0.000000
 32
0.000000
 13
0.000000
 23
0.000000
 33
0.000000
 40
0.000000
 40
0.000000
 40
0.000000
 40
0.000000
 40
1.000000
 40
1.000000
 40
1.000000
 40
1.000000
 10
900.512564
 20
508.954925
 30
0.000000
 10
901.656041
 20
510.039762
 30
0.000000
 10
902.770199
 20
510.772761
 30
0.000000
 10
903.855037
 20
511.183240
 30
0.000000
  0
SPLINE
  5
246
330
1F
100
AcDbEntity
  8
0
 62
     7
100
AcDbSpline
210
0.000000
220
0.000000
230
1.0
 70
     8
 71
     3
 72
     8
 73
     4
 42
0.0000000001
 43
0.0000000001
 44
0.0000000001
 12
0.000000
 22
0.000000
 32
0.000000
 13
0.000000
 23
0.000000
 33
0.000000
 40
0.000000
 40
0.000000
 40
0.000000
 40
0.000000
 40
1.000000
 40
1.000000
 40
1.000000
 40
1.000000
 10
903.855037
 20
511.183240
 30
0.000000
 10
904.910555
 20
511.535079
 30
0.000000
 10
905.907432
 20
511.740319
 30
0.000000
 10
906.845670
 20
511.740319
 30
0.000000
  0
SPLINE
  5
247
330
1F
100
AcDbEntity
  8
0
 62
     7
100
AcDbSpline
210
0.000000
220
0.000000
230
1.0
 70
     8
 71
     3
 72
     8
 73
     4
 42
0.0000000001
 43
0.0000000001
 44
0.0000000001
 12
0.000000
 22
0.000000
 32
0.000000
 13
0.000000
 23
0.000000
 33
0.000000
 40
0.000000
 40
0.000000
 40
0.000000
 40
0.000000
 40
1.000000
 40
1.000000
 40
1.000000
 40
1.000000
 10
901.245562
 20
503.589377
 30
0.000000
 10
900.893723
 20
503.472097
 30
0.000000
 10
900.336644
 20
503.178897
 30
0.000000
 10
899.574326
 20
502.709778
 30
0.000000
  0
SPLINE
  5
248
330
1F
100
AcDbEntity
  8
0
 62
     7
100
AcDbSpline
210
0.000000
220
0.000000
230
1.0
 70
     8
 71
     3
 72
     8
 73
     4
 42
0.0000000001
 43
0.0000000001
 44
0.0000000001
 12
0.000000
 22
0.000000
 32
0.000000
 13
0.000000
 23
0.000000
 33
0.000000
 40
0.000000
 40
0.000000
 40
0.000000
 40
0.000000
 40
1.000000
 40
1.000000
 40
1.000000
 40
1.000000
 10
899.574326
 20
502.709778
 30
0.000000
 10
899.427726
 20
501.536981
 30
0.000000
 10
899.339766
 20
500.598743
 30
0.000000
 10
899.339766
 20
499.895065
 30
0.000000
  0
SPLINE
  5
249
330
1F
100
AcDbEntity
  8
0
 62
     7
100
AcDbSpline
210
0.000000
220
0.000000
230
1.0
 70
     8
 71
     3
 72
     8
 73
     4
 42
0.0000000001
 43
0.0000000001
 44
0.0000000001
 12
0.000000
 22
0.000000
 32
0.000000
 13
0.000000
 23
0.000000
 33
0.000000
 40
0.000000
 40
0.000000
 40
0.000000
 40
0.000000
 40
1.000000
 40
1.000000
 40
1.000000
 40
1.000000
 10
899.339766
 20
499.895065
 30
0.000000
 10
899.339766
 20
499.074106
 30
0.000000
 10
899.486366
 20
498.194508
 30
0.000000
 10
899.808885
 20
497.197631
 30
0.000000
  0
SPLINE
  5
250
330
1F
100
AcDbEntity
  8
0
 62
     7
100
AcDbSpline
210
0.000000
220
0.000000
230
1.0
 70
     8
 71
     3
 72
     8
 73
     4
 42
0.0000000001
 43
0.0000000001
 44
0.0000000001
 12
0.000000
 22
0.000000
 32
0.000000
 13
0.000000
 23
0.000000
 33
0.000000
 40
0.000000
 40
0.000000
 40
0.000000
 40
0.000000
 40
1.000000
 40
1.000000
 40
1.000000
 40
1.000000
 10
899.808885
 20
497.197631
 30
0.000000
 10
900.102085
 20
496.259393
 30
0.000000
 10
900.541884
 20
495.497074
 30
0.000000
 10
901.157602
 20
494.910676
 30
0.000000
  0
SPLINE
  5
251
330
1F
100
AcDbEntity
  8
0
 62
     7
100
AcDbSpline
210
0.000000
220
0.000000
230
1.0
 70
     8
 71
     3
 72
     8
 73
     4
 42
0.0000000001
 43
0.0000000001
 44
0.0000000001
 12
0.000000
 22
0.000000
 32
0.000000
 13
0.000000
 23
0.000000
 33
0.000000
 40
0.000000
 40
0.000000
 40
0.000000
 40
0.000000
 40
1.000000
 40
1.000000
 40
1.000000
 40
1.000000
 10
901.157602
 20
494.910676
 30
0.000000
 10
901.597402
 20
494.500196
 30
0.000000
 10
902.125160
 20
494.294957
 30
0.000000
 10
902.770199
 20
494.294957
 30
0.000000
  0
SPLINE
  5
252
330
1F
100
AcDbEntity
  8
0
 62
     7
100
AcDbSpline
210
0.000000
220
0.000000
230
1.0
 70
     8
 71
     3
 72
     8
 73
     4
 42
0.0000000001
 43
0.0000000001
 44
0.0000000001
 12
0.000000
 22
0.000000
 32
0.000000
 13
0.000000
 23
0.000000
 33
0.000000
 40
0.000000
 40
0.000000
 40
0.000000
 40
0.000000
 40
1.000000
 40
1.000000
 40
1.000000
 40
1.000000
 10
902.770199
 20
494.294957
 30
0.000000
 10
903.503198
 20
494.294957
 30
0.000000
 10
904.177556
 20
494.646796
 30
0.000000
 10
904.793275
 20
495.350475
 30
0.000000
  0
SPLINE
  5
253
330
1F
100
AcDbEntity
  8
0
 62
     7
100
AcDbSpline
210
0.000000
220
0.000000
230
1.0
 70
     8
 71
     3
 72
     8
 73
     4
 42
0.0000000001
 43
0.0000000001
 44
0.0000000001
 12
0.000000
 22
0.000000
 32
0.000000
 13
0.000000
 23
0.000000
 33
0.000000
 40
0.000000
 40
0.000000
 40
0.000000
 40
0.000000
 40
1.000000
 40
1.000000
 40
1.000000
 40
1.000000
 10
904.793275
 20
495.350475
 30
0.000000
 10
905.379674
 20
496.054153
 30
0.000000
 10
905.672873
 20
497.051031
 30
0.000000
 10
905.672873
 20
498.370428
 30
0.000000
  0
SPLINE
  5
254
330
1F
100
AcDbEntity
  8
0
 62
     7
100
AcDbSpline
210
0.000000
220
0.000000
230
1.0
 70
     8
 71
     3
 72
     8
 73
     4
 42
0.0000000001
 43
0.0000000001
 44
0.0000000001
 12
0.000000
 22
0.000000
 32
0.000000
 13
0.000000
 23
0.000000
 33
0.000000
 40
0.000000
 40
0.000000
 40
0.000000
 40
0.000000
 40
1.000000
 40
1.000000
 40
1.000000
 40
1.000000
 10
905.672873
 20
498.370428
 30
0.000000
 10
905.672873
 20
499.836425
 30
0.000000
 10
905.379674
 20
501.097182
 30
0.000000
 10
904.793275
 20
502.182020
 30
0.000000
  0
SPLINE
  5
255
330
1F
100
AcDbEntity
  8
0
 62
     7
100
AcDbSpline
210
0.000000
220
0.000000
230
1.0
 70
     8
 71
     3
 72
     8
 73
     4
 42
0.0000000001
 43
0.0000000001
 44
0.0000000001
 12
0.000000
 22
0.000000
 32
0.000000
 13
0.000000
 23
0.000000
 33
0.000000
 40
0.000000
 40
0.000000
 40
0.000000
 40
0.000000
 40
1.000000
 40
1.000000
 40
1.000000
 40
1.000000
 10
904.793275
 20
502.182020
 30
0.000000
 10
904.206876
 20
503.237537
 30
0.000000
 10
903.385918
 20
503.794616
 30
0.000000
 10
902.301080
 20
503.794616
 30
0.000000
  0
SPLINE
  5
256
330
1F
100
AcDbEntity
  8
0
 62
     7
100
AcDbSpline
210
0.000000
220
0.000000
230
1.0
 70
     8
 71
     3
 72
     8
 73
     4
 42
0.0000000001
 43
0.0000000001
 44
0.0000000001
 12
0.000000
 22
0.000000
 32
0.000000
 13
0.000000
 23
0.000000
 33
0.000000
 40
0.000000
 40
0.000000
 40
0.000000
 40
0.000000
 40
1.000000
 40
1.000000
 40
1.000000
 40
1.000000
 10
902.301080
 20
503.794616
 30
0.000000
 10
901.978561
 20
503.794616
 30
0.000000
 10
901.626721
 20
503.735976
 30
0.000000
 10
901.245562
 20
503.589377
 30
0.000000
  0
LINE
  5
257
330
1F
100
AcDbEntity
  8
0
  62
7
100
AcDbLine
 10
926.548669
 20
507.225049
 30
0.000000
 11
928.219905
 21
511.388479
 31
0.000000
  0
LINE
  5
258
330
1F
100
AcDbEntity
  8
0
  62
7
100
AcDbLine
 10
928.219905
 20
511.388479
 30
0.000000
 11
937.631606
 21
511.388479
 31
0.000000
  0
LINE
  5
259
330
1F
100
AcDbEntity
  8
0
  62
7
100
AcDbLine
 10
937.631606
 20
511.388479
 30
0.000000
 11
937.631606
 21
510.890041
 31
0.000000
  0
LINE
  5
260
330
1F
100
AcDbEntity
  8
0
  62
7
100
AcDbLine
 10
937.631606
 20
510.890041
 30
0.000000
 11
931.767618
 21
493.503319
 31
0.000000
  0
LINE
  5
261
330
1F
100
AcDbEntity
  8
0
  62
7
100
AcDbLine
 10
931.767618
 20
493.503319
 30
0.000000
 11
930.301621
 21
493.503319
 31
0.000000
  0
LINE
  5
262
330
1F
100
AcDbEntity
  8
0
  62
7
100
AcDbLine
 10
930.301621
 20
493.503319
 30
0.000000
 11
935.579210
 21
509.277444
 31
0.000000
  0
LINE
  5
263
330
1F
100
AcDbEntity
  8
0
  62
7
100
AcDbLine
 10
935.579210
 20
509.277444
 30
0.000000
 11
930.741420
 21
509.277444
 31
0.000000
  0
SPLINE
  5
264
330
1F
100
AcDbEntity
  8
0
 62
     7
100
AcDbSpline
210
0.000000
220
0.000000
230
1.0
 70
     8
 71
     3
 72
     8
 73
     4
 42
0.0000000001
 43
0.0000000001
 44
0.0000000001
 12
0.000000
 22
0.000000
 32
0.000000
 13
0.000000
 23
0.000000
 33
0.000000
 40
0.000000
 40
0.000000
 40
0.000000
 40
0.000000
 40
1.000000
 40
1.000000
 40
1.000000
 40
1.000000
 10
930.741420
 20
509.277444
 30
0.000000
 10
929.803182
 20
509.277444
 30
0.000000
 10
929.099504
 20
509.160164
 30
0.000000
 10
928.659704
 20
508.925605
 30
0.000000
  0
SPLINE
  5
265
330
1F
100
AcDbEntity
  8
0
 62
     7
100
AcDbSpline
210
0.000000
220
0.000000
230
1.0
 70
     8
 71
     3
 72
     8
 73
     4
 42
0.0000000001
 43
0.0000000001
 44
0.0000000001
 12
0.000000
 22
0.000000
 32
0.000000
 13
0.000000
 23
0.000000
 33
0.000000
 40
0.000000
 40
0.000000
 40
0.000000
 40
0.000000
 40
1.000000
 40
1.000000
 40
1.000000
 40
1.000000
 10
928.659704
 20
508.925605
 30
0.000000
 10
927.956026
 20
508.544446
 30
0.000000
 10
927.369627
 20
507.928727
 30
0.000000
 10
926.929828
 20
507.078449
 30
0.000000
  0
LINE
  5
266
330
1F
100
AcDbEntity
  8
0
  62
7
100
AcDbLine
 10
926.929828
 20
507.078449
 30
0.000000
 11
926.548669
 21
507.225049
 31
0.000000
  0
SPLINE
  5
267
330
1F
100
AcDbEntity
  8
0
 62
     7
100
AcDbSpline
210
0.000000
220
0.000000
230
1.0
 70
     8
 71
     3
 72
     8
 73
     4
 42
0.0000000001
 43
0.0000000001
 44
0.0000000001
 12
0.000000
 22
0.000000
 32
0.000000
 13
0.000000
 23
0.000000
 33
0.000000
 40
0.000000
 40
0.000000
 40
0.000000
 40
0.000000
 40
1.000000
 40
1.000000
 40
1.000000
 40
1.000000
 10
957.598483
 20
500.158944
 30
0.000000
 10
958.126242
 20
500.921262
 30
0.000000
 10
959.005840
 20
501.742221
 30
0.000000
 10
960.295918
 20
502.680459
 30
0.000000
  0
SPLINE
  5
268
330
1F
100
AcDbEntity
  8
0
 62
     7
100
AcDbSpline
210
0.000000
220
0.000000
230
1.0
 70
     8
 71
     3
 72
     8
 73
     4
 42
0.0000000001
 43
0.0000000001
 44
0.0000000001
 12
0.000000
 22
0.000000
 32
0.000000
 13
0.000000
 23
0.000000
 33
0.000000
 40
0.000000
 40
0.000000
 40
0.000000
 40
0.000000
 40
1.000000
 40
1.000000
 40
1.000000
 40
1.000000
 10
960.295918
 20
502.680459
 30
0.000000
 10
958.947201
 20
503.794616
 30
0.000000
 10
958.038282
 20
504.703534
 30
0.000000
 10
957.627803
 20
505.407213
 30
0.000000
  0
SPLINE
  5
269
330
1F
100
AcDbEntity
  8
0
 62
     7
100
AcDbSpline
210
0.000000
220
0.000000
230
1.0
 70
     8
 71
     3
 72
     8
 73
     4
 42
0.0000000001
 43
0.0000000001
 44
0.0000000001
 12
0.000000
 22
0.000000
 32
0.000000
 13
0.000000
 23
0.000000
 33
0.000000
 40
0.000000
 40
0.000000
 40
0.000000
 40
0.000000
 40
1.000000
 40
1.000000
 40
1.000000
 40
1.000000
 10
957.627803
 20
505.407213
 30
0.000000
 10
957.246644
 20
506.110891
 30
0.000000
 10
957.041405
 20
506.814569
 30
0.000000
 10
957.041405
 20
507.576888
 30
0.000000
  0
SPLINE
  5
270
330
1F
100
AcDbEntity
  8
0
 62
     7
100
AcDbSpline
210
0.000000
220
0.000000
230
1.0
 70
     8
 71
     3
 72
     8
 73
     4
 42
0.0000000001
 43
0.0000000001
 44
0.0000000001
 12
0.000000
 22
0.000000
 32
0.000000
 13
0.000000
 23
0.000000
 33
0.000000
 40
0.000000
 40
0.000000
 40
0.000000
 40
0.000000
 40
1.000000
 40
1.000000
 40
1.000000
 40
1.000000
 10
957.041405
 20
507.576888
 30
0.000000
 10
957.041405
 20
508.691045
 30
0.000000
 10
957.481204
 20
509.687923
 30
0.000000
 10
958.360802
 20
510.508881
 30
0.000000
  0
SPLINE
  5
271
330
1F
100
AcDbEntity
  8
0
 62
     7
100
AcDbSpline
210
0.000000
220
0.000000
230
1.0
 70
     8
 71
     3
 72
     8
 73
     4
 42
0.0000000001
 43
0.0000000001
 44
0.0000000001
 12
0.000000
 22
0.000000
 32
0.000000
 13
0.000000
 23
0.000000
 33
0.000000
 40
0.000000
 40
0.000000
 40
0.000000
 40
0.000000
 40
1.000000
 40
1.000000
 40
1.000000
 40
1.000000
 10
958.360802
 20
510.508881
 30
0.000000
 10
959.240400
 20
511.329840
 30
0.000000
 10
960.383877
 20
511.740319
 30
0.000000
 10
961.849874
 20
511.740319
 30
0.000000
  0
SPLINE
  5
272
330
1F
100
AcDbEntity
  8
0
 62
     7
100
AcDbSpline
210
0.000000
220
0.000000
230
1.0
 70
     8
 71
     3
 72
     8
 73
     4
 42
0.0000000001
 43
0.0000000001
 44
0.0000000001
 12
0.000000
 22
0.000000
 32
0.000000
 13
0.000000
 23
0.000000
 33
0.000000
 40
0.000000
 40
0.000000
 40
0.000000
 40
0.000000
 40
1.000000
 40
1.000000
 40
1.000000
 40
1.000000
 10
961.849874
 20
511.740319
 30
0.000000
 10
963.257231
 20
511.740319
 30
0.000000
 10
964.400709
 20
511.359159
 30
0.000000
 10
965.280307
 20
510.596841
 30
0.000000
  0
SPLINE
  5
273
330
1F
100
AcDbEntity
  8
0
 62
     7
100
AcDbSpline
210
0.000000
220
0.000000
230
1.0
 70
     8
 71
     3
 72
     8
 73
     4
 42
0.0000000001
 43
0.0000000001
 44
0.0000000001
 12
0.000000
 22
0.000000
 32
0.000000
 13
0.000000
 23
0.000000
 33
0.000000
 40
0.000000
 40
0.000000
 40
0.000000
 40
0.000000
 40
1.000000
 40
1.000000
 40
1.000000
 40
1.000000
 10
965.280307
 20
510.596841
 30
0.000000
 10
966.130585
 20
509.834523
 30
0.000000
 10
966.570384
 20
508.954925
 30
0.000000
 10
966.570384
 20
507.958047
 30
0.000000
  0
SPLINE
  5
274
330
1F
100
AcDbEntity
  8
0
 62
     7
100
AcDbSpline
210
0.000000
220
0.000000
230
1.0
 70
     8
 71
     3
 72
     8
 73
     4
 42
0.0000000001
 43
0.0000000001
 44
0.0000000001
 12
0.000000
 22
0.000000
 32
0.000000
 13
0.000000
 23
0.000000
 33
0.000000
 40
0.000000
 40
0.000000
 40
0.000000
 40
0.000000
 40
1.000000
 40
1.000000
 40
1.000000
 40
1.000000
 10
966.570384
 20
507.958047
 30
0.000000
 10
966.570384
 20
507.313008
 30
0.000000
 10
966.335825
 20
506.667970
 30
0.000000
 10
965.866706
 20
505.964291
 30
0.000000
  0
SPLINE
  5
275
330
1F
100
AcDbEntity
  8
0
 62
     7
100
AcDbSpline
210
0.000000
220
0.000000
230
1.0
 70
     8
 71
     3
 72
     8
 73
     4
 42
0.0000000001
 43
0.0000000001
 44
0.0000000001
 12
0.000000
 22
0.000000
 32
0.000000
 13
0.000000
 23
0.000000
 33
0.000000
 40
0.000000
 40
0.000000
 40
0.000000
 40
0.000000
 40
1.000000
 40
1.000000
 40
1.000000
 40
1.000000
 10
965.866706
 20
505.964291
 30
0.000000
 10
965.397587
 20
505.289933
 30
0.000000
 10
964.430029
 20
504.498295
 30
0.000000
 10
962.934712
 20
503.560057
 30
0.000000
  0
SPLINE
  5
276
330
1F
100
AcDbEntity
  8
0
 62
     7
100
AcDbSpline
210
0.000000
220
0.000000
230
1.0
 70
     8
 71
     3
 72
     8
 73
     4
 42
0.0000000001
 43
0.0000000001
 44
0.0000000001
 12
0.000000
 22
0.000000
 32
0.000000
 13
0.000000
 23
0.000000
 33
0.000000
 40
0.000000
 40
0.000000
 40
0.000000
 40
0.000000
 40
1.000000
 40
1.000000
 40
1.000000
 40
1.000000
 10
962.934712
 20
503.560057
 30
0.000000
 10
964.459349
 20
502.387259
 30
0.000000
 10
965.456227
 20
501.478341
 30
0.000000
 10
965.954666
 20
500.803983
 30
0.000000
  0
SPLINE
  5
277
330
1F
100
AcDbEntity
  8
0
 62
     7
100
AcDbSpline
210
0.000000
220
0.000000
230
1.0
 70
     8
 71
     3
 72
     8
 73
     4
 42
0.0000000001
 43
0.0000000001
 44
0.0000000001
 12
0.000000
 22
0.000000
 32
0.000000
 13
0.000000
 23
0.000000
 33
0.000000
 40
0.000000
 40
0.000000
 40
0.000000
 40
0.000000
 40
1.000000
 40
1.000000
 40
1.000000
 40
1.000000
 10
965.954666
 20
500.803983
 30
0.000000
 10
966.599704
 20
499.924385
 30
0.000000
 10
966.951544
 20
499.015467
 30
0.000000
 10
966.951544
 20
498.018589
 30
0.000000
  0
SPLINE
  5
278
330
1F
100
AcDbEntity
  8
0
 62
     7
100
AcDbSpline
210
0.000000
220
0.000000
230
1.0
 70
     8
 71
     3
 72
     8
 73
     4
 42
0.0000000001
 43
0.0000000001
 44
0.0000000001
 12
0.000000
 22
0.000000
 32
0.000000
 13
0.000000
 23
0.000000
 33
0.000000
 40
0.000000
 40
0.000000
 40
0.000000
 40
0.000000
 40
1.000000
 40
1.000000
 40
1.000000
 40
1.000000
 10
966.951544
 20
498.018589
 30
0.000000
 10
966.951544
 20
496.787151
 30
0.000000
 10
966.482425
 20
495.760954
 30
0.000000
 10
965.544187
 20
494.881356
 30
0.000000
  0
SPLINE
  5
279
330
1F
100
AcDbEntity
  8
0
 62
     7
100
AcDbSpline
210
0.000000
220
0.000000
230
1.0
 70
     8
 71
     3
 72
     8
 73
     4
 42
0.0000000001
 43
0.0000000001
 44
0.0000000001
 12
0.000000
 22
0.000000
 32
0.000000
 13
0.000000
 23
0.000000
 33
0.000000
 40
0.000000
 40
0.000000
 40
0.000000
 40
0.000000
 40
1.000000
 40
1.000000
 40
1.000000
 40
1.000000
 10
965.544187
 20
494.881356
 30
0.000000
 10
964.605949
 20
494.001758
 30
0.000000
 10
963.374511
 20
493.561959
 30
0.000000
 10
961.820554
 20
493.561959
 30
0.000000
  0
SPLINE
  5
280
330
1F
100
AcDbEntity
  8
0
 62
     7
100
AcDbSpline
210
0.000000
220
0.000000
230
1.0
 70
     8
 71
     3
 72
     8
 73
     4
 42
0.0000000001
 43
0.0000000001
 44
0.0000000001
 12
0.000000
 22
0.000000
 32
0.000000
 13
0.000000
 23
0.000000
 33
0.000000
 40
0.000000
 40
0.000000
 40
0.000000
 40
0.000000
 40
1.000000
 40
1.000000
 40
1.000000
 40
1.000000
 10
961.820554
 20
493.561959
 30
0.000000
 10
960.178638
 20
493.561959
 30
0.000000
 10
958.859241
 20
494.060397
 30
0.000000
 10
957.921003
 20
495.115915
 30
0.000000
  0
SPLINE
  5
281
330
1F
100
AcDbEntity
  8
0
 62
     7
100
AcDbSpline
210
0.000000
220
0.000000
230
1.0
 70
     8
 71
     3
 72
     8
 73
     4
 42
0.0000000001
 43
0.0000000001
 44
0.0000000001
 12
0.000000
 22
0.000000
 32
0.000000
 13
0.000000
 23
0.000000
 33
0.000000
 40
0.000000
 40
0.000000
 40
0.000000
 40
0.000000
 40
1.000000
 40
1.000000
 40
1.000000
 40
1.000000
 10
957.921003
 20
495.115915
 30
0.000000
 10
957.188004
 20
495.936873
 30
0.000000
 10
956.806845
 20
496.845791
 30
0.000000
 10
956.806845
 20
497.842669
 30
0.000000
  0
SPLINE
  5
282
330
1F
100
AcDbEntity
  8
0
 62
     7
100
AcDbSpline
210
0.000000
220
0.000000
230
1.0
 70
     8
 71
     3
 72
     8
 73
     4
 42
0.0000000001
 43
0.0000000001
 44
0.0000000001
 12
0.000000
 22
0.000000
 32
0.000000
 13
0.000000
 23
0.000000
 33
0.000000
 40
0.000000
 40
0.000000
 40
0.000000
 40
0.000000
 40
1.000000
 40
1.000000
 40
1.000000
 40
1.000000
 10
956.806845
 20
497.842669
 30
0.000000
 10
956.806845
 20
498.604987
 30
0.000000
 10
957.070724
 20
499.396626
 30
0.000000
 10
957.598483
 20
500.158944
 30
0.000000
  0
LINE
  5
283
330
1F
100
AcDbEntity
  8
0
  62
7
100
AcDbLine
 10
960.237278
 20
505.817692
 30
0.000000
 11
962.318993
 21
504.058496
 31
0.000000
  0
SPLINE
  5
284
330
1F
100
AcDbEntity
  8
0
 62
     7
100
AcDbSpline
210
0.000000
220
0.000000
230
1.0
 70
     8
 71
     3
 72
     8
 73
     4
 42
0.0000000001
 43
0.0000000001
 44
0.0000000001
 12
0.000000
 22
0.000000
 32
0.000000
 13
0.000000
 23
0.000000
 33
0.000000
 40
0.000000
 40
0.000000
 40
0.000000
 40
0.000000
 40
1.000000
 40
1.000000
 40
1.000000
 40
1.000000
 10
962.318993
 20
504.058496
 30
0.000000
 10
963.374511
 20
504.996733
 30
0.000000
 10
964.019550
 20
505.729732
 30
0.000000
 10
964.312749
 20
506.257491
 30
0.000000
  0
SPLINE
  5
285
330
1F
100
AcDbEntity
  8
0
 62
     7
100
AcDbSpline
210
0.000000
220
0.000000
230
1.0
 70
     8
 71
     3
 72
     8
 73
     4
 42
0.0000000001
 43
0.0000000001
 44
0.0000000001
 12
0.000000
 22
0.000000
 32
0.000000
 13
0.000000
 23
0.000000
 33
0.000000
 40
0.000000
 40
0.000000
 40
0.000000
 40
0.000000
 40
1.000000
 40
1.000000
 40
1.000000
 40
1.000000
 10
964.312749
 20
506.257491
 30
0.000000
 10
964.576629
 20
506.785250
 30
0.000000
 10
964.723228
 20
507.400968
 30
0.000000
 10
964.723228
 20
508.104647
 30
0.000000
  0
SPLINE
  5
286
330
1F
100
AcDbEntity
  8
0
 62
     7
100
AcDbSpline
210
0.000000
220
0.000000
230
1.0
 70
     8
 71
     3
 72
     8
 73
     4
 42
0.0000000001
 43
0.0000000001
 44
0.0000000001
 12
0.000000
 22
0.000000
 32
0.000000
 13
0.000000
 23
0.000000
 33
0.000000
 40
0.000000
 40
0.000000
 40
0.000000
 40
0.000000
 40
1.000000
 40
1.000000
 40
1.000000
 40
1.000000
 10
964.723228
 20
508.104647
 30
0.000000
 10
964.723228
 20
508.984245
 30
0.000000
 10
964.488669
 20
509.717243
 30
0.000000
 10
963.960910
 20
510.245002
 30
0.000000
  0
SPLINE
  5
287
330
1F
100
AcDbEntity
  8
0
 62
     7
100
AcDbSpline
210
0.000000
220
0.000000
230
1.0
 70
     8
 71
     3
 72
     8
 73
     4
 42
0.0000000001
 43
0.0000000001
 44
0.0000000001
 12
0.000000
 22
0.000000
 32
0.000000
 13
0.000000
 23
0.000000
 33
0.000000
 40
0.000000
 40
0.000000
 40
0.000000
 40
0.000000
 40
1.000000
 40
1.000000
 40
1.000000
 40
1.000000
 10
963.960910
 20
510.245002
 30
0.000000
 10
963.462471
 20
510.743441
 30
0.000000
 10
962.758792
 20
511.007320
 30
0.000000
 10
961.879194
 20
511.007320
 30
0.000000
  0
SPLINE
  5
288
330
1F
100
AcDbEntity
  8
0
 62
     7
100
AcDbSpline
210
0.000000
220
0.000000
230
1.0
 70
     8
 71
     3
 72
     8
 73
     4
 42
0.0000000001
 43
0.0000000001
 44
0.0000000001
 12
0.000000
 22
0.000000
 32
0.000000
 13
0.000000
 23
0.000000
 33
0.000000
 40
0.000000
 40
0.000000
 40
0.000000
 40
0.000000
 40
1.000000
 40
1.000000
 40
1.000000
 40
1.000000
 10
961.879194
 20
511.007320
 30
0.000000
 10
960.999596
 20
511.007320
 30
0.000000
 10
960.295918
 20
510.772761
 30
0.000000
 10
959.738839
 20
510.245002
 30
0.000000
  0
SPLINE
  5
289
330
1F
100
AcDbEntity
  8
0
 62
     7
100
AcDbSpline
210
0.000000
220
0.000000
230
1.0
 70
     8
 71
     3
 72
     8
 73
     4
 42
0.0000000001
 43
0.0000000001
 44
0.0000000001
 12
0.000000
 22
0.000000
 32
0.000000
 13
0.000000
 23
0.000000
 33
0.000000
 40
0.000000
 40
0.000000
 40
0.000000
 40
0.000000
 40
1.000000
 40
1.000000
 40
1.000000
 40
1.000000
 10
959.738839
 20
510.245002
 30
0.000000
 10
959.211080
 20
509.746563
 30
0.000000
 10
958.917881
 20
509.160164
 30
0.000000
 10
958.917881
 20
508.456486
 30
0.000000
  0
SPLINE
  5
290
330
1F
100
AcDbEntity
  8
0
 62
     7
100
AcDbSpline
210
0.000000
220
0.000000
230
1.0
 70
     8
 71
     3
 72
     8
 73
     4
 42
0.0000000001
 43
0.0000000001
 44
0.0000000001
 12
0.000000
 22
0.000000
 32
0.000000
 13
0.000000
 23
0.000000
 33
0.000000
 40
0.000000
 40
0.000000
 40
0.000000
 40
0.000000
 40
1.000000
 40
1.000000
 40
1.000000
 40
1.000000
 10
958.917881
 20
508.456486
 30
0.000000
 10
958.917881
 20
508.016687
 30
0.000000
 10
959.035160
 20
507.576888
 30
0.000000
 10
959.269720
 20
507.107769
 30
0.000000
  0
SPLINE
  5
291
330
1F
100
AcDbEntity
  8
0
 62
     7
100
AcDbSpline
210
0.000000
220
0.000000
230
1.0
 70
     8
 71
     3
 72
     8
 73
     4
 42
0.0000000001
 43
0.0000000001
 44
0.0000000001
 12
0.000000
 22
0.000000
 32
0.000000
 13
0.000000
 23
0.000000
 33
0.000000
 40
0.000000
 40
0.000000
 40
0.000000
 40
0.000000
 40
1.000000
 40
1.000000
 40
1.000000
 40
1.000000
 10
959.269720
 20
507.107769
 30
0.000000
 10
959.474959
 20
506.667970
 30
0.000000
 10
959.797479
 20
506.228171
 30
0.000000
 10
960.237278
 20
505.817692
 30
0.000000
  0
SPLINE
  5
292
330
1F
100
AcDbEntity
  8
0
 62
     7
100
AcDbSpline
210
0.000000
220
0.000000
230
1.0
 70
     8
 71
     3
 72
     8
 73
     4
 42
0.0000000001
 43
0.0000000001
 44
0.0000000001
 12
0.000000
 22
0.000000
 32
0.000000
 13
0.000000
 23
0.000000
 33
0.000000
 40
0.000000
 40
0.000000
 40
0.000000
 40
0.000000
 40
1.000000
 40
1.000000
 40
1.000000
 40
1.000000
 10
964.635269
 20
498.634307
 30
0.000000
 10
964.048870
 20
499.513905
 30
0.000000
 10
962.788112
 20
500.716023
 30
0.000000
 10
960.911636
 20
502.182020
 30
0.000000
  0
SPLINE
  5
293
330
1F
100
AcDbEntity
  8
0
 62
     7
100
AcDbSpline
210
0.000000
220
0.000000
230
1.0
 70
     8
 71
     3
 72
     8
 73
     4
 42
0.0000000001
 43
0.0000000001
 44
0.0000000001
 12
0.000000
 22
0.000000
 32
0.000000
 13
0.000000
 23
0.000000
 33
0.000000
 40
0.000000
 40
0.000000
 40
0.000000
 40
0.000000
 40
1.000000
 40
1.000000
 40
1.000000
 40
1.000000
 10
960.911636
 20
502.182020
 30
0.000000
 10
960.207958
 20
501.595621
 30
0.000000
 10
959.650879
 20
500.921262
 30
0.000000
 10
959.299040
 20
500.217584
 30
0.000000
  0
SPLINE
  5
294
330
1F
100
AcDbEntity
  8
0
 62
     7
100
AcDbSpline
210
0.000000
220
0.000000
230
1.0
 70
     8
 71
     3
 72
     8
 73
     4
 42
0.0000000001
 43
0.0000000001
 44
0.0000000001
 12
0.000000
 22
0.000000
 32
0.000000
 13
0.000000
 23
0.000000
 33
0.000000
 40
0.000000
 40
0.000000
 40
0.000000
 40
0.000000
 40
1.000000
 40
1.000000
 40
1.000000
 40
1.000000
 10
959.299040
 20
500.217584
 30
0.000000
 10
958.947201
 20
499.513905
 30
0.000000
 10
958.771281
 20
498.751587
 30
0.000000
 10
958.771281
 20
497.930629
 30
0.000000
  0
SPLINE
  5
295
330
1F
100
AcDbEntity
  8
0
 62
     7
100
AcDbSpline
210
0.000000
220
0.000000
230
1.0
 70
     8
 71
     3
 72
     8
 73
     4
 42
0.0000000001
 43
0.0000000001
 44
0.0000000001
 12
0.000000
 22
0.000000
 32
0.000000
 13
0.000000
 23
0.000000
 33
0.000000
 40
0.000000
 40
0.000000
 40
0.000000
 40
0.000000
 40
1.000000
 40
1.000000
 40
1.000000
 40
1.000000
 10
958.771281
 20
497.930629
 30
0.000000
 10
958.771281
 20
496.845791
 30
0.000000
 10
959.064480
 20
495.966193
 30
0.000000
 10
959.680199
 20
495.291835
 30
0.000000
  0
SPLINE
  5
296
330
1F
100
AcDbEntity
  8
0
 62
     7
100
AcDbSpline
210
0.000000
220
0.000000
230
1.0
 70
     8
 71
     3
 72
     8
 73
     4
 42
0.0000000001
 43
0.0000000001
 44
0.0000000001
 12
0.000000
 22
0.000000
 32
0.000000
 13
0.000000
 23
0.000000
 33
0.000000
 40
0.000000
 40
0.000000
 40
0.000000
 40
0.000000
 40
1.000000
 40
1.000000
 40
1.000000
 40
1.000000
 10
959.680199
 20
495.291835
 30
0.000000
 10
960.295918
 20
494.646796
 30
0.000000
 10
961.087556
 20
494.294957
 30
0.000000
 10
962.025794
 20
494.294957
 30
0.000000
  0
SPLINE
  5
297
330
1F
100
AcDbEntity
  8
0
 62
     7
100
AcDbSpline
210
0.000000
220
0.000000
230
1.0
 70
     8
 71
     3
 72
     8
 73
     4
 42
0.0000000001
 43
0.0000000001
 44
0.0000000001
 12
0.000000
 22
0.000000
 32
0.000000
 13
0.000000
 23
0.000000
 33
0.000000
 40
0.000000
 40
0.000000
 40
0.000000
 40
0.000000
 40
1.000000
 40
1.000000
 40
1.000000
 40
1.000000
 10
962.025794
 20
494.294957
 30
0.000000
 10
962.964032
 20
494.294957
 30
0.000000
 10
963.697031
 20
494.558836
 30
0.000000
 10
964.283429
 20
495.086595
 30
0.000000
  0
SPLINE
  5
298
330
1F
100
AcDbEntity
  8
0
 62
     7
100
AcDbSpline
210
0.000000
220
0.000000
230
1.0
 70
     8
 71
     3
 72
     8
 73
     4
 42
0.0000000001
 43
0.0000000001
 44
0.0000000001
 12
0.000000
 22
0.000000
 32
0.000000
 13
0.000000
 23
0.000000
 33
0.000000
 40
0.000000
 40
0.000000
 40
0.000000
 40
0.000000
 40
1.000000
 40
1.000000
 40
1.000000
 40
1.000000
 10
964.283429
 20
495.086595
 30
0.000000
 10
964.840508
 20
495.585034
 30
0.000000
 10
965.133707
 20
496.200753
 30
0.000000
 10
965.133707
 20
496.963071
 30
0.000000
  0
SPLINE
  5
299
330
1F
100
AcDbEntity
  8
0
 62
     7
100
AcDbSpline
210
0.000000
220
0.000000
230
1.0
 70
     8
 71
     3
 72
     8
 73
     4
 42
0.0000000001
 43
0.0000000001
 44
0.0000000001
 12
0.000000
 22
0.000000
 32
0.000000
 13
0.000000
 23
0.000000
 33
0.000000
 40
0.000000
 40
0.000000
 40
0.000000
 40
0.000000
 40
1.000000
 40
1.000000
 40
1.000000
 40
1.000000
 10
965.133707
 20
496.963071
 30
0.000000
 10
965.133707
 20
497.578790
 30
0.000000
 10
964.987108
 20
498.135869
 30
0.000000
 10
964.635269
 20
498.634307
 30
0.000000
  0
LINE
  5
300
330
1F
100
AcDbEntity
  8
0
  62
7
100
AcDbLine
 10
986.713182
 20
493.503319
 30
0.000000
 11
985.980183
 21
493.503319
 31
0.000000
  0
LINE
  5
301
330
1F
100
AcDbEntity
  8
0
  62
7
100
AcDbLine
 10
985.980183
 20
493.503319
 30
0.000000
 11
985.980183
 21
493.972438
 31
0.000000
  0
SPLINE
  5
302
330
1F
100
AcDbEntity
  8
0
 62
     7
100
AcDbSpline
210
0.000000
220
0.000000
230
1.0
 70
     8
 71
     3
 72
     8
 73
     4
 42
0.0000000001
 43
0.0000000001
 44
0.0000000001
 12
0.000000
 22
0.000000
 32
0.000000
 13
0.000000
 23
0.000000
 33
0.000000
 40
0.000000
 40
0.000000
 40
0.000000
 40
0.000000
 40
1.000000
 40
1.000000
 40
1.000000
 40
1.000000
 10
985.980183
 20
493.972438
 30
0.000000
 10
987.094341
 20
493.972438
 30
0.000000
 10
988.120539
 20
494.236317
 30
0.000000
 10
989.088097
 20
494.764076
 30
0.000000
  0
SPLINE
  5
303
330
1F
100
AcDbEntity
  8
0
 62
     7
100
AcDbSpline
210
0.000000
220
0.000000
230
1.0
 70
     8
 71
     3
 72
     8
 73
     4
 42
0.0000000001
 43
0.0000000001
 44
0.0000000001
 12
0.000000
 22
0.000000
 32
0.000000
 13
0.000000
 23
0.000000
 33
0.000000
 40
0.000000
 40
0.000000
 40
0.000000
 40
0.000000
 40
1.000000
 40
1.000000
 40
1.000000
 40
1.000000
 10
989.088097
 20
494.764076
 30
0.000000
 10
990.026335
 20
495.262515
 30
0.000000
 10
990.964573
 20
496.142113
 30
0.000000
 10
991.873491
 20
497.402870
 30
0.000000
  0
SPLINE
  5
304
330
1F
100
AcDbEntity
  8
0
 62
     7
100
AcDbSpline
210
0.000000
220
0.000000
230
1.0
 70
     8
 71
     3
 72
     8
 73
     4
 42
0.0000000001
 43
0.0000000001
 44
0.0000000001
 12
0.000000
 22
0.000000
 32
0.000000
 13
0.000000
 23
0.000000
 33
0.000000
 40
0.000000
 40
0.000000
 40
0.000000
 40
0.000000
 40
1.000000
 40
1.000000
 40
1.000000
 40
1.000000
 10
991.873491
 20
497.402870
 30
0.000000
 10
992.753089
 20
498.634307
 30
0.000000
 10
993.398128
 20
500.012344
 30
0.000000
 10
993.749967
 20
501.536981
 30
0.000000
  0
SPLINE
  5
305
330
1F
100
AcDbEntity
  8
0
 62
     7
100
AcDbSpline
210
0.000000
220
0.000000
230
1.0
 70
     8
 71
     3
 72
     8
 73
     4
 42
0.0000000001
 43
0.0000000001
 44
0.0000000001
 12
0.000000
 22
0.000000
 32
0.000000
 13
0.000000
 23
0.000000
 33
0.000000
 40
0.000000
 40
0.000000
 40
0.000000
 40
0.000000
 40
1.000000
 40
1.000000
 40
1.000000
 40
1.000000
 10
993.749967
 20
501.536981
 30
0.000000
 10
992.401250
 20
500.686703
 30
0.000000
 10
991.199132
 20
500.246904
 30
0.000000
 10
990.084975
 20
500.246904
 30
0.000000
  0
SPLINE
  5
306
330
1F
100
AcDbEntity
  8
0
 62
     7
100
AcDbSpline
210
0.000000
220
0.000000
230
1.0
 70
     8
 71
     3
 72
     8
 73
     4
 42
0.0000000001
 43
0.0000000001
 44
0.0000000001
 12
0.000000
 22
0.000000
 32
0.000000
 13
0.000000
 23
0.000000
 33
0.000000
 40
0.000000
 40
0.000000
 40
0.000000
 40
0.000000
 40
1.000000
 40
1.000000
 40
1.000000
 40
1.000000
 10
990.084975
 20
500.246904
 30
0.000000
 10
988.853537
 20
500.246904
 30
0.000000
 10
987.798020
 20
500.716023
 30
0.000000
 10
986.918422
 20
501.683581
 30
0.000000
  0
SPLINE
  5
307
330
1F
100
AcDbEntity
  8
0
 62
     7
100
AcDbSpline
210
0.000000
220
0.000000
230
1.0
 70
     8
 71
     3
 72
     8
 73
     4
 42
0.0000000001
 43
0.0000000001
 44
0.0000000001
 12
0.000000
 22
0.000000
 32
0.000000
 13
0.000000
 23
0.000000
 33
0.000000
 40
0.000000
 40
0.000000
 40
0.000000
 40
0.000000
 40
1.000000
 40
1.000000
 40
1.000000
 40
1.000000
 10
986.918422
 20
501.683581
 30
0.000000
 10
986.038823
 20
502.621819
 30
0.000000
 10
985.599024
 20
503.882576
 30
0.000000
 10
985.599024
 20
505.465852
 30
0.000000
  0
SPLINE
  5
308
330
1F
100
AcDbEntity
  8
0
 62
     7
100
AcDbSpline
210
0.000000
220
0.000000
230
1.0
 70
     8
 71
     3
 72
     8
 73
     4
 42
0.0000000001
 43
0.0000000001
 44
0.0000000001
 12
0.000000
 22
0.000000
 32
0.000000
 13
0.000000
 23
0.000000
 33
0.000000
 40
0.000000
 40
0.000000
 40
0.000000
 40
0.000000
 40
1.000000
 40
1.000000
 40
1.000000
 40
1.000000
 10
985.599024
 20
505.465852
 30
0.000000
 10
985.599024
 20
506.990489
 30
0.000000
 10
986.038823
 20
508.339206
 30
0.000000
 10
986.918422
 20
509.570643
 30
0.000000
  0
SPLINE
  5
309
330
1F
100
AcDbEntity
  8
0
 62
     7
100
AcDbSpline
210
0.000000
220
0.000000
230
1.0
 70
     8
 71
     3
 72
     8
 73
     4
 42
0.0000000001
 43
0.0000000001
 44
0.0000000001
 12
0.000000
 22
0.000000
 32
0.000000
 13
0.000000
 23
0.000000
 33
0.000000
 40
0.000000
 40
0.000000
 40
0.000000
 40
0.000000
 40
1.000000
 40
1.000000
 40
1.000000
 40
1.000000
 10
986.918422
 20
509.570643
 30
0.000000
 10
987.973939
 20
511.007320
 30
0.000000
 10
989.351976
 20
511.740319
 30
0.000000
 10
991.081853
 20
511.740319
 30
0.000000
  0
SPLINE
  5
310
330
1F
100
AcDbEntity
  8
0
 62
     7
100
AcDbSpline
210
0.000000
220
0.000000
230
1.0
 70
     8
 71
     3
 72
     8
 73
     4
 42
0.0000000001
 43
0.0000000001
 44
0.0000000001
 12
0.000000
 22
0.000000
 32
0.000000
 13
0.000000
 23
0.000000
 33
0.000000
 40
0.000000
 40
0.000000
 40
0.000000
 40
0.000000
 40
1.000000
 40
1.000000
 40
1.000000
 40
1.000000
 10
991.081853
 20
511.740319
 30
0.000000
 10
992.489210
 20
511.740319
 30
0.000000
 10
993.720647
 20
511.153920
 30
0.000000
 10
994.776165
 20
509.951803
 30
0.000000
  0
SPLINE
  5
311
330
1F
100
AcDbEntity
  8
0
 62
     7
100
AcDbSpline
210
0.000000
220
0.000000
230
1.0
 70
     8
 71
     3
 72
     8
 73
     4
 42
0.0000000001
 43
0.0000000001
 44
0.0000000001
 12
0.000000
 22
0.000000
 32
0.000000
 13
0.000000
 23
0.000000
 33
0.000000
 40
0.000000
 40
0.000000
 40
0.000000
 40
0.000000
 40
1.000000
 40
1.000000
 40
1.000000
 40
1.000000
 10
994.776165
 20
509.951803
 30
0.000000
 10
996.007602
 20
508.485806
 30
0.000000
 10
996.652641
 20
506.667970
 30
0.000000
 10
996.652641
 20
504.498295
 30
0.000000
  0
SPLINE
  5
312
330
1F
100
AcDbEntity
  8
0
 62
     7
100
AcDbSpline
210
0.000000
220
0.000000
230
1.0
 70
     8
 71
     3
 72
     8
 73
     4
 42
0.0000000001
 43
0.0000000001
 44
0.0000000001
 12
0.000000
 22
0.000000
 32
0.000000
 13
0.000000
 23
0.000000
 33
0.000000
 40
0.000000
 40
0.000000
 40
0.000000
 40
0.000000
 40
1.000000
 40
1.000000
 40
1.000000
 40
1.000000
 10
996.652641
 20
504.498295
 30
0.000000
 10
996.652641
 20
502.563179
 30
0.000000
 10
996.183522
 20
500.774663
 30
0.000000
 10
995.215964
 20
499.074106
 30
0.000000
  0
SPLINE
  5
313
330
1F
100
AcDbEntity
  8
0
 62
     7
100
AcDbSpline
210
0.000000
220
0.000000
230
1.0
 70
     8
 71
     3
 72
     8
 73
     4
 42
0.0000000001
 43
0.0000000001
 44
0.0000000001
 12
0.000000
 22
0.000000
 32
0.000000
 13
0.000000
 23
0.000000
 33
0.000000
 40
0.000000
 40
0.000000
 40
0.000000
 40
0.000000
 40
1.000000
 40
1.000000
 40
1.000000
 40
1.000000
 10
995.215964
 20
499.074106
 30
0.000000
 10
994.277726
 20
497.402870
 30
0.000000
 10
992.929009
 20
495.995513
 30
0.000000
 10
991.228452
 20
494.881356
 30
0.000000
  0
SPLINE
  5
314
330
1F
100
AcDbEntity
  8
0
 62
     7
100
AcDbSpline
210
0.000000
220
0.000000
230
1.0
 70
     8
 71
     3
 72
     8
 73
     4
 42
0.0000000001
 43
0.0000000001
 44
0.0000000001
 12
0.000000
 22
0.000000
 32
0.000000
 13
0.000000
 23
0.000000
 33
0.000000
 40
0.000000
 40
0.000000
 40
0.000000
 40
0.000000
 40
1.000000
 40
1.000000
 40
1.000000
 40
1.000000
 10
991.228452
 20
494.881356
 30
0.000000
 10
989.879735
 20
493.972438
 30
0.000000
 10
988.355098
 20
493.503319
 30
0.000000
 10
986.713182
 20
493.503319
 30
0.000000
  0
SPLINE
  5
315
330
1F
100
AcDbEntity
  8
0
 62
     7
100
AcDbSpline
210
0.000000
220
0.000000
230
1.0
 70
     8
 71
     3
 72
     8
 73
     4
 42
0.0000000001
 43
0.0000000001
 44
0.0000000001
 12
0.000000
 22
0.000000
 32
0.000000
 13
0.000000
 23
0.000000
 33
0.000000
 40
0.000000
 40
0.000000
 40
0.000000
 40
0.000000
 40
1.000000
 40
1.000000
 40
1.000000
 40
1.000000
 10
992.518530
 20
501.712901
 30
0.000000
 10
993.046289
 20
501.888820
 30
0.000000
 10
993.544728
 20
502.152700
 30
0.000000
 10
993.955207
 20
502.504539
 30
0.000000
  0
SPLINE
  5
316
330
1F
100
AcDbEntity
  8
0
 62
     7
100
AcDbSpline
210
0.000000
220
0.000000
230
1.0
 70
     8
 71
     3
 72
     8
 73
     4
 42
0.0000000001
 43
0.0000000001
 44
0.0000000001
 12
0.000000
 22
0.000000
 32
0.000000
 13
0.000000
 23
0.000000
 33
0.000000
 40
0.000000
 40
0.000000
 40
0.000000
 40
0.000000
 40
1.000000
 40
1.000000
 40
1.000000
 40
1.000000
 10
993.955207
 20
502.504539
 30
0.000000
 10
994.101806
 20
503.618696
 30
0.000000
 10
994.189766
 20
504.498295
 30
0.000000
 10
994.189766
 20
505.201973
 30
0.000000
  0
SPLINE
  5
317
330
1F
100
AcDbEntity
  8
0
 62
     7
100
AcDbSpline
210
0.000000
220
0.000000
230
1.0
 70
     8
 71
     3
 72
     8
 73
     4
 42
0.0000000001
 43
0.0000000001
 44
0.0000000001
 12
0.000000
 22
0.000000
 32
0.000000
 13
0.000000
 23
0.000000
 33
0.000000
 40
0.000000
 40
0.000000
 40
0.000000
 40
0.000000
 40
1.000000
 40
1.000000
 40
1.000000
 40
1.000000
 10
994.189766
 20
505.201973
 30
0.000000
 10
994.189766
 20
506.022931
 30
0.000000
 10
994.043166
 20
506.902529
 30
0.000000
 10
993.749967
 20
507.899407
 30
0.000000
  0
SPLINE
  5
318
330
1F
100
AcDbEntity
  8
0
 62
     7
100
AcDbSpline
210
0.000000
220
0.000000
230
1.0
 70
     8
 71
     3
 72
     8
 73
     4
 42
0.0000000001
 43
0.0000000001
 44
0.0000000001
 12
0.000000
 22
0.000000
 32
0.000000
 13
0.000000
 23
0.000000
 33
0.000000
 40
0.000000
 40
0.000000
 40
0.000000
 40
0.000000
 40
1.000000
 40
1.000000
 40
1.000000
 40
1.000000
 10
993.749967
 20
507.899407
 30
0.000000
 10
993.486088
 20
508.837645
 30
0.000000
 10
993.075609
 20
509.599963
 30
0.000000
 10
992.547850
 20
510.127722
 30
0.000000
  0
SPLINE
  5
319
330
1F
100
AcDbEntity
  8
0
 62
     7
100
AcDbSpline
210
0.000000
220
0.000000
230
1.0
 70
     8
 71
     3
 72
     8
 73
     4
 42
0.0000000001
 43
0.0000000001
 44
0.0000000001
 12
0.000000
 22
0.000000
 32
0.000000
 13
0.000000
 23
0.000000
 33
0.000000
 40
0.000000
 40
0.000000
 40
0.000000
 40
0.000000
 40
1.000000
 40
1.000000
 40
1.000000
 40
1.000000
 10
992.547850
 20
510.127722
 30
0.000000
 10
992.020091
 20
510.626161
 30
0.000000
 10
991.433692
 20
510.890041
 30
0.000000
 10
990.759333
 20
510.890041
 30
0.000000
  0
SPLINE
  5
320
330
1F
100
AcDbEntity
  8
0
 62
     7
100
AcDbSpline
210
0.000000
220
0.000000
230
1.0
 70
     8
 71
     3
 72
     8
 73
     4
 42
0.0000000001
 43
0.0000000001
 44
0.0000000001
 12
0.000000
 22
0.000000
 32
0.000000
 13
0.000000
 23
0.000000
 33
0.000000
 40
0.000000
 40
0.000000
 40
0.000000
 40
0.000000
 40
1.000000
 40
1.000000
 40
1.000000
 40
1.000000
 10
990.759333
 20
510.890041
 30
0.000000
 10
989.997015
 20
510.890041
 30
0.000000
 10
989.351976
 20
510.567521
 30
0.000000
 10
988.765578
 20
509.863843
 30
0.000000
  0
SPLINE
  5
321
330
1F
100
AcDbEntity
  8
0
 62
     7
100
AcDbSpline
210
0.000000
220
0.000000
230
1.0
 70
     8
 71
     3
 72
     8
 73
     4
 42
0.0000000001
 43
0.0000000001
 44
0.0000000001
 12
0.000000
 22
0.000000
 32
0.000000
 13
0.000000
 23
0.000000
 33
0.000000
 40
0.000000
 40
0.000000
 40
0.000000
 40
0.000000
 40
1.000000
 40
1.000000
 40
1.000000
 40
1.000000
 10
988.765578
 20
509.863843
 30
0.000000
 10
988.179179
 20
509.189484
 30
0.000000
 10
987.885979
 20
508.163287
 30
0.000000
 10
987.885979
 20
506.785250
 30
0.000000
  0
SPLINE
  5
322
330
1F
100
AcDbEntity
  8
0
 62
     7
100
AcDbSpline
210
0.000000
220
0.000000
230
1.0
 70
     8
 71
     3
 72
     8
 73
     4
 42
0.0000000001
 43
0.0000000001
 44
0.0000000001
 12
0.000000
 22
0.000000
 32
0.000000
 13
0.000000
 23
0.000000
 33
0.000000
 40
0.000000
 40
0.000000
 40
0.000000
 40
0.000000
 40
1.000000
 40
1.000000
 40
1.000000
 40
1.000000
 10
987.885979
 20
506.785250
 30
0.000000
 10
987.885979
 20
504.967414
 30
0.000000
 10
988.267139
 20
503.560057
 30
0.000000
 10
989.029457
 20
502.533859
 30
0.000000
  0
SPLINE
  5
323
330
1F
100
AcDbEntity
  8
0
 62
     7
100
AcDbSpline
210
0.000000
220
0.000000
230
1.0
 70
     8
 71
     3
 72
     8
 73
     4
 42
0.0000000001
 43
0.0000000001
 44
0.0000000001
 12
0.000000
 22
0.000000
 32
0.000000
 13
0.000000
 23
0.000000
 33
0.000000
 40
0.000000
 40
0.000000
 40
0.000000
 40
0.000000
 40
1.000000
 40
1.000000
 40
1.000000
 40
1.000000
 10
989.029457
 20
502.533859
 30
0.000000
 10
989.586536
 20
501.800860
 30
0.000000
 10
990.290214
 20
501.419701
 30
0.000000
 10
991.111173
 20
501.419701
 30
0.000000
  0
SPLINE
  5
324
330
1F
100
AcDbEntity
  8
0
 62
     7
100
AcDbSpline
210
0.000000
220
0.000000
230
1.0
 70
     8
 71
     3
 72
     8
 73
     4
 42
0.0000000001
 43
0.0000000001
 44
0.0000000001
 12
0.000000
 22
0.000000
 32
0.000000
 13
0.000000
 23
0.000000
 33
0.000000
 40
0.000000
 40
0.000000
 40
0.000000
 40
0.000000
 40
1.000000
 40
1.000000
 40
1.000000
 40
1.000000
 10
991.111173
 20
501.419701
 30
0.000000
 10
991.492332
 20
501.419701
 30
0.000000
 10
991.961451
 20
501.507661
 30
0.000000
 10
992.518530
 20
501.712901
 30
0.000000
  0
SPLINE
  5
325
330
1F
100
AcDbEntity
  8
0
 62
     7
100
AcDbSpline
210
0.000000
220
0.000000
230
1.0
 70
     8
 71
     3
 72
     8
 73
     4
 42
0.0000000001
 43
0.0000000001
 44
0.0000000001
 12
0.000000
 22
0.000000
 32
0.000000
 13
0.000000
 23
0.000000
 33
0.000000
 40
0.000000
 40
0.000000
 40
0.000000
 40
0.000000
 40
1.000000
 40
1.000000
 40
1.000000
 40
1.000000
 10
723.214898
 20
465.523272
 30
0.000000
 10
722.276660
 20
467.165188
 30
0.000000
 10
721.807541
 20
469.188264
 30
0.000000
 10
721.807541
 20
471.533859
 30
0.000000
  0
SPLINE
  5
326
330
1F
100
AcDbEntity
  8
0
 62
     7
100
AcDbSpline
210
0.000000
220
0.000000
230
1.0
 70
     8
 71
     3
 72
     8
 73
     4
 42
0.0000000001
 43
0.0000000001
 44
0.0000000001
 12
0.000000
 22
0.000000
 32
0.000000
 13
0.000000
 23
0.000000
 33
0.000000
 40
0.000000
 40
0.000000
 40
0.000000
 40
0.000000
 40
1.000000
 40
1.000000
 40
1.000000
 40
1.000000
 10
721.807541
 20
471.533859
 30
0.000000
 10
721.807541
 20
473.527614
 30
0.000000
 10
722.100740
 20
475.228171
 30
0.000000
 10
722.716459
 20
476.694168
 30
0.000000
  0
SPLINE
  5
327
330
1F
100
AcDbEntity
  8
0
 62
     7
100
AcDbSpline
210
0.000000
220
0.000000
230
1.0
 70
     8
 71
     3
 72
     8
 73
     4
 42
0.0000000001
 43
0.0000000001
 44
0.0000000001
 12
0.000000
 22
0.000000
 32
0.000000
 13
0.000000
 23
0.000000
 33
0.000000
 40
0.000000
 40
0.000000
 40
0.000000
 40
0.000000
 40
1.000000
 40
1.000000
 40
1.000000
 40
1.000000
 10
722.716459
 20
476.694168
 30
0.000000
 10
723.302858
 20
478.101524
 30
0.000000
 10
724.123816
 20
479.186362
 30
0.000000
 10
725.120694
 20
479.890041
 30
0.000000
  0
SPLINE
  5
328
330
1F
100
AcDbEntity
  8
0
 62
     7
100
AcDbSpline
210
0.000000
220
0.000000
230
1.0
 70
     8
 71
     3
 72
     8
 73
     4
 42
0.0000000001
 43
0.0000000001
 44
0.0000000001
 12
0.000000
 22
0.000000
 32
0.000000
 13
0.000000
 23
0.000000
 33
0.000000
 40
0.000000
 40
0.000000
 40
0.000000
 40
0.000000
 40
1.000000
 40
1.000000
 40
1.000000
 40
1.000000
 10
725.120694
 20
479.890041
 30
0.000000
 10
725.883012
 20
480.447119
 30
0.000000
 10
726.703971
 20
480.740319
 30
0.000000
 10
727.524929
 20
480.740319
 30
0.000000
  0
SPLINE
  5
329
330
1F
100
AcDbEntity
  8
0
 62
     7
100
AcDbSpline
210
0.000000
220
0.000000
230
1.0
 70
     8
 71
     3
 72
     8
 73
     4
 42
0.0000000001
 43
0.0000000001
 44
0.0000000001
 12
0.000000
 22
0.000000
 32
0.000000
 13
0.000000
 23
0.000000
 33
0.000000
 40
0.000000
 40
0.000000
 40
0.000000
 40
0.000000
 40
1.000000
 40
1.000000
 40
1.000000
 40
1.000000
 10
727.524929
 20
480.740319
 30
0.000000
 10
728.873646
 20
480.740319
 30
0.000000
 10
730.075764
 20
480.065960
 30
0.000000
 10
731.160601
 20
478.687923
 30
0.000000
  0
SPLINE
  5
330
330
1F
100
AcDbEntity
  8
0
 62
     7
100
AcDbSpline
210
0.000000
220
0.000000
230
1.0
 70
     8
 71
     3
 72
     8
 73
     4
 42
0.0000000001
 43
0.0000000001
 44
0.0000000001
 12
0.000000
 22
0.000000
 32
0.000000
 13
0.000000
 23
0.000000
 33
0.000000
 40
0.000000
 40
0.000000
 40
0.000000
 40
0.000000
 40
1.000000
 40
1.000000
 40
1.000000
 40
1.000000
 10
731.160601
 20
478.687923
 30
0.000000
 10
732.479998
 20
476.987367
 30
0.000000
 10
733.154357
 20
474.700412
 30
0.000000
 10
733.154357
 20
471.797738
 30
0.000000
  0
SPLINE
  5
331
330
1F
100
AcDbEntity
  8
0
 62
     7
100
AcDbSpline
210
0.000000
220
0.000000
230
1.0
 70
     8
 71
     3
 72
     8
 73
     4
 42
0.0000000001
 43
0.0000000001
 44
0.0000000001
 12
0.000000
 22
0.000000
 32
0.000000
 13
0.000000
 23
0.000000
 33
0.000000
 40
0.000000
 40
0.000000
 40
0.000000
 40
0.000000
 40
1.000000
 40
1.000000
 40
1.000000
 40
1.000000
 10
733.154357
 20
471.797738
 30
0.000000
 10
733.154357
 20
469.774663
 30
0.000000
 10
732.861158
 20
468.044787
 30
0.000000
 10
732.274759
 20
466.608110
 30
0.000000
  0
SPLINE
  5
332
330
1F
100
AcDbEntity
  8
0
 62
     7
100
AcDbSpline
210
0.000000
220
0.000000
230
1.0
 70
     8
 71
     3
 72
     8
 73
     4
 42
0.0000000001
 43
0.0000000001
 44
0.0000000001
 12
0.000000
 22
0.000000
 32
0.000000
 13
0.000000
 23
0.000000
 33
0.000000
 40
0.000000
 40
0.000000
 40
0.000000
 40
0.000000
 40
1.000000
 40
1.000000
 40
1.000000
 40
1.000000
 10
732.274759
 20
466.608110
 30
0.000000
 10
731.688360
 20
465.200753
 30
0.000000
 10
730.955362
 20
464.174555
 30
0.000000
 10
730.017124
 20
463.529516
 30
0.000000
  0
SPLINE
  5
333
330
1F
100
AcDbEntity
  8
0
 62
     7
100
AcDbSpline
210
0.000000
220
0.000000
230
1.0
 70
     8
 71
     3
 72
     8
 73
     4
 42
0.0000000001
 43
0.0000000001
 44
0.0000000001
 12
0.000000
 22
0.000000
 32
0.000000
 13
0.000000
 23
0.000000
 33
0.000000
 40
0.000000
 40
0.000000
 40
0.000000
 40
0.000000
 40
1.000000
 40
1.000000
 40
1.000000
 40
1.000000
 10
730.017124
 20
463.529516
 30
0.000000
 10
729.137525
 20
462.884478
 30
0.000000
 10
728.257927
 20
462.561959
 30
0.000000
 10
727.407649
 20
462.561959
 30
0.000000
  0
SPLINE
  5
334
330
1F
100
AcDbEntity
  8
0
 62
     7
100
AcDbSpline
210
0.000000
220
0.000000
230
1.0
 70
     8
 71
     3
 72
     8
 73
     4
 42
0.0000000001
 43
0.0000000001
 44
0.0000000001
 12
0.000000
 22
0.000000
 32
0.000000
 13
0.000000
 23
0.000000
 33
0.000000
 40
0.000000
 40
0.000000
 40
0.000000
 40
0.000000
 40
1.000000
 40
1.000000
 40
1.000000
 40
1.000000
 10
727.407649
 20
462.561959
 30
0.000000
 10
725.736413
 20
462.561959
 30
0.000000
 10
724.329056
 20
463.529516
 30
0.000000
 10
723.214898
 20
465.523272
 30
0.000000
  0
SPLINE
  5
335
330
1F
100
AcDbEntity
  8
0
 62
     7
100
AcDbSpline
210
0.000000
220
0.000000
230
1.0
 70
     8
 71
     3
 72
     8
 73
     4
 42
0.0000000001
 43
0.0000000001
 44
0.0000000001
 12
0.000000
 22
0.000000
 32
0.000000
 13
0.000000
 23
0.000000
 33
0.000000
 40
0.000000
 40
0.000000
 40
0.000000
 40
0.000000
 40
1.000000
 40
1.000000
 40
1.000000
 40
1.000000
 10
724.680895
 20
475.726610
 30
0.000000
 10
724.446335
 20
474.201973
 30
0.000000
 10
724.329056
 20
472.706656
 30
0.000000
 10
724.329056
 20
471.211340
 30
0.000000
  0
SPLINE
  5
336
330
1F
100
AcDbEntity
  8
0
 62
     7
100
AcDbSpline
210
0.000000
220
0.000000
230
1.0
 70
     8
 71
     3
 72
     8
 73
     4
 42
0.0000000001
 43
0.0000000001
 44
0.0000000001
 12
0.000000
 22
0.000000
 32
0.000000
 13
0.000000
 23
0.000000
 33
0.000000
 40
0.000000
 40
0.000000
 40
0.000000
 40
0.000000
 40
1.000000
 40
1.000000
 40
1.000000
 40
1.000000
 10
724.329056
 20
471.211340
 30
0.000000
 10
724.329056
 20
468.807105
 30
0.000000
 10
724.622255
 20
466.842669
 30
0.000000
 10
725.237974
 20
465.318032
 30
0.000000
  0
SPLINE
  5
337
330
1F
100
AcDbEntity
  8
0
 62
     7
100
AcDbSpline
210
0.000000
220
0.000000
230
1.0
 70
     8
 71
     3
 72
     8
 73
     4
 42
0.0000000001
 43
0.0000000001
 44
0.0000000001
 12
0.000000
 22
0.000000
 32
0.000000
 13
0.000000
 23
0.000000
 33
0.000000
 40
0.000000
 40
0.000000
 40
0.000000
 40
0.000000
 40
1.000000
 40
1.000000
 40
1.000000
 40
1.000000
 10
725.237974
 20
465.318032
 30
0.000000
 10
725.707093
 20
464.027955
 30
0.000000
 10
726.440091
 20
463.382917
 30
0.000000
 10
727.436969
 20
463.382917
 30
0.000000
  0
SPLINE
  5
338
330
1F
100
AcDbEntity
  8
0
 62
     7
100
AcDbSpline
210
0.000000
220
0.000000
230
1.0
 70
     8
 71
     3
 72
     8
 73
     4
 42
0.0000000001
 43
0.0000000001
 44
0.0000000001
 12
0.000000
 22
0.000000
 32
0.000000
 13
0.000000
 23
0.000000
 33
0.000000
 40
0.000000
 40
0.000000
 40
0.000000
 40
0.000000
 40
1.000000
 40
1.000000
 40
1.000000
 40
1.000000
 10
727.436969
 20
463.382917
 30
0.000000
 10
727.906088
 20
463.382917
 30
0.000000
 10
728.375207
 20
463.588156
 30
0.000000
 10
728.902966
 20
463.998635
 30
0.000000
  0
SPLINE
  5
339
330
1F
100
AcDbEntity
  8
0
 62
     7
100
AcDbSpline
210
0.000000
220
0.000000
230
1.0
 70
     8
 71
     3
 72
     8
 73
     4
 42
0.0000000001
 43
0.0000000001
 44
0.0000000001
 12
0.000000
 22
0.000000
 32
0.000000
 13
0.000000
 23
0.000000
 33
0.000000
 40
0.000000
 40
0.000000
 40
0.000000
 40
0.000000
 40
1.000000
 40
1.000000
 40
1.000000
 40
1.000000
 10
728.902966
 20
463.998635
 30
0.000000
 10
729.372085
 20
464.409114
 30
0.000000
 10
729.753244
 20
465.112793
 30
0.000000
 10
730.046444
 20
466.109671
 30
0.000000
  0
SPLINE
  5
340
330
1F
100
AcDbEntity
  8
0
 62
     7
100
AcDbSpline
210
0.000000
220
0.000000
230
1.0
 70
     8
 71
     3
 72
     8
 73
     4
 42
0.0000000001
 43
0.0000000001
 44
0.0000000001
 12
0.000000
 22
0.000000
 32
0.000000
 13
0.000000
 23
0.000000
 33
0.000000
 40
0.000000
 40
0.000000
 40
0.000000
 40
0.000000
 40
1.000000
 40
1.000000
 40
1.000000
 40
1.000000
 10
730.046444
 20
466.109671
 30
0.000000
 10
730.427603
 20
467.575668
 30
0.000000
 10
730.632842
 20
469.657383
 30
0.000000
 10
730.632842
 20
472.354817
 30
0.000000
  0
SPLINE
  5
341
330
1F
100
AcDbEntity
  8
0
 62
     7
100
AcDbSpline
210
0.000000
220
0.000000
230
1.0
 70
     8
 71
     3
 72
     8
 73
     4
 42
0.0000000001
 43
0.0000000001
 44
0.0000000001
 12
0.000000
 22
0.000000
 32
0.000000
 13
0.000000
 23
0.000000
 33
0.000000
 40
0.000000
 40
0.000000
 40
0.000000
 40
0.000000
 40
1.000000
 40
1.000000
 40
1.000000
 40
1.000000
 10
730.632842
 20
472.354817
 30
0.000000
 10
730.632842
 20
474.348573
 30
0.000000
 10
730.427603
 20
476.019809
 30
0.000000
 10
730.017124
 20
477.368526
 30
0.000000
  0
SPLINE
  5
342
330
1F
100
AcDbEntity
  8
0
 62
     7
100
AcDbSpline
210
0.000000
220
0.000000
230
1.0
 70
     8
 71
     3
 72
     8
 73
     4
 42
0.0000000001
 43
0.0000000001
 44
0.0000000001
 12
0.000000
 22
0.000000
 32
0.000000
 13
0.000000
 23
0.000000
 33
0.000000
 40
0.000000
 40
0.000000
 40
0.000000
 40
0.000000
 40
1.000000
 40
1.000000
 40
1.000000
 40
1.000000
 10
730.017124
 20
477.368526
 30
0.000000
 10
729.723924
 20
478.336084
 30
0.000000
 10
729.313445
 20
479.039762
 30
0.000000
 10
728.815006
 20
479.450241
 30
0.000000
  0
SPLINE
  5
343
330
1F
100
AcDbEntity
  8
0
 62
     7
100
AcDbSpline
210
0.000000
220
0.000000
230
1.0
 70
     8
 71
     3
 72
     8
 73
     4
 42
0.0000000001
 43
0.0000000001
 44
0.0000000001
 12
0.000000
 22
0.000000
 32
0.000000
 13
0.000000
 23
0.000000
 33
0.000000
 40
0.000000
 40
0.000000
 40
0.000000
 40
0.000000
 40
1.000000
 40
1.000000
 40
1.000000
 40
1.000000
 10
728.815006
 20
479.450241
 30
0.000000
 10
728.463167
 20
479.743441
 30
0.000000
 10
728.023368
 20
479.890041
 30
0.000000
 10
727.524929
 20
479.890041
 30
0.000000
  0
SPLINE
  5
344
330
1F
100
AcDbEntity
  8
0
 62
     7
100
AcDbSpline
210
0.000000
220
0.000000
230
1.0
 70
     8
 71
     3
 72
     8
 73
     4
 42
0.0000000001
 43
0.0000000001
 44
0.0000000001
 12
0.000000
 22
0.000000
 32
0.000000
 13
0.000000
 23
0.000000
 33
0.000000
 40
0.000000
 40
0.000000
 40
0.000000
 40
0.000000
 40
1.000000
 40
1.000000
 40
1.000000
 40
1.000000
 10
727.524929
 20
479.890041
 30
0.000000
 10
726.938530
 20
479.890041
 30
0.000000
 10
726.410771
 20
479.626161
 30
0.000000
 10
725.941652
 20
479.098402
 30
0.000000
  0
SPLINE
  5
345
330
1F
100
AcDbEntity
  8
0
 62
     7
100
AcDbSpline
210
0.000000
220
0.000000
230
1.0
 70
     8
 71
     3
 72
     8
 73
     4
 42
0.0000000001
 43
0.0000000001
 44
0.0000000001
 12
0.000000
 22
0.000000
 32
0.000000
 13
0.000000
 23
0.000000
 33
0.000000
 40
0.000000
 40
0.000000
 40
0.000000
 40
0.000000
 40
1.000000
 40
1.000000
 40
1.000000
 40
1.000000
 10
725.941652
 20
479.098402
 30
0.000000
 10
725.325934
 20
478.394724
 30
0.000000
 10
724.915454
 20
477.280566
 30
0.000000
 10
724.680895
 20
475.726610
 30
0.000000
  0
LINE
  5
346
330
1F
100
AcDbEntity
  8
0
  62
7
100
AcDbLine
 10
754.059473
 20
478.248124
 30
0.000000
 11
753.854233
 21
478.658603
 31
0.000000
  0
LINE
  5
347
330
1F
100
AcDbEntity
  8
0
  62
7
100
AcDbLine
 10
753.854233
 20
478.658603
 30
0.000000
 11
758.105624
 21
480.740319
 31
0.000000
  0
LINE
  5
348
330
1F
100
AcDbEntity
  8
0
  62
7
100
AcDbLine
 10
758.105624
 20
480.740319
 30
0.000000
 11
758.545423
 21
480.740319
 31
0.000000
  0
LINE
  5
349
330
1F
100
AcDbEntity
  8
0
  62
7
100
AcDbLine
 10
758.545423
 20
480.740319
 30
0.000000
 11
758.545423
 21
465.933751
 31
0.000000
  0
SPLINE
  5
350
330
1F
100
AcDbEntity
  8
0
 62
     7
100
AcDbSpline
210
0.000000
220
0.000000
230
1.0
 70
     8
 71
     3
 72
     8
 73
     4
 42
0.0000000001
 43
0.0000000001
 44
0.0000000001
 12
0.000000
 22
0.000000
 32
0.000000
 13
0.000000
 23
0.000000
 33
0.000000
 40
0.000000
 40
0.000000
 40
0.000000
 40
0.000000
 40
1.000000
 40
1.000000
 40
1.000000
 40
1.000000
 10
758.545423
 20
465.933751
 30
0.000000
 10
758.545423
 20
464.966193
 30
0.000000
 10
758.574743
 20
464.350475
 30
0.000000
 10
758.662703
 20
464.086595
 30
0.000000
  0
SPLINE
  5
351
330
1F
100
AcDbEntity
  8
0
 62
     7
100
AcDbSpline
210
0.000000
220
0.000000
230
1.0
 70
     8
 71
     3
 72
     8
 73
     4
 42
0.0000000001
 43
0.0000000001
 44
0.0000000001
 12
0.000000
 22
0.000000
 32
0.000000
 13
0.000000
 23
0.000000
 33
0.000000
 40
0.000000
 40
0.000000
 40
0.000000
 40
0.000000
 40
1.000000
 40
1.000000
 40
1.000000
 40
1.000000
 10
758.662703
 20
464.086595
 30
0.000000
 10
758.721343
 20
463.852036
 30
0.000000
 10
758.897263
 20
463.676116
 30
0.000000
 10
759.161142
 20
463.529516
 30
0.000000
  0
SPLINE
  5
352
330
1F
100
AcDbEntity
  8
0
 62
     7
100
AcDbSpline
210
0.000000
220
0.000000
230
1.0
 70
     8
 71
     3
 72
     8
 73
     4
 42
0.0000000001
 43
0.0000000001
 44
0.0000000001
 12
0.000000
 22
0.000000
 32
0.000000
 13
0.000000
 23
0.000000
 33
0.000000
 40
0.000000
 40
0.000000
 40
0.000000
 40
0.000000
 40
1.000000
 40
1.000000
 40
1.000000
 40
1.000000
 10
759.161142
 20
463.529516
 30
0.000000
 10
759.425022
 20
463.412237
 30
0.000000
 10
759.952780
 20
463.353597
 30
0.000000
 10
760.744419
 20
463.324277
 30
0.000000
  0
LINE
  5
353
330
1F
100
AcDbEntity
  8
0
  62
7
100
AcDbLine
 10
760.744419
 20
463.324277
 30
0.000000
 11
760.744419
 21
462.855158
 31
0.000000
  0
LINE
  5
354
330
1F
100
AcDbEntity
  8
0
  62
7
100
AcDbLine
 10
760.744419
 20
462.855158
 30
0.000000
 11
754.206073
 21
462.855158
 31
0.000000
  0
LINE
  5
355
330
1F
100
AcDbEntity
  8
0
  62
7
100
AcDbLine
 10
754.206073
 20
462.855158
 30
0.000000
 11
754.206073
 21
463.324277
 31
0.000000
  0
SPLINE
  5
356
330
1F
100
AcDbEntity
  8
0
 62
     7
100
AcDbSpline
210
0.000000
220
0.000000
230
1.0
 70
     8
 71
     3
 72
     8
 73
     4
 42
0.0000000001
 43
0.0000000001
 44
0.0000000001
 12
0.000000
 22
0.000000
 32
0.000000
 13
0.000000
 23
0.000000
 33
0.000000
 40
0.000000
 40
0.000000
 40
0.000000
 40
0.000000
 40
1.000000
 40
1.000000
 40
1.000000
 40
1.000000
 10
754.206073
 20
463.324277
 30
0.000000
 10
754.997711
 20
463.324277
 30
0.000000
 10
755.525470
 20
463.412237
 30
0.000000
 10
755.760029
 20
463.529516
 30
0.000000
  0
SPLINE
  5
357
330
1F
100
AcDbEntity
  8
0
 62
     7
100
AcDbSpline
210
0.000000
220
0.000000
230
1.0
 70
     8
 71
     3
 72
     8
 73
     4
 42
0.0000000001
 43
0.0000000001
 44
0.0000000001
 12
0.000000
 22
0.000000
 32
0.000000
 13
0.000000
 23
0.000000
 33
0.000000
 40
0.000000
 40
0.000000
 40
0.000000
 40
0.000000
 40
1.000000
 40
1.000000
 40
1.000000
 40
1.000000
 10
755.760029
 20
463.529516
 30
0.000000
 10
755.994589
 20
463.646796
 30
0.000000
 10
756.170508
 20
463.822716
 30
0.000000
 10
756.258468
 20
464.027955
 30
0.000000
  0
SPLINE
  5
358
330
1F
100
AcDbEntity
  8
0
 62
     7
100
AcDbSpline
210
0.000000
220
0.000000
230
1.0
 70
     8
 71
     3
 72
     8
 73
     4
 42
0.0000000001
 43
0.0000000001
 44
0.0000000001
 12
0.000000
 22
0.000000
 32
0.000000
 13
0.000000
 23
0.000000
 33
0.000000
 40
0.000000
 40
0.000000
 40
0.000000
 40
0.000000
 40
1.000000
 40
1.000000
 40
1.000000
 40
1.000000
 10
756.258468
 20
464.027955
 30
0.000000
 10
756.346428
 20
464.233195
 30
0.000000
 10
756.405068
 20
464.878233
 30
0.000000
 10
756.405068
 20
465.933751
 30
0.000000
  0
LINE
  5
359
330
1F
100
AcDbEntity
  8
0
  62
7
100
AcDbLine
 10
756.405068
 20
465.933751
 30
0.000000
 11
756.405068
 21
475.404090
 31
0.000000
  0
SPLINE
  5
360
330
1F
100
AcDbEntity
  8
0
 62
     7
100
AcDbSpline
210
0.000000
220
0.000000
230
1.0
 70
     8
 71
     3
 72
     8
 73
     4
 42
0.0000000001
 43
0.0000000001
 44
0.0000000001
 12
0.000000
 22
0.000000
 32
0.000000
 13
0.000000
 23
0.000000
 33
0.000000
 40
0.000000
 40
0.000000
 40
0.000000
 40
0.000000
 40
1.000000
 40
1.000000
 40
1.000000
 40
1.000000
 10
756.405068
 20
475.404090
 30
0.000000
 10
756.405068
 20
476.664848
 30
0.000000
 10
756.375748
 20
477.485806
 30
0.000000
 10
756.287788
 20
477.837645
 30
0.000000
  0
SPLINE
  5
361
330
1F
100
AcDbEntity
  8
0
 62
     7
100
AcDbSpline
210
0.000000
220
0.000000
230
1.0
 70
     8
 71
     3
 72
     8
 73
     4
 42
0.0000000001
 43
0.0000000001
 44
0.0000000001
 12
0.000000
 22
0.000000
 32
0.000000
 13
0.000000
 23
0.000000
 33
0.000000
 40
0.000000
 40
0.000000
 40
0.000000
 40
0.000000
 40
1.000000
 40
1.000000
 40
1.000000
 40
1.000000
 10
756.287788
 20
477.837645
 30
0.000000
 10
756.229148
 20
478.101524
 30
0.000000
 10
756.111869
 20
478.306764
 30
0.000000
 10
755.935949
 20
478.453364
 30
0.000000
  0
SPLINE
  5
362
330
1F
100
AcDbEntity
  8
0
 62
     7
100
AcDbSpline
210
0.000000
220
0.000000
230
1.0
 70
     8
 71
     3
 72
     8
 73
     4
 42
0.0000000001
 43
0.0000000001
 44
0.0000000001
 12
0.000000
 22
0.000000
 32
0.000000
 13
0.000000
 23
0.000000
 33
0.000000
 40
0.000000
 40
0.000000
 40
0.000000
 40
0.000000
 40
1.000000
 40
1.000000
 40
1.000000
 40
1.000000
 10
755.935949
 20
478.453364
 30
0.000000
 10
755.789349
 20
478.570643
 30
0.000000
 10
755.613430
 20
478.658603
 30
0.000000
 10
755.378870
 20
478.658603
 30
0.000000
  0
SPLINE
  5
363
330
1F
100
AcDbEntity
  8
0
 62
     7
100
AcDbSpline
210
0.000000
220
0.000000
230
1.0
 70
     8
 71
     3
 72
     8
 73
     4
 42
0.0000000001
 43
0.0000000001
 44
0.0000000001
 12
0.000000
 22
0.000000
 32
0.000000
 13
0.000000
 23
0.000000
 33
0.000000
 40
0.000000
 40
0.000000
 40
0.000000
 40
0.000000
 40
1.000000
 40
1.000000
 40
1.000000
 40
1.000000
 10
755.378870
 20
478.658603
 30
0.000000
 10
755.085671
 20
478.658603
 30
0.000000
 10
754.645872
 20
478.541323
 30
0.000000
 10
754.059473
 20
478.248124
 30
0.000000
  0
LINE
  5
364
330
1F
100
AcDbEntity
  8
0
  62
7
100
AcDbLine
 10
789.947077
 20
466.256270
 30
0.000000
 11
790.445516
 21
466.256270
 31
0.000000
  0
LINE
  5
365
330
1F
100
AcDbEntity
  8
0
  62
7
100
AcDbLine
 10
790.445516
 20
466.256270
 30
0.000000
 11
789.214079
 21
462.855158
 31
0.000000
  0
LINE
  5
366
330
1F
100
AcDbEntity
  8
0
  62
7
100
AcDbLine
 10
789.214079
 20
462.855158
 30
0.000000
 11
778.893460
 21
462.855158
 31
0.000000
  0
LINE
  5
367
330
1F
100
AcDbEntity
  8
0
  62
7
100
AcDbLine
 10
778.893460
 20
462.855158
 30
0.000000
 11
778.893460
 21
463.324277
 31
0.000000
  0
SPLINE
  5
368
330
1F
100
AcDbEntity
  8
0
 62
     7
100
AcDbSpline
210
0.000000
220
0.000000
230
1.0
 70
     8
 71
     3
 72
     8
 73
     4
 42
0.0000000001
 43
0.0000000001
 44
0.0000000001
 12
0.000000
 22
0.000000
 32
0.000000
 13
0.000000
 23
0.000000
 33
0.000000
 40
0.000000
 40
0.000000
 40
0.000000
 40
0.000000
 40
1.000000
 40
1.000000
 40
1.000000
 40
1.000000
 10
778.893460
 20
463.324277
 30
0.000000
 10
781.942734
 20
466.080351
 30
0.000000
 10
784.083090
 20
468.367306
 30
0.000000
 10
785.314527
 20
470.126502
 30
0.000000
  0
SPLINE
  5
369
330
1F
100
AcDbEntity
  8
0
 62
     7
100
AcDbSpline
210
0.000000
220
0.000000
230
1.0
 70
     8
 71
     3
 72
     8
 73
     4
 42
0.0000000001
 43
0.0000000001
 44
0.0000000001
 12
0.000000
 22
0.000000
 32
0.000000
 13
0.000000
 23
0.000000
 33
0.000000
 40
0.000000
 40
0.000000
 40
0.000000
 40
0.000000
 40
1.000000
 40
1.000000
 40
1.000000
 40
1.000000
 10
785.314527
 20
470.126502
 30
0.000000
 10
786.545964
 20
471.885698
 30
0.000000
 10
787.191003
 20
473.498295
 30
0.000000
 10
787.191003
 20
474.964291
 30
0.000000
  0
SPLINE
  5
370
330
1F
100
AcDbEntity
  8
0
 62
     7
100
AcDbSpline
210
0.000000
220
0.000000
230
1.0
 70
     8
 71
     3
 72
     8
 73
     4
 42
0.0000000001
 43
0.0000000001
 44
0.0000000001
 12
0.000000
 22
0.000000
 32
0.000000
 13
0.000000
 23
0.000000
 33
0.000000
 40
0.000000
 40
0.000000
 40
0.000000
 40
0.000000
 40
1.000000
 40
1.000000
 40
1.000000
 40
1.000000
 10
787.191003
 20
474.964291
 30
0.000000
 10
787.191003
 20
476.078449
 30
0.000000
 10
786.868484
 20
476.987367
 30
0.000000
 10
786.164805
 20
477.691045
 30
0.000000
  0
SPLINE
  5
371
330
1F
100
AcDbEntity
  8
0
 62
     7
100
AcDbSpline
210
0.000000
220
0.000000
230
1.0
 70
     8
 71
     3
 72
     8
 73
     4
 42
0.0000000001
 43
0.0000000001
 44
0.0000000001
 12
0.000000
 22
0.000000
 32
0.000000
 13
0.000000
 23
0.000000
 33
0.000000
 40
0.000000
 40
0.000000
 40
0.000000
 40
0.000000
 40
1.000000
 40
1.000000
 40
1.000000
 40
1.000000
 10
786.164805
 20
477.691045
 30
0.000000
 10
785.490447
 20
478.394724
 30
0.000000
 10
784.669488
 20
478.775883
 30
0.000000
 10
783.731250
 20
478.775883
 30
0.000000
  0
SPLINE
  5
372
330
1F
100
AcDbEntity
  8
0
 62
     7
100
AcDbSpline
210
0.000000
220
0.000000
230
1.0
 70
     8
 71
     3
 72
     8
 73
     4
 42
0.0000000001
 43
0.0000000001
 44
0.0000000001
 12
0.000000
 22
0.000000
 32
0.000000
 13
0.000000
 23
0.000000
 33
0.000000
 40
0.000000
 40
0.000000
 40
0.000000
 40
0.000000
 40
1.000000
 40
1.000000
 40
1.000000
 40
1.000000
 10
783.731250
 20
478.775883
 30
0.000000
 10
782.851652
 20
478.775883
 30
0.000000
 10
782.089334
 20
478.541323
 30
0.000000
 10
781.385655
 20
478.013565
 30
0.000000
  0
SPLINE
  5
373
330
1F
100
AcDbEntity
  8
0
 62
     7
100
AcDbSpline
210
0.000000
220
0.000000
230
1.0
 70
     8
 71
     3
 72
     8
 73
     4
 42
0.0000000001
 43
0.0000000001
 44
0.0000000001
 12
0.000000
 22
0.000000
 32
0.000000
 13
0.000000
 23
0.000000
 33
0.000000
 40
0.000000
 40
0.000000
 40
0.000000
 40
0.000000
 40
1.000000
 40
1.000000
 40
1.000000
 40
1.000000
 10
781.385655
 20
478.013565
 30
0.000000
 10
780.711297
 20
477.544446
 30
0.000000
 10
780.212858
 20
476.811447
 30
0.000000
 10
779.861018
 20
475.814569
 30
0.000000
  0
LINE
  5
374
330
1F
100
AcDbEntity
  8
0
  62
7
100
AcDbLine
 10
779.861018
 20
475.814569
 30
0.000000
 11
779.391899
 21
475.814569
 31
0.000000
  0
SPLINE
  5
375
330
1F
100
AcDbEntity
  8
0
 62
     7
100
AcDbSpline
210
0.000000
220
0.000000
230
1.0
 70
     8
 71
     3
 72
     8
 73
     4
 42
0.0000000001
 43
0.0000000001
 44
0.0000000001
 12
0.000000
 22
0.000000
 32
0.000000
 13
0.000000
 23
0.000000
 33
0.000000
 40
0.000000
 40
0.000000
 40
0.000000
 40
0.000000
 40
1.000000
 40
1.000000
 40
1.000000
 40
1.000000
 10
779.391899
 20
475.814569
 30
0.000000
 10
779.597139
 20
477.397846
 30
0.000000
 10
780.154218
 20
478.599963
 30
0.000000
 10
781.063136
 20
479.479561
 30
0.000000
  0
SPLINE
  5
376
330
1F
100
AcDbEntity
  8
0
 62
     7
100
AcDbSpline
210
0.000000
220
0.000000
230
1.0
 70
     8
 71
     3
 72
     8
 73
     4
 42
0.0000000001
 43
0.0000000001
 44
0.0000000001
 12
0.000000
 22
0.000000
 32
0.000000
 13
0.000000
 23
0.000000
 33
0.000000
 40
0.000000
 40
0.000000
 40
0.000000
 40
0.000000
 40
1.000000
 40
1.000000
 40
1.000000
 40
1.000000
 10
781.063136
 20
479.479561
 30
0.000000
 10
781.942734
 20
480.300520
 30
0.000000
 10
783.056892
 20
480.740319
 30
0.000000
 10
784.405609
 20
480.740319
 30
0.000000
  0
SPLINE
  5
377
330
1F
100
AcDbEntity
  8
0
 62
     7
100
AcDbSpline
210
0.000000
220
0.000000
230
1.0
 70
     8
 71
     3
 72
     8
 73
     4
 42
0.0000000001
 43
0.0000000001
 44
0.0000000001
 12
0.000000
 22
0.000000
 32
0.000000
 13
0.000000
 23
0.000000
 33
0.000000
 40
0.000000
 40
0.000000
 40
0.000000
 40
0.000000
 40
1.000000
 40
1.000000
 40
1.000000
 40
1.000000
 10
784.405609
 20
480.740319
 30
0.000000
 10
785.812966
 20
480.740319
 30
0.000000
 10
787.015083
 20
480.300520
 30
0.000000
 10
787.953321
 20
479.362282
 30
0.000000
  0
SPLINE
  5
378
330
1F
100
AcDbEntity
  8
0
 62
     7
100
AcDbSpline
210
0.000000
220
0.000000
230
1.0
 70
     8
 71
     3
 72
     8
 73
     4
 42
0.0000000001
 43
0.0000000001
 44
0.0000000001
 12
0.000000
 22
0.000000
 32
0.000000
 13
0.000000
 23
0.000000
 33
0.000000
 40
0.000000
 40
0.000000
 40
0.000000
 40
0.000000
 40
1.000000
 40
1.000000
 40
1.000000
 40
1.000000
 10
787.953321
 20
479.362282
 30
0.000000
 10
788.891559
 20
478.482684
 30
0.000000
 10
789.389998
 20
477.397846
 30
0.000000
 10
789.389998
 20
476.137089
 30
0.000000
  0
SPLINE
  5
379
330
1F
100
AcDbEntity
  8
0
 62
     7
100
AcDbSpline
210
0.000000
220
0.000000
230
1.0
 70
     8
 71
     3
 72
     8
 73
     4
 42
0.0000000001
 43
0.0000000001
 44
0.0000000001
 12
0.000000
 22
0.000000
 32
0.000000
 13
0.000000
 23
0.000000
 33
0.000000
 40
0.000000
 40
0.000000
 40
0.000000
 40
0.000000
 40
1.000000
 40
1.000000
 40
1.000000
 40
1.000000
 10
789.389998
 20
476.137089
 30
0.000000
 10
789.389998
 20
475.257491
 30
0.000000
 10
789.184759
 20
474.377893
 30
0.000000
 10
788.774280
 20
473.468975
 30
0.000000
  0
SPLINE
  5
380
330
1F
100
AcDbEntity
  8
0
 62
     7
100
AcDbSpline
210
0.000000
220
0.000000
230
1.0
 70
     8
 71
     3
 72
     8
 73
     4
 42
0.0000000001
 43
0.0000000001
 44
0.0000000001
 12
0.000000
 22
0.000000
 32
0.000000
 13
0.000000
 23
0.000000
 33
0.000000
 40
0.000000
 40
0.000000
 40
0.000000
 40
0.000000
 40
1.000000
 40
1.000000
 40
1.000000
 40
1.000000
 10
788.774280
 20
473.468975
 30
0.000000
 10
788.129241
 20
472.090938
 30
0.000000
 10
787.103043
 20
470.624941
 30
0.000000
 10
785.666366
 20
469.041664
 30
0.000000
  0
SPLINE
  5
381
330
1F
100
AcDbEntity
  8
0
 62
     7
100
AcDbSpline
210
0.000000
220
0.000000
230
1.0
 70
     8
 71
     3
 72
     8
 73
     4
 42
0.0000000001
 43
0.0000000001
 44
0.0000000001
 12
0.000000
 22
0.000000
 32
0.000000
 13
0.000000
 23
0.000000
 33
0.000000
 40
0.000000
 40
0.000000
 40
0.000000
 40
0.000000
 40
1.000000
 40
1.000000
 40
1.000000
 40
1.000000
 10
785.666366
 20
469.041664
 30
0.000000
 10
783.526011
 20
466.725389
 30
0.000000
 10
782.177294
 20
465.318032
 30
0.000000
 10
781.649535
 20
464.819594
 30
0.000000
  0
LINE
  5
382
330
1F
100
AcDbEntity
  8
0
  62
7
100
AcDbLine
 10
781.649535
 20
464.819594
 30
0.000000
 11
786.194125
 21
464.819594
 31
0.000000
  0
SPLINE
  5
383
330
1F
100
AcDbEntity
  8
0
 62
     7
100
AcDbSpline
210
0.000000
220
0.000000
230
1.0
 70
     8
 71
     3
 72
     8
 73
     4
 42
0.0000000001
 43
0.0000000001
 44
0.0000000001
 12
0.000000
 22
0.000000
 32
0.000000
 13
0.000000
 23
0.000000
 33
0.000000
 40
0.000000
 40
0.000000
 40
0.000000
 40
0.000000
 40
1.000000
 40
1.000000
 40
1.000000
 40
1.000000
 10
786.194125
 20
464.819594
 30
0.000000
 10
787.132363
 20
464.819594
 30
0.000000
 10
787.777402
 20
464.848914
 30
0.000000
 10
788.158561
 20
464.936873
 30
0.000000
  0
SPLINE
  5
384
330
1F
100
AcDbEntity
  8
0
 62
     7
100
AcDbSpline
210
0.000000
220
0.000000
230
1.0
 70
     8
 71
     3
 72
     8
 73
     4
 42
0.0000000001
 43
0.0000000001
 44
0.0000000001
 12
0.000000
 22
0.000000
 32
0.000000
 13
0.000000
 23
0.000000
 33
0.000000
 40
0.000000
 40
0.000000
 40
0.000000
 40
0.000000
 40
1.000000
 40
1.000000
 40
1.000000
 40
1.000000
 10
788.158561
 20
464.936873
 30
0.000000
 10
788.510400
 20
464.995513
 30
0.000000
 10
788.862239
 20
465.112793
 30
0.000000
 10
789.155439
 20
465.347352
 30
0.000000
  0
SPLINE
  5
385
330
1F
100
AcDbEntity
  8
0
 62
     7
100
AcDbSpline
210
0.000000
220
0.000000
230
1.0
 70
     8
 71
     3
 72
     8
 73
     4
 42
0.0000000001
 43
0.0000000001
 44
0.0000000001
 12
0.000000
 22
0.000000
 32
0.000000
 13
0.000000
 23
0.000000
 33
0.000000
 40
0.000000
 40
0.000000
 40
0.000000
 40
0.000000
 40
1.000000
 40
1.000000
 40
1.000000
 40
1.000000
 10
789.155439
 20
465.347352
 30
0.000000
 10
789.448638
 20
465.552592
 30
0.000000
 10
789.712518
 20
465.845791
 30
0.000000
 10
789.947077
 20
466.256270
 30
0.000000
  0
LINE
  5
386
330
1F
100
AcDbEntity
  8
0
  62
7
100
AcDbLine
 10
809.767355
 20
476.840767
 30
0.000000
 11
809.327556
 21
477.046007
 31
0.000000
  0
SPLINE
  5
387
330
1F
100
AcDbEntity
  8
0
 62
     7
100
AcDbSpline
210
0.000000
220
0.000000
230
1.0
 70
     8
 71
     3
 72
     8
 73
     4
 42
0.0000000001
 43
0.0000000001
 44
0.0000000001
 12
0.000000
 22
0.000000
 32
0.000000
 13
0.000000
 23
0.000000
 33
0.000000
 40
0.000000
 40
0.000000
 40
0.000000
 40
0.000000
 40
1.000000
 40
1.000000
 40
1.000000
 40
1.000000
 10
809.327556
 20
477.046007
 30
0.000000
 10
809.825995
 20
478.218804
 30
0.000000
 10
810.471034
 20
479.127722
 30
0.000000
 10
811.233352
 20
479.772761
 30
0.000000
  0
SPLINE
  5
388
330
1F
100
AcDbEntity
  8
0
 62
     7
100
AcDbSpline
210
0.000000
220
0.000000
230
1.0
 70
     8
 71
     3
 72
     8
 73
     4
 42
0.0000000001
 43
0.0000000001
 44
0.0000000001
 12
0.000000
 22
0.000000
 32
0.000000
 13
0.000000
 23
0.000000
 33
0.000000
 40
0.000000
 40
0.000000
 40
0.000000
 40
0.000000
 40
1.000000
 40
1.000000
 40
1.000000
 40
1.000000
 10
811.233352
 20
479.772761
 30
0.000000
 10
811.995671
 20
480.417799
 30
0.000000
 10
812.933909
 20
480.740319
 30
0.000000
 10
814.106706
 20
480.740319
 30
0.000000
  0
SPLINE
  5
389
330
1F
100
AcDbEntity
  8
0
 62
     7
100
AcDbSpline
210
0.000000
220
0.000000
230
1.0
 70
     8
 71
     3
 72
     8
 73
     4
 42
0.0000000001
 43
0.0000000001
 44
0.0000000001
 12
0.000000
 22
0.000000
 32
0.000000
 13
0.000000
 23
0.000000
 33
0.000000
 40
0.000000
 40
0.000000
 40
0.000000
 40
0.000000
 40
1.000000
 40
1.000000
 40
1.000000
 40
1.000000
 10
814.106706
 20
480.740319
 30
0.000000
 10
815.514063
 20
480.740319
 30
0.000000
 10
816.598901
 20
480.300520
 30
0.000000
 10
817.361219
 20
479.362282
 30
0.000000
  0
SPLINE
  5
390
330
1F
100
AcDbEntity
  8
0
 62
     7
100
AcDbSpline
210
0.000000
220
0.000000
230
1.0
 70
     8
 71
     3
 72
     8
 73
     4
 42
0.0000000001
 43
0.0000000001
 44
0.0000000001
 12
0.000000
 22
0.000000
 32
0.000000
 13
0.000000
 23
0.000000
 33
0.000000
 40
0.000000
 40
0.000000
 40
0.000000
 40
0.000000
 40
1.000000
 40
1.000000
 40
1.000000
 40
1.000000
 10
817.361219
 20
479.362282
 30
0.000000
 10
817.918298
 20
478.717243
 30
0.000000
 10
818.211498
 20
477.984245
 30
0.000000
 10
818.211498
 20
477.192606
 30
0.000000
  0
SPLINE
  5
391
330
1F
100
AcDbEntity
  8
0
 62
     7
100
AcDbSpline
210
0.000000
220
0.000000
230
1.0
 70
     8
 71
     3
 72
     8
 73
     4
 42
0.0000000001
 43
0.0000000001
 44
0.0000000001
 12
0.000000
 22
0.000000
 32
0.000000
 13
0.000000
 23
0.000000
 33
0.000000
 40
0.000000
 40
0.000000
 40
0.000000
 40
0.000000
 40
1.000000
 40
1.000000
 40
1.000000
 40
1.000000
 10
818.211498
 20
477.192606
 30
0.000000
 10
818.211498
 20
475.931849
 30
0.000000
 10
817.419859
 20
474.612452
 30
0.000000
 10
815.807263
 20
473.234415
 30
0.000000
  0
SPLINE
  5
392
330
1F
100
AcDbEntity
  8
0
 62
     7
100
AcDbSpline
210
0.000000
220
0.000000
230
1.0
 70
     8
 71
     3
 72
     8
 73
     4
 42
0.0000000001
 43
0.0000000001
 44
0.0000000001
 12
0.000000
 22
0.000000
 32
0.000000
 13
0.000000
 23
0.000000
 33
0.000000
 40
0.000000
 40
0.000000
 40
0.000000
 40
0.000000
 40
1.000000
 40
1.000000
 40
1.000000
 40
1.000000
 10
815.807263
 20
473.234415
 30
0.000000
 10
816.862780
 20
472.823936
 30
0.000000
 10
817.683739
 20
472.237537
 30
0.000000
 10
818.270137
 20
471.445899
 30
0.000000
  0
SPLINE
  5
393
330
1F
100
AcDbEntity
  8
0
 62
     7
100
AcDbSpline
210
0.000000
220
0.000000
230
1.0
 70
     8
 71
     3
 72
     8
 73
     4
 42
0.0000000001
 43
0.0000000001
 44
0.0000000001
 12
0.000000
 22
0.000000
 32
0.000000
 13
0.000000
 23
0.000000
 33
0.000000
 40
0.000000
 40
0.000000
 40
0.000000
 40
0.000000
 40
1.000000
 40
1.000000
 40
1.000000
 40
1.000000
 10
818.270137
 20
471.445899
 30
0.000000
 10
818.797896
 20
470.654261
 30
0.000000
 10
819.091096
 20
469.716023
 30
0.000000
 10
819.091096
 20
468.660505
 30
0.000000
  0
SPLINE
  5
394
330
1F
100
AcDbEntity
  8
0
 62
     7
100
AcDbSpline
210
0.000000
220
0.000000
230
1.0
 70
     8
 71
     3
 72
     8
 73
     4
 42
0.0000000001
 43
0.0000000001
 44
0.0000000001
 12
0.000000
 22
0.000000
 32
0.000000
 13
0.000000
 23
0.000000
 33
0.000000
 40
0.000000
 40
0.000000
 40
0.000000
 40
0.000000
 40
1.000000
 40
1.000000
 40
1.000000
 40
1.000000
 10
819.091096
 20
468.660505
 30
0.000000
 10
819.091096
 20
467.165188
 30
0.000000
 10
818.621977
 20
465.845791
 30
0.000000
 10
817.625099
 20
464.731634
 30
0.000000
  0
SPLINE
  5
395
330
1F
100
AcDbEntity
  8
0
 62
     7
100
AcDbSpline
210
0.000000
220
0.000000
230
1.0
 70
     8
 71
     3
 72
     8
 73
     4
 42
0.0000000001
 43
0.0000000001
 44
0.0000000001
 12
0.000000
 22
0.000000
 32
0.000000
 13
0.000000
 23
0.000000
 33
0.000000
 40
0.000000
 40
0.000000
 40
0.000000
 40
0.000000
 40
1.000000
 40
1.000000
 40
1.000000
 40
1.000000
 10
817.625099
 20
464.731634
 30
0.000000
 10
816.393661
 20
463.294957
 30
0.000000
 10
814.546505
 20
462.561959
 30
0.000000
 10
812.142270
 20
462.561959
 30
0.000000
  0
SPLINE
  5
396
330
1F
100
AcDbEntity
  8
0
 62
     7
100
AcDbSpline
210
0.000000
220
0.000000
230
1.0
 70
     8
 71
     3
 72
     8
 73
     4
 42
0.0000000001
 43
0.0000000001
 44
0.0000000001
 12
0.000000
 22
0.000000
 32
0.000000
 13
0.000000
 23
0.000000
 33
0.000000
 40
0.000000
 40
0.000000
 40
0.000000
 40
0.000000
 40
1.000000
 40
1.000000
 40
1.000000
 40
1.000000
 10
812.142270
 20
462.561959
 30
0.000000
 10
810.969473
 20
462.561959
 30
0.000000
 10
810.177834
 20
462.708558
 30
0.000000
 10
809.738035
 20
463.001758
 30
0.000000
  0
SPLINE
  5
397
330
1F
100
AcDbEntity
  8
0
 62
     7
100
AcDbSpline
210
0.000000
220
0.000000
230
1.0
 70
     8
 71
     3
 72
     8
 73
     4
 42
0.0000000001
 43
0.0000000001
 44
0.0000000001
 12
0.000000
 22
0.000000
 32
0.000000
 13
0.000000
 23
0.000000
 33
0.000000
 40
0.000000
 40
0.000000
 40
0.000000
 40
0.000000
 40
1.000000
 40
1.000000
 40
1.000000
 40
1.000000
 10
809.738035
 20
463.001758
 30
0.000000
 10
809.327556
 20
463.294957
 30
0.000000
 10
809.092997
 20
463.588156
 30
0.000000
 10
809.092997
 20
463.939996
 30
0.000000
  0
SPLINE
  5
398
330
1F
100
AcDbEntity
  8
0
 62
     7
100
AcDbSpline
210
0.000000
220
0.000000
230
1.0
 70
     8
 71
     3
 72
     8
 73
     4
 42
0.0000000001
 43
0.0000000001
 44
0.0000000001
 12
0.000000
 22
0.000000
 32
0.000000
 13
0.000000
 23
0.000000
 33
0.000000
 40
0.000000
 40
0.000000
 40
0.000000
 40
0.000000
 40
1.000000
 40
1.000000
 40
1.000000
 40
1.000000
 10
809.092997
 20
463.939996
 30
0.000000
 10
809.092997
 20
464.174555
 30
0.000000
 10
809.180957
 20
464.409114
 30
0.000000
 10
809.386196
 20
464.585034
 30
0.000000
  0
SPLINE
  5
399
330
1F
100
AcDbEntity
  8
0
 62
     7
100
AcDbSpline
210
0.000000
220
0.000000
230
1.0
 70
     8
 71
     3
 72
     8
 73
     4
 42
0.0000000001
 43
0.0000000001
 44
0.0000000001
 12
0.000000
 22
0.000000
 32
0.000000
 13
0.000000
 23
0.000000
 33
0.000000
 40
0.000000
 40
0.000000
 40
0.000000
 40
0.000000
 40
1.000000
 40
1.000000
 40
1.000000
 40
1.000000
 10
809.386196
 20
464.585034
 30
0.000000
 10
809.591436
 20
464.760954
 30
0.000000
 10
809.825995
 20
464.878233
 30
0.000000
 10
810.119195
 20
464.878233
 30
0.000000
  0
SPLINE
  5
400
330
1F
100
AcDbEntity
  8
0
 62
     7
100
AcDbSpline
210
0.000000
220
0.000000
230
1.0
 70
     8
 71
     3
 72
     8
 73
     4
 42
0.0000000001
 43
0.0000000001
 44
0.0000000001
 12
0.000000
 22
0.000000
 32
0.000000
 13
0.000000
 23
0.000000
 33
0.000000
 40
0.000000
 40
0.000000
 40
0.000000
 40
0.000000
 40
1.000000
 40
1.000000
 40
1.000000
 40
1.000000
 10
810.119195
 20
464.878233
 30
0.000000
 10
810.353754
 20
464.878233
 30
0.000000
 10
810.558994
 20
464.848914
 30
0.000000
 10
810.793553
 20
464.760954
 30
0.000000
  0
SPLINE
  5
401
330
1F
100
AcDbEntity
  8
0
 62
     7
100
AcDbSpline
210
0.000000
220
0.000000
230
1.0
 70
     8
 71
     3
 72
     8
 73
     4
 42
0.0000000001
 43
0.0000000001
 44
0.0000000001
 12
0.000000
 22
0.000000
 32
0.000000
 13
0.000000
 23
0.000000
 33
0.000000
 40
0.000000
 40
0.000000
 40
0.000000
 40
0.000000
 40
1.000000
 40
1.000000
 40
1.000000
 40
1.000000
 10
810.793553
 20
464.760954
 30
0.000000
 10
810.940153
 20
464.731634
 30
0.000000
 10
811.262672
 20
464.585034
 30
0.000000
 10
811.790431
 20
464.291835
 30
0.000000
  0
SPLINE
  5
402
330
1F
100
AcDbEntity
  8
0
 62
     7
100
AcDbSpline
210
0.000000
220
0.000000
230
1.0
 70
     8
 71
     3
 72
     8
 73
     4
 42
0.0000000001
 43
0.0000000001
 44
0.0000000001
 12
0.000000
 22
0.000000
 32
0.000000
 13
0.000000
 23
0.000000
 33
0.000000
 40
0.000000
 40
0.000000
 40
0.000000
 40
0.000000
 40
1.000000
 40
1.000000
 40
1.000000
 40
1.000000
 10
811.790431
 20
464.291835
 30
0.000000
 10
812.318190
 20
464.057275
 30
0.000000
 10
812.670029
 20
463.881356
 30
0.000000
 10
812.875269
 20
463.822716
 30
0.000000
  0
SPLINE
  5
403
330
1F
100
AcDbEntity
  8
0
 62
     7
100
AcDbSpline
210
0.000000
220
0.000000
230
1.0
 70
     8
 71
     3
 72
     8
 73
     4
 42
0.0000000001
 43
0.0000000001
 44
0.0000000001
 12
0.000000
 22
0.000000
 32
0.000000
 13
0.000000
 23
0.000000
 33
0.000000
 40
0.000000
 40
0.000000
 40
0.000000
 40
0.000000
 40
1.000000
 40
1.000000
 40
1.000000
 40
1.000000
 10
812.875269
 20
463.822716
 30
0.000000
 10
813.168468
 20
463.734756
 30
0.000000
 10
813.520307
 20
463.676116
 30
0.000000
 10
813.901467
 20
463.676116
 30
0.000000
  0
SPLINE
  5
404
330
1F
100
AcDbEntity
  8
0
 62
     7
100
AcDbSpline
210
0.000000
220
0.000000
230
1.0
 70
     8
 71
     3
 72
     8
 73
     4
 42
0.0000000001
 43
0.0000000001
 44
0.0000000001
 12
0.000000
 22
0.000000
 32
0.000000
 13
0.000000
 23
0.000000
 33
0.000000
 40
0.000000
 40
0.000000
 40
0.000000
 40
0.000000
 40
1.000000
 40
1.000000
 40
1.000000
 40
1.000000
 10
813.901467
 20
463.676116
 30
0.000000
 10
814.781065
 20
463.676116
 30
0.000000
 10
815.543383
 20
463.998635
 30
0.000000
 10
816.217742
 20
464.702314
 30
0.000000
  0
SPLINE
  5
405
330
1F
100
AcDbEntity
  8
0
 62
     7
100
AcDbSpline
210
0.000000
220
0.000000
230
1.0
 70
     8
 71
     3
 72
     8
 73
     4
 42
0.0000000001
 43
0.0000000001
 44
0.0000000001
 12
0.000000
 22
0.000000
 32
0.000000
 13
0.000000
 23
0.000000
 33
0.000000
 40
0.000000
 40
0.000000
 40
0.000000
 40
0.000000
 40
1.000000
 40
1.000000
 40
1.000000
 40
1.000000
 10
816.217742
 20
464.702314
 30
0.000000
 10
816.862780
 20
465.376672
 30
0.000000
 10
817.185300
 20
466.168311
 30
0.000000
 10
817.185300
 20
467.106549
 30
0.000000
  0
SPLINE
  5
406
330
1F
100
AcDbEntity
  8
0
 62
     7
100
AcDbSpline
210
0.000000
220
0.000000
230
1.0
 70
     8
 71
     3
 72
     8
 73
     4
 42
0.0000000001
 43
0.0000000001
 44
0.0000000001
 12
0.000000
 22
0.000000
 32
0.000000
 13
0.000000
 23
0.000000
 33
0.000000
 40
0.000000
 40
0.000000
 40
0.000000
 40
0.000000
 40
1.000000
 40
1.000000
 40
1.000000
 40
1.000000
 10
817.185300
 20
467.106549
 30
0.000000
 10
817.185300
 20
467.780907
 30
0.000000
 10
817.038700
 20
468.455266
 30
0.000000
 10
816.745501
 20
469.100304
 30
0.000000
  0
SPLINE
  5
407
330
1F
100
AcDbEntity
  8
0
 62
     7
100
AcDbSpline
210
0.000000
220
0.000000
230
1.0
 70
     8
 71
     3
 72
     8
 73
     4
 42
0.0000000001
 43
0.0000000001
 44
0.0000000001
 12
0.000000
 22
0.000000
 32
0.000000
 13
0.000000
 23
0.000000
 33
0.000000
 40
0.000000
 40
0.000000
 40
0.000000
 40
0.000000
 40
1.000000
 40
1.000000
 40
1.000000
 40
1.000000
 10
816.745501
 20
469.100304
 30
0.000000
 10
816.510941
 20
469.569423
 30
0.000000
 10
816.276382
 20
469.950582
 30
0.000000
 10
815.983182
 20
470.214462
 30
0.000000
  0
SPLINE
  5
408
330
1F
100
AcDbEntity
  8
0
 62
     7
100
AcDbSpline
210
0.000000
220
0.000000
230
1.0
 70
     8
 71
     3
 72
     8
 73
     4
 42
0.0000000001
 43
0.0000000001
 44
0.0000000001
 12
0.000000
 22
0.000000
 32
0.000000
 13
0.000000
 23
0.000000
 33
0.000000
 40
0.000000
 40
0.000000
 40
0.000000
 40
0.000000
 40
1.000000
 40
1.000000
 40
1.000000
 40
1.000000
 10
815.983182
 20
470.214462
 30
0.000000
 10
815.631343
 20
470.536981
 30
0.000000
 10
815.103584
 20
470.859500
 30
0.000000
 10
814.458545
 20
471.152700
 30
0.000000
  0
SPLINE
  5
409
330
1F
100
AcDbEntity
  8
0
 62
     7
100
AcDbSpline
210
0.000000
220
0.000000
230
1.0
 70
     8
 71
     3
 72
     8
 73
     4
 42
0.0000000001
 43
0.0000000001
 44
0.0000000001
 12
0.000000
 22
0.000000
 32
0.000000
 13
0.000000
 23
0.000000
 33
0.000000
 40
0.000000
 40
0.000000
 40
0.000000
 40
0.000000
 40
1.000000
 40
1.000000
 40
1.000000
 40
1.000000
 10
814.458545
 20
471.152700
 30
0.000000
 10
813.813507
 20
471.416579
 30
0.000000
 10
813.168468
 20
471.563179
 30
0.000000
 10
812.494110
 20
471.563179
 30
0.000000
  0
LINE
  5
410
330
1F
100
AcDbEntity
  8
0
  62
7
100
AcDbLine
 10
812.494110
 20
471.563179
 30
0.000000
 11
812.083630
 21
471.563179
 31
0.000000
  0
LINE
  5
411
330
1F
100
AcDbEntity
  8
0
  62
7
100
AcDbLine
 10
812.083630
 20
471.563179
 30
0.000000
 11
812.083630
 21
471.944338
 31
0.000000
  0
SPLINE
  5
412
330
1F
100
AcDbEntity
  8
0
 62
     7
100
AcDbSpline
210
0.000000
220
0.000000
230
1.0
 70
     8
 71
     3
 72
     8
 73
     4
 42
0.0000000001
 43
0.0000000001
 44
0.0000000001
 12
0.000000
 22
0.000000
 32
0.000000
 13
0.000000
 23
0.000000
 33
0.000000
 40
0.000000
 40
0.000000
 40
0.000000
 40
0.000000
 40
1.000000
 40
1.000000
 40
1.000000
 40
1.000000
 10
812.083630
 20
471.944338
 30
0.000000
 10
812.728669
 20
472.002978
 30
0.000000
 10
813.403028
 20
472.266857
 30
0.000000
 10
814.106706
 20
472.677336
 30
0.000000
  0
SPLINE
  5
413
330
1F
100
AcDbEntity
  8
0
 62
     7
100
AcDbSpline
210
0.000000
220
0.000000
230
1.0
 70
     8
 71
     3
 72
     8
 73
     4
 42
0.0000000001
 43
0.0000000001
 44
0.0000000001
 12
0.000000
 22
0.000000
 32
0.000000
 13
0.000000
 23
0.000000
 33
0.000000
 40
0.000000
 40
0.000000
 40
0.000000
 40
0.000000
 40
1.000000
 40
1.000000
 40
1.000000
 40
1.000000
 10
814.106706
 20
472.677336
 30
0.000000
 10
814.781065
 20
473.087815
 30
0.000000
 10
815.279504
 20
473.556934
 30
0.000000
 10
815.602023
 20
474.143333
 30
0.000000
  0
SPLINE
  5
414
330
1F
100
AcDbEntity
  8
0
 62
     7
100
AcDbSpline
210
0.000000
220
0.000000
230
1.0
 70
     8
 71
     3
 72
     8
 73
     4
 42
0.0000000001
 43
0.0000000001
 44
0.0000000001
 12
0.000000
 22
0.000000
 32
0.000000
 13
0.000000
 23
0.000000
 33
0.000000
 40
0.000000
 40
0.000000
 40
0.000000
 40
0.000000
 40
1.000000
 40
1.000000
 40
1.000000
 40
1.000000
 10
815.602023
 20
474.143333
 30
0.000000
 10
815.895222
 20
474.700412
 30
0.000000
 10
816.071142
 20
475.316131
 30
0.000000
 10
816.071142
 20
476.019809
 30
0.000000
  0
SPLINE
  5
415
330
1F
100
AcDbEntity
  8
0
 62
     7
100
AcDbSpline
210
0.000000
220
0.000000
230
1.0
 70
     8
 71
     3
 72
     8
 73
     4
 42
0.0000000001
 43
0.0000000001
 44
0.0000000001
 12
0.000000
 22
0.000000
 32
0.000000
 13
0.000000
 23
0.000000
 33
0.000000
 40
0.000000
 40
0.000000
 40
0.000000
 40
0.000000
 40
1.000000
 40
1.000000
 40
1.000000
 40
1.000000
 10
816.071142
 20
476.019809
 30
0.000000
 10
816.071142
 20
476.899407
 30
0.000000
 10
815.807263
 20
477.603086
 30
0.000000
 10
815.220864
 20
478.160164
 30
0.000000
  0
SPLINE
  5
416
330
1F
100
AcDbEntity
  8
0
 62
     7
100
AcDbSpline
210
0.000000
220
0.000000
230
1.0
 70
     8
 71
     3
 72
     8
 73
     4
 42
0.0000000001
 43
0.0000000001
 44
0.0000000001
 12
0.000000
 22
0.000000
 32
0.000000
 13
0.000000
 23
0.000000
 33
0.000000
 40
0.000000
 40
0.000000
 40
0.000000
 40
0.000000
 40
1.000000
 40
1.000000
 40
1.000000
 40
1.000000
 10
815.220864
 20
478.160164
 30
0.000000
 10
814.693105
 20
478.687923
 30
0.000000
 10
813.989426
 20
478.981123
 30
0.000000
 10
813.139148
 20
478.981123
 30
0.000000
  0
SPLINE
  5
417
330
1F
100
AcDbEntity
  8
0
 62
     7
100
AcDbSpline
210
0.000000
220
0.000000
230
1.0
 70
     8
 71
     3
 72
     8
 73
     4
 42
0.0000000001
 43
0.0000000001
 44
0.0000000001
 12
0.000000
 22
0.000000
 32
0.000000
 13
0.000000
 23
0.000000
 33
0.000000
 40
0.000000
 40
0.000000
 40
0.000000
 40
0.000000
 40
1.000000
 40
1.000000
 40
1.000000
 40
1.000000
 10
813.139148
 20
478.981123
 30
0.000000
 10
811.790431
 20
478.981123
 30
0.000000
 10
810.676273
 20
478.277444
 30
0.000000
 10
809.767355
 20
476.840767
 30
0.000000
  0
LINE
  5
418
330
1F
100
AcDbEntity
  8
0
  62
7
100
AcDbLine
 10
846.681157
 20
469.334864
 30
0.000000
 11
849.026752
 21
469.334864
 31
0.000000
  0
LINE
  5
419
330
1F
100
AcDbEntity
  8
0
  62
7
100
AcDbLine
 10
849.026752
 20
469.334864
 30
0.000000
 11
849.026752
 21
467.487708
 31
0.000000
  0
LINE
  5
420
330
1F
100
AcDbEntity
  8
0
  62
7
100
AcDbLine
 10
849.026752
 20
467.487708
 30
0.000000
 11
846.681157
 21
467.487708
 31
0.000000
  0
LINE
  5
421
330
1F
100
AcDbEntity
  8
0
  62
7
100
AcDbLine
 10
846.681157
 20
467.487708
 30
0.000000
 11
846.681157
 21
462.855158
 31
0.000000
  0
LINE
  5
422
330
1F
100
AcDbEntity
  8
0
  62
7
100
AcDbLine
 10
846.681157
 20
462.855158
 30
0.000000
 11
844.540802
 21
462.855158
 31
0.000000
  0
LINE
  5
423
330
1F
100
AcDbEntity
  8
0
  62
7
100
AcDbLine
 10
844.540802
 20
462.855158
 30
0.000000
 11
844.540802
 21
467.487708
 31
0.000000
  0
LINE
  5
424
330
1F
100
AcDbEntity
  8
0
  62
7
100
AcDbLine
 10
844.540802
 20
467.487708
 30
0.000000
 11
837.093538
 21
467.487708
 31
0.000000
  0
LINE
  5
425
330
1F
100
AcDbEntity
  8
0
  62
7
100
AcDbLine
 10
837.093538
 20
467.487708
 30
0.000000
 11
837.093538
 21
469.158944
 31
0.000000
  0
LINE
  5
426
330
1F
100
AcDbEntity
  8
0
  62
7
100
AcDbLine
 10
837.093538
 20
469.158944
 30
0.000000
 11
845.244480
 21
480.740319
 31
0.000000
  0
LINE
  5
427
330
1F
100
AcDbEntity
  8
0
  62
7
100
AcDbLine
 10
845.244480
 20
480.740319
 30
0.000000
 11
846.681157
 21
480.740319
 31
0.000000
  0
LINE
  5
428
330
1F
100
AcDbEntity
  8
0
  62
7
100
AcDbLine
 10
846.681157
 20
480.740319
 30
0.000000
 11
846.681157
 21
469.334864
 31
0.000000
  0
LINE
  5
429
330
1F
100
AcDbEntity
  8
0
  62
7
100
AcDbLine
 10
838.354295
 20
469.334864
 30
0.000000
 11
844.540802
 21
469.334864
 31
0.000000
  0
LINE
  5
430
330
1F
100
AcDbEntity
  8
0
  62
7
100
AcDbLine
 10
844.540802
 20
469.334864
 30
0.000000
 11
844.540802
 21
478.013565
 31
0.000000
  0
LINE
  5
431
330
1F
100
AcDbEntity
  8
0
  62
7
100
AcDbLine
 10
844.540802
 20
478.013565
 30
0.000000
 11
838.354295
 21
469.334864
 31
0.000000
  0
LINE
  5
432
330
1F
100
AcDbEntity
  8
0
  62
7
100
AcDbLine
 10
871.837664
 20
480.388479
 30
0.000000
 11
878.141451
 21
480.388479
 31
0.000000
  0
LINE
  5
433
330
1F
100
AcDbEntity
  8
0
  62
7
100
AcDbLine
 10
878.141451
 20
480.388479
 30
0.000000
 11
877.115253
 21
478.189484
 31
0.000000
  0
LINE
  5
434
330
1F
100
AcDbEntity
  8
0
  62
7
100
AcDbLine
 10
877.115253
 20
478.189484
 30
0.000000
 11
871.808344
 21
478.189484
 31
0.000000
  0
LINE
  5
435
330
1F
100
AcDbEntity
  8
0
  62
7
100
AcDbLine
 10
871.808344
 20
478.189484
 30
0.000000
 11
870.664867
 21
475.843889
 31
0.000000
  0
SPLINE
  5
436
330
1F
100
AcDbEntity
  8
0
 62
     7
100
AcDbSpline
210
0.000000
220
0.000000
230
1.0
 70
     8
 71
     3
 72
     8
 73
     4
 42
0.0000000001
 43
0.0000000001
 44
0.0000000001
 12
0.000000
 22
0.000000
 32
0.000000
 13
0.000000
 23
0.000000
 33
0.000000
 40
0.000000
 40
0.000000
 40
0.000000
 40
0.000000
 40
1.000000
 40
1.000000
 40
1.000000
 40
1.000000
 10
870.664867
 20
475.843889
 30
0.000000
 10
872.951822
 20
475.521370
 30
0.000000
 10
874.769658
 20
474.671092
 30
0.000000
 10
876.118375
 20
473.293055
 30
0.000000
  0
SPLINE
  5
437
330
1F
100
AcDbEntity
  8
0
 62
     7
100
AcDbSpline
210
0.000000
220
0.000000
230
1.0
 70
     8
 71
     3
 72
     8
 73
     4
 42
0.0000000001
 43
0.0000000001
 44
0.0000000001
 12
0.000000
 22
0.000000
 32
0.000000
 13
0.000000
 23
0.000000
 33
0.000000
 40
0.000000
 40
0.000000
 40
0.000000
 40
0.000000
 40
1.000000
 40
1.000000
 40
1.000000
 40
1.000000
 10
876.118375
 20
473.293055
 30
0.000000
 10
877.261853
 20
472.120258
 30
0.000000
 10
877.848252
 20
470.742221
 30
0.000000
 10
877.848252
 20
469.158944
 30
0.000000
  0
SPLINE
  5
438
330
1F
100
AcDbEntity
  8
0
 62
     7
100
AcDbSpline
210
0.000000
220
0.000000
230
1.0
 70
     8
 71
     3
 72
     8
 73
     4
 42
0.0000000001
 43
0.0000000001
 44
0.0000000001
 12
0.000000
 22
0.000000
 32
0.000000
 13
0.000000
 23
0.000000
 33
0.000000
 40
0.000000
 40
0.000000
 40
0.000000
 40
0.000000
 40
1.000000
 40
1.000000
 40
1.000000
 40
1.000000
 10
877.848252
 20
469.158944
 30
0.000000
 10
877.848252
 20
468.250026
 30
0.000000
 10
877.672332
 20
467.399748
 30
0.000000
 10
877.291173
 20
466.608110
 30
0.000000
  0
SPLINE
  5
439
330
1F
100
AcDbEntity
  8
0
 62
     7
100
AcDbSpline
210
0.000000
220
0.000000
230
1.0
 70
     8
 71
     3
 72
     8
 73
     4
 42
0.0000000001
 43
0.0000000001
 44
0.0000000001
 12
0.000000
 22
0.000000
 32
0.000000
 13
0.000000
 23
0.000000
 33
0.000000
 40
0.000000
 40
0.000000
 40
0.000000
 40
0.000000
 40
1.000000
 40
1.000000
 40
1.000000
 40
1.000000
 10
877.291173
 20
466.608110
 30
0.000000
 10
876.939334
 20
465.845791
 30
0.000000
 10
876.440895
 20
465.171433
 30
0.000000
 10
875.854496
 20
464.614354
 30
0.000000
  0
SPLINE
  5
440
330
1F
100
AcDbEntity
  8
0
 62
     7
100
AcDbSpline
210
0.000000
220
0.000000
230
1.0
 70
     8
 71
     3
 72
     8
 73
     4
 42
0.0000000001
 43
0.0000000001
 44
0.0000000001
 12
0.000000
 22
0.000000
 32
0.000000
 13
0.000000
 23
0.000000
 33
0.000000
 40
0.000000
 40
0.000000
 40
0.000000
 40
0.000000
 40
1.000000
 40
1.000000
 40
1.000000
 40
1.000000
 10
875.854496
 20
464.614354
 30
0.000000
 10
875.297417
 20
464.057275
 30
0.000000
 10
874.652378
 20
463.617476
 30
0.000000
 10
873.948700
 20
463.265637
 30
0.000000
  0
SPLINE
  5
441
330
1F
100
AcDbEntity
  8
0
 62
     7
100
AcDbSpline
210
0.000000
220
0.000000
230
1.0
 70
     8
 71
     3
 72
     8
 73
     4
 42
0.0000000001
 43
0.0000000001
 44
0.0000000001
 12
0.000000
 22
0.000000
 32
0.000000
 13
0.000000
 23
0.000000
 33
0.000000
 40
0.000000
 40
0.000000
 40
0.000000
 40
0.000000
 40
1.000000
 40
1.000000
 40
1.000000
 40
1.000000
 10
873.948700
 20
463.265637
 30
0.000000
 10
872.981142
 20
462.796518
 30
0.000000
 10
871.954944
 20
462.561959
 30
0.000000
 10
870.899426
 20
462.561959
 30
0.000000
  0
SPLINE
  5
442
330
1F
100
AcDbEntity
  8
0
 62
     7
100
AcDbSpline
210
0.000000
220
0.000000
230
1.0
 70
     8
 71
     3
 72
     8
 73
     4
 42
0.0000000001
 43
0.0000000001
 44
0.0000000001
 12
0.000000
 22
0.000000
 32
0.000000
 13
0.000000
 23
0.000000
 33
0.000000
 40
0.000000
 40
0.000000
 40
0.000000
 40
0.000000
 40
1.000000
 40
1.000000
 40
1.000000
 40
1.000000
 10
870.899426
 20
462.561959
 30
0.000000
 10
869.843909
 20
462.561959
 30
0.000000
 10
869.081590
 20
462.737878
 30
0.000000
 10
868.612471
 20
463.089717
 30
0.000000
  0
SPLINE
  5
443
330
1F
100
AcDbEntity
  8
0
 62
     7
100
AcDbSpline
210
0.000000
220
0.000000
230
1.0
 70
     8
 71
     3
 72
     8
 73
     4
 42
0.0000000001
 43
0.0000000001
 44
0.0000000001
 12
0.000000
 22
0.000000
 32
0.000000
 13
0.000000
 23
0.000000
 33
0.000000
 40
0.000000
 40
0.000000
 40
0.000000
 40
0.000000
 40
1.000000
 40
1.000000
 40
1.000000
 40
1.000000
 10
868.612471
 20
463.089717
 30
0.000000
 10
868.143352
 20
463.441557
 30
0.000000
 10
867.879473
 20
463.822716
 30
0.000000
 10
867.879473
 20
464.262515
 30
0.000000
  0
SPLINE
  5
444
330
1F
100
AcDbEntity
  8
0
 62
     7
100
AcDbSpline
210
0.000000
220
0.000000
230
1.0
 70
     8
 71
     3
 72
     8
 73
     4
 42
0.0000000001
 43
0.0000000001
 44
0.0000000001
 12
0.000000
 22
0.000000
 32
0.000000
 13
0.000000
 23
0.000000
 33
0.000000
 40
0.000000
 40
0.000000
 40
0.000000
 40
0.000000
 40
1.000000
 40
1.000000
 40
1.000000
 40
1.000000
 10
867.879473
 20
464.262515
 30
0.000000
 10
867.879473
 20
464.497074
 30
0.000000
 10
867.967433
 20
464.731634
 30
0.000000
 10
868.172672
 20
464.907553
 30
0.000000
  0
SPLINE
  5
445
330
1F
100
AcDbEntity
  8
0
 62
     7
100
AcDbSpline
210
0.000000
220
0.000000
230
1.0
 70
     8
 71
     3
 72
     8
 73
     4
 42
0.0000000001
 43
0.0000000001
 44
0.0000000001
 12
0.000000
 22
0.000000
 32
0.000000
 13
0.000000
 23
0.000000
 33
0.000000
 40
0.000000
 40
0.000000
 40
0.000000
 40
0.000000
 40
1.000000
 40
1.000000
 40
1.000000
 40
1.000000
 10
868.172672
 20
464.907553
 30
0.000000
 10
868.348592
 20
465.083473
 30
0.000000
 10
868.612471
 20
465.171433
 30
0.000000
 10
868.934990
 20
465.171433
 30
0.000000
  0
SPLINE
  5
446
330
1F
100
AcDbEntity
  8
0
 62
     7
100
AcDbSpline
210
0.000000
220
0.000000
230
1.0
 70
     8
 71
     3
 72
     8
 73
     4
 42
0.0000000001
 43
0.0000000001
 44
0.0000000001
 12
0.000000
 22
0.000000
 32
0.000000
 13
0.000000
 23
0.000000
 33
0.000000
 40
0.000000
 40
0.000000
 40
0.000000
 40
0.000000
 40
1.000000
 40
1.000000
 40
1.000000
 40
1.000000
 10
868.934990
 20
465.171433
 30
0.000000
 10
869.140230
 20
465.171433
 30
0.000000
 10
869.345470
 20
465.142113
 30
0.000000
 10
869.521389
 20
465.083473
 30
0.000000
  0
SPLINE
  5
447
330
1F
100
AcDbEntity
  8
0
 62
     7
100
AcDbSpline
210
0.000000
220
0.000000
230
1.0
 70
     8
 71
     3
 72
     8
 73
     4
 42
0.0000000001
 43
0.0000000001
 44
0.0000000001
 12
0.000000
 22
0.000000
 32
0.000000
 13
0.000000
 23
0.000000
 33
0.000000
 40
0.000000
 40
0.000000
 40
0.000000
 40
0.000000
 40
1.000000
 40
1.000000
 40
1.000000
 40
1.000000
 10
869.521389
 20
465.083473
 30
0.000000
 10
869.667989
 20
465.024833
 30
0.000000
 10
869.961188
 20
464.848914
 30
0.000000
 10
870.371667
 20
464.555714
 30
0.000000
  0
SPLINE
  5
448
330
1F
100
AcDbEntity
  8
0
 62
     7
100
AcDbSpline
210
0.000000
220
0.000000
230
1.0
 70
     8
 71
     3
 72
     8
 73
     4
 42
0.0000000001
 43
0.0000000001
 44
0.0000000001
 12
0.000000
 22
0.000000
 32
0.000000
 13
0.000000
 23
0.000000
 33
0.000000
 40
0.000000
 40
0.000000
 40
0.000000
 40
0.000000
 40
1.000000
 40
1.000000
 40
1.000000
 40
1.000000
 10
870.371667
 20
464.555714
 30
0.000000
 10
871.016706
 20
464.115915
 30
0.000000
 10
871.661745
 20
463.881356
 30
0.000000
 10
872.336103
 20
463.881356
 30
0.000000
  0
SPLINE
  5
449
330
1F
100
AcDbEntity
  8
0
 62
     7
100
AcDbSpline
210
0.000000
220
0.000000
230
1.0
 70
     8
 71
     3
 72
     8
 73
     4
 42
0.0000000001
 43
0.0000000001
 44
0.0000000001
 12
0.000000
 22
0.000000
 32
0.000000
 13
0.000000
 23
0.000000
 33
0.000000
 40
0.000000
 40
0.000000
 40
0.000000
 40
0.000000
 40
1.000000
 40
1.000000
 40
1.000000
 40
1.000000
 10
872.336103
 20
463.881356
 30
0.000000
 10
873.332981
 20
463.881356
 30
0.000000
 10
874.241899
 20
464.262515
 30
0.000000
 10
875.004218
 20
465.024833
 30
0.000000
  0
SPLINE
  5
450
330
1F
100
AcDbEntity
  8
0
 62
     7
100
AcDbSpline
210
0.000000
220
0.000000
230
1.0
 70
     8
 71
     3
 72
     8
 73
     4
 42
0.0000000001
 43
0.0000000001
 44
0.0000000001
 12
0.000000
 22
0.000000
 32
0.000000
 13
0.000000
 23
0.000000
 33
0.000000
 40
0.000000
 40
0.000000
 40
0.000000
 40
0.000000
 40
1.000000
 40
1.000000
 40
1.000000
 40
1.000000
 10
875.004218
 20
465.024833
 30
0.000000
 10
875.766536
 20
465.787151
 30
0.000000
 10
876.147695
 20
466.696069
 30
0.000000
 10
876.147695
 20
467.810227
 30
0.000000
  0
SPLINE
  5
451
330
1F
100
AcDbEntity
  8
0
 62
     7
100
AcDbSpline
210
0.000000
220
0.000000
230
1.0
 70
     8
 71
     3
 72
     8
 73
     4
 42
0.0000000001
 43
0.0000000001
 44
0.0000000001
 12
0.000000
 22
0.000000
 32
0.000000
 13
0.000000
 23
0.000000
 33
0.000000
 40
0.000000
 40
0.000000
 40
0.000000
 40
0.000000
 40
1.000000
 40
1.000000
 40
1.000000
 40
1.000000
 10
876.147695
 20
467.810227
 30
0.000000
 10
876.147695
 20
468.865745
 30
0.000000
 10
875.825176
 20
469.833303
 30
0.000000
 10
875.150817
 20
470.771541
 30
0.000000
  0
SPLINE
  5
452
330
1F
100
AcDbEntity
  8
0
 62
     7
100
AcDbSpline
210
0.000000
220
0.000000
230
1.0
 70
     8
 71
     3
 72
     8
 73
     4
 42
0.0000000001
 43
0.0000000001
 44
0.0000000001
 12
0.000000
 22
0.000000
 32
0.000000
 13
0.000000
 23
0.000000
 33
0.000000
 40
0.000000
 40
0.000000
 40
0.000000
 40
0.000000
 40
1.000000
 40
1.000000
 40
1.000000
 40
1.000000
 10
875.150817
 20
470.771541
 30
0.000000
 10
874.476459
 20
471.680459
 30
0.000000
 10
873.538221
 20
472.384137
 30
0.000000
 10
872.306783
 20
472.911896
 30
0.000000
  0
SPLINE
  5
453
330
1F
100
AcDbEntity
  8
0
 62
     7
100
AcDbSpline
210
0.000000
220
0.000000
230
1.0
 70
     8
 71
     3
 72
     8
 73
     4
 42
0.0000000001
 43
0.0000000001
 44
0.0000000001
 12
0.000000
 22
0.000000
 32
0.000000
 13
0.000000
 23
0.000000
 33
0.000000
 40
0.000000
 40
0.000000
 40
0.000000
 40
0.000000
 40
1.000000
 40
1.000000
 40
1.000000
 40
1.000000
 10
872.306783
 20
472.911896
 30
0.000000
 10
871.368545
 20
473.293055
 30
0.000000
 10
870.107788
 20
473.527614
 30
0.000000
 10
868.465871
 20
473.586254
 30
0.000000
  0
LINE
  5
454
330
1F
100
AcDbEntity
  8
0
  62
7
100
AcDbLine
 10
868.465871
 20
473.586254
 30
0.000000
 11
871.837664
 21
480.388479
 31
0.000000
  0
LINE
  5
455
330
1F
100
AcDbEntity
  8
0
  62
7
100
AcDbLine
 10
906.845670
 20
480.740319
 30
0.000000
 11
907.578669
 21
480.740319
 31
0.000000
  0
LINE
  5
456
330
1F
100
AcDbEntity
  8
0
  62
7
100
AcDbLine
 10
907.578669
 20
480.740319
 30
0.000000
 11
907.578669
 21
480.241880
 31
0.000000
  0
SPLINE
  5
457
330
1F
100
AcDbEntity
  8
0
 62
     7
100
AcDbSpline
210
0.000000
220
0.000000
230
1.0
 70
     8
 71
     3
 72
     8
 73
     4
 42
0.0000000001
 43
0.0000000001
 44
0.0000000001
 12
0.000000
 22
0.000000
 32
0.000000
 13
0.000000
 23
0.000000
 33
0.000000
 40
0.000000
 40
0.000000
 40
0.000000
 40
0.000000
 40
1.000000
 40
1.000000
 40
1.000000
 40
1.000000
 10
907.578669
 20
480.241880
 30
0.000000
 10
906.464511
 20
480.124600
 30
0.000000
 10
905.526273
 20
479.919360
 30
0.000000
 10
904.793275
 20
479.567521
 30
0.000000
  0
SPLINE
  5
458
330
1F
100
AcDbEntity
  8
0
 62
     7
100
AcDbSpline
210
0.000000
220
0.000000
230
1.0
 70
     8
 71
     3
 72
     8
 73
     4
 42
0.0000000001
 43
0.0000000001
 44
0.0000000001
 12
0.000000
 22
0.000000
 32
0.000000
 13
0.000000
 23
0.000000
 33
0.000000
 40
0.000000
 40
0.000000
 40
0.000000
 40
0.000000
 40
1.000000
 40
1.000000
 40
1.000000
 40
1.000000
 10
904.793275
 20
479.567521
 30
0.000000
 10
904.089596
 20
479.245002
 30
0.000000
 10
903.385918
 20
478.717243
 30
0.000000
 10
902.682239
 20
478.013565
 30
0.000000
  0
SPLINE
  5
459
330
1F
100
AcDbEntity
  8
0
 62
     7
100
AcDbSpline
210
0.000000
220
0.000000
230
1.0
 70
     8
 71
     3
 72
     8
 73
     4
 42
0.0000000001
 43
0.0000000001
 44
0.0000000001
 12
0.000000
 22
0.000000
 32
0.000000
 13
0.000000
 23
0.000000
 33
0.000000
 40
0.000000
 40
0.000000
 40
0.000000
 40
0.000000
 40
1.000000
 40
1.000000
 40
1.000000
 40
1.000000
 10
902.682239
 20
478.013565
 30
0.000000
 10
901.978561
 20
477.309886
 30
0.000000
 10
901.421482
 20
476.547568
 30
0.000000
 10
900.952363
 20
475.697290
 30
0.000000
  0
SPLINE
  5
460
330
1F
100
AcDbEntity
  8
0
 62
     7
100
AcDbSpline
210
0.000000
220
0.000000
230
1.0
 70
     8
 71
     3
 72
     8
 73
     4
 42
0.0000000001
 43
0.0000000001
 44
0.0000000001
 12
0.000000
 22
0.000000
 32
0.000000
 13
0.000000
 23
0.000000
 33
0.000000
 40
0.000000
 40
0.000000
 40
0.000000
 40
0.000000
 40
1.000000
 40
1.000000
 40
1.000000
 40
1.000000
 10
900.952363
 20
475.697290
 30
0.000000
 10
900.483244
 20
474.847012
 30
0.000000
 10
900.102085
 20
473.820814
 30
0.000000
 10
899.808885
 20
472.648016
 30
0.000000
  0
SPLINE
  5
461
330
1F
100
AcDbEntity
  8
0
 62
     7
100
AcDbSpline
210
0.000000
220
0.000000
230
1.0
 70
     8
 71
     3
 72
     8
 73
     4
 42
0.0000000001
 43
0.0000000001
 44
0.0000000001
 12
0.000000
 22
0.000000
 32
0.000000
 13
0.000000
 23
0.000000
 33
0.000000
 40
0.000000
 40
0.000000
 40
0.000000
 40
0.000000
 40
1.000000
 40
1.000000
 40
1.000000
 40
1.000000
 10
899.808885
 20
472.648016
 30
0.000000
 10
901.040323
 20
473.468975
 30
0.000000
 10
902.271760
 20
473.908774
 30
0.000000
 10
903.532517
 20
473.908774
 30
0.000000
  0
SPLINE
  5
462
330
1F
100
AcDbEntity
  8
0
 62
     7
100
AcDbSpline
210
0.000000
220
0.000000
230
1.0
 70
     8
 71
     3
 72
     8
 73
     4
 42
0.0000000001
 43
0.0000000001
 44
0.0000000001
 12
0.000000
 22
0.000000
 32
0.000000
 13
0.000000
 23
0.000000
 33
0.000000
 40
0.000000
 40
0.000000
 40
0.000000
 40
0.000000
 40
1.000000
 40
1.000000
 40
1.000000
 40
1.000000
 10
903.532517
 20
473.908774
 30
0.000000
 10
904.705315
 20
473.908774
 30
0.000000
 10
905.760833
 20
473.439655
 30
0.000000
 10
906.640431
 20
472.472097
 30
0.000000
  0
SPLINE
  5
463
330
1F
100
AcDbEntity
  8
0
 62
     7
100
AcDbSpline
210
0.000000
220
0.000000
230
1.0
 70
     8
 71
     3
 72
     8
 73
     4
 42
0.0000000001
 43
0.0000000001
 44
0.0000000001
 12
0.000000
 22
0.000000
 32
0.000000
 13
0.000000
 23
0.000000
 33
0.000000
 40
0.000000
 40
0.000000
 40
0.000000
 40
0.000000
 40
1.000000
 40
1.000000
 40
1.000000
 40
1.000000
 10
906.640431
 20
472.472097
 30
0.000000
 10
907.520029
 20
471.504539
 30
0.000000
 10
907.959828
 20
470.273102
 30
0.000000
 10
907.959828
 20
468.748465
 30
0.000000
  0
SPLINE
  5
464
330
1F
100
AcDbEntity
  8
0
 62
     7
100
AcDbSpline
210
0.000000
220
0.000000
230
1.0
 70
     8
 71
     3
 72
     8
 73
     4
 42
0.0000000001
 43
0.0000000001
 44
0.0000000001
 12
0.000000
 22
0.000000
 32
0.000000
 13
0.000000
 23
0.000000
 33
0.000000
 40
0.000000
 40
0.000000
 40
0.000000
 40
0.000000
 40
1.000000
 40
1.000000
 40
1.000000
 40
1.000000
 10
907.959828
 20
468.748465
 30
0.000000
 10
907.959828
 20
467.282468
 30
0.000000
 10
907.520029
 20
465.963071
 30
0.000000
 10
906.640431
 20
464.760954
 30
0.000000
  0
SPLINE
  5
465
330
1F
100
AcDbEntity
  8
0
 62
     7
100
AcDbSpline
210
0.000000
220
0.000000
230
1.0
 70
     8
 71
     3
 72
     8
 73
     4
 42
0.0000000001
 43
0.0000000001
 44
0.0000000001
 12
0.000000
 22
0.000000
 32
0.000000
 13
0.000000
 23
0.000000
 33
0.000000
 40
0.000000
 40
0.000000
 40
0.000000
 40
0.000000
 40
1.000000
 40
1.000000
 40
1.000000
 40
1.000000
 10
906.640431
 20
464.760954
 30
0.000000
 10
905.584913
 20
463.294957
 30
0.000000
 10
904.148236
 20
462.561959
 30
0.000000
 10
902.389040
 20
462.561959
 30
0.000000
  0
SPLINE
  5
466
330
1F
100
AcDbEntity
  8
0
 62
     7
100
AcDbSpline
210
0.000000
220
0.000000
230
1.0
 70
     8
 71
     3
 72
     8
 73
     4
 42
0.0000000001
 43
0.0000000001
 44
0.0000000001
 12
0.000000
 22
0.000000
 32
0.000000
 13
0.000000
 23
0.000000
 33
0.000000
 40
0.000000
 40
0.000000
 40
0.000000
 40
0.000000
 40
1.000000
 40
1.000000
 40
1.000000
 40
1.000000
 10
902.389040
 20
462.561959
 30
0.000000
 10
901.216242
 20
462.561959
 30
0.000000
 10
900.190045
 20
462.943118
 30
0.000000
 10
899.339766
 20
463.764076
 30
0.000000
  0
SPLINE
  5
467
330
1F
100
AcDbEntity
  8
0
 62
     7
100
AcDbSpline
210
0.000000
220
0.000000
230
1.0
 70
     8
 71
     3
 72
     8
 73
     4
 42
0.0000000001
 43
0.0000000001
 44
0.0000000001
 12
0.000000
 22
0.000000
 32
0.000000
 13
0.000000
 23
0.000000
 33
0.000000
 40
0.000000
 40
0.000000
 40
0.000000
 40
0.000000
 40
1.000000
 40
1.000000
 40
1.000000
 40
1.000000
 10
899.339766
 20
463.764076
 30
0.000000
 10
897.697850
 20
465.288713
 30
0.000000
 10
896.876892
 20
467.282468
 30
0.000000
 10
896.876892
 20
469.745343
 30
0.000000
  0
SPLINE
  5
468
330
1F
100
AcDbEntity
  8
0
 62
     7
100
AcDbSpline
210
0.000000
220
0.000000
230
1.0
 70
     8
 71
     3
 72
     8
 73
     4
 42
0.0000000001
 43
0.0000000001
 44
0.0000000001
 12
0.000000
 22
0.000000
 32
0.000000
 13
0.000000
 23
0.000000
 33
0.000000
 40
0.000000
 40
0.000000
 40
0.000000
 40
0.000000
 40
1.000000
 40
1.000000
 40
1.000000
 40
1.000000
 10
896.876892
 20
469.745343
 30
0.000000
 10
896.876892
 20
471.299299
 30
0.000000
 10
897.170091
 20
472.794616
 30
0.000000
 10
897.815130
 20
474.201973
 30
0.000000
  0
SPLINE
  5
469
330
1F
100
AcDbEntity
  8
0
 62
     7
100
AcDbSpline
210
0.000000
220
0.000000
230
1.0
 70
     8
 71
     3
 72
     8
 73
     4
 42
0.0000000001
 43
0.0000000001
 44
0.0000000001
 12
0.000000
 22
0.000000
 32
0.000000
 13
0.000000
 23
0.000000
 33
0.000000
 40
0.000000
 40
0.000000
 40
0.000000
 40
0.000000
 40
1.000000
 40
1.000000
 40
1.000000
 40
1.000000
 10
897.815130
 20
474.201973
 30
0.000000
 10
898.430848
 20
475.609330
 30
0.000000
 10
899.339766
 20
476.840767
 30
0.000000
 10
900.512564
 20
477.954925
 30
0.000000
  0
SPLINE
  5
470
330
1F
100
AcDbEntity
  8
0
 62
     7
100
AcDbSpline
210
0.000000
220
0.000000
230
1.0
 70
     8
 71
     3
 72
     8
 73
     4
 42
0.0000000001
 43
0.0000000001
 44
0.0000000001
 12
0.000000
 22
0.000000
 32
0.000000
 13
0.000000
 23
0.000000
 33
0.000000
 40
0.000000
 40
0.000000
 40
0.000000
 40
0.000000
 40
1.000000
 40
1.000000
 40
1.000000
 40
1.000000
 10
900.512564
 20
477.954925
 30
0.000000
 10
901.656041
 20
479.039762
 30
0.000000
 10
902.770199
 20
479.772761
 30
0.000000
 10
903.855037
 20
480.183240
 30
0.000000
  0
SPLINE
  5
471
330
1F
100
AcDbEntity
  8
0
 62
     7
100
AcDbSpline
210
0.000000
220
0.000000
230
1.0
 70
     8
 71
     3
 72
     8
 73
     4
 42
0.0000000001
 43
0.0000000001
 44
0.0000000001
 12
0.000000
 22
0.000000
 32
0.000000
 13
0.000000
 23
0.000000
 33
0.000000
 40
0.000000
 40
0.000000
 40
0.000000
 40
0.000000
 40
1.000000
 40
1.000000
 40
1.000000
 40
1.000000
 10
903.855037
 20
480.183240
 30
0.000000
 10
904.910555
 20
480.535079
 30
0.000000
 10
905.907432
 20
480.740319
 30
0.000000
 10
906.845670
 20
480.740319
 30
0.000000
  0
SPLINE
  5
472
330
1F
100
AcDbEntity
  8
0
 62
     7
100
AcDbSpline
210
0.000000
220
0.000000
230
1.0
 70
     8
 71
     3
 72
     8
 73
     4
 42
0.0000000001
 43
0.0000000001
 44
0.0000000001
 12
0.000000
 22
0.000000
 32
0.000000
 13
0.000000
 23
0.000000
 33
0.000000
 40
0.000000
 40
0.000000
 40
0.000000
 40
0.000000
 40
1.000000
 40
1.000000
 40
1.000000
 40
1.000000
 10
901.245562
 20
472.589377
 30
0.000000
 10
900.893723
 20
472.472097
 30
0.000000
 10
900.336644
 20
472.178897
 30
0.000000
 10
899.574326
 20
471.709778
 30
0.000000
  0
SPLINE
  5
473
330
1F
100
AcDbEntity
  8
0
 62
     7
100
AcDbSpline
210
0.000000
220
0.000000
230
1.0
 70
     8
 71
     3
 72
     8
 73
     4
 42
0.0000000001
 43
0.0000000001
 44
0.0000000001
 12
0.000000
 22
0.000000
 32
0.000000
 13
0.000000
 23
0.000000
 33
0.000000
 40
0.000000
 40
0.000000
 40
0.000000
 40
0.000000
 40
1.000000
 40
1.000000
 40
1.000000
 40
1.000000
 10
899.574326
 20
471.709778
 30
0.000000
 10
899.427726
 20
470.536981
 30
0.000000
 10
899.339766
 20
469.598743
 30
0.000000
 10
899.339766
 20
468.895065
 30
0.000000
  0
SPLINE
  5
474
330
1F
100
AcDbEntity
  8
0
 62
     7
100
AcDbSpline
210
0.000000
220
0.000000
230
1.0
 70
     8
 71
     3
 72
     8
 73
     4
 42
0.0000000001
 43
0.0000000001
 44
0.0000000001
 12
0.000000
 22
0.000000
 32
0.000000
 13
0.000000
 23
0.000000
 33
0.000000
 40
0.000000
 40
0.000000
 40
0.000000
 40
0.000000
 40
1.000000
 40
1.000000
 40
1.000000
 40
1.000000
 10
899.339766
 20
468.895065
 30
0.000000
 10
899.339766
 20
468.074106
 30
0.000000
 10
899.486366
 20
467.194508
 30
0.000000
 10
899.808885
 20
466.197631
 30
0.000000
  0
SPLINE
  5
475
330
1F
100
AcDbEntity
  8
0
 62
     7
100
AcDbSpline
210
0.000000
220
0.000000
230
1.0
 70
     8
 71
     3
 72
     8
 73
     4
 42
0.0000000001
 43
0.0000000001
 44
0.0000000001
 12
0.000000
 22
0.000000
 32
0.000000
 13
0.000000
 23
0.000000
 33
0.000000
 40
0.000000
 40
0.000000
 40
0.000000
 40
0.000000
 40
1.000000
 40
1.000000
 40
1.000000
 40
1.000000
 10
899.808885
 20
466.197631
 30
0.000000
 10
900.102085
 20
465.259393
 30
0.000000
 10
900.541884
 20
464.497074
 30
0.000000
 10
901.157602
 20
463.910676
 30
0.000000
  0
SPLINE
  5
476
330
1F
100
AcDbEntity
  8
0
 62
     7
100
AcDbSpline
210
0.000000
220
0.000000
230
1.0
 70
     8
 71
     3
 72
     8
 73
     4
 42
0.0000000001
 43
0.0000000001
 44
0.0000000001
 12
0.000000
 22
0.000000
 32
0.000000
 13
0.000000
 23
0.000000
 33
0.000000
 40
0.000000
 40
0.000000
 40
0.000000
 40
0.000000
 40
1.000000
 40
1.000000
 40
1.000000
 40
1.000000
 10
901.157602
 20
463.910676
 30
0.000000
 10
901.597402
 20
463.500196
 30
0.000000
 10
902.125160
 20
463.294957
 30
0.000000
 10
902.770199
 20
463.294957
 30
0.000000
  0
SPLINE
  5
477
330
1F
100
AcDbEntity
  8
0
 62
     7
100
AcDbSpline
210
0.000000
220
0.000000
230
1.0
 70
     8
 71
     3
 72
     8
 73
     4
 42
0.0000000001
 43
0.0000000001
 44
0.0000000001
 12
0.000000
 22
0.000000
 32
0.000000
 13
0.000000
 23
0.000000
 33
0.000000
 40
0.000000
 40
0.000000
 40
0.000000
 40
0.000000
 40
1.000000
 40
1.000000
 40
1.000000
 40
1.000000
 10
902.770199
 20
463.294957
 30
0.000000
 10
903.503198
 20
463.294957
 30
0.000000
 10
904.177556
 20
463.646796
 30
0.000000
 10
904.793275
 20
464.350475
 30
0.000000
  0
SPLINE
  5
478
330
1F
100
AcDbEntity
  8
0
 62
     7
100
AcDbSpline
210
0.000000
220
0.000000
230
1.0
 70
     8
 71
     3
 72
     8
 73
     4
 42
0.0000000001
 43
0.0000000001
 44
0.0000000001
 12
0.000000
 22
0.000000
 32
0.000000
 13
0.000000
 23
0.000000
 33
0.000000
 40
0.000000
 40
0.000000
 40
0.000000
 40
0.000000
 40
1.000000
 40
1.000000
 40
1.000000
 40
1.000000
 10
904.793275
 20
464.350475
 30
0.000000
 10
905.379674
 20
465.054153
 30
0.000000
 10
905.672873
 20
466.051031
 30
0.000000
 10
905.672873
 20
467.370428
 30
0.000000
  0
SPLINE
  5
479
330
1F
100
AcDbEntity
  8
0
 62
     7
100
AcDbSpline
210
0.000000
220
0.000000
230
1.0
 70
     8
 71
     3
 72
     8
 73
     4
 42
0.0000000001
 43
0.0000000001
 44
0.0000000001
 12
0.000000
 22
0.000000
 32
0.000000
 13
0.000000
 23
0.000000
 33
0.000000
 40
0.000000
 40
0.000000
 40
0.000000
 40
0.000000
 40
1.000000
 40
1.000000
 40
1.000000
 40
1.000000
 10
905.672873
 20
467.370428
 30
0.000000
 10
905.672873
 20
468.836425
 30
0.000000
 10
905.379674
 20
470.097182
 30
0.000000
 10
904.793275
 20
471.182020
 30
0.000000
  0
SPLINE
  5
480
330
1F
100
AcDbEntity
  8
0
 62
     7
100
AcDbSpline
210
0.000000
220
0.000000
230
1.0
 70
     8
 71
     3
 72
     8
 73
     4
 42
0.0000000001
 43
0.0000000001
 44
0.0000000001
 12
0.000000
 22
0.000000
 32
0.000000
 13
0.000000
 23
0.000000
 33
0.000000
 40
0.000000
 40
0.000000
 40
0.000000
 40
0.000000
 40
1.000000
 40
1.000000
 40
1.000000
 40
1.000000
 10
904.793275
 20
471.182020
 30
0.000000
 10
904.206876
 20
472.237537
 30
0.000000
 10
903.385918
 20
472.794616
 30
0.000000
 10
902.301080
 20
472.794616
 30
0.000000
  0
SPLINE
  5
481
330
1F
100
AcDbEntity
  8
0
 62
     7
100
AcDbSpline
210
0.000000
220
0.000000
230
1.0
 70
     8
 71
     3
 72
     8
 73
     4
 42
0.0000000001
 43
0.0000000001
 44
0.0000000001
 12
0.000000
 22
0.000000
 32
0.000000
 13
0.000000
 23
0.000000
 33
0.000000
 40
0.000000
 40
0.000000
 40
0.000000
 40
0.000000
 40
1.000000
 40
1.000000
 40
1.000000
 40
1.000000
 10
902.301080
 20
472.794616
 30
0.000000
 10
901.978561
 20
472.794616
 30
0.000000
 10
901.626721
 20
472.735976
 30
0.000000
 10
901.245562
 20
472.589377
 30
0.000000
  0
LINE
  5
482
330
1F
100
AcDbEntity
  8
0
  62
7
100
AcDbLine
 10
926.548669
 20
476.225049
 30
0.000000
 11
928.219905
 21
480.388479
 31
0.000000
  0
LINE
  5
483
330
1F
100
AcDbEntity
  8
0
  62
7
100
AcDbLine
 10
928.219905
 20
480.388479
 30
0.000000
 11
937.631606
 21
480.388479
 31
0.000000
  0
LINE
  5
484
330
1F
100
AcDbEntity
  8
0
  62
7
100
AcDbLine
 10
937.631606
 20
480.388479
 30
0.000000
 11
937.631606
 21
479.890041
 31
0.000000
  0
LINE
  5
485
330
1F
100
AcDbEntity
  8
0
  62
7
100
AcDbLine
 10
937.631606
 20
479.890041
 30
0.000000
 11
931.767618
 21
462.503319
 31
0.000000
  0
LINE
  5
486
330
1F
100
AcDbEntity
  8
0
  62
7
100
AcDbLine
 10
931.767618
 20
462.503319
 30
0.000000
 11
930.301621
 21
462.503319
 31
0.000000
  0
LINE
  5
487
330
1F
100
AcDbEntity
  8
0
  62
7
100
AcDbLine
 10
930.301621
 20
462.503319
 30
0.000000
 11
935.579210
 21
478.277444
 31
0.000000
  0
LINE
  5
488
330
1F
100
AcDbEntity
  8
0
  62
7
100
AcDbLine
 10
935.579210
 20
478.277444
 30
0.000000
 11
930.741420
 21
478.277444
 31
0.000000
  0
SPLINE
  5
489
330
1F
100
AcDbEntity
  8
0
 62
     7
100
AcDbSpline
210
0.000000
220
0.000000
230
1.0
 70
     8
 71
     3
 72
     8
 73
     4
 42
0.0000000001
 43
0.0000000001
 44
0.0000000001
 12
0.000000
 22
0.000000
 32
0.000000
 13
0.000000
 23
0.000000
 33
0.000000
 40
0.000000
 40
0.000000
 40
0.000000
 40
0.000000
 40
1.000000
 40
1.000000
 40
1.000000
 40
1.000000
 10
930.741420
 20
478.277444
 30
0.000000
 10
929.803182
 20
478.277444
 30
0.000000
 10
929.099504
 20
478.160164
 30
0.000000
 10
928.659704
 20
477.925605
 30
0.000000
  0
SPLINE
  5
490
330
1F
100
AcDbEntity
  8
0
 62
     7
100
AcDbSpline
210
0.000000
220
0.000000
230
1.0
 70
     8
 71
     3
 72
     8
 73
     4
 42
0.0000000001
 43
0.0000000001
 44
0.0000000001
 12
0.000000
 22
0.000000
 32
0.000000
 13
0.000000
 23
0.000000
 33
0.000000
 40
0.000000
 40
0.000000
 40
0.000000
 40
0.000000
 40
1.000000
 40
1.000000
 40
1.000000
 40
1.000000
 10
928.659704
 20
477.925605
 30
0.000000
 10
927.956026
 20
477.544446
 30
0.000000
 10
927.369627
 20
476.928727
 30
0.000000
 10
926.929828
 20
476.078449
 30
0.000000
  0
LINE
  5
491
330
1F
100
AcDbEntity
  8
0
  62
7
100
AcDbLine
 10
926.929828
 20
476.078449
 30
0.000000
 11
926.548669
 21
476.225049
 31
0.000000
  0
SPLINE
  5
492
330
1F
100
AcDbEntity
  8
0
 62
     7
100
AcDbSpline
210
0.000000
220
0.000000
230
1.0
 70
     8
 71
     3
 72
     8
 73
     4
 42
0.0000000001
 43
0.0000000001
 44
0.0000000001
 12
0.000000
 22
0.000000
 32
0.000000
 13
0.000000
 23
0.000000
 33
0.000000
 40
0.000000
 40
0.000000
 40
0.000000
 40
0.000000
 40
1.000000
 40
1.000000
 40
1.000000
 40
1.000000
 10
957.598483
 20
469.158944
 30
0.000000
 10
958.126242
 20
469.921262
 30
0.000000
 10
959.005840
 20
470.742221
 30
0.000000
 10
960.295918
 20
471.680459
 30
0.000000
  0
SPLINE
  5
493
330
1F
100
AcDbEntity
  8
0
 62
     7
100
AcDbSpline
210
0.000000
220
0.000000
230
1.0
 70
     8
 71
     3
 72
     8
 73
     4
 42
0.0000000001
 43
0.0000000001
 44
0.0000000001
 12
0.000000
 22
0.000000
 32
0.000000
 13
0.000000
 23
0.000000
 33
0.000000
 40
0.000000
 40
0.000000
 40
0.000000
 40
0.000000
 40
1.000000
 40
1.000000
 40
1.000000
 40
1.000000
 10
960.295918
 20
471.680459
 30
0.000000
 10
958.947201
 20
472.794616
 30
0.000000
 10
958.038282
 20
473.703534
 30
0.000000
 10
957.627803
 20
474.407213
 30
0.000000
  0
SPLINE
  5
494
330
1F
100
AcDbEntity
  8
0
 62
     7
100
AcDbSpline
210
0.000000
220
0.000000
230
1.0
 70
     8
 71
     3
 72
     8
 73
     4
 42
0.0000000001
 43
0.0000000001
 44
0.0000000001
 12
0.000000
 22
0.000000
 32
0.000000
 13
0.000000
 23
0.000000
 33
0.000000
 40
0.000000
 40
0.000000
 40
0.000000
 40
0.000000
 40
1.000000
 40
1.000000
 40
1.000000
 40
1.000000
 10
957.627803
 20
474.407213
 30
0.000000
 10
957.246644
 20
475.110891
 30
0.000000
 10
957.041405
 20
475.814569
 30
0.000000
 10
957.041405
 20
476.576888
 30
0.000000
  0
SPLINE
  5
495
330
1F
100
AcDbEntity
  8
0
 62
     7
100
AcDbSpline
210
0.000000
220
0.000000
230
1.0
 70
     8
 71
     3
 72
     8
 73
     4
 42
0.0000000001
 43
0.0000000001
 44
0.0000000001
 12
0.000000
 22
0.000000
 32
0.000000
 13
0.000000
 23
0.000000
 33
0.000000
 40
0.000000
 40
0.000000
 40
0.000000
 40
0.000000
 40
1.000000
 40
1.000000
 40
1.000000
 40
1.000000
 10
957.041405
 20
476.576888
 30
0.000000
 10
957.041405
 20
477.691045
 30
0.000000
 10
957.481204
 20
478.687923
 30
0.000000
 10
958.360802
 20
479.508881
 30
0.000000
  0
SPLINE
  5
496
330
1F
100
AcDbEntity
  8
0
 62
     7
100
AcDbSpline
210
0.000000
220
0.000000
230
1.0
 70
     8
 71
     3
 72
     8
 73
     4
 42
0.0000000001
 43
0.0000000001
 44
0.0000000001
 12
0.000000
 22
0.000000
 32
0.000000
 13
0.000000
 23
0.000000
 33
0.000000
 40
0.000000
 40
0.000000
 40
0.000000
 40
0.000000
 40
1.000000
 40
1.000000
 40
1.000000
 40
1.000000
 10
958.360802
 20
479.508881
 30
0.000000
 10
959.240400
 20
480.329840
 30
0.000000
 10
960.383877
 20
480.740319
 30
0.000000
 10
961.849874
 20
480.740319
 30
0.000000
  0
SPLINE
  5
497
330
1F
100
AcDbEntity
  8
0
 62
     7
100
AcDbSpline
210
0.000000
220
0.000000
230
1.0
 70
     8
 71
     3
 72
     8
 73
     4
 42
0.0000000001
 43
0.0000000001
 44
0.0000000001
 12
0.000000
 22
0.000000
 32
0.000000
 13
0.000000
 23
0.000000
 33
0.000000
 40
0.000000
 40
0.000000
 40
0.000000
 40
0.000000
 40
1.000000
 40
1.000000
 40
1.000000
 40
1.000000
 10
961.849874
 20
480.740319
 30
0.000000
 10
963.257231
 20
480.740319
 30
0.000000
 10
964.400709
 20
480.359159
 30
0.000000
 10
965.280307
 20
479.596841
 30
0.000000
  0
SPLINE
  5
498
330
1F
100
AcDbEntity
  8
0
 62
     7
100
AcDbSpline
210
0.000000
220
0.000000
230
1.0
 70
     8
 71
     3
 72
     8
 73
     4
 42
0.0000000001
 43
0.0000000001
 44
0.0000000001
 12
0.000000
 22
0.000000
 32
0.000000
 13
0.000000
 23
0.000000
 33
0.000000
 40
0.000000
 40
0.000000
 40
0.000000
 40
0.000000
 40
1.000000
 40
1.000000
 40
1.000000
 40
1.000000
 10
965.280307
 20
479.596841
 30
0.000000
 10
966.130585
 20
478.834523
 30
0.000000
 10
966.570384
 20
477.954925
 30
0.000000
 10
966.570384
 20
476.958047
 30
0.000000
  0
SPLINE
  5
499
330
1F
100
AcDbEntity
  8
0
 62
     7
100
AcDbSpline
210
0.000000
220
0.000000
230
1.0
 70
     8
 71
     3
 72
     8
 73
     4
 42
0.0000000001
 43
0.0000000001
 44
0.0000000001
 12
0.000000
 22
0.000000
 32
0.000000
 13
0.000000
 23
0.000000
 33
0.000000
 40
0.000000
 40
0.000000
 40
0.000000
 40
0.000000
 40
1.000000
 40
1.000000
 40
1.000000
 40
1.000000
 10
966.570384
 20
476.958047
 30
0.000000
 10
966.570384
 20
476.313008
 30
0.000000
 10
966.335825
 20
475.667970
 30
0.000000
 10
965.866706
 20
474.964291
 30
0.000000
  0
SPLINE
  5
500
330
1F
100
AcDbEntity
  8
0
 62
     7
100
AcDbSpline
210
0.000000
220
0.000000
230
1.0
 70
     8
 71
     3
 72
     8
 73
     4
 42
0.0000000001
 43
0.0000000001
 44
0.0000000001
 12
0.000000
 22
0.000000
 32
0.000000
 13
0.000000
 23
0.000000
 33
0.000000
 40
0.000000
 40
0.000000
 40
0.000000
 40
0.000000
 40
1.000000
 40
1.000000
 40
1.000000
 40
1.000000
 10
965.866706
 20
474.964291
 30
0.000000
 10
965.397587
 20
474.289933
 30
0.000000
 10
964.430029
 20
473.498295
 30
0.000000
 10
962.934712
 20
472.560057
 30
0.000000
  0
SPLINE
  5
501
330
1F
100
AcDbEntity
  8
0
 62
     7
100
AcDbSpline
210
0.000000
220
0.000000
230
1.0
 70
     8
 71
     3
 72
     8
 73
     4
 42
0.0000000001
 43
0.0000000001
 44
0.0000000001
 12
0.000000
 22
0.000000
 32
0.000000
 13
0.000000
 23
0.000000
 33
0.000000
 40
0.000000
 40
0.000000
 40
0.000000
 40
0.000000
 40
1.000000
 40
1.000000
 40
1.000000
 40
1.000000
 10
962.934712
 20
472.560057
 30
0.000000
 10
964.459349
 20
471.387259
 30
0.000000
 10
965.456227
 20
470.478341
 30
0.000000
 10
965.954666
 20
469.803983
 30
0.000000
  0
SPLINE
  5
502
330
1F
100
AcDbEntity
  8
0
 62
     7
100
AcDbSpline
210
0.000000
220
0.000000
230
1.0
 70
     8
 71
     3
 72
     8
 73
     4
 42
0.0000000001
 43
0.0000000001
 44
0.0000000001
 12
0.000000
 22
0.000000
 32
0.000000
 13
0.000000
 23
0.000000
 33
0.000000
 40
0.000000
 40
0.000000
 40
0.000000
 40
0.000000
 40
1.000000
 40
1.000000
 40
1.000000
 40
1.000000
 10
965.954666
 20
469.803983
 30
0.000000
 10
966.599704
 20
468.924385
 30
0.000000
 10
966.951544
 20
468.015467
 30
0.000000
 10
966.951544
 20
467.018589
 30
0.000000
  0
SPLINE
  5
503
330
1F
100
AcDbEntity
  8
0
 62
     7
100
AcDbSpline
210
0.000000
220
0.000000
230
1.0
 70
     8
 71
     3
 72
     8
 73
     4
 42
0.0000000001
 43
0.0000000001
 44
0.0000000001
 12
0.000000
 22
0.000000
 32
0.000000
 13
0.000000
 23
0.000000
 33
0.000000
 40
0.000000
 40
0.000000
 40
0.000000
 40
0.000000
 40
1.000000
 40
1.000000
 40
1.000000
 40
1.000000
 10
966.951544
 20
467.018589
 30
0.000000
 10
966.951544
 20
465.787151
 30
0.000000
 10
966.482425
 20
464.760954
 30
0.000000
 10
965.544187
 20
463.881356
 30
0.000000
  0
SPLINE
  5
504
330
1F
100
AcDbEntity
  8
0
 62
     7
100
AcDbSpline
210
0.000000
220
0.000000
230
1.0
 70
     8
 71
     3
 72
     8
 73
     4
 42
0.0000000001
 43
0.0000000001
 44
0.0000000001
 12
0.000000
 22
0.000000
 32
0.000000
 13
0.000000
 23
0.000000
 33
0.000000
 40
0.000000
 40
0.000000
 40
0.000000
 40
0.000000
 40
1.000000
 40
1.000000
 40
1.000000
 40
1.000000
 10
965.544187
 20
463.881356
 30
0.000000
 10
964.605949
 20
463.001758
 30
0.000000
 10
963.374511
 20
462.561959
 30
0.000000
 10
961.820554
 20
462.561959
 30
0.000000
  0
SPLINE
  5
505
330
1F
100
AcDbEntity
  8
0
 62
     7
100
AcDbSpline
210
0.000000
220
0.000000
230
1.0
 70
     8
 71
     3
 72
     8
 73
     4
 42
0.0000000001
 43
0.0000000001
 44
0.0000000001
 12
0.000000
 22
0.000000
 32
0.000000
 13
0.000000
 23
0.000000
 33
0.000000
 40
0.000000
 40
0.000000
 40
0.000000
 40
0.000000
 40
1.000000
 40
1.000000
 40
1.000000
 40
1.000000
 10
961.820554
 20
462.561959
 30
0.000000
 10
960.178638
 20
462.561959
 30
0.000000
 10
958.859241
 20
463.060397
 30
0.000000
 10
957.921003
 20
464.115915
 30
0.000000
  0
SPLINE
  5
506
330
1F
100
AcDbEntity
  8
0
 62
     7
100
AcDbSpline
210
0.000000
220
0.000000
230
1.0
 70
     8
 71
     3
 72
     8
 73
     4
 42
0.0000000001
 43
0.0000000001
 44
0.0000000001
 12
0.000000
 22
0.000000
 32
0.000000
 13
0.000000
 23
0.000000
 33
0.000000
 40
0.000000
 40
0.000000
 40
0.000000
 40
0.000000
 40
1.000000
 40
1.000000
 40
1.000000
 40
1.000000
 10
957.921003
 20
464.115915
 30
0.000000
 10
957.188004
 20
464.936873
 30
0.000000
 10
956.806845
 20
465.845791
 30
0.000000
 10
956.806845
 20
466.842669
 30
0.000000
  0
SPLINE
  5
507
330
1F
100
AcDbEntity
  8
0
 62
     7
100
AcDbSpline
210
0.000000
220
0.000000
230
1.0
 70
     8
 71
     3
 72
     8
 73
     4
 42
0.0000000001
 43
0.0000000001
 44
0.0000000001
 12
0.000000
 22
0.000000
 32
0.000000
 13
0.000000
 23
0.000000
 33
0.000000
 40
0.000000
 40
0.000000
 40
0.000000
 40
0.000000
 40
1.000000
 40
1.000000
 40
1.000000
 40
1.000000
 10
956.806845
 20
466.842669
 30
0.000000
 10
956.806845
 20
467.604987
 30
0.000000
 10
957.070724
 20
468.396626
 30
0.000000
 10
957.598483
 20
469.158944
 30
0.000000
  0
LINE
  5
508
330
1F
100
AcDbEntity
  8
0
  62
7
100
AcDbLine
 10
960.237278
 20
474.817692
 30
0.000000
 11
962.318993
 21
473.058496
 31
0.000000
  0
SPLINE
  5
509
330
1F
100
AcDbEntity
  8
0
 62
     7
100
AcDbSpline
210
0.000000
220
0.000000
230
1.0
 70
     8
 71
     3
 72
     8
 73
     4
 42
0.0000000001
 43
0.0000000001
 44
0.0000000001
 12
0.000000
 22
0.000000
 32
0.000000
 13
0.000000
 23
0.000000
 33
0.000000
 40
0.000000
 40
0.000000
 40
0.000000
 40
0.000000
 40
1.000000
 40
1.000000
 40
1.000000
 40
1.000000
 10
962.318993
 20
473.058496
 30
0.000000
 10
963.374511
 20
473.996733
 30
0.000000
 10
964.019550
 20
474.729732
 30
0.000000
 10
964.312749
 20
475.257491
 30
0.000000
  0
SPLINE
  5
510
330
1F
100
AcDbEntity
  8
0
 62
     7
100
AcDbSpline
210
0.000000
220
0.000000
230
1.0
 70
     8
 71
     3
 72
     8
 73
     4
 42
0.0000000001
 43
0.0000000001
 44
0.0000000001
 12
0.000000
 22
0.000000
 32
0.000000
 13
0.000000
 23
0.000000
 33
0.000000
 40
0.000000
 40
0.000000
 40
0.000000
 40
0.000000
 40
1.000000
 40
1.000000
 40
1.000000
 40
1.000000
 10
964.312749
 20
475.257491
 30
0.000000
 10
964.576629
 20
475.785250
 30
0.000000
 10
964.723228
 20
476.400968
 30
0.000000
 10
964.723228
 20
477.104647
 30
0.000000
  0
SPLINE
  5
511
330
1F
100
AcDbEntity
  8
0
 62
     7
100
AcDbSpline
210
0.000000
220
0.000000
230
1.0
 70
     8
 71
     3
 72
     8
 73
     4
 42
0.0000000001
 43
0.0000000001
 44
0.0000000001
 12
0.000000
 22
0.000000
 32
0.000000
 13
0.000000
 23
0.000000
 33
0.000000
 40
0.000000
 40
0.000000
 40
0.000000
 40
0.000000
 40
1.000000
 40
1.000000
 40
1.000000
 40
1.000000
 10
964.723228
 20
477.104647
 30
0.000000
 10
964.723228
 20
477.984245
 30
0.000000
 10
964.488669
 20
478.717243
 30
0.000000
 10
963.960910
 20
479.245002
 30
0.000000
  0
SPLINE
  5
512
330
1F
100
AcDbEntity
  8
0
 62
     7
100
AcDbSpline
210
0.000000
220
0.000000
230
1.0
 70
     8
 71
     3
 72
     8
 73
     4
 42
0.0000000001
 43
0.0000000001
 44
0.0000000001
 12
0.000000
 22
0.000000
 32
0.000000
 13
0.000000
 23
0.000000
 33
0.000000
 40
0.000000
 40
0.000000
 40
0.000000
 40
0.000000
 40
1.000000
 40
1.000000
 40
1.000000
 40
1.000000
 10
963.960910
 20
479.245002
 30
0.000000
 10
963.462471
 20
479.743441
 30
0.000000
 10
962.758792
 20
480.007320
 30
0.000000
 10
961.879194
 20
480.007320
 30
0.000000
  0
SPLINE
  5
513
330
1F
100
AcDbEntity
  8
0
 62
     7
100
AcDbSpline
210
0.000000
220
0.000000
230
1.0
 70
     8
 71
     3
 72
     8
 73
     4
 42
0.0000000001
 43
0.0000000001
 44
0.0000000001
 12
0.000000
 22
0.000000
 32
0.000000
 13
0.000000
 23
0.000000
 33
0.000000
 40
0.000000
 40
0.000000
 40
0.000000
 40
0.000000
 40
1.000000
 40
1.000000
 40
1.000000
 40
1.000000
 10
961.879194
 20
480.007320
 30
0.000000
 10
960.999596
 20
480.007320
 30
0.000000
 10
960.295918
 20
479.772761
 30
0.000000
 10
959.738839
 20
479.245002
 30
0.000000
  0
SPLINE
  5
514
330
1F
100
AcDbEntity
  8
0
 62
     7
100
AcDbSpline
210
0.000000
220
0.000000
230
1.0
 70
     8
 71
     3
 72
     8
 73
     4
 42
0.0000000001
 43
0.0000000001
 44
0.0000000001
 12
0.000000
 22
0.000000
 32
0.000000
 13
0.000000
 23
0.000000
 33
0.000000
 40
0.000000
 40
0.000000
 40
0.000000
 40
0.000000
 40
1.000000
 40
1.000000
 40
1.000000
 40
1.000000
 10
959.738839
 20
479.245002
 30
0.000000
 10
959.211080
 20
478.746563
 30
0.000000
 10
958.917881
 20
478.160164
 30
0.000000
 10
958.917881
 20
477.456486
 30
0.000000
  0
SPLINE
  5
515
330
1F
100
AcDbEntity
  8
0
 62
     7
100
AcDbSpline
210
0.000000
220
0.000000
230
1.0
 70
     8
 71
     3
 72
     8
 73
     4
 42
0.0000000001
 43
0.0000000001
 44
0.0000000001
 12
0.000000
 22
0.000000
 32
0.000000
 13
0.000000
 23
0.000000
 33
0.000000
 40
0.000000
 40
0.000000
 40
0.000000
 40
0.000000
 40
1.000000
 40
1.000000
 40
1.000000
 40
1.000000
 10
958.917881
 20
477.456486
 30
0.000000
 10
958.917881
 20
477.016687
 30
0.000000
 10
959.035160
 20
476.576888
 30
0.000000
 10
959.269720
 20
476.107769
 30
0.000000
  0
SPLINE
  5
516
330
1F
100
AcDbEntity
  8
0
 62
     7
100
AcDbSpline
210
0.000000
220
0.000000
230
1.0
 70
     8
 71
     3
 72
     8
 73
     4
 42
0.0000000001
 43
0.0000000001
 44
0.0000000001
 12
0.000000
 22
0.000000
 32
0.000000
 13
0.000000
 23
0.000000
 33
0.000000
 40
0.000000
 40
0.000000
 40
0.000000
 40
0.000000
 40
1.000000
 40
1.000000
 40
1.000000
 40
1.000000
 10
959.269720
 20
476.107769
 30
0.000000
 10
959.474959
 20
475.667970
 30
0.000000
 10
959.797479
 20
475.228171
 30
0.000000
 10
960.237278
 20
474.817692
 30
0.000000
  0
SPLINE
  5
517
330
1F
100
AcDbEntity
  8
0
 62
     7
100
AcDbSpline
210
0.000000
220
0.000000
230
1.0
 70
     8
 71
     3
 72
     8
 73
     4
 42
0.0000000001
 43
0.0000000001
 44
0.0000000001
 12
0.000000
 22
0.000000
 32
0.000000
 13
0.000000
 23
0.000000
 33
0.000000
 40
0.000000
 40
0.000000
 40
0.000000
 40
0.000000
 40
1.000000
 40
1.000000
 40
1.000000
 40
1.000000
 10
964.635269
 20
467.634307
 30
0.000000
 10
964.048870
 20
468.513905
 30
0.000000
 10
962.788112
 20
469.716023
 30
0.000000
 10
960.911636
 20
471.182020
 30
0.000000
  0
SPLINE
  5
518
330
1F
100
AcDbEntity
  8
0
 62
     7
100
AcDbSpline
210
0.000000
220
0.000000
230
1.0
 70
     8
 71
     3
 72
     8
 73
     4
 42
0.0000000001
 43
0.0000000001
 44
0.0000000001
 12
0.000000
 22
0.000000
 32
0.000000
 13
0.000000
 23
0.000000
 33
0.000000
 40
0.000000
 40
0.000000
 40
0.000000
 40
0.000000
 40
1.000000
 40
1.000000
 40
1.000000
 40
1.000000
 10
960.911636
 20
471.182020
 30
0.000000
 10
960.207958
 20
470.595621
 30
0.000000
 10
959.650879
 20
469.921262
 30
0.000000
 10
959.299040
 20
469.217584
 30
0.000000
  0
SPLINE
  5
519
330
1F
100
AcDbEntity
  8
0
 62
     7
100
AcDbSpline
210
0.000000
220
0.000000
230
1.0
 70
     8
 71
     3
 72
     8
 73
     4
 42
0.0000000001
 43
0.0000000001
 44
0.0000000001
 12
0.000000
 22
0.000000
 32
0.000000
 13
0.000000
 23
0.000000
 33
0.000000
 40
0.000000
 40
0.000000
 40
0.000000
 40
0.000000
 40
1.000000
 40
1.000000
 40
1.000000
 40
1.000000
 10
959.299040
 20
469.217584
 30
0.000000
 10
958.947201
 20
468.513905
 30
0.000000
 10
958.771281
 20
467.751587
 30
0.000000
 10
958.771281
 20
466.930629
 30
0.000000
  0
SPLINE
  5
520
330
1F
100
AcDbEntity
  8
0
 62
     7
100
AcDbSpline
210
0.000000
220
0.000000
230
1.0
 70
     8
 71
     3
 72
     8
 73
     4
 42
0.0000000001
 43
0.0000000001
 44
0.0000000001
 12
0.000000
 22
0.000000
 32
0.000000
 13
0.000000
 23
0.000000
 33
0.000000
 40
0.000000
 40
0.000000
 40
0.000000
 40
0.000000
 40
1.000000
 40
1.000000
 40
1.000000
 40
1.000000
 10
958.771281
 20
466.930629
 30
0.000000
 10
958.771281
 20
465.845791
 30
0.000000
 10
959.064480
 20
464.966193
 30
0.000000
 10
959.680199
 20
464.291835
 30
0.000000
  0
SPLINE
  5
521
330
1F
100
AcDbEntity
  8
0
 62
     7
100
AcDbSpline
210
0.000000
220
0.000000
230
1.0
 70
     8
 71
     3
 72
     8
 73
     4
 42
0.0000000001
 43
0.0000000001
 44
0.0000000001
 12
0.000000
 22
0.000000
 32
0.000000
 13
0.000000
 23
0.000000
 33
0.000000
 40
0.000000
 40
0.000000
 40
0.000000
 40
0.000000
 40
1.000000
 40
1.000000
 40
1.000000
 40
1.000000
 10
959.680199
 20
464.291835
 30
0.000000
 10
960.295918
 20
463.646796
 30
0.000000
 10
961.087556
 20
463.294957
 30
0.000000
 10
962.025794
 20
463.294957
 30
0.000000
  0
SPLINE
  5
522
330
1F
100
AcDbEntity
  8
0
 62
     7
100
AcDbSpline
210
0.000000
220
0.000000
230
1.0
 70
     8
 71
     3
 72
     8
 73
     4
 42
0.0000000001
 43
0.0000000001
 44
0.0000000001
 12
0.000000
 22
0.000000
 32
0.000000
 13
0.000000
 23
0.000000
 33
0.000000
 40
0.000000
 40
0.000000
 40
0.000000
 40
0.000000
 40
1.000000
 40
1.000000
 40
1.000000
 40
1.000000
 10
962.025794
 20
463.294957
 30
0.000000
 10
962.964032
 20
463.294957
 30
0.000000
 10
963.697031
 20
463.558836
 30
0.000000
 10
964.283429
 20
464.086595
 30
0.000000
  0
SPLINE
  5
523
330
1F
100
AcDbEntity
  8
0
 62
     7
100
AcDbSpline
210
0.000000
220
0.000000
230
1.0
 70
     8
 71
     3
 72
     8
 73
     4
 42
0.0000000001
 43
0.0000000001
 44
0.0000000001
 12
0.000000
 22
0.000000
 32
0.000000
 13
0.000000
 23
0.000000
 33
0.000000
 40
0.000000
 40
0.000000
 40
0.000000
 40
0.000000
 40
1.000000
 40
1.000000
 40
1.000000
 40
1.000000
 10
964.283429
 20
464.086595
 30
0.000000
 10
964.840508
 20
464.585034
 30
0.000000
 10
965.133707
 20
465.200753
 30
0.000000
 10
965.133707
 20
465.963071
 30
0.000000
  0
SPLINE
  5
524
330
1F
100
AcDbEntity
  8
0
 62
     7
100
AcDbSpline
210
0.000000
220
0.000000
230
1.0
 70
     8
 71
     3
 72
     8
 73
     4
 42
0.0000000001
 43
0.0000000001
 44
0.0000000001
 12
0.000000
 22
0.000000
 32
0.000000
 13
0.000000
 23
0.000000
 33
0.000000
 40
0.000000
 40
0.000000
 40
0.000000
 40
0.000000
 40
1.000000
 40
1.000000
 40
1.000000
 40
1.000000
 10
965.133707
 20
465.963071
 30
0.000000
 10
965.133707
 20
466.578790
 30
0.000000
 10
964.987108
 20
467.135869
 30
0.000000
 10
964.635269
 20
467.634307
 30
0.000000
  0
LINE
  5
525
330
1F
100
AcDbEntity
  8
0
  62
7
100
AcDbLine
 10
986.713182
 20
462.503319
 30
0.000000
 11
985.980183
 21
462.503319
 31
0.000000
  0
LINE
  5
526
330
1F
100
AcDbEntity
  8
0
  62
7
100
AcDbLine
 10
985.980183
 20
462.503319
 30
0.000000
 11
985.980183
 21
462.972438
 31
0.000000
  0
SPLINE
  5
527
330
1F
100
AcDbEntity
  8
0
 62
     7
100
AcDbSpline
210
0.000000
220
0.000000
230
1.0
 70
     8
 71
     3
 72
     8
 73
     4
 42
0.0000000001
 43
0.0000000001
 44
0.0000000001
 12
0.000000
 22
0.000000
 32
0.000000
 13
0.000000
 23
0.000000
 33
0.000000
 40
0.000000
 40
0.000000
 40
0.000000
 40
0.000000
 40
1.000000
 40
1.000000
 40
1.000000
 40
1.000000
 10
985.980183
 20
462.972438
 30
0.000000
 10
987.094341
 20
462.972438
 30
0.000000
 10
988.120539
 20
463.236317
 30
0.000000
 10
989.088097
 20
463.764076
 30
0.000000
  0
SPLINE
  5
528
330
1F
100
AcDbEntity
  8
0
 62
     7
100
AcDbSpline
210
0.000000
220
0.000000
230
1.0
 70
     8
 71
     3
 72
     8
 73
     4
 42
0.0000000001
 43
0.0000000001
 44
0.0000000001
 12
0.000000
 22
0.000000
 32
0.000000
 13
0.000000
 23
0.000000
 33
0.000000
 40
0.000000
 40
0.000000
 40
0.000000
 40
0.000000
 40
1.000000
 40
1.000000
 40
1.000000
 40
1.000000
 10
989.088097
 20
463.764076
 30
0.000000
 10
990.026335
 20
464.262515
 30
0.000000
 10
990.964573
 20
465.142113
 30
0.000000
 10
991.873491
 20
466.402870
 30
0.000000
  0
SPLINE
  5
529
330
1F
100
AcDbEntity
  8
0
 62
     7
100
AcDbSpline
210
0.000000
220
0.000000
230
1.0
 70
     8
 71
     3
 72
     8
 73
     4
 42
0.0000000001
 43
0.0000000001
 44
0.0000000001
 12
0.000000
 22
0.000000
 32
0.000000
 13
0.000000
 23
0.000000
 33
0.000000
 40
0.000000
 40
0.000000
 40
0.000000
 40
0.000000
 40
1.000000
 40
1.000000
 40
1.000000
 40
1.000000
 10
991.873491
 20
466.402870
 30
0.000000
 10
992.753089
 20
467.634307
 30
0.000000
 10
993.398128
 20
469.012344
 30
0.000000
 10
993.749967
 20
470.536981
 30
0.000000
  0
SPLINE
  5
530
330
1F
100
AcDbEntity
  8
0
 62
     7
100
AcDbSpline
210
0.000000
220
0.000000
230
1.0
 70
     8
 71
     3
 72
     8
 73
     4
 42
0.0000000001
 43
0.0000000001
 44
0.0000000001
 12
0.000000
 22
0.000000
 32
0.000000
 13
0.000000
 23
0.000000
 33
0.000000
 40
0.000000
 40
0.000000
 40
0.000000
 40
0.000000
 40
1.000000
 40
1.000000
 40
1.000000
 40
1.000000
 10
993.749967
 20
470.536981
 30
0.000000
 10
992.401250
 20
469.686703
 30
0.000000
 10
991.199132
 20
469.246904
 30
0.000000
 10
990.084975
 20
469.246904
 30
0.000000
  0
SPLINE
  5
531
330
1F
100
AcDbEntity
  8
0
 62
     7
100
AcDbSpline
210
0.000000
220
0.000000
230
1.0
 70
     8
 71
     3
 72
     8
 73
     4
 42
0.0000000001
 43
0.0000000001
 44
0.0000000001
 12
0.000000
 22
0.000000
 32
0.000000
 13
0.000000
 23
0.000000
 33
0.000000
 40
0.000000
 40
0.000000
 40
0.000000
 40
0.000000
 40
1.000000
 40
1.000000
 40
1.000000
 40
1.000000
 10
990.084975
 20
469.246904
 30
0.000000
 10
988.853537
 20
469.246904
 30
0.000000
 10
987.798020
 20
469.716023
 30
0.000000
 10
986.918422
 20
470.683581
 30
0.000000
  0
SPLINE
  5
532
330
1F
100
AcDbEntity
  8
0
 62
     7
100
AcDbSpline
210
0.000000
220
0.000000
230
1.0
 70
     8
 71
     3
 72
     8
 73
     4
 42
0.0000000001
 43
0.0000000001
 44
0.0000000001
 12
0.000000
 22
0.000000
 32
0.000000
 13
0.000000
 23
0.000000
 33
0.000000
 40
0.000000
 40
0.000000
 40
0.000000
 40
0.000000
 40
1.000000
 40
1.000000
 40
1.000000
 40
1.000000
 10
986.918422
 20
470.683581
 30
0.000000
 10
986.038823
 20
471.621819
 30
0.000000
 10
985.599024
 20
472.882576
 30
0.000000
 10
985.599024
 20
474.465852
 30
0.000000
  0
SPLINE
  5
533
330
1F
100
AcDbEntity
  8
0
 62
     7
100
AcDbSpline
210
0.000000
220
0.000000
230
1.0
 70
     8
 71
     3
 72
     8
 73
     4
 42
0.0000000001
 43
0.0000000001
 44
0.0000000001
 12
0.000000
 22
0.000000
 32
0.000000
 13
0.000000
 23
0.000000
 33
0.000000
 40
0.000000
 40
0.000000
 40
0.000000
 40
0.000000
 40
1.000000
 40
1.000000
 40
1.000000
 40
1.000000
 10
985.599024
 20
474.465852
 30
0.000000
 10
985.599024
 20
475.990489
 30
0.000000
 10
986.038823
 20
477.339206
 30
0.000000
 10
986.918422
 20
478.570643
 30
0.000000
  0
SPLINE
  5
534
330
1F
100
AcDbEntity
  8
0
 62
     7
100
AcDbSpline
210
0.000000
220
0.000000
230
1.0
 70
     8
 71
     3
 72
     8
 73
     4
 42
0.0000000001
 43
0.0000000001
 44
0.0000000001
 12
0.000000
 22
0.000000
 32
0.000000
 13
0.000000
 23
0.000000
 33
0.000000
 40
0.000000
 40
0.000000
 40
0.000000
 40
0.000000
 40
1.000000
 40
1.000000
 40
1.000000
 40
1.000000
 10
986.918422
 20
478.570643
 30
0.000000
 10
987.973939
 20
480.007320
 30
0.000000
 10
989.351976
 20
480.740319
 30
0.000000
 10
991.081853
 20
480.740319
 30
0.000000
  0
SPLINE
  5
535
330
1F
100
AcDbEntity
  8
0
 62
     7
100
AcDbSpline
210
0.000000
220
0.000000
230
1.0
 70
     8
 71
     3
 72
     8
 73
     4
 42
0.0000000001
 43
0.0000000001
 44
0.0000000001
 12
0.000000
 22
0.000000
 32
0.000000
 13
0.000000
 23
0.000000
 33
0.000000
 40
0.000000
 40
0.000000
 40
0.000000
 40
0.000000
 40
1.000000
 40
1.000000
 40
1.000000
 40
1.000000
 10
991.081853
 20
480.740319
 30
0.000000
 10
992.489210
 20
480.740319
 30
0.000000
 10
993.720647
 20
480.153920
 30
0.000000
 10
994.776165
 20
478.951803
 30
0.000000
  0
SPLINE
  5
536
330
1F
100
AcDbEntity
  8
0
 62
     7
100
AcDbSpline
210
0.000000
220
0.000000
230
1.0
 70
     8
 71
     3
 72
     8
 73
     4
 42
0.0000000001
 43
0.0000000001
 44
0.0000000001
 12
0.000000
 22
0.000000
 32
0.000000
 13
0.000000
 23
0.000000
 33
0.000000
 40
0.000000
 40
0.000000
 40
0.000000
 40
0.000000
 40
1.000000
 40
1.000000
 40
1.000000
 40
1.000000
 10
994.776165
 20
478.951803
 30
0.000000
 10
996.007602
 20
477.485806
 30
0.000000
 10
996.652641
 20
475.667970
 30
0.000000
 10
996.652641
 20
473.498295
 30
0.000000
  0
SPLINE
  5
537
330
1F
100
AcDbEntity
  8
0
 62
     7
100
AcDbSpline
210
0.000000
220
0.000000
230
1.0
 70
     8
 71
     3
 72
     8
 73
     4
 42
0.0000000001
 43
0.0000000001
 44
0.0000000001
 12
0.000000
 22
0.000000
 32
0.000000
 13
0.000000
 23
0.000000
 33
0.000000
 40
0.000000
 40
0.000000
 40
0.000000
 40
0.000000
 40
1.000000
 40
1.000000
 40
1.000000
 40
1.000000
 10
996.652641
 20
473.498295
 30
0.000000
 10
996.652641
 20
471.563179
 30
0.000000
 10
996.183522
 20
469.774663
 30
0.000000
 10
995.215964
 20
468.074106
 30
0.000000
  0
SPLINE
  5
538
330
1F
100
AcDbEntity
  8
0
 62
     7
100
AcDbSpline
210
0.000000
220
0.000000
230
1.0
 70
     8
 71
     3
 72
     8
 73
     4
 42
0.0000000001
 43
0.0000000001
 44
0.0000000001
 12
0.000000
 22
0.000000
 32
0.000000
 13
0.000000
 23
0.000000
 33
0.000000
 40
0.000000
 40
0.000000
 40
0.000000
 40
0.000000
 40
1.000000
 40
1.000000
 40
1.000000
 40
1.000000
 10
995.215964
 20
468.074106
 30
0.000000
 10
994.277726
 20
466.402870
 30
0.000000
 10
992.929009
 20
464.995513
 30
0.000000
 10
991.228452
 20
463.881356
 30
0.000000
  0
SPLINE
  5
539
330
1F
100
AcDbEntity
  8
0
 62
     7
100
AcDbSpline
210
0.000000
220
0.000000
230
1.0
 70
     8
 71
     3
 72
     8
 73
     4
 42
0.0000000001
 43
0.0000000001
 44
0.0000000001
 12
0.000000
 22
0.000000
 32
0.000000
 13
0.000000
 23
0.000000
 33
0.000000
 40
0.000000
 40
0.000000
 40
0.000000
 40
0.000000
 40
1.000000
 40
1.000000
 40
1.000000
 40
1.000000
 10
991.228452
 20
463.881356
 30
0.000000
 10
989.879735
 20
462.972438
 30
0.000000
 10
988.355098
 20
462.503319
 30
0.000000
 10
986.713182
 20
462.503319
 30
0.000000
  0
SPLINE
  5
540
330
1F
100
AcDbEntity
  8
0
 62
     7
100
AcDbSpline
210
0.000000
220
0.000000
230
1.0
 70
     8
 71
     3
 72
     8
 73
     4
 42
0.0000000001
 43
0.0000000001
 44
0.0000000001
 12
0.000000
 22
0.000000
 32
0.000000
 13
0.000000
 23
0.000000
 33
0.000000
 40
0.000000
 40
0.000000
 40
0.000000
 40
0.000000
 40
1.000000
 40
1.000000
 40
1.000000
 40
1.000000
 10
992.518530
 20
470.712901
 30
0.000000
 10
993.046289
 20
470.888820
 30
0.000000
 10
993.544728
 20
471.152700
 30
0.000000
 10
993.955207
 20
471.504539
 30
0.000000
  0
SPLINE
  5
541
330
1F
100
AcDbEntity
  8
0
 62
     7
100
AcDbSpline
210
0.000000
220
0.000000
230
1.0
 70
     8
 71
     3
 72
     8
 73
     4
 42
0.0000000001
 43
0.0000000001
 44
0.0000000001
 12
0.000000
 22
0.000000
 32
0.000000
 13
0.000000
 23
0.000000
 33
0.000000
 40
0.000000
 40
0.000000
 40
0.000000
 40
0.000000
 40
1.000000
 40
1.000000
 40
1.000000
 40
1.000000
 10
993.955207
 20
471.504539
 30
0.000000
 10
994.101806
 20
472.618696
 30
0.000000
 10
994.189766
 20
473.498295
 30
0.000000
 10
994.189766
 20
474.201973
 30
0.000000
  0
SPLINE
  5
542
330
1F
100
AcDbEntity
  8
0
 62
     7
100
AcDbSpline
210
0.000000
220
0.000000
230
1.0
 70
     8
 71
     3
 72
     8
 73
     4
 42
0.0000000001
 43
0.0000000001
 44
0.0000000001
 12
0.000000
 22
0.000000
 32
0.000000
 13
0.000000
 23
0.000000
 33
0.000000
 40
0.000000
 40
0.000000
 40
0.000000
 40
0.000000
 40
1.000000
 40
1.000000
 40
1.000000
 40
1.000000
 10
994.189766
 20
474.201973
 30
0.000000
 10
994.189766
 20
475.022931
 30
0.000000
 10
994.043166
 20
475.902529
 30
0.000000
 10
993.749967
 20
476.899407
 30
0.000000
  0
SPLINE
  5
543
330
1F
100
AcDbEntity
  8
0
 62
     7
100
AcDbSpline
210
0.000000
220
0.000000
230
1.0
 70
     8
 71
     3
 72
     8
 73
     4
 42
0.0000000001
 43
0.0000000001
 44
0.0000000001
 12
0.000000
 22
0.000000
 32
0.000000
 13
0.000000
 23
0.000000
 33
0.000000
 40
0.000000
 40
0.000000
 40
0.000000
 40
0.000000
 40
1.000000
 40
1.000000
 40
1.000000
 40
1.000000
 10
993.749967
 20
476.899407
 30
0.000000
 10
993.486088
 20
477.837645
 30
0.000000
 10
993.075609
 20
478.599963
 30
0.000000
 10
992.547850
 20
479.127722
 30
0.000000
  0
SPLINE
  5
544
330
1F
100
AcDbEntity
  8
0
 62
     7
100
AcDbSpline
210
0.000000
220
0.000000
230
1.0
 70
     8
 71
     3
 72
     8
 73
     4
 42
0.0000000001
 43
0.0000000001
 44
0.0000000001
 12
0.000000
 22
0.000000
 32
0.000000
 13
0.000000
 23
0.000000
 33
0.000000
 40
0.000000
 40
0.000000
 40
0.000000
 40
0.000000
 40
1.000000
 40
1.000000
 40
1.000000
 40
1.000000
 10
992.547850
 20
479.127722
 30
0.000000
 10
992.020091
 20
479.626161
 30
0.000000
 10
991.433692
 20
479.890041
 30
0.000000
 10
990.759333
 20
479.890041
 30
0.000000
  0
SPLINE
  5
545
330
1F
100
AcDbEntity
  8
0
 62
     7
100
AcDbSpline
210
0.000000
220
0.000000
230
1.0
 70
     8
 71
     3
 72
     8
 73
     4
 42
0.0000000001
 43
0.0000000001
 44
0.0000000001
 12
0.000000
 22
0.000000
 32
0.000000
 13
0.000000
 23
0.000000
 33
0.000000
 40
0.000000
 40
0.000000
 40
0.000000
 40
0.000000
 40
1.000000
 40
1.000000
 40
1.000000
 40
1.000000
 10
990.759333
 20
479.890041
 30
0.000000
 10
989.997015
 20
479.890041
 30
0.000000
 10
989.351976
 20
479.567521
 30
0.000000
 10
988.765578
 20
478.863843
 30
0.000000
  0
SPLINE
  5
546
330
1F
100
AcDbEntity
  8
0
 62
     7
100
AcDbSpline
210
0.000000
220
0.000000
230
1.0
 70
     8
 71
     3
 72
     8
 73
     4
 42
0.0000000001
 43
0.0000000001
 44
0.0000000001
 12
0.000000
 22
0.000000
 32
0.000000
 13
0.000000
 23
0.000000
 33
0.000000
 40
0.000000
 40
0.000000
 40
0.000000
 40
0.000000
 40
1.000000
 40
1.000000
 40
1.000000
 40
1.000000
 10
988.765578
 20
478.863843
 30
0.000000
 10
988.179179
 20
478.189484
 30
0.000000
 10
987.885979
 20
477.163287
 30
0.000000
 10
987.885979
 20
475.785250
 30
0.000000
  0
SPLINE
  5
547
330
1F
100
AcDbEntity
  8
0
 62
     7
100
AcDbSpline
210
0.000000
220
0.000000
230
1.0
 70
     8
 71
     3
 72
     8
 73
     4
 42
0.0000000001
 43
0.0000000001
 44
0.0000000001
 12
0.000000
 22
0.000000
 32
0.000000
 13
0.000000
 23
0.000000
 33
0.000000
 40
0.000000
 40
0.000000
 40
0.000000
 40
0.000000
 40
1.000000
 40
1.000000
 40
1.000000
 40
1.000000
 10
987.885979
 20
475.785250
 30
0.000000
 10
987.885979
 20
473.967414
 30
0.000000
 10
988.267139
 20
472.560057
 30
0.000000
 10
989.029457
 20
471.533859
 30
0.000000
  0
SPLINE
  5
548
330
1F
100
AcDbEntity
  8
0
 62
     7
100
AcDbSpline
210
0.000000
220
0.000000
230
1.0
 70
     8
 71
     3
 72
     8
 73
     4
 42
0.0000000001
 43
0.0000000001
 44
0.0000000001
 12
0.000000
 22
0.000000
 32
0.000000
 13
0.000000
 23
0.000000
 33
0.000000
 40
0.000000
 40
0.000000
 40
0.000000
 40
0.000000
 40
1.000000
 40
1.000000
 40
1.000000
 40
1.000000
 10
989.029457
 20
471.533859
 30
0.000000
 10
989.586536
 20
470.800860
 30
0.000000
 10
990.290214
 20
470.419701
 30
0.000000
 10
991.111173
 20
470.419701
 30
0.000000
  0
SPLINE
  5
549
330
1F
100
AcDbEntity
  8
0
 62
     7
100
AcDbSpline
210
0.000000
220
0.000000
230
1.0
 70
     8
 71
     3
 72
     8
 73
     4
 42
0.0000000001
 43
0.0000000001
 44
0.0000000001
 12
0.000000
 22
0.000000
 32
0.000000
 13
0.000000
 23
0.000000
 33
0.000000
 40
0.000000
 40
0.000000
 40
0.000000
 40
0.000000
 40
1.000000
 40
1.000000
 40
1.000000
 40
1.000000
 10
991.111173
 20
470.419701
 30
0.000000
 10
991.492332
 20
470.419701
 30
0.000000
 10
991.961451
 20
470.507661
 30
0.000000
 10
992.518530
 20
470.712901
 30
0.000000
 0
ENDSEC
  0
SECTION
  2
OBJECTS
  0
DICTIONARY
  5
C
330
0
100
AcDbDictionary
  3
ACAD_GROUP
350
D
  3
ACAD_LAYOUT
350
1A
  3
ACAD_MLINESTYLE
350
17
  3
ACAD_PLOTSETTINGS
350
19
1001
ACAD
1000
TREAT_AS_HARD
1070
     0
  0
DICTIONARY
  5
46
330
1F
100
AcDbDictionary
  3
ACAD_LAYOUTSELFREF
350
47
  0
DICTIONARY
  5
44
330
1B
100
AcDbDictionary
  3
ACAD_LAYOUTSELFREF
350
45
  0
DICTIONARY
  5
D
102
{ACAD_REACTORS
330
C
102
}
330
C
100
AcDbDictionary
1001
ACAD
1000
TREAT_AS_HARD
1070
     0
  0
DICTIONARY
  5
1A
102
{ACAD_REACTORS
330
C
102
}
330
C
100
AcDbDictionary
1001
ACAD
1000
TREAT_AS_HARD
1070
     0
  0
DICTIONARY
  5
17
102
{ACAD_REACTORS
330
C
102
}
330
C
100
AcDbDictionary
  3
STANDARD
350
18
1001
ACAD
1000
TREAT_AS_HARD
1070
     0
  0
DICTIONARY
  5
19
102
{ACAD_REACTORS
330
C
102
}
330
C
100
AcDbDictionary
1001
ACAD
1000
TREAT_AS_HARD
1070
     0
  0
XRECORD
  5
47
102
{ACAD_REACTORS
330
46
102
}
330
46
100
AcDbXrecord
340
1F
  0
XRECORD
  5
45
102
{ACAD_REACTORS
330
44
102
}
330
44
100
AcDbXrecord
340
1B
  0
MLINESTYLE
  5
18
102
{ACAD_REACTORS
330
17
102
}
330
17
100
AcDbMlineStyle
  2
STANDARD
 70
     0
  3

 62
   256
 51
90.0
 52
90.0
 71
     2
 49
0.5
 62
   256
  6
BYLAYER
 49
-0.5
 62
   256
  6
BYLAYER
  0
ENDSEC
  0
EOF
