  0
SECTION
  2
HEADER
  9
$ACADVER
  1
AC1012
  9
$DWGCODEPAGE
  3
gb2312
  9
$INSBASE
 10
0.0
 20
0.0
 30
0.0
  9
$EXTMIN
 10
1.000000000000000E+20
 20
1.000000000000000E+20
 30
1.000000000000000E+20
  9
$EXTMAX
 10
-1.000000000000000E+20
 20
-1.000000000000000E+20
 30
-1.000000000000000E+20
  9
$LIMMIN
 10
0.0
 20
0.0
  9
$LIMMAX
 10
420.0
 20
297.0
  9
$ORTHOMODE
 70
     0
  9
$REGENMODE
 70
     1
  9
$FILLMODE
 70
     1
  9
$QTEXTMODE
 70
     0
  9
$MIRRTEXT
 70
     1
  9
$DRAGMODE
 70
     2
  9
$LTSCALE
 40
1.0
  9
$OSMODE
 70
    37
  9
$ATTMODE
 70
     1
  9
$TEXTSIZE
 40
2.5
  9
$TRACEWID
 40
1.0
  9
$TEXTSTYLE
  7
STANDARD
  9
$CLAYER
  8
0
  9
$CELTYPE
  6
BYLAYER
  9
$CECOLOR
 62
   256
  9
$CELTSCALE
 40
1.0
  9
$DELOBJ
 70
     1
  9
$DISPSILH
 70
     0
  9
$DIMSCALE
 40
1.0
  9
$DIMASZ
 40
2.5
  9
$DIMEXO
 40
0.625
  9
$DIMDLI
 40
3.75
  9
$DIMRND
 40
0.0
  9
$DIMDLE
 40
0.0
  9
$DIMEXE
 40
1.25
  9
$DIMTP
 40
0.0
  9
$DIMTM
 40
0.0
  9
$DIMTXT
 40
2.5
  9
$DIMCEN
 40
2.5
  9
$DIMTSZ
 40
0.0
  9
$DIMTOL
 70
     0
  9
$DIMLIM
 70
     0
  9
$DIMTIH
 70
     0
  9
$DIMTOH
 70
     0
  9
$DIMSE1
 70
     0
  9
$DIMSE2
 70
     0
  9
$DIMTAD
 70
     1
  9
$DIMZIN
 70
     8
  9
$DIMBLK
  1

  9
$DIMASO
 70
     1
  9
$DIMSHO
 70
     1
  9
$DIMPOST
  1

  9
$DIMAPOST
  1

  9
$DIMALT
 70
     0
  9
$DIMALTD
 70
     3
  9
$DIMALTF
 40
0.03937007874016
  9
$DIMLFAC
 40
1.0
  9
$DIMTOFL
 70
     1
  9
$DIMTVP
 40
0.0
  9
$DIMTIX
 70
     0
  9
$DIMSOXD
 70
     0
  9
$DIMSAH
 70
     0
  9
$DIMBLK1
  1

  9
$DIMBLK2
  1

  9
$DIMSTYLE
  2
ISO-25
  9
$DIMCLRD
 70
     0
  9
$DIMCLRE
 70
     0
  9
$DIMCLRT
 70
     0
  9
$DIMTFAC
 40
1.0
  9
$DIMGAP
 40
0.625
  9
$DIMJUST
 70
     0
  9
$DIMSD1
 70
     0
  9
$DIMSD2
 70
     0
  9
$DIMTOLJ
 70
     0
  9
$DIMTZIN
 70
     8
  9
$DIMALTZ
 70
     0
  9
$DIMALTTZ
 70
     0
  9
$DIMFIT
 70
     3
  9
$DIMUPT
 70
     0
  9
$DIMUNIT
 70
     2
  9
$DIMDEC
 70
     2
  9
$DIMTDEC
 70
     2
  9
$DIMALTU
 70
     2
  9
$DIMALTTD
 70
     3
  9
$DIMTXSTY
  7
STANDARD
  9
$DIMAUNIT
 70
     0
  9
$LUNITS
 70
     2
  9
$LUPREC
 70
     4
  9
$SKETCHINC
 40
1.0
  9
$FILLETRAD
 40
10.0
  9
$AUNITS
 70
     0
  9
$AUPREC
 70
     0
  9
$MENU
  1
.
  9
$ELEVATION
 40
0.0
  9
$PELEVATION
 40
0.0
  9
$THICKNESS
 40
0.0
  9
$LIMCHECK
 70
     0
  9
$BLIPMODE
 70
     0
  9
$CHAMFERA
 40
10.0
  9
$CHAMFERB
 40
10.0
  9
$CHAMFERC
 40
20.0
  9
$CHAMFERD
 40
0.0
  9
$SKPOLY
 70
     0
  9
$TDCREATE
 40
2453935.933843252
  9
$TDUPDATE
 40
2453935.934398680
  9
$TDINDWG
 40
0.0005563542
  9
$TDUSRTIMER
 40
0.0005562384
  9
$USRTIMER
 70
     1
  9
$ANGBASE
 50
0.0
  9
$ANGDIR
 70
     0
  9
$PDMODE
 70
     0
  9
$PDSIZE
 40
0.0
  9
$PLINEWID
 40
0.0
  9
$COORDS
 70
     1
  9
$SPLFRAME
 70
     0
  9
$SPLINETYPE
 70
     6
  9
$SPLINESEGS
 70
     8
  9
$ATTDIA
 70
     0
  9
$ATTREQ
 70
     1
  9
$HANDLING
 70
 22529
  9
$HANDSEED
  5
4A
  9
$SURFTAB1
 70
     6
  9
$SURFTAB2
 70
     6
  9
$SURFTYPE
 70
     6
  9
$SURFU
 70
     6
  9
$SURFV
 70
     6
  9
$UCSNAME
  2

  9
$UCSORG
 10
0.0
 20
0.0
 30
0.0
  9
$UCSXDIR
 10
1.0
 20
0.0
 30
0.0
  9
$UCSYDIR
 10
0.0
 20
1.0
 30
0.0
  9
$PUCSNAME
  2

  9
$PUCSORG
 10
0.0
 20
0.0
 30
0.0
  9
$PUCSXDIR
 10
1.0
 20
0.0
 30
0.0
  9
$PUCSYDIR
 10
0.0
 20
1.0
 30
0.0
  9
$USERI1
 70
     0
  9
$USERI2
 70
     0
  9
$USERI3
 70
     0
  9
$USERI4
 70
     0
  9
$USERI5
 70
     0
  9
$USERR1
 40
0.0
  9
$USERR2
 40
0.0
  9
$USERR3
 40
0.0
  9
$USERR4
 40
0.0
  9
$USERR5
 40
0.0
  9
$WORLDVIEW
 70
     1
  9
$SHADEDGE
 70
     3
  9
$SHADEDIF
 70
    70
  9
$TILEMODE
 70
     1
  9
$MAXACTVP
 70
    64
  9
$PINSBASE
 10
0.0
 20
0.0
 30
0.0
  9
$PLIMCHECK
 70
     0
  9
$PEXTMIN
 10
1.000000000000000E+20
 20
1.000000000000000E+20
 30
1.000000000000000E+20
  9
$PEXTMAX
 10
-1.000000000000000E+20
 20
-1.000000000000000E+20
 30
-1.000000000000000E+20
  9
$PLIMMIN
 10
0.0
 20
0.0
  9
$PLIMMAX
 10
420.0
 20
297.0
  9
$UNITMODE
 70
     0
  9
$VISRETAIN
 70
     1
  9
$PLINEGEN
 70
     0
  9
$PSLTSCALE
 70
     1
  9
$TREEDEPTH
 70
  3020
  9
$PICKSTYLE
 70
     1
  9
$CMLSTYLE
  2
STANDARD
  9
$CMLJUST
 70
     0
  9
$CMLSCALE
 40
20.0
  9
$SAVEIMAGES
 70
     1
  0
ENDSEC
  0
SECTION
  2
CLASSES
  0
CLASS
  1
ACDBDICTIONARYWDFLT
  2
AcDbDictionaryWithDefault
  3
AutoCAD 2000
 90
    32768
280
     0
281
     0
  0
CLASS
  1
ACDBPLACEHOLDER
  2
AcDbPlaceHolder
  3
AutoCAD 2000
 90
    32768
280
     0
281
     0
  0
CLASS
  1
LAYOUT
  2
AcDbLayout
  3
AutoCAD 2000
 90
    32768
280
     0
281
     0
  0
CLASS
  1
DICTIONARYVAR
  2
AcDbDictionaryVar
  3
AutoCAD 2000
 90
    32768
280
     0
281
     0
  0
CLASS
  1
LONG_TRANSACTION
  2
AcDbLongTransaction
  3
AutoCAD 2000
 90
    32768
280
     0
281
     0
  0
CLASS
  1
LWPOLYLINE
  2
AcDbPolyline
  3
AutoCAD 2000
 90
    32768
280
     0
281
     1
  0
CLASS
  1
HATCH
  2
AcDbHatch
  3
AutoCAD 2000
 90
    32768
280
     0
281
     1
  0
CLASS
  1
XRECORD
  2
AcDbXrecord
  3
AutoCAD 2000
 90
    32768
280
     0
281
     0
  0
ENDSEC
  0
SECTION
  2
TABLES
  0
TABLE
  2
VPORT
  5
8
330
0
100
AcDbSymbolTable
 70
     2
  0
VPORT
  5
43
330
8
100
AcDbSymbolTableRecord
100
AcDbViewportTableRecord
  2
*ACTIVE
 70
     0
 10
0.0
 20
0.0
 11
1.0
 21
1.0
 12
505.3812210517317
 22
257.5500453436709
 13
0.0
 23
0.0
 14
10.0
 24
10.0
 15
10.0
 25
10.0
 16
0.0
 26
0.0
 36
1.0
 17
0.0
 27
0.0
 37
0.0
 40
515.1000906873419
 41
1.962264150943396
 42
50.0
 43
0.0
 44
0.0
 50
0.0
 51
0.0
 71
     0
 72
   100
 73
     1
 74
     3
 75
     0
 76
     0
 77
     0
 78
     0
  0
ENDTAB
  0
TABLE
  2
LTYPE
  5
5
330
0
100
AcDbSymbolTable
 70
     1
  0
LTYPE
  5
14
330
5
100
AcDbSymbolTableRecord
100
AcDbLinetypeTableRecord
  2
BYBLOCK
 70
     0
  3

 72
    65
 73
     0
 40
0.0
  0
LTYPE
  5
15
330
5
100
AcDbSymbolTableRecord
100
AcDbLinetypeTableRecord
  2
BYLAYER
 70
     0
  3

 72
    65
 73
     0
 40
0.0
  0
LTYPE
  5
16
330
5
100
AcDbSymbolTableRecord
100
AcDbLinetypeTableRecord
  2
CONTINUOUS
 70
     0
  3
Solid line
 72
    65
 73
     0
 40
0.0
  0
ENDTAB
  0
TABLE
  2
LAYER
  5
2
330
0
100
AcDbSymbolTable
 70
     1
  0
LAYER
  5
10
330
2
100
AcDbSymbolTableRecord
100
AcDbLayerTableRecord
  2
0
 70
     0
 62
     7
  6
CONTINUOUS
  0
ENDTAB
  0
TABLE
  2
STYLE
  5
3
330
0
100
AcDbSymbolTable
 70
     1
  0
STYLE
  5
11
330
3
100
AcDbSymbolTableRecord
100
AcDbTextStyleTableRecord
  2
STANDARD
 70
     0
 40
0.0
 41
1.0
 50
0.0
 71
     0
 42
2.5
  3
txt
  4

  0
ENDTAB
  0
TABLE
  2
VIEW
  5
6
330
0
100
AcDbSymbolTable
 70
     0
  0
ENDTAB
  0
TABLE
  2
UCS
  5
7
330
0
100
AcDbSymbolTable
 70
     0
  0
ENDTAB
  0
TABLE
  2
APPID
  5
9
330
0
100
AcDbSymbolTable
 70
     1
  0
APPID
  5
12
330
9
100
AcDbSymbolTableRecord
100
AcDbRegAppTableRecord
  2
ACAD
 70
     0
  0
ENDTAB
  0
TABLE
  2
DIMSTYLE
  5
A
330
0
100
AcDbSymbolTable
 70
     1
  0
DIMSTYLE
105
27
330
A
100
AcDbSymbolTableRecord
100
AcDbDimStyleTableRecord
  2
ISO-25
 70
     0
  3

  4

  5

  6

  7

 40
1.0
 41
2.5
 42
0.625
 43
3.75
 44
1.25
 45
0.0
 46
0.0
 47
0.0
 48
0.0
140
2.5
141
2.5
142
0.0
143
0.03937007874016
144
1.0
145
0.0
146
1.0
147
0.625
 71
     0
 72
     0
 73
     0
 74
     0
 75
     0
 76
     0
 77
     1
 78
     8
170
     0
171
     3
172
     1
173
     0
174
     0
175
     0
176
     0
177
     0
178
     0
270
     2
271
     2
272
     2
273
     2
274
     3
340
11
275
     0
280
     0
281
     0
282
     0
283
     0
284
     8
285
     0
286
     0
287
     3
288
     0
  0
ENDTAB
  0
TABLE
  2
BLOCK_RECORD
  5
1
330
0
100
AcDbSymbolTable
 70
     1
  0
BLOCK_RECORD
  5
1F
102
{ACAD_XDICTIONARY
360
46
102
}
330
1
100
AcDbSymbolTableRecord
100
AcDbBlockTableRecord
  2
*MODEL_SPACE
  0
BLOCK_RECORD
  5
1B
102
{ACAD_XDICTIONARY
360
44
102
}
330
1
100
AcDbSymbolTableRecord
100
AcDbBlockTableRecord
  2
*PAPER_SPACE
  0
ENDTAB
  0
ENDSEC
  0
SECTION
  2
BLOCKS
  0
BLOCK
  5
20
330
1F
100
AcDbEntity
  8
0
100
AcDbBlockBegin
  2
*MODEL_SPACE
 70
     0
 10
0.0
 20
0.0
 30
0.0
  3
*MODEL_SPACE
  1

  0
ENDBLK
  5
21
330
1F
100
AcDbEntity
  8
0
100
AcDbBlockEnd
  0
BLOCK
  5
1C
330
1B
100
AcDbEntity
 67
     1
  8
0
100
AcDbBlockBegin
  2
*PAPER_SPACE
 70
     0
 10
0.0
 20
0.0
 30
0.0
  3
*PAPER_SPACE
  1

  0
ENDBLK
  5
1D
330
1B
100
AcDbEntity
 67
     1
  8
0
100
AcDbBlockEnd
  0
ENDSEC
  0
SECTION
  2
ENTITIES
  0
LINE
  5
100
330
1F
100
AcDbEntity
  8
0
  62
7
100
AcDbLine
 10
746.317574
 20
505.161564
 30
0.000000
 11
746.255182
 21
505.156021
 31
0.000000
  0
LINE
  5
101
330
1F
100
AcDbEntity
  8
0
  62
7
100
AcDbLine
 10
746.255182
 20
505.156021
 30
0.000000
 11
746.193042
 21
505.149950
 31
0.000000
  0
LINE
  5
102
330
1F
100
AcDbEntity
  8
0
  62
7
100
AcDbLine
 10
746.193042
 20
505.149950
 30
0.000000
 11
746.131154
 21
505.143351
 31
0.000000
  0
LINE
  5
103
330
1F
100
AcDbEntity
  8
0
  62
7
100
AcDbLine
 10
746.131154
 20
505.143351
 30
0.000000
 11
746.069520
 21
505.136227
 31
0.000000
  0
LINE
  5
104
330
1F
100
AcDbEntity
  8
0
  62
7
100
AcDbLine
 10
746.069520
 20
505.136227
 30
0.000000
 11
746.008139
 21
505.128581
 31
0.000000
  0
LINE
  5
105
330
1F
100
AcDbEntity
  8
0
  62
7
100
AcDbLine
 10
746.008139
 20
505.128581
 30
0.000000
 11
745.947013
 21
505.120413
 31
0.000000
  0
LINE
  5
106
330
1F
100
AcDbEntity
  8
0
  62
7
100
AcDbLine
 10
745.947013
 20
505.120413
 30
0.000000
 11
745.886143
 21
505.111728
 31
0.000000
  0
LINE
  5
107
330
1F
100
AcDbEntity
  8
0
  62
7
100
AcDbLine
 10
745.886143
 20
505.111728
 30
0.000000
 11
745.825530
 21
505.102525
 31
0.000000
  0
LINE
  5
108
330
1F
100
AcDbEntity
  8
0
  62
7
100
AcDbLine
 10
745.825530
 20
505.102525
 30
0.000000
 11
745.765174
 21
505.092809
 31
0.000000
  0
LINE
  5
109
330
1F
100
AcDbEntity
  8
0
  62
7
100
AcDbLine
 10
745.765174
 20
505.092809
 30
0.000000
 11
745.705076
 21
505.082580
 31
0.000000
  0
LINE
  5
110
330
1F
100
AcDbEntity
  8
0
  62
7
100
AcDbLine
 10
745.705076
 20
505.082580
 30
0.000000
 11
745.645238
 21
505.071840
 31
0.000000
  0
LINE
  5
111
330
1F
100
AcDbEntity
  8
0
  62
7
100
AcDbLine
 10
745.645238
 20
505.071840
 30
0.000000
 11
745.585659
 21
505.060593
 31
0.000000
  0
LINE
  5
112
330
1F
100
AcDbEntity
  8
0
  62
7
100
AcDbLine
 10
745.585659
 20
505.060593
 30
0.000000
 11
745.526342
 21
505.048840
 31
0.000000
  0
LINE
  5
113
330
1F
100
AcDbEntity
  8
0
  62
7
100
AcDbLine
 10
745.526342
 20
505.048840
 30
0.000000
 11
745.467287
 21
505.036583
 31
0.000000
  0
LINE
  5
114
330
1F
100
AcDbEntity
  8
0
  62
7
100
AcDbLine
 10
745.467287
 20
505.036583
 30
0.000000
 11
745.408494
 21
505.023824
 31
0.000000
  0
LINE
  5
115
330
1F
100
AcDbEntity
  8
0
  62
7
100
AcDbLine
 10
745.408494
 20
505.023824
 30
0.000000
 11
745.349965
 21
505.010566
 31
0.000000
  0
LINE
  5
116
330
1F
100
AcDbEntity
  8
0
  62
7
100
AcDbLine
 10
745.349965
 20
505.010566
 30
0.000000
 11
745.291700
 21
504.996810
 31
0.000000
  0
LINE
  5
117
330
1F
100
AcDbEntity
  8
0
  62
7
100
AcDbLine
 10
745.291700
 20
504.996810
 30
0.000000
 11
745.233700
 21
504.982559
 31
0.000000
  0
LINE
  5
118
330
1F
100
AcDbEntity
  8
0
  62
7
100
AcDbLine
 10
745.233700
 20
504.982559
 30
0.000000
 11
745.175967
 21
504.967814
 31
0.000000
  0
LINE
  5
119
330
1F
100
AcDbEntity
  8
0
  62
7
100
AcDbLine
 10
745.175967
 20
504.967814
 30
0.000000
 11
745.118500
 21
504.952578
 31
0.000000
  0
LINE
  5
120
330
1F
100
AcDbEntity
  8
0
  62
7
100
AcDbLine
 10
745.118500
 20
504.952578
 30
0.000000
 11
745.061302
 21
504.936853
 31
0.000000
  0
LINE
  5
121
330
1F
100
AcDbEntity
  8
0
  62
7
100
AcDbLine
 10
745.061302
 20
504.936853
 30
0.000000
 11
745.004372
 21
504.920641
 31
0.000000
  0
LINE
  5
122
330
1F
100
AcDbEntity
  8
0
  62
7
100
AcDbLine
 10
745.004372
 20
504.920641
 30
0.000000
 11
744.947712
 21
504.903944
 31
0.000000
  0
LINE
  5
123
330
1F
100
AcDbEntity
  8
0
  62
7
100
AcDbLine
 10
744.947712
 20
504.903944
 30
0.000000
 11
744.891323
 21
504.886765
 31
0.000000
  0
LINE
  5
124
330
1F
100
AcDbEntity
  8
0
  62
7
100
AcDbLine
 10
744.891323
 20
504.886765
 30
0.000000
 11
744.835204
 21
504.869105
 31
0.000000
  0
LINE
  5
125
330
1F
100
AcDbEntity
  8
0
  62
7
100
AcDbLine
 10
744.835204
 20
504.869105
 30
0.000000
 11
744.779358
 21
504.850966
 31
0.000000
  0
LINE
  5
126
330
1F
100
AcDbEntity
  8
0
  62
7
100
AcDbLine
 10
744.779358
 20
504.850966
 30
0.000000
 11
744.723786
 21
504.832351
 31
0.000000
  0
LINE
  5
127
330
1F
100
AcDbEntity
  8
0
  62
7
100
AcDbLine
 10
744.723786
 20
504.832351
 30
0.000000
 11
744.668487
 21
504.813261
 31
0.000000
  0
LINE
  5
128
330
1F
100
AcDbEntity
  8
0
  62
7
100
AcDbLine
 10
744.668487
 20
504.813261
 30
0.000000
 11
744.613463
 21
504.793699
 31
0.000000
  0
LINE
  5
129
330
1F
100
AcDbEntity
  8
0
  62
7
100
AcDbLine
 10
744.613463
 20
504.793699
 30
0.000000
 11
744.558714
 21
504.773667
 31
0.000000
  0
LINE
  5
130
330
1F
100
AcDbEntity
  8
0
  62
7
100
AcDbLine
 10
744.558714
 20
504.773667
 30
0.000000
 11
744.504242
 21
504.753166
 31
0.000000
  0
LINE
  5
131
330
1F
100
AcDbEntity
  8
0
  62
7
100
AcDbLine
 10
744.504242
 20
504.753166
 30
0.000000
 11
744.450048
 21
504.732200
 31
0.000000
  0
LINE
  5
132
330
1F
100
AcDbEntity
  8
0
  62
7
100
AcDbLine
 10
744.450048
 20
504.732200
 30
0.000000
 11
744.396132
 21
504.710770
 31
0.000000
  0
LINE
  5
133
330
1F
100
AcDbEntity
  8
0
  62
7
100
AcDbLine
 10
744.396132
 20
504.710770
 30
0.000000
 11
744.342495
 21
504.688879
 31
0.000000
  0
LINE
  5
134
330
1F
100
AcDbEntity
  8
0
  62
7
100
AcDbLine
 10
744.342495
 20
504.688879
 30
0.000000
 11
744.289138
 21
504.666527
 31
0.000000
  0
LINE
  5
135
330
1F
100
AcDbEntity
  8
0
  62
7
100
AcDbLine
 10
744.289138
 20
504.666527
 30
0.000000
 11
744.236062
 21
504.643718
 31
0.000000
  0
LINE
  5
136
330
1F
100
AcDbEntity
  8
0
  62
7
100
AcDbLine
 10
744.236062
 20
504.643718
 30
0.000000
 11
744.183268
 21
504.620454
 31
0.000000
  0
LINE
  5
137
330
1F
100
AcDbEntity
  8
0
  62
7
100
AcDbLine
 10
744.183268
 20
504.620454
 30
0.000000
 11
744.130756
 21
504.596737
 31
0.000000
  0
LINE
  5
138
330
1F
100
AcDbEntity
  8
0
  62
7
100
AcDbLine
 10
744.130756
 20
504.596737
 30
0.000000
 11
744.078528
 21
504.572568
 31
0.000000
  0
LINE
  5
139
330
1F
100
AcDbEntity
  8
0
  62
7
100
AcDbLine
 10
744.078528
 20
504.572568
 30
0.000000
 11
744.026585
 21
504.547950
 31
0.000000
  0
LINE
  5
140
330
1F
100
AcDbEntity
  8
0
  62
7
100
AcDbLine
 10
744.026585
 20
504.547950
 30
0.000000
 11
743.974926
 21
504.522886
 31
0.000000
  0
LINE
  5
141
330
1F
100
AcDbEntity
  8
0
  62
7
100
AcDbLine
 10
743.974926
 20
504.522886
 30
0.000000
 11
743.923554
 21
504.497376
 31
0.000000
  0
LINE
  5
142
330
1F
100
AcDbEntity
  8
0
  62
7
100
AcDbLine
 10
743.923554
 20
504.497376
 30
0.000000
 11
743.872468
 21
504.471423
 31
0.000000
  0
LINE
  5
143
330
1F
100
AcDbEntity
  8
0
  62
7
100
AcDbLine
 10
743.872468
 20
504.471423
 30
0.000000
 11
743.821671
 21
504.445030
 31
0.000000
  0
LINE
  5
144
330
1F
100
AcDbEntity
  8
0
  62
7
100
AcDbLine
 10
743.821671
 20
504.445030
 30
0.000000
 11
743.771162
 21
504.418198
 31
0.000000
  0
LINE
  5
145
330
1F
100
AcDbEntity
  8
0
  62
7
100
AcDbLine
 10
743.771162
 20
504.418198
 30
0.000000
 11
743.720943
 21
504.390930
 31
0.000000
  0
LINE
  5
146
330
1F
100
AcDbEntity
  8
0
  62
7
100
AcDbLine
 10
743.720943
 20
504.390930
 30
0.000000
 11
743.671014
 21
504.363228
 31
0.000000
  0
LINE
  5
147
330
1F
100
AcDbEntity
  8
0
  62
7
100
AcDbLine
 10
743.671014
 20
504.363228
 30
0.000000
 11
743.621376
 21
504.335093
 31
0.000000
  0
LINE
  5
148
330
1F
100
AcDbEntity
  8
0
  62
7
100
AcDbLine
 10
743.621376
 20
504.335093
 30
0.000000
 11
743.572031
 21
504.306528
 31
0.000000
  0
LINE
  5
149
330
1F
100
AcDbEntity
  8
0
  62
7
100
AcDbLine
 10
743.572031
 20
504.306528
 30
0.000000
 11
743.522979
 21
504.277536
 31
0.000000
  0
LINE
  5
150
330
1F
100
AcDbEntity
  8
0
  62
7
100
AcDbLine
 10
743.522979
 20
504.277536
 30
0.000000
 11
743.474220
 21
504.248117
 31
0.000000
  0
LINE
  5
151
330
1F
100
AcDbEntity
  8
0
  62
7
100
AcDbLine
 10
743.474220
 20
504.248117
 30
0.000000
 11
743.425757
 21
504.218274
 31
0.000000
  0
LINE
  5
152
330
1F
100
AcDbEntity
  8
0
  62
7
100
AcDbLine
 10
743.425757
 20
504.218274
 30
0.000000
 11
743.377589
 21
504.188010
 31
0.000000
  0
LINE
  5
153
330
1F
100
AcDbEntity
  8
0
  62
7
100
AcDbLine
 10
743.377589
 20
504.188010
 30
0.000000
 11
743.329718
 21
504.157326
 31
0.000000
  0
LINE
  5
154
330
1F
100
AcDbEntity
  8
0
  62
7
100
AcDbLine
 10
743.329718
 20
504.157326
 30
0.000000
 11
743.282143
 21
504.126224
 31
0.000000
  0
LINE
  5
155
330
1F
100
AcDbEntity
  8
0
  62
7
100
AcDbLine
 10
743.282143
 20
504.126224
 30
0.000000
 11
743.234868
 21
504.094707
 31
0.000000
  0
LINE
  5
156
330
1F
100
AcDbEntity
  8
0
  62
7
100
AcDbLine
 10
743.234868
 20
504.094707
 30
0.000000
 11
743.187891
 21
504.062777
 31
0.000000
  0
LINE
  5
157
330
1F
100
AcDbEntity
  8
0
  62
7
100
AcDbLine
 10
743.187891
 20
504.062777
 30
0.000000
 11
743.141214
 21
504.030436
 31
0.000000
  0
LINE
  5
158
330
1F
100
AcDbEntity
  8
0
  62
7
100
AcDbLine
 10
743.141214
 20
504.030436
 30
0.000000
 11
743.094838
 21
503.997686
 31
0.000000
  0
LINE
  5
159
330
1F
100
AcDbEntity
  8
0
  62
7
100
AcDbLine
 10
743.094838
 20
503.997686
 30
0.000000
 11
743.048764
 21
503.964528
 31
0.000000
  0
LINE
  5
160
330
1F
100
AcDbEntity
  8
0
  62
7
100
AcDbLine
 10
743.048764
 20
503.964528
 30
0.000000
 11
743.002993
 21
503.930966
 31
0.000000
  0
LINE
  5
161
330
1F
100
AcDbEntity
  8
0
  62
7
100
AcDbLine
 10
743.002993
 20
503.930966
 30
0.000000
 11
742.957525
 21
503.897001
 31
0.000000
  0
LINE
  5
162
330
1F
100
AcDbEntity
  8
0
  62
7
100
AcDbLine
 10
742.957525
 20
503.897001
 30
0.000000
 11
742.912361
 21
503.862635
 31
0.000000
  0
LINE
  5
163
330
1F
100
AcDbEntity
  8
0
  62
7
100
AcDbLine
 10
742.912361
 20
503.862635
 30
0.000000
 11
742.867502
 21
503.827871
 31
0.000000
  0
LINE
  5
164
330
1F
100
AcDbEntity
  8
0
  62
7
100
AcDbLine
 10
742.867502
 20
503.827871
 30
0.000000
 11
742.822950
 21
503.792710
 31
0.000000
  0
LINE
  5
165
330
1F
100
AcDbEntity
  8
0
  62
7
100
AcDbLine
 10
742.822950
 20
503.792710
 30
0.000000
 11
742.778704
 21
503.757155
 31
0.000000
  0
LINE
  5
166
330
1F
100
AcDbEntity
  8
0
  62
7
100
AcDbLine
 10
742.778704
 20
503.757155
 30
0.000000
 11
742.734766
 21
503.721208
 31
0.000000
  0
LINE
  5
167
330
1F
100
AcDbEntity
  8
0
  62
7
100
AcDbLine
 10
742.734766
 20
503.721208
 30
0.000000
 11
742.691137
 21
503.684871
 31
0.000000
  0
LINE
  5
168
330
1F
100
AcDbEntity
  8
0
  62
7
100
AcDbLine
 10
742.691137
 20
503.684871
 30
0.000000
 11
742.647817
 21
503.648146
 31
0.000000
  0
LINE
  5
169
330
1F
100
AcDbEntity
  8
0
  62
7
100
AcDbLine
 10
742.647817
 20
503.648146
 30
0.000000
 11
742.604808
 21
503.611034
 31
0.000000
  0
LINE
  5
170
330
1F
100
AcDbEntity
  8
0
  62
7
100
AcDbLine
 10
742.604808
 20
503.611034
 30
0.000000
 11
742.562110
 21
503.573539
 31
0.000000
  0
LINE
  5
171
330
1F
100
AcDbEntity
  8
0
  62
7
100
AcDbLine
 10
742.562110
 20
503.573539
 30
0.000000
 11
742.519724
 21
503.535663
 31
0.000000
  0
LINE
  5
172
330
1F
100
AcDbEntity
  8
0
  62
7
100
AcDbLine
 10
742.519724
 20
503.535663
 30
0.000000
 11
742.477651
 21
503.497406
 31
0.000000
  0
LINE
  5
173
330
1F
100
AcDbEntity
  8
0
  62
7
100
AcDbLine
 10
742.477651
 20
503.497406
 30
0.000000
 11
742.435892
 21
503.458772
 31
0.000000
  0
LINE
  5
174
330
1F
100
AcDbEntity
  8
0
  62
7
100
AcDbLine
 10
742.435892
 20
503.458772
 30
0.000000
 11
742.394447
 21
503.419764
 31
0.000000
  0
LINE
  5
175
330
1F
100
AcDbEntity
  8
0
  62
7
100
AcDbLine
 10
742.394447
 20
503.419764
 30
0.000000
 11
742.353319
 21
503.380381
 31
0.000000
  0
LINE
  5
176
330
1F
100
AcDbEntity
  8
0
  62
7
100
AcDbLine
 10
742.353319
 20
503.380381
 30
0.000000
 11
742.312506
 21
503.340627
 31
0.000000
  0
LINE
  5
177
330
1F
100
AcDbEntity
  8
0
  62
7
100
AcDbLine
 10
742.312506
 20
503.340627
 30
0.000000
 11
742.272011
 21
503.300505
 31
0.000000
  0
LINE
  5
178
330
1F
100
AcDbEntity
  8
0
  62
7
100
AcDbLine
 10
742.272011
 20
503.300505
 30
0.000000
 11
742.231835
 21
503.260015
 31
0.000000
  0
LINE
  5
179
330
1F
100
AcDbEntity
  8
0
  62
7
100
AcDbLine
 10
742.231835
 20
503.260015
 30
0.000000
 11
742.191977
 21
503.219160
 31
0.000000
  0
LINE
  5
180
330
1F
100
AcDbEntity
  8
0
  62
7
100
AcDbLine
 10
742.191977
 20
503.219160
 30
0.000000
 11
742.152439
 21
503.177943
 31
0.000000
  0
LINE
  5
181
330
1F
100
AcDbEntity
  8
0
  62
7
100
AcDbLine
 10
742.152439
 20
503.177943
 30
0.000000
 11
742.113222
 21
503.136366
 31
0.000000
  0
LINE
  5
182
330
1F
100
AcDbEntity
  8
0
  62
7
100
AcDbLine
 10
742.113222
 20
503.136366
 30
0.000000
 11
742.074327
 21
503.094429
 31
0.000000
  0
LINE
  5
183
330
1F
100
AcDbEntity
  8
0
  62
7
100
AcDbLine
 10
742.074327
 20
503.094429
 30
0.000000
 11
742.035754
 21
503.052136
 31
0.000000
  0
LINE
  5
184
330
1F
100
AcDbEntity
  8
0
  62
7
100
AcDbLine
 10
742.035754
 20
503.052136
 30
0.000000
 11
741.997504
 21
503.009489
 31
0.000000
  0
LINE
  5
185
330
1F
100
AcDbEntity
  8
0
  62
7
100
AcDbLine
 10
741.997504
 20
503.009489
 30
0.000000
 11
741.959579
 21
502.966490
 31
0.000000
  0
LINE
  5
186
330
1F
100
AcDbEntity
  8
0
  62
7
100
AcDbLine
 10
741.959579
 20
502.966490
 30
0.000000
 11
741.921979
 21
502.923140
 31
0.000000
  0
LINE
  5
187
330
1F
100
AcDbEntity
  8
0
  62
7
100
AcDbLine
 10
741.921979
 20
502.923140
 30
0.000000
 11
741.884705
 21
502.879443
 31
0.000000
  0
LINE
  5
188
330
1F
100
AcDbEntity
  8
0
  62
7
100
AcDbLine
 10
741.884705
 20
502.879443
 30
0.000000
 11
741.847758
 21
502.835400
 31
0.000000
  0
LINE
  5
189
330
1F
100
AcDbEntity
  8
0
  62
7
100
AcDbLine
 10
741.847758
 20
502.835400
 30
0.000000
 11
741.811139
 21
502.791013
 31
0.000000
  0
LINE
  5
190
330
1F
100
AcDbEntity
  8
0
  62
7
100
AcDbLine
 10
741.811139
 20
502.791013
 30
0.000000
 11
741.774848
 21
502.746284
 31
0.000000
  0
LINE
  5
191
330
1F
100
AcDbEntity
  8
0
  62
7
100
AcDbLine
 10
741.774848
 20
502.746284
 30
0.000000
 11
741.738886
 21
502.701215
 31
0.000000
  0
LINE
  5
192
330
1F
100
AcDbEntity
  8
0
  62
7
100
AcDbLine
 10
741.738886
 20
502.701215
 30
0.000000
 11
741.703255
 21
502.655809
 31
0.000000
  0
LINE
  5
193
330
1F
100
AcDbEntity
  8
0
  62
7
100
AcDbLine
 10
741.703255
 20
502.655809
 30
0.000000
 11
741.667956
 21
502.610068
 31
0.000000
  0
LINE
  5
194
330
1F
100
AcDbEntity
  8
0
  62
7
100
AcDbLine
 10
741.667956
 20
502.610068
 30
0.000000
 11
741.632988
 21
502.563993
 31
0.000000
  0
LINE
  5
195
330
1F
100
AcDbEntity
  8
0
  62
7
100
AcDbLine
 10
741.632988
 20
502.563993
 30
0.000000
 11
741.598353
 21
502.517588
 31
0.000000
  0
LINE
  5
196
330
1F
100
AcDbEntity
  8
0
  62
7
100
AcDbLine
 10
741.598353
 20
502.517588
 30
0.000000
 11
741.564052
 21
502.470854
 31
0.000000
  0
LINE
  5
197
330
1F
100
AcDbEntity
  8
0
  62
7
100
AcDbLine
 10
741.564052
 20
502.470854
 30
0.000000
 11
741.530086
 21
502.423792
 31
0.000000
  0
LINE
  5
198
330
1F
100
AcDbEntity
  8
0
  62
7
100
AcDbLine
 10
741.530086
 20
502.423792
 30
0.000000
 11
741.496455
 21
502.376405
 31
0.000000
  0
LINE
  5
199
330
1F
100
AcDbEntity
  8
0
  62
7
100
AcDbLine
 10
741.496455
 20
502.376405
 30
0.000000
 11
741.463160
 21
502.328696
 31
0.000000
  0
LINE
  5
200
330
1F
100
AcDbEntity
  8
0
  62
7
100
AcDbLine
 10
741.463160
 20
502.328696
 30
0.000000
 11
741.430203
 21
502.280666
 31
0.000000
  0
LINE
  5
201
330
1F
100
AcDbEntity
  8
0
  62
7
100
AcDbLine
 10
741.430203
 20
502.280666
 30
0.000000
 11
741.397584
 21
502.232318
 31
0.000000
  0
LINE
  5
202
330
1F
100
AcDbEntity
  8
0
  62
7
100
AcDbLine
 10
741.397584
 20
502.232318
 30
0.000000
 11
741.365304
 21
502.183654
 31
0.000000
  0
LINE
  5
203
330
1F
100
AcDbEntity
  8
0
  62
7
100
AcDbLine
 10
741.365304
 20
502.183654
 30
0.000000
 11
741.333364
 21
502.134675
 31
0.000000
  0
LINE
  5
204
330
1F
100
AcDbEntity
  8
0
  62
7
100
AcDbLine
 10
741.333364
 20
502.134675
 30
0.000000
 11
741.301765
 21
502.085383
 31
0.000000
  0
LINE
  5
205
330
1F
100
AcDbEntity
  8
0
  62
7
100
AcDbLine
 10
741.301765
 20
502.085383
 30
0.000000
 11
741.270507
 21
502.035782
 31
0.000000
  0
LINE
  5
206
330
1F
100
AcDbEntity
  8
0
  62
7
100
AcDbLine
 10
741.270507
 20
502.035782
 30
0.000000
 11
741.239592
 21
501.985872
 31
0.000000
  0
LINE
  5
207
330
1F
100
AcDbEntity
  8
0
  62
7
100
AcDbLine
 10
741.239592
 20
501.985872
 30
0.000000
 11
741.209020
 21
501.935658
 31
0.000000
  0
LINE
  5
208
330
1F
100
AcDbEntity
  8
0
  62
7
100
AcDbLine
 10
741.209020
 20
501.935658
 30
0.000000
 11
741.178792
 21
501.885139
 31
0.000000
  0
LINE
  5
209
330
1F
100
AcDbEntity
  8
0
  62
7
100
AcDbLine
 10
741.178792
 20
501.885139
 30
0.000000
 11
741.148909
 21
501.834318
 31
0.000000
  0
LINE
  5
210
330
1F
100
AcDbEntity
  8
0
  62
7
100
AcDbLine
 10
741.148909
 20
501.834318
 30
0.000000
 11
741.119372
 21
501.783198
 31
0.000000
  0
LINE
  5
211
330
1F
100
AcDbEntity
  8
0
  62
7
100
AcDbLine
 10
741.119372
 20
501.783198
 30
0.000000
 11
741.090182
 21
501.731780
 31
0.000000
  0
LINE
  5
212
330
1F
100
AcDbEntity
  8
0
  62
7
100
AcDbLine
 10
741.090182
 20
501.731780
 30
0.000000
 11
741.061340
 21
501.680067
 31
0.000000
  0
LINE
  5
213
330
1F
100
AcDbEntity
  8
0
  62
7
100
AcDbLine
 10
741.061340
 20
501.680067
 30
0.000000
 11
741.032847
 21
501.628061
 31
0.000000
  0
LINE
  5
214
330
1F
100
AcDbEntity
  8
0
  62
7
100
AcDbLine
 10
741.032847
 20
501.628061
 30
0.000000
 11
741.004702
 21
501.575764
 31
0.000000
  0
LINE
  5
215
330
1F
100
AcDbEntity
  8
0
  62
7
100
AcDbLine
 10
741.004702
 20
501.575764
 30
0.000000
 11
740.976908
 21
501.523178
 31
0.000000
  0
LINE
  5
216
330
1F
100
AcDbEntity
  8
0
  62
7
100
AcDbLine
 10
740.976908
 20
501.523178
 30
0.000000
 11
740.949465
 21
501.470304
 31
0.000000
  0
LINE
  5
217
330
1F
100
AcDbEntity
  8
0
  62
7
100
AcDbLine
 10
740.949465
 20
501.470304
 30
0.000000
 11
740.922374
 21
501.417146
 31
0.000000
  0
LINE
  5
218
330
1F
100
AcDbEntity
  8
0
  62
7
100
AcDbLine
 10
740.922374
 20
501.417146
 30
0.000000
 11
740.895637
 21
501.363706
 31
0.000000
  0
LINE
  5
219
330
1F
100
AcDbEntity
  8
0
  62
7
100
AcDbLine
 10
740.895637
 20
501.363706
 30
0.000000
 11
740.869252
 21
501.309984
 31
0.000000
  0
LINE
  5
220
330
1F
100
AcDbEntity
  8
0
  62
7
100
AcDbLine
 10
740.869252
 20
501.309984
 30
0.000000
 11
740.843223
 21
501.255984
 31
0.000000
  0
LINE
  5
221
330
1F
100
AcDbEntity
  8
0
  62
7
100
AcDbLine
 10
740.843223
 20
501.255984
 30
0.000000
 11
740.817549
 21
501.201708
 31
0.000000
  0
LINE
  5
222
330
1F
100
AcDbEntity
  8
0
  62
7
100
AcDbLine
 10
740.817549
 20
501.201708
 30
0.000000
 11
740.792231
 21
501.147157
 31
0.000000
  0
LINE
  5
223
330
1F
100
AcDbEntity
  8
0
  62
7
100
AcDbLine
 10
740.792231
 20
501.147157
 30
0.000000
 11
740.767270
 21
501.092334
 31
0.000000
  0
LINE
  5
224
330
1F
100
AcDbEntity
  8
0
  62
7
100
AcDbLine
 10
740.767270
 20
501.092334
 30
0.000000
 11
740.742668
 21
501.037242
 31
0.000000
  0
LINE
  5
225
330
1F
100
AcDbEntity
  8
0
  62
7
100
AcDbLine
 10
740.742668
 20
501.037242
 30
0.000000
 11
740.718424
 21
500.981881
 31
0.000000
  0
LINE
  5
226
330
1F
100
AcDbEntity
  8
0
  62
7
100
AcDbLine
 10
740.718424
 20
500.981881
 30
0.000000
 11
740.694541
 21
500.926254
 31
0.000000
  0
LINE
  5
227
330
1F
100
AcDbEntity
  8
0
  62
7
100
AcDbLine
 10
740.694541
 20
500.926254
 30
0.000000
 11
740.671018
 21
500.870364
 31
0.000000
  0
LINE
  5
228
330
1F
100
AcDbEntity
  8
0
  62
7
100
AcDbLine
 10
740.671018
 20
500.870364
 30
0.000000
 11
740.647856
 21
500.814211
 31
0.000000
  0
LINE
  5
229
330
1F
100
AcDbEntity
  8
0
  62
7
100
AcDbLine
 10
740.647856
 20
500.814211
 30
0.000000
 11
740.625057
 21
500.757800
 31
0.000000
  0
LINE
  5
230
330
1F
100
AcDbEntity
  8
0
  62
7
100
AcDbLine
 10
740.625057
 20
500.757800
 30
0.000000
 11
740.580550
 21
500.644207
 31
0.000000
  0
LINE
  5
231
330
1F
100
AcDbEntity
  8
0
  62
7
100
AcDbLine
 10
740.580550
 20
500.644207
 30
0.000000
 11
740.537502
 21
500.529600
 31
0.000000
  0
LINE
  5
232
330
1F
100
AcDbEntity
  8
0
  62
7
100
AcDbLine
 10
740.537502
 20
500.529600
 30
0.000000
 11
740.495922
 21
500.413998
 31
0.000000
  0
LINE
  5
233
330
1F
100
AcDbEntity
  8
0
  62
7
100
AcDbLine
 10
740.495922
 20
500.413998
 30
0.000000
 11
740.455816
 21
500.297416
 31
0.000000
  0
LINE
  5
234
330
1F
100
AcDbEntity
  8
0
  62
7
100
AcDbLine
 10
740.455816
 20
500.297416
 30
0.000000
 11
740.417190
 21
500.179872
 31
0.000000
  0
LINE
  5
235
330
1F
100
AcDbEntity
  8
0
  62
7
100
AcDbLine
 10
740.417190
 20
500.179872
 30
0.000000
 11
740.380053
 21
500.061383
 31
0.000000
  0
LINE
  5
236
330
1F
100
AcDbEntity
  8
0
  62
7
100
AcDbLine
 10
740.380053
 20
500.061383
 30
0.000000
 11
740.344410
 21
499.941965
 31
0.000000
  0
LINE
  5
237
330
1F
100
AcDbEntity
  8
0
  62
7
100
AcDbLine
 10
740.344410
 20
499.941965
 30
0.000000
 11
740.310269
 21
499.821635
 31
0.000000
  0
LINE
  5
238
330
1F
100
AcDbEntity
  8
0
  62
7
100
AcDbLine
 10
740.310269
 20
499.821635
 30
0.000000
 11
740.277637
 21
499.700410
 31
0.000000
  0
LINE
  5
239
330
1F
100
AcDbEntity
  8
0
  62
7
100
AcDbLine
 10
740.277637
 20
499.700410
 30
0.000000
 11
740.246520
 21
499.578307
 31
0.000000
  0
LINE
  5
240
330
1F
100
AcDbEntity
  8
0
  62
7
100
AcDbLine
 10
740.246520
 20
499.578307
 30
0.000000
 11
740.216926
 21
499.455343
 31
0.000000
  0
LINE
  5
241
330
1F
100
AcDbEntity
  8
0
  62
7
100
AcDbLine
 10
740.216926
 20
499.455343
 30
0.000000
 11
740.188861
 21
499.331534
 31
0.000000
  0
LINE
  5
242
330
1F
100
AcDbEntity
  8
0
  62
7
100
AcDbLine
 10
740.188861
 20
499.331534
 30
0.000000
 11
740.162332
 21
499.206898
 31
0.000000
  0
LINE
  5
243
330
1F
100
AcDbEntity
  8
0
  62
7
100
AcDbLine
 10
740.162332
 20
499.206898
 30
0.000000
 11
740.137347
 21
499.081451
 31
0.000000
  0
LINE
  5
244
330
1F
100
AcDbEntity
  8
0
  62
7
100
AcDbLine
 10
740.137347
 20
499.081451
 30
0.000000
 11
740.113912
 21
498.955210
 31
0.000000
  0
LINE
  5
245
330
1F
100
AcDbEntity
  8
0
  62
7
100
AcDbLine
 10
740.113912
 20
498.955210
 30
0.000000
 11
740.092035
 21
498.828192
 31
0.000000
  0
LINE
  5
246
330
1F
100
AcDbEntity
  8
0
  62
7
100
AcDbLine
 10
740.092035
 20
498.828192
 30
0.000000
 11
740.071721
 21
498.700414
 31
0.000000
  0
LINE
  5
247
330
1F
100
AcDbEntity
  8
0
  62
7
100
AcDbLine
 10
740.071721
 20
498.700414
 30
0.000000
 11
740.052979
 21
498.571893
 31
0.000000
  0
LINE
  5
248
330
1F
100
AcDbEntity
  8
0
  62
7
100
AcDbLine
 10
740.052979
 20
498.571893
 30
0.000000
 11
740.035815
 21
498.442645
 31
0.000000
  0
LINE
  5
249
330
1F
100
AcDbEntity
  8
0
  62
7
100
AcDbLine
 10
740.035815
 20
498.442645
 30
0.000000
 11
740.020235
 21
498.312687
 31
0.000000
  0
LINE
  5
250
330
1F
100
AcDbEntity
  8
0
  62
7
100
AcDbLine
 10
740.020235
 20
498.312687
 30
0.000000
 11
740.006248
 21
498.182037
 31
0.000000
  0
LINE
  5
251
330
1F
100
AcDbEntity
  8
0
  62
7
100
AcDbLine
 10
740.006248
 20
498.182037
 30
0.000000
 11
739.993859
 21
498.050711
 31
0.000000
  0
LINE
  5
252
330
1F
100
AcDbEntity
  8
0
  62
7
100
AcDbLine
 10
739.993859
 20
498.050711
 30
0.000000
 11
739.983077
 21
497.918726
 31
0.000000
  0
LINE
  5
253
330
1F
100
AcDbEntity
  8
0
  62
7
100
AcDbLine
 10
739.983077
 20
497.918726
 30
0.000000
 11
739.973907
 21
497.786098
 31
0.000000
  0
LINE
  5
254
330
1F
100
AcDbEntity
  8
0
  62
7
100
AcDbLine
 10
739.973907
 20
497.786098
 30
0.000000
 11
739.966356
 21
497.652845
 31
0.000000
  0
LINE
  5
255
330
1F
100
AcDbEntity
  8
0
  62
7
100
AcDbLine
 10
739.966356
 20
497.652845
 30
0.000000
 11
739.960432
 21
497.518984
 31
0.000000
  0
LINE
  5
256
330
1F
100
AcDbEntity
  8
0
  62
7
100
AcDbLine
 10
739.960432
 20
497.518984
 30
0.000000
 11
739.956142
 21
497.384531
 31
0.000000
  0
LINE
  5
257
330
1F
100
AcDbEntity
  8
0
  62
7
100
AcDbLine
 10
739.956142
 20
497.384531
 30
0.000000
 11
739.953492
 21
497.249503
 31
0.000000
  0
LINE
  5
258
330
1F
100
AcDbEntity
  8
0
  62
7
100
AcDbLine
 10
739.953492
 20
497.249503
 30
0.000000
 11
739.952490
 21
497.113917
 31
0.000000
  0
LINE
  5
259
330
1F
100
AcDbEntity
  8
0
  62
7
100
AcDbLine
 10
739.952490
 20
497.113917
 30
0.000000
 11
739.953141
 21
496.977790
 31
0.000000
  0
LINE
  5
260
330
1F
100
AcDbEntity
  8
0
  62
7
100
AcDbLine
 10
739.953141
 20
496.977790
 30
0.000000
 11
739.955455
 21
496.841139
 31
0.000000
  0
LINE
  5
261
330
1F
100
AcDbEntity
  8
0
  62
7
100
AcDbLine
 10
739.955455
 20
496.841139
 30
0.000000
 11
739.959436
 21
496.703980
 31
0.000000
  0
LINE
  5
262
330
1F
100
AcDbEntity
  8
0
  62
7
100
AcDbLine
 10
739.959436
 20
496.703980
 30
0.000000
 11
739.965093
 21
496.566331
 31
0.000000
  0
LINE
  5
263
330
1F
100
AcDbEntity
  8
0
  62
7
100
AcDbLine
 10
739.965093
 20
496.566331
 30
0.000000
 11
739.972431
 21
496.428207
 31
0.000000
  0
LINE
  5
264
330
1F
100
AcDbEntity
  8
0
  62
7
100
AcDbLine
 10
739.972431
 20
496.428207
 30
0.000000
 11
739.981459
 21
496.289628
 31
0.000000
  0
LINE
  5
265
330
1F
100
AcDbEntity
  8
0
  62
7
100
AcDbLine
 10
739.981459
 20
496.289628
 30
0.000000
 11
739.992183
 21
496.150607
 31
0.000000
  0
LINE
  5
266
330
1F
100
AcDbEntity
  8
0
  62
7
100
AcDbLine
 10
739.992183
 20
496.150607
 30
0.000000
 11
740.004609
 21
496.011164
 31
0.000000
  0
LINE
  5
267
330
1F
100
AcDbEntity
  8
0
  62
7
100
AcDbLine
 10
740.004609
 20
496.011164
 30
0.000000
 11
740.018746
 21
495.871315
 31
0.000000
  0
LINE
  5
268
330
1F
100
AcDbEntity
  8
0
  62
7
100
AcDbLine
 10
740.018746
 20
495.871315
 30
0.000000
 11
740.034599
 21
495.731076
 31
0.000000
  0
LINE
  5
269
330
1F
100
AcDbEntity
  8
0
  62
7
100
AcDbLine
 10
740.034599
 20
495.731076
 30
0.000000
 11
740.052176
 21
495.590464
 31
0.000000
  0
LINE
  5
270
330
1F
100
AcDbEntity
  8
0
  62
7
100
AcDbLine
 10
740.052176
 20
495.590464
 30
0.000000
 11
740.071483
 21
495.449496
 31
0.000000
  0
LINE
  5
271
330
1F
100
AcDbEntity
  8
0
  62
7
100
AcDbLine
 10
740.071483
 20
495.449496
 30
0.000000
 11
740.092528
 21
495.308190
 31
0.000000
  0
LINE
  5
272
330
1F
100
AcDbEntity
  8
0
  62
7
100
AcDbLine
 10
740.092528
 20
495.308190
 30
0.000000
 11
740.115318
 21
495.166561
 31
0.000000
  0
LINE
  5
273
330
1F
100
AcDbEntity
  8
0
  62
7
100
AcDbLine
 10
740.115318
 20
495.166561
 30
0.000000
 11
740.139859
 21
495.024627
 31
0.000000
  0
LINE
  5
274
330
1F
100
AcDbEntity
  8
0
  62
7
100
AcDbLine
 10
740.139859
 20
495.024627
 30
0.000000
 11
740.166159
 21
494.882405
 31
0.000000
  0
LINE
  5
275
330
1F
100
AcDbEntity
  8
0
  62
7
100
AcDbLine
 10
740.166159
 20
494.882405
 30
0.000000
 11
740.194224
 21
494.739911
 31
0.000000
  0
LINE
  5
276
330
1F
100
AcDbEntity
  8
0
  62
7
100
AcDbLine
 10
740.194224
 20
494.739911
 30
0.000000
 11
740.224061
 21
494.597163
 31
0.000000
  0
LINE
  5
277
330
1F
100
AcDbEntity
  8
0
  62
7
100
AcDbLine
 10
740.224061
 20
494.597163
 30
0.000000
 11
740.255677
 21
494.454176
 31
0.000000
  0
LINE
  5
278
330
1F
100
AcDbEntity
  8
0
  62
7
100
AcDbLine
 10
740.255677
 20
494.454176
 30
0.000000
 11
740.289080
 21
494.310969
 31
0.000000
  0
LINE
  5
279
330
1F
100
AcDbEntity
  8
0
  62
7
100
AcDbLine
 10
740.289080
 20
494.310969
 30
0.000000
 11
740.324276
 21
494.167557
 31
0.000000
  0
LINE
  5
280
330
1F
100
AcDbEntity
  8
0
  62
7
100
AcDbLine
 10
740.324276
 20
494.167557
 30
0.000000
 11
740.361271
 21
494.023958
 31
0.000000
  0
LINE
  5
281
330
1F
100
AcDbEntity
  8
0
  62
7
100
AcDbLine
 10
740.361271
 20
494.023958
 30
0.000000
 11
740.400074
 21
493.880189
 31
0.000000
  0
LINE
  5
282
330
1F
100
AcDbEntity
  8
0
  62
7
100
AcDbLine
 10
740.400074
 20
493.880189
 30
0.000000
 11
740.440691
 21
493.736266
 31
0.000000
  0
LINE
  5
283
330
1F
100
AcDbEntity
  8
0
  62
7
100
AcDbLine
 10
740.440691
 20
493.736266
 30
0.000000
 11
740.483128
 21
493.592206
 31
0.000000
  0
LINE
  5
284
330
1F
100
AcDbEntity
  8
0
  62
7
100
AcDbLine
 10
740.483128
 20
493.592206
 30
0.000000
 11
740.527393
 21
493.448026
 31
0.000000
  0
LINE
  5
285
330
1F
100
AcDbEntity
  8
0
  62
7
100
AcDbLine
 10
740.527393
 20
493.448026
 30
0.000000
 11
740.573493
 21
493.303743
 31
0.000000
  0
LINE
  5
286
330
1F
100
AcDbEntity
  8
0
  62
7
100
AcDbLine
 10
740.573493
 20
493.303743
 30
0.000000
 11
740.621435
 21
493.159374
 31
0.000000
  0
LINE
  5
287
330
1F
100
AcDbEntity
  8
0
  62
7
100
AcDbLine
 10
740.621435
 20
493.159374
 30
0.000000
 11
740.671225
 21
493.014936
 31
0.000000
  0
LINE
  5
288
330
1F
100
AcDbEntity
  8
0
  62
7
100
AcDbLine
 10
740.671225
 20
493.014936
 30
0.000000
 11
740.696816
 21
492.942696
 31
0.000000
  0
LINE
  5
289
330
1F
100
AcDbEntity
  8
0
  62
7
100
AcDbLine
 10
740.696816
 20
492.942696
 30
0.000000
 11
740.722871
 21
492.870445
 31
0.000000
  0
LINE
  5
290
330
1F
100
AcDbEntity
  8
0
  62
7
100
AcDbLine
 10
740.722871
 20
492.870445
 30
0.000000
 11
740.749392
 21
492.798185
 31
0.000000
  0
LINE
  5
291
330
1F
100
AcDbEntity
  8
0
  62
7
100
AcDbLine
 10
740.749392
 20
492.798185
 30
0.000000
 11
740.776379
 21
492.725919
 31
0.000000
  0
LINE
  5
292
330
1F
100
AcDbEntity
  8
0
  62
7
100
AcDbLine
 10
740.776379
 20
492.725919
 30
0.000000
 11
740.803834
 21
492.653647
 31
0.000000
  0
LINE
  5
293
330
1F
100
AcDbEntity
  8
0
  62
7
100
AcDbLine
 10
740.803834
 20
492.653647
 30
0.000000
 11
740.831757
 21
492.581373
 31
0.000000
  0
LINE
  5
294
330
1F
100
AcDbEntity
  8
0
  62
7
100
AcDbLine
 10
740.831757
 20
492.581373
 30
0.000000
 11
740.860149
 21
492.509099
 31
0.000000
  0
LINE
  5
295
330
1F
100
AcDbEntity
  8
0
  62
7
100
AcDbLine
 10
740.860149
 20
492.509099
 30
0.000000
 11
740.889011
 21
492.436826
 31
0.000000
  0
LINE
  5
296
330
1F
100
AcDbEntity
  8
0
  62
7
100
AcDbLine
 10
740.889011
 20
492.436826
 30
0.000000
 11
740.918344
 21
492.364556
 31
0.000000
  0
LINE
  5
297
330
1F
100
AcDbEntity
  8
0
  62
7
100
AcDbLine
 10
740.918344
 20
492.364556
 30
0.000000
 11
740.948148
 21
492.292293
 31
0.000000
  0
LINE
  5
298
330
1F
100
AcDbEntity
  8
0
  62
7
100
AcDbLine
 10
740.948148
 20
492.292293
 30
0.000000
 11
740.985770
 21
492.202957
 31
0.000000
  0
LINE
  5
299
330
1F
100
AcDbEntity
  8
0
  62
7
100
AcDbLine
 10
740.985770
 20
492.202957
 30
0.000000
 11
741.023967
 21
492.113524
 31
0.000000
  0
LINE
  5
300
330
1F
100
AcDbEntity
  8
0
  62
7
100
AcDbLine
 10
741.023967
 20
492.113524
 30
0.000000
 11
741.062783
 21
492.023919
 31
0.000000
  0
LINE
  5
301
330
1F
100
AcDbEntity
  8
0
  62
7
100
AcDbLine
 10
741.062783
 20
492.023919
 30
0.000000
 11
741.102259
 21
491.934071
 31
0.000000
  0
LINE
  5
302
330
1F
100
AcDbEntity
  8
0
  62
7
100
AcDbLine
 10
741.102259
 20
491.934071
 30
0.000000
 11
741.142440
 21
491.843905
 31
0.000000
  0
LINE
  5
303
330
1F
100
AcDbEntity
  8
0
  62
7
100
AcDbLine
 10
741.142440
 20
491.843905
 30
0.000000
 11
741.183368
 21
491.753350
 31
0.000000
  0
LINE
  5
304
330
1F
100
AcDbEntity
  8
0
  62
7
100
AcDbLine
 10
741.183368
 20
491.753350
 30
0.000000
 11
741.225085
 21
491.662331
 31
0.000000
  0
LINE
  5
305
330
1F
100
AcDbEntity
  8
0
  62
7
100
AcDbLine
 10
741.225085
 20
491.662331
 30
0.000000
 11
741.267635
 21
491.570776
 31
0.000000
  0
LINE
  5
306
330
1F
100
AcDbEntity
  8
0
  62
7
100
AcDbLine
 10
741.267635
 20
491.570776
 30
0.000000
 11
741.311060
 21
491.478613
 31
0.000000
  0
LINE
  5
307
330
1F
100
AcDbEntity
  8
0
  62
7
100
AcDbLine
 10
741.311060
 20
491.478613
 30
0.000000
 11
741.355404
 21
491.385767
 31
0.000000
  0
LINE
  5
308
330
1F
100
AcDbEntity
  8
0
  62
7
100
AcDbLine
 10
741.355404
 20
491.385767
 30
0.000000
 11
741.400708
 21
491.292167
 31
0.000000
  0
LINE
  5
309
330
1F
100
AcDbEntity
  8
0
  62
7
100
AcDbLine
 10
741.400708
 20
491.292167
 30
0.000000
 11
741.447016
 21
491.197739
 31
0.000000
  0
LINE
  5
310
330
1F
100
AcDbEntity
  8
0
  62
7
100
AcDbLine
 10
741.447016
 20
491.197739
 30
0.000000
 11
741.494371
 21
491.102410
 31
0.000000
  0
LINE
  5
311
330
1F
100
AcDbEntity
  8
0
  62
7
100
AcDbLine
 10
741.494371
 20
491.102410
 30
0.000000
 11
741.542815
 21
491.006108
 31
0.000000
  0
LINE
  5
312
330
1F
100
AcDbEntity
  8
0
  62
7
100
AcDbLine
 10
741.542815
 20
491.006108
 30
0.000000
 11
741.592391
 21
490.908758
 31
0.000000
  0
LINE
  5
313
330
1F
100
AcDbEntity
  8
0
  62
7
100
AcDbLine
 10
741.592391
 20
490.908758
 30
0.000000
 11
741.643143
 21
490.810290
 31
0.000000
  0
LINE
  5
314
330
1F
100
AcDbEntity
  8
0
  62
7
100
AcDbLine
 10
741.643143
 20
490.810290
 30
0.000000
 11
741.695112
 21
490.710629
 31
0.000000
  0
LINE
  5
315
330
1F
100
AcDbEntity
  8
0
  62
7
100
AcDbLine
 10
741.695112
 20
490.710629
 30
0.000000
 11
741.748342
 21
490.609702
 31
0.000000
  0
LINE
  5
316
330
1F
100
AcDbEntity
  8
0
  62
7
100
AcDbLine
 10
741.748342
 20
490.609702
 30
0.000000
 11
741.802876
 21
490.507437
 31
0.000000
  0
LINE
  5
317
330
1F
100
AcDbEntity
  8
0
  62
7
100
AcDbLine
 10
741.802876
 20
490.507437
 30
0.000000
 11
741.858755
 21
490.403761
 31
0.000000
  0
LINE
  5
318
330
1F
100
AcDbEntity
  8
0
  62
7
100
AcDbLine
 10
741.858755
 20
490.403761
 30
0.000000
 11
741.916024
 21
490.298601
 31
0.000000
  0
LINE
  5
319
330
1F
100
AcDbEntity
  8
0
  62
7
100
AcDbLine
 10
741.916024
 20
490.298601
 30
0.000000
 11
741.974725
 21
490.191883
 31
0.000000
  0
LINE
  5
320
330
1F
100
AcDbEntity
  8
0
  62
7
100
AcDbLine
 10
741.974725
 20
490.191883
 30
0.000000
 11
742.034901
 21
490.083535
 31
0.000000
  0
LINE
  5
321
330
1F
100
AcDbEntity
  8
0
  62
7
100
AcDbLine
 10
742.034901
 20
490.083535
 30
0.000000
 11
742.096594
 21
489.973484
 31
0.000000
  0
LINE
  5
322
330
1F
100
AcDbEntity
  8
0
  62
7
100
AcDbLine
 10
742.096594
 20
489.973484
 30
0.000000
 11
742.159848
 21
489.861657
 31
0.000000
  0
LINE
  5
323
330
1F
100
AcDbEntity
  8
0
  62
7
100
AcDbLine
 10
742.159848
 20
489.861657
 30
0.000000
 11
742.224704
 21
489.747981
 31
0.000000
  0
LINE
  5
324
330
1F
100
AcDbEntity
  8
0
  62
7
100
AcDbLine
 10
742.224704
 20
489.747981
 30
0.000000
 11
742.291207
 21
489.632383
 31
0.000000
  0
LINE
  5
325
330
1F
100
AcDbEntity
  8
0
  62
7
100
AcDbLine
 10
742.291207
 20
489.632383
 30
0.000000
 11
742.359399
 21
489.514790
 31
0.000000
  0
LINE
  5
326
330
1F
100
AcDbEntity
  8
0
  62
7
100
AcDbLine
 10
742.359399
 20
489.514790
 30
0.000000
 11
742.429322
 21
489.395130
 31
0.000000
  0
LINE
  5
327
330
1F
100
AcDbEntity
  8
0
  62
7
100
AcDbLine
 10
742.429322
 20
489.395130
 30
0.000000
 11
742.501020
 21
489.273329
 31
0.000000
  0
LINE
  5
328
330
1F
100
AcDbEntity
  8
0
  62
7
100
AcDbLine
 10
742.501020
 20
489.273329
 30
0.000000
 11
742.649910
 21
489.023012
 31
0.000000
  0
LINE
  5
329
330
1F
100
AcDbEntity
  8
0
  62
7
100
AcDbLine
 10
742.649910
 20
489.023012
 30
0.000000
 11
742.806412
 21
488.763256
 31
0.000000
  0
LINE
  5
330
330
1F
100
AcDbEntity
  8
0
  62
7
100
AcDbLine
 10
742.806412
 20
488.763256
 30
0.000000
 11
742.970868
 21
488.493479
 31
0.000000
  0
LINE
  5
331
330
1F
100
AcDbEntity
  8
0
  62
7
100
AcDbLine
 10
742.970868
 20
488.493479
 30
0.000000
 11
743.143620
 21
488.213096
 31
0.000000
  0
LINE
  5
332
330
1F
100
AcDbEntity
  8
0
  62
7
100
AcDbLine
 10
743.143620
 20
488.213096
 30
0.000000
 11
743.325012
 21
487.921524
 31
0.000000
  0
LINE
  5
333
330
1F
100
AcDbEntity
  8
0
  62
7
100
AcDbLine
 10
743.325012
 20
487.921524
 30
0.000000
 11
743.515386
 21
487.618179
 31
0.000000
  0
LINE
  5
334
330
1F
100
AcDbEntity
  8
0
  62
7
100
AcDbLine
 10
743.515386
 20
487.618179
 30
0.000000
 11
743.715084
 21
487.302478
 31
0.000000
  0
LINE
  5
335
330
1F
100
AcDbEntity
  8
0
  62
7
100
AcDbLine
 10
743.715084
 20
487.302478
 30
0.000000
 11
743.924448
 21
486.973838
 31
0.000000
  0
LINE
  5
336
330
1F
100
AcDbEntity
  8
0
  62
7
100
AcDbLine
 10
743.924448
 20
486.973838
 30
0.000000
 11
744.143822
 21
486.631674
 31
0.000000
  0
LINE
  5
337
330
1F
100
AcDbEntity
  8
0
  62
7
100
AcDbLine
 10
744.143822
 20
486.631674
 30
0.000000
 11
744.373548
 21
486.275403
 31
0.000000
  0
LINE
  5
338
330
1F
100
AcDbEntity
  8
0
  62
7
100
AcDbLine
 10
744.373548
 20
486.275403
 30
0.000000
 11
744.613968
 21
485.904442
 31
0.000000
  0
LINE
  5
339
330
1F
100
AcDbEntity
  8
0
  62
7
100
AcDbLine
 10
744.613968
 20
485.904442
 30
0.000000
 11
744.865425
 21
485.518207
 31
0.000000
  0
LINE
  5
340
330
1F
100
AcDbEntity
  8
0
  62
7
100
AcDbLine
 10
744.865425
 20
485.518207
 30
0.000000
 11
745.128262
 21
485.116114
 31
0.000000
  0
LINE
  5
341
330
1F
100
AcDbEntity
  8
0
  62
7
100
AcDbLine
 10
745.128262
 20
485.116114
 30
0.000000
 11
745.402820
 21
484.697580
 31
0.000000
  0
LINE
  5
342
330
1F
100
AcDbEntity
  8
0
  62
7
100
AcDbLine
 10
745.402820
 20
484.697580
 30
0.000000
 11
745.689443
 21
484.262022
 31
0.000000
  0
LINE
  5
343
330
1F
100
AcDbEntity
  8
0
  62
7
100
AcDbLine
 10
745.689443
 20
484.262022
 30
0.000000
 11
745.988473
 21
483.808855
 31
0.000000
  0
LINE
  5
344
330
1F
100
AcDbEntity
  8
0
  62
7
100
AcDbLine
 10
745.988473
 20
483.808855
 30
0.000000
 11
746.300252
 21
483.337496
 31
0.000000
  0
LINE
  5
345
330
1F
100
AcDbEntity
  8
0
  62
7
100
AcDbLine
 10
746.300252
 20
483.337496
 30
0.000000
 11
746.606345
 21
482.879667
 31
0.000000
  0
LINE
  5
346
330
1F
100
AcDbEntity
  8
0
  62
7
100
AcDbLine
 10
746.606345
 20
482.879667
 30
0.000000
 11
746.901286
 21
482.441246
 31
0.000000
  0
LINE
  5
347
330
1F
100
AcDbEntity
  8
0
  62
7
100
AcDbLine
 10
746.901286
 20
482.441246
 30
0.000000
 11
747.185393
 21
482.021848
 31
0.000000
  0
LINE
  5
348
330
1F
100
AcDbEntity
  8
0
  62
7
100
AcDbLine
 10
747.185393
 20
482.021848
 30
0.000000
 11
747.323482
 21
481.819162
 31
0.000000
  0
LINE
  5
349
330
1F
100
AcDbEntity
  8
0
  62
7
100
AcDbLine
 10
747.323482
 20
481.819162
 30
0.000000
 11
747.458983
 21
481.621089
 31
0.000000
  0
LINE
  5
350
330
1F
100
AcDbEntity
  8
0
  62
7
100
AcDbLine
 10
747.458983
 20
481.621089
 30
0.000000
 11
747.591933
 21
481.427579
 31
0.000000
  0
LINE
  5
351
330
1F
100
AcDbEntity
  8
0
  62
7
100
AcDbLine
 10
747.591933
 20
481.427579
 30
0.000000
 11
747.722373
 21
481.238585
 31
0.000000
  0
LINE
  5
352
330
1F
100
AcDbEntity
  8
0
  62
7
100
AcDbLine
 10
747.722373
 20
481.238585
 30
0.000000
 11
747.850343
 21
481.054059
 31
0.000000
  0
LINE
  5
353
330
1F
100
AcDbEntity
  8
0
  62
7
100
AcDbLine
 10
747.850343
 20
481.054059
 30
0.000000
 11
747.975881
 21
480.873952
 31
0.000000
  0
LINE
  5
354
330
1F
100
AcDbEntity
  8
0
  62
7
100
AcDbLine
 10
747.975881
 20
480.873952
 30
0.000000
 11
748.099028
 21
480.698218
 31
0.000000
  0
LINE
  5
355
330
1F
100
AcDbEntity
  8
0
  62
7
100
AcDbLine
 10
748.099028
 20
480.698218
 30
0.000000
 11
748.219824
 21
480.526807
 31
0.000000
  0
LINE
  5
356
330
1F
100
AcDbEntity
  8
0
  62
7
100
AcDbLine
 10
748.219824
 20
480.526807
 30
0.000000
 11
748.338307
 21
480.359673
 31
0.000000
  0
LINE
  5
357
330
1F
100
AcDbEntity
  8
0
  62
7
100
AcDbLine
 10
748.338307
 20
480.359673
 30
0.000000
 11
748.454518
 21
480.196767
 31
0.000000
  0
LINE
  5
358
330
1F
100
AcDbEntity
  8
0
  62
7
100
AcDbLine
 10
748.454518
 20
480.196767
 30
0.000000
 11
748.568497
 21
480.038040
 31
0.000000
  0
LINE
  5
359
330
1F
100
AcDbEntity
  8
0
  62
7
100
AcDbLine
 10
748.568497
 20
480.038040
 30
0.000000
 11
748.680282
 21
479.883446
 31
0.000000
  0
LINE
  5
360
330
1F
100
AcDbEntity
  8
0
  62
7
100
AcDbLine
 10
748.680282
 20
479.883446
 30
0.000000
 11
748.789914
 21
479.732936
 31
0.000000
  0
LINE
  5
361
330
1F
100
AcDbEntity
  8
0
  62
7
100
AcDbLine
 10
748.789914
 20
479.732936
 30
0.000000
 11
748.897432
 21
479.586462
 31
0.000000
  0
LINE
  5
362
330
1F
100
AcDbEntity
  8
0
  62
7
100
AcDbLine
 10
748.897432
 20
479.586462
 30
0.000000
 11
749.002875
 21
479.443976
 31
0.000000
  0
LINE
  5
363
330
1F
100
AcDbEntity
  8
0
  62
7
100
AcDbLine
 10
749.002875
 20
479.443976
 30
0.000000
 11
749.106285
 21
479.305431
 31
0.000000
  0
LINE
  5
364
330
1F
100
AcDbEntity
  8
0
  62
7
100
AcDbLine
 10
749.106285
 20
479.305431
 30
0.000000
 11
749.207699
 21
479.170777
 31
0.000000
  0
LINE
  5
365
330
1F
100
AcDbEntity
  8
0
  62
7
100
AcDbLine
 10
749.207699
 20
479.170777
 30
0.000000
 11
749.307158
 21
479.039968
 31
0.000000
  0
LINE
  5
366
330
1F
100
AcDbEntity
  8
0
  62
7
100
AcDbLine
 10
749.307158
 20
479.039968
 30
0.000000
 11
749.404702
 21
478.912955
 31
0.000000
  0
LINE
  5
367
330
1F
100
AcDbEntity
  8
0
  62
7
100
AcDbLine
 10
749.404702
 20
478.912955
 30
0.000000
 11
749.500369
 21
478.789690
 31
0.000000
  0
LINE
  5
368
330
1F
100
AcDbEntity
  8
0
  62
7
100
AcDbLine
 10
749.500369
 20
478.789690
 30
0.000000
 11
749.594200
 21
478.670127
 31
0.000000
  0
LINE
  5
369
330
1F
100
AcDbEntity
  8
0
  62
7
100
AcDbLine
 10
749.594200
 20
478.670127
 30
0.000000
 11
749.686235
 21
478.554215
 31
0.000000
  0
LINE
  5
370
330
1F
100
AcDbEntity
  8
0
  62
7
100
AcDbLine
 10
749.686235
 20
478.554215
 30
0.000000
 11
749.776513
 21
478.441908
 31
0.000000
  0
LINE
  5
371
330
1F
100
AcDbEntity
  8
0
  62
7
100
AcDbLine
 10
749.776513
 20
478.441908
 30
0.000000
 11
749.865073
 21
478.333157
 31
0.000000
  0
LINE
  5
372
330
1F
100
AcDbEntity
  8
0
  62
7
100
AcDbLine
 10
749.865073
 20
478.333157
 30
0.000000
 11
749.951955
 21
478.227914
 31
0.000000
  0
LINE
  5
373
330
1F
100
AcDbEntity
  8
0
  62
7
100
AcDbLine
 10
749.951955
 20
478.227914
 30
0.000000
 11
750.037200
 21
478.126132
 31
0.000000
  0
LINE
  5
374
330
1F
100
AcDbEntity
  8
0
  62
7
100
AcDbLine
 10
750.037200
 20
478.126132
 30
0.000000
 11
750.120846
 21
478.027763
 31
0.000000
  0
LINE
  5
375
330
1F
100
AcDbEntity
  8
0
  62
7
100
AcDbLine
 10
750.120846
 20
478.027763
 30
0.000000
 11
750.202933
 21
477.932758
 31
0.000000
  0
LINE
  5
376
330
1F
100
AcDbEntity
  8
0
  62
7
100
AcDbLine
 10
750.202933
 20
477.932758
 30
0.000000
 11
750.283501
 21
477.841070
 31
0.000000
  0
LINE
  5
377
330
1F
100
AcDbEntity
  8
0
  62
7
100
AcDbLine
 10
750.283501
 20
477.841070
 30
0.000000
 11
750.362589
 21
477.752651
 31
0.000000
  0
LINE
  5
378
330
1F
100
AcDbEntity
  8
0
  62
7
100
AcDbLine
 10
750.362589
 20
477.752651
 30
0.000000
 11
750.440238
 21
477.667452
 31
0.000000
  0
LINE
  5
379
330
1F
100
AcDbEntity
  8
0
  62
7
100
AcDbLine
 10
750.440238
 20
477.667452
 30
0.000000
 11
750.516486
 21
477.585426
 31
0.000000
  0
LINE
  5
380
330
1F
100
AcDbEntity
  8
0
  62
7
100
AcDbLine
 10
750.516486
 20
477.585426
 30
0.000000
 11
750.591374
 21
477.506525
 31
0.000000
  0
LINE
  5
381
330
1F
100
AcDbEntity
  8
0
  62
7
100
AcDbLine
 10
750.591374
 20
477.506525
 30
0.000000
 11
750.664941
 21
477.430700
 31
0.000000
  0
LINE
  5
382
330
1F
100
AcDbEntity
  8
0
  62
7
100
AcDbLine
 10
750.664941
 20
477.430700
 30
0.000000
 11
750.737226
 21
477.357904
 31
0.000000
  0
LINE
  5
383
330
1F
100
AcDbEntity
  8
0
  62
7
100
AcDbLine
 10
750.737226
 20
477.357904
 30
0.000000
 11
750.808270
 21
477.288089
 31
0.000000
  0
LINE
  5
384
330
1F
100
AcDbEntity
  8
0
  62
7
100
AcDbLine
 10
750.808270
 20
477.288089
 30
0.000000
 11
750.878112
 21
477.221207
 31
0.000000
  0
LINE
  5
385
330
1F
100
AcDbEntity
  8
0
  62
7
100
AcDbLine
 10
750.878112
 20
477.221207
 30
0.000000
 11
750.946791
 21
477.157210
 31
0.000000
  0
LINE
  5
386
330
1F
100
AcDbEntity
  8
0
  62
7
100
AcDbLine
 10
750.946791
 20
477.157210
 30
0.000000
 11
751.014348
 21
477.096049
 31
0.000000
  0
LINE
  5
387
330
1F
100
AcDbEntity
  8
0
  62
7
100
AcDbLine
 10
751.014348
 20
477.096049
 30
0.000000
 11
751.080822
 21
477.037678
 31
0.000000
  0
LINE
  5
388
330
1F
100
AcDbEntity
  8
0
  62
7
100
AcDbLine
 10
751.080822
 20
477.037678
 30
0.000000
 11
751.146252
 21
476.982048
 31
0.000000
  0
LINE
  5
389
330
1F
100
AcDbEntity
  8
0
  62
7
100
AcDbLine
 10
751.146252
 20
476.982048
 30
0.000000
 11
751.210679
 21
476.929110
 31
0.000000
  0
LINE
  5
390
330
1F
100
AcDbEntity
  8
0
  62
7
100
AcDbLine
 10
751.210679
 20
476.929110
 30
0.000000
 11
751.274141
 21
476.878818
 31
0.000000
  0
LINE
  5
391
330
1F
100
AcDbEntity
  8
0
  62
7
100
AcDbLine
 10
751.274141
 20
476.878818
 30
0.000000
 11
751.336679
 21
476.831123
 31
0.000000
  0
LINE
  5
392
330
1F
100
AcDbEntity
  8
0
  62
7
100
AcDbLine
 10
751.336679
 20
476.831123
 30
0.000000
 11
751.398332
 21
476.785976
 31
0.000000
  0
LINE
  5
393
330
1F
100
AcDbEntity
  8
0
  62
7
100
AcDbLine
 10
751.398332
 20
476.785976
 30
0.000000
 11
751.459140
 21
476.743331
 31
0.000000
  0
LINE
  5
394
330
1F
100
AcDbEntity
  8
0
  62
7
100
AcDbLine
 10
751.459140
 20
476.743331
 30
0.000000
 11
751.519142
 21
476.703139
 31
0.000000
  0
LINE
  5
395
330
1F
100
AcDbEntity
  8
0
  62
7
100
AcDbLine
 10
751.519142
 20
476.703139
 30
0.000000
 11
751.578378
 21
476.665353
 31
0.000000
  0
LINE
  5
396
330
1F
100
AcDbEntity
  8
0
  62
7
100
AcDbLine
 10
751.578378
 20
476.665353
 30
0.000000
 11
751.636888
 21
476.629924
 31
0.000000
  0
LINE
  5
397
330
1F
100
AcDbEntity
  8
0
  62
7
100
AcDbLine
 10
751.636888
 20
476.629924
 30
0.000000
 11
751.694712
 21
476.596803
 31
0.000000
  0
LINE
  5
398
330
1F
100
AcDbEntity
  8
0
  62
7
100
AcDbLine
 10
751.694712
 20
476.596803
 30
0.000000
 11
751.751888
 21
476.565944
 31
0.000000
  0
LINE
  5
399
330
1F
100
AcDbEntity
  8
0
  62
7
100
AcDbLine
 10
751.751888
 20
476.565944
 30
0.000000
 11
751.808457
 21
476.537299
 31
0.000000
  0
LINE
  5
400
330
1F
100
AcDbEntity
  8
0
  62
7
100
AcDbLine
 10
751.808457
 20
476.537299
 30
0.000000
 11
751.864459
 21
476.510818
 31
0.000000
  0
LINE
  5
401
330
1F
100
AcDbEntity
  8
0
  62
7
100
AcDbLine
 10
751.864459
 20
476.510818
 30
0.000000
 11
751.919932
 21
476.486456
 31
0.000000
  0
LINE
  5
402
330
1F
100
AcDbEntity
  8
0
  62
7
100
AcDbLine
 10
751.919932
 20
476.486456
 30
0.000000
 11
751.974917
 21
476.464162
 31
0.000000
  0
LINE
  5
403
330
1F
100
AcDbEntity
  8
0
  62
7
100
AcDbLine
 10
751.974917
 20
476.464162
 30
0.000000
 11
752.029453
 21
476.443890
 31
0.000000
  0
LINE
  5
404
330
1F
100
AcDbEntity
  8
0
  62
7
100
AcDbLine
 10
752.029453
 20
476.443890
 30
0.000000
 11
752.083580
 21
476.425592
 31
0.000000
  0
LINE
  5
405
330
1F
100
AcDbEntity
  8
0
  62
7
100
AcDbLine
 10
752.083580
 20
476.425592
 30
0.000000
 11
752.137338
 21
476.409218
 31
0.000000
  0
LINE
  5
406
330
1F
100
AcDbEntity
  8
0
  62
7
100
AcDbLine
 10
752.137338
 20
476.409218
 30
0.000000
 11
752.209198
 21
476.389162
 31
0.000000
  0
LINE
  5
407
330
1F
100
AcDbEntity
  8
0
  62
7
100
AcDbLine
 10
752.209198
 20
476.389162
 30
0.000000
 11
752.283581
 21
476.369582
 31
0.000000
  0
LINE
  5
408
330
1F
100
AcDbEntity
  8
0
  62
7
100
AcDbLine
 10
752.283581
 20
476.369582
 30
0.000000
 11
752.360599
 21
476.350477
 31
0.000000
  0
LINE
  5
409
330
1F
100
AcDbEntity
  8
0
  62
7
100
AcDbLine
 10
752.360599
 20
476.350477
 30
0.000000
 11
752.440366
 21
476.331842
 31
0.000000
  0
LINE
  5
410
330
1F
100
AcDbEntity
  8
0
  62
7
100
AcDbLine
 10
752.440366
 20
476.331842
 30
0.000000
 11
752.522993
 21
476.313674
 31
0.000000
  0
LINE
  5
411
330
1F
100
AcDbEntity
  8
0
  62
7
100
AcDbLine
 10
752.522993
 20
476.313674
 30
0.000000
 11
752.608594
 21
476.295967
 31
0.000000
  0
LINE
  5
412
330
1F
100
AcDbEntity
  8
0
  62
7
100
AcDbLine
 10
752.608594
 20
476.295967
 30
0.000000
 11
752.697280
 21
476.278719
 31
0.000000
  0
LINE
  5
413
330
1F
100
AcDbEntity
  8
0
  62
7
100
AcDbLine
 10
752.697280
 20
476.278719
 30
0.000000
 11
752.789165
 21
476.261925
 31
0.000000
  0
LINE
  5
414
330
1F
100
AcDbEntity
  8
0
  62
7
100
AcDbLine
 10
752.789165
 20
476.261925
 30
0.000000
 11
752.884362
 21
476.245582
 31
0.000000
  0
LINE
  5
415
330
1F
100
AcDbEntity
  8
0
  62
7
100
AcDbLine
 10
752.884362
 20
476.245582
 30
0.000000
 11
752.982981
 21
476.229685
 31
0.000000
  0
LINE
  5
416
330
1F
100
AcDbEntity
  8
0
  62
7
100
AcDbLine
 10
752.982981
 20
476.229685
 30
0.000000
 11
753.085137
 21
476.214230
 31
0.000000
  0
LINE
  5
417
330
1F
100
AcDbEntity
  8
0
  62
7
100
AcDbLine
 10
753.085137
 20
476.214230
 30
0.000000
 11
753.190942
 21
476.199214
 31
0.000000
  0
LINE
  5
418
330
1F
100
AcDbEntity
  8
0
  62
7
100
AcDbLine
 10
753.190942
 20
476.199214
 30
0.000000
 11
753.300508
 21
476.184632
 31
0.000000
  0
LINE
  5
419
330
1F
100
AcDbEntity
  8
0
  62
7
100
AcDbLine
 10
753.300508
 20
476.184632
 30
0.000000
 11
753.413948
 21
476.170481
 31
0.000000
  0
LINE
  5
420
330
1F
100
AcDbEntity
  8
0
  62
7
100
AcDbLine
 10
753.413948
 20
476.170481
 30
0.000000
 11
753.531375
 21
476.156756
 31
0.000000
  0
LINE
  5
421
330
1F
100
AcDbEntity
  8
0
  62
7
100
AcDbLine
 10
753.531375
 20
476.156756
 30
0.000000
 11
753.652901
 21
476.143454
 31
0.000000
  0
LINE
  5
422
330
1F
100
AcDbEntity
  8
0
  62
7
100
AcDbLine
 10
753.652901
 20
476.143454
 30
0.000000
 11
753.778639
 21
476.130571
 31
0.000000
  0
LINE
  5
423
330
1F
100
AcDbEntity
  8
0
  62
7
100
AcDbLine
 10
753.778639
 20
476.130571
 30
0.000000
 11
753.908701
 21
476.118102
 31
0.000000
  0
LINE
  5
424
330
1F
100
AcDbEntity
  8
0
  62
7
100
AcDbLine
 10
753.908701
 20
476.118102
 30
0.000000
 11
754.043200
 21
476.106044
 31
0.000000
  0
LINE
  5
425
330
1F
100
AcDbEntity
  8
0
  62
7
100
AcDbLine
 10
754.043200
 20
476.106044
 30
0.000000
 11
754.182249
 21
476.094393
 31
0.000000
  0
LINE
  5
426
330
1F
100
AcDbEntity
  8
0
  62
7
100
AcDbLine
 10
754.182249
 20
476.094393
 30
0.000000
 11
754.325960
 21
476.083145
 31
0.000000
  0
LINE
  5
427
330
1F
100
AcDbEntity
  8
0
  62
7
100
AcDbLine
 10
754.325960
 20
476.083145
 30
0.000000
 11
754.474445
 21
476.072295
 31
0.000000
  0
LINE
  5
428
330
1F
100
AcDbEntity
  8
0
  62
7
100
AcDbLine
 10
754.474445
 20
476.072295
 30
0.000000
 11
754.627818
 21
476.061840
 31
0.000000
  0
LINE
  5
429
330
1F
100
AcDbEntity
  8
0
  62
7
100
AcDbLine
 10
754.627818
 20
476.061840
 30
0.000000
 11
754.786191
 21
476.051777
 31
0.000000
  0
LINE
  5
430
330
1F
100
AcDbEntity
  8
0
  62
7
100
AcDbLine
 10
754.786191
 20
476.051777
 30
0.000000
 11
754.949676
 21
476.042100
 31
0.000000
  0
LINE
  5
431
330
1F
100
AcDbEntity
  8
0
  62
7
100
AcDbLine
 10
754.949676
 20
476.042100
 30
0.000000
 11
755.118386
 21
476.032806
 31
0.000000
  0
LINE
  5
432
330
1F
100
AcDbEntity
  8
0
  62
7
100
AcDbLine
 10
755.118386
 20
476.032806
 30
0.000000
 11
755.292434
 21
476.023891
 31
0.000000
  0
LINE
  5
433
330
1F
100
AcDbEntity
  8
0
  62
7
100
AcDbLine
 10
755.292434
 20
476.023891
 30
0.000000
 11
755.471932
 21
476.015351
 31
0.000000
  0
LINE
  5
434
330
1F
100
AcDbEntity
  8
0
  62
7
100
AcDbLine
 10
755.471932
 20
476.015351
 30
0.000000
 11
755.656993
 21
476.007182
 31
0.000000
  0
LINE
  5
435
330
1F
100
AcDbEntity
  8
0
  62
7
100
AcDbLine
 10
755.656993
 20
476.007182
 30
0.000000
 11
755.847730
 21
475.999380
 31
0.000000
  0
LINE
  5
436
330
1F
100
AcDbEntity
  8
0
  62
7
100
AcDbLine
 10
755.847730
 20
475.999380
 30
0.000000
 11
756.044254
 21
475.991941
 31
0.000000
  0
LINE
  5
437
330
1F
100
AcDbEntity
  8
0
  62
7
100
AcDbLine
 10
756.044254
 20
475.991941
 30
0.000000
 11
756.246680
 21
475.984862
 31
0.000000
  0
LINE
  5
438
330
1F
100
AcDbEntity
  8
0
  62
7
100
AcDbLine
 10
756.246680
 20
475.984862
 30
0.000000
 11
756.455118
 21
475.978137
 31
0.000000
  0
LINE
  5
439
330
1F
100
AcDbEntity
  8
0
  62
7
100
AcDbLine
 10
756.455118
 20
475.978137
 30
0.000000
 11
756.669682
 21
475.971764
 31
0.000000
  0
LINE
  5
440
330
1F
100
AcDbEntity
  8
0
  62
7
100
AcDbLine
 10
756.669682
 20
475.971764
 30
0.000000
 11
756.890484
 21
475.965739
 31
0.000000
  0
LINE
  5
441
330
1F
100
AcDbEntity
  8
0
  62
7
100
AcDbLine
 10
756.890484
 20
475.965739
 30
0.000000
 11
757.117638
 21
475.960056
 31
0.000000
  0
LINE
  5
442
330
1F
100
AcDbEntity
  8
0
  62
7
100
AcDbLine
 10
757.117638
 20
475.960056
 30
0.000000
 11
757.351255
 21
475.954713
 31
0.000000
  0
LINE
  5
443
330
1F
100
AcDbEntity
  8
0
  62
7
100
AcDbLine
 10
757.351255
 20
475.954713
 30
0.000000
 11
757.591448
 21
475.949705
 31
0.000000
  0
LINE
  5
444
330
1F
100
AcDbEntity
  8
0
  62
7
100
AcDbLine
 10
757.591448
 20
475.949705
 30
0.000000
 11
757.838330
 21
475.945029
 31
0.000000
  0
LINE
  5
445
330
1F
100
AcDbEntity
  8
0
  62
7
100
AcDbLine
 10
757.838330
 20
475.945029
 30
0.000000
 11
758.092013
 21
475.940680
 31
0.000000
  0
LINE
  5
446
330
1F
100
AcDbEntity
  8
0
  62
7
100
AcDbLine
 10
758.092013
 20
475.940680
 30
0.000000
 11
758.620234
 21
475.932949
 31
0.000000
  0
LINE
  5
447
330
1F
100
AcDbEntity
  8
0
  62
7
100
AcDbLine
 10
758.620234
 20
475.932949
 30
0.000000
 11
759.177011
 21
475.926480
 31
0.000000
  0
LINE
  5
448
330
1F
100
AcDbEntity
  8
0
  62
7
100
AcDbLine
 10
759.177011
 20
475.926480
 30
0.000000
 11
759.763245
 21
475.921242
 31
0.000000
  0
LINE
  5
449
330
1F
100
AcDbEntity
  8
0
  62
7
100
AcDbLine
 10
759.763245
 20
475.921242
 30
0.000000
 11
760.379837
 21
475.917203
 31
0.000000
  0
LINE
  5
450
330
1F
100
AcDbEntity
  8
0
  62
7
100
AcDbLine
 10
760.379837
 20
475.917203
 30
0.000000
 11
761.027687
 21
475.914330
 31
0.000000
  0
LINE
  5
451
330
1F
100
AcDbEntity
  8
0
  62
7
100
AcDbLine
 10
761.027687
 20
475.914330
 30
0.000000
 11
761.707697
 21
475.912593
 31
0.000000
  0
LINE
  5
452
330
1F
100
AcDbEntity
  8
0
  62
7
100
AcDbLine
 10
761.707697
 20
475.912593
 30
0.000000
 11
762.420767
 21
475.911960
 31
0.000000
  0
LINE
  5
453
330
1F
100
AcDbEntity
  8
0
  62
7
100
AcDbLine
 10
762.420767
 20
475.911960
 30
0.000000
 11
763.167797
 21
475.912399
 31
0.000000
  0
LINE
  5
454
330
1F
100
AcDbEntity
  8
0
  62
7
100
AcDbLine
 10
763.167797
 20
475.912399
 30
0.000000
 11
763.949688
 21
475.913878
 31
0.000000
  0
LINE
  5
455
330
1F
100
AcDbEntity
  8
0
  62
7
100
AcDbLine
 10
763.949688
 20
475.913878
 30
0.000000
 11
764.767342
 21
475.916365
 31
0.000000
  0
LINE
  5
456
330
1F
100
AcDbEntity
  8
0
  62
7
100
AcDbLine
 10
764.767342
 20
475.916365
 30
0.000000
 11
765.621658
 21
475.919830
 31
0.000000
  0
LINE
  5
457
330
1F
100
AcDbEntity
  8
0
  62
7
100
AcDbLine
 10
765.621658
 20
475.919830
 30
0.000000
 11
766.513538
 21
475.924239
 31
0.000000
  0
LINE
  5
458
330
1F
100
AcDbEntity
  8
0
  62
7
100
AcDbLine
 10
766.513538
 20
475.924239
 30
0.000000
 11
768.077967
 21
475.934033
 31
0.000000
  0
LINE
  5
459
330
1F
100
AcDbEntity
  8
0
  62
7
100
AcDbLine
 10
768.077967
 20
475.934033
 30
0.000000
 11
769.478463
 21
475.944131
 31
0.000000
  0
LINE
  5
460
330
1F
100
AcDbEntity
  8
0
  62
7
100
AcDbLine
 10
769.478463
 20
475.944131
 30
0.000000
 11
770.120433
 21
475.949389
 31
0.000000
  0
LINE
  5
461
330
1F
100
AcDbEntity
  8
0
  62
7
100
AcDbLine
 10
770.120433
 20
475.949389
 30
0.000000
 11
770.725255
 21
475.954838
 31
0.000000
  0
LINE
  5
462
330
1F
100
AcDbEntity
  8
0
  62
7
100
AcDbLine
 10
770.725255
 20
475.954838
 30
0.000000
 11
771.294207
 21
475.960515
 31
0.000000
  0
LINE
  5
463
330
1F
100
AcDbEntity
  8
0
  62
7
100
AcDbLine
 10
771.294207
 20
475.960515
 30
0.000000
 11
771.828567
 21
475.966458
 31
0.000000
  0
LINE
  5
464
330
1F
100
AcDbEntity
  8
0
  62
7
100
AcDbLine
 10
771.828567
 20
475.966458
 30
0.000000
 11
772.329614
 21
475.972706
 31
0.000000
  0
LINE
  5
465
330
1F
100
AcDbEntity
  8
0
  62
7
100
AcDbLine
 10
772.329614
 20
475.972706
 30
0.000000
 11
772.798625
 21
475.979297
 31
0.000000
  0
LINE
  5
466
330
1F
100
AcDbEntity
  8
0
  62
7
100
AcDbLine
 10
772.798625
 20
475.979297
 30
0.000000
 11
773.236879
 21
475.986268
 31
0.000000
  0
LINE
  5
467
330
1F
100
AcDbEntity
  8
0
  62
7
100
AcDbLine
 10
773.236879
 20
475.986268
 30
0.000000
 11
773.645654
 21
475.993657
 31
0.000000
  0
LINE
  5
468
330
1F
100
AcDbEntity
  8
0
  62
7
100
AcDbLine
 10
773.645654
 20
475.993657
 30
0.000000
 11
774.026227
 21
476.001504
 31
0.000000
  0
LINE
  5
469
330
1F
100
AcDbEntity
  8
0
  62
7
100
AcDbLine
 10
774.026227
 20
476.001504
 30
0.000000
 11
774.379877
 21
476.009845
 31
0.000000
  0
LINE
  5
470
330
1F
100
AcDbEntity
  8
0
  62
7
100
AcDbLine
 10
774.379877
 20
476.009845
 30
0.000000
 11
774.707883
 21
476.018719
 31
0.000000
  0
LINE
  5
471
330
1F
100
AcDbEntity
  8
0
  62
7
100
AcDbLine
 10
774.707883
 20
476.018719
 30
0.000000
 11
775.011521
 21
476.028164
 31
0.000000
  0
LINE
  5
472
330
1F
100
AcDbEntity
  8
0
  62
7
100
AcDbLine
 10
775.011521
 20
476.028164
 30
0.000000
 11
775.292071
 21
476.038217
 31
0.000000
  0
LINE
  5
473
330
1F
100
AcDbEntity
  8
0
  62
7
100
AcDbLine
 10
775.292071
 20
476.038217
 30
0.000000
 11
775.550811
 21
476.048918
 31
0.000000
  0
LINE
  5
474
330
1F
100
AcDbEntity
  8
0
  62
7
100
AcDbLine
 10
775.550811
 20
476.048918
 30
0.000000
 11
775.789018
 21
476.060304
 31
0.000000
  0
LINE
  5
475
330
1F
100
AcDbEntity
  8
0
  62
7
100
AcDbLine
 10
775.789018
 20
476.060304
 30
0.000000
 11
775.900821
 21
476.066265
 31
0.000000
  0
LINE
  5
476
330
1F
100
AcDbEntity
  8
0
  62
7
100
AcDbLine
 10
775.900821
 20
476.066265
 30
0.000000
 11
776.007971
 21
476.072413
 31
0.000000
  0
LINE
  5
477
330
1F
100
AcDbEntity
  8
0
  62
7
100
AcDbLine
 10
776.007971
 20
476.072413
 30
0.000000
 11
776.110626
 21
476.078750
 31
0.000000
  0
LINE
  5
478
330
1F
100
AcDbEntity
  8
0
  62
7
100
AcDbLine
 10
776.110626
 20
476.078750
 30
0.000000
 11
776.208947
 21
476.085283
 31
0.000000
  0
LINE
  5
479
330
1F
100
AcDbEntity
  8
0
  62
7
100
AcDbLine
 10
776.208947
 20
476.085283
 30
0.000000
 11
776.303094
 21
476.092015
 31
0.000000
  0
LINE
  5
480
330
1F
100
AcDbEntity
  8
0
  62
7
100
AcDbLine
 10
776.303094
 20
476.092015
 30
0.000000
 11
776.393226
 21
476.098952
 31
0.000000
  0
LINE
  5
481
330
1F
100
AcDbEntity
  8
0
  62
7
100
AcDbLine
 10
776.393226
 20
476.098952
 30
0.000000
 11
776.479503
 21
476.106098
 31
0.000000
  0
LINE
  5
482
330
1F
100
AcDbEntity
  8
0
  62
7
100
AcDbLine
 10
776.479503
 20
476.106098
 30
0.000000
 11
776.562084
 21
476.113458
 31
0.000000
  0
LINE
  5
483
330
1F
100
AcDbEntity
  8
0
  62
7
100
AcDbLine
 10
776.562084
 20
476.113458
 30
0.000000
 11
776.641131
 21
476.121037
 31
0.000000
  0
LINE
  5
484
330
1F
100
AcDbEntity
  8
0
  62
7
100
AcDbLine
 10
776.641131
 20
476.121037
 30
0.000000
 11
776.716801
 21
476.128840
 31
0.000000
  0
LINE
  5
485
330
1F
100
AcDbEntity
  8
0
  62
7
100
AcDbLine
 10
776.716801
 20
476.128840
 30
0.000000
 11
776.789256
 21
476.136871
 31
0.000000
  0
LINE
  5
486
330
1F
100
AcDbEntity
  8
0
  62
7
100
AcDbLine
 10
776.789256
 20
476.136871
 30
0.000000
 11
776.858654
 21
476.145135
 31
0.000000
  0
LINE
  5
487
330
1F
100
AcDbEntity
  8
0
  62
7
100
AcDbLine
 10
776.858654
 20
476.145135
 30
0.000000
 11
776.925156
 21
476.153637
 31
0.000000
  0
LINE
  5
488
330
1F
100
AcDbEntity
  8
0
  62
7
100
AcDbLine
 10
776.925156
 20
476.153637
 30
0.000000
 11
776.988922
 21
476.162382
 31
0.000000
  0
LINE
  5
489
330
1F
100
AcDbEntity
  8
0
  62
7
100
AcDbLine
 10
776.988922
 20
476.162382
 30
0.000000
 11
777.050110
 21
476.171374
 31
0.000000
  0
LINE
  5
490
330
1F
100
AcDbEntity
  8
0
  62
7
100
AcDbLine
 10
777.050110
 20
476.171374
 30
0.000000
 11
777.108882
 21
476.180618
 31
0.000000
  0
LINE
  5
491
330
1F
100
AcDbEntity
  8
0
  62
7
100
AcDbLine
 10
777.108882
 20
476.180618
 30
0.000000
 11
777.165396
 21
476.190119
 31
0.000000
  0
LINE
  5
492
330
1F
100
AcDbEntity
  8
0
  62
7
100
AcDbLine
 10
777.165396
 20
476.190119
 30
0.000000
 11
777.219813
 21
476.199882
 31
0.000000
  0
LINE
  5
493
330
1F
100
AcDbEntity
  8
0
  62
7
100
AcDbLine
 10
777.219813
 20
476.199882
 30
0.000000
 11
777.272292
 21
476.209911
 31
0.000000
  0
LINE
  5
494
330
1F
100
AcDbEntity
  8
0
  62
7
100
AcDbLine
 10
777.272292
 20
476.209911
 30
0.000000
 11
777.322992
 21
476.220211
 31
0.000000
  0
LINE
  5
495
330
1F
100
AcDbEntity
  8
0
  62
7
100
AcDbLine
 10
777.322992
 20
476.220211
 30
0.000000
 11
777.372075
 21
476.230787
 31
0.000000
  0
LINE
  5
496
330
1F
100
AcDbEntity
  8
0
  62
7
100
AcDbLine
 10
777.372075
 20
476.230787
 30
0.000000
 11
777.419699
 21
476.241644
 31
0.000000
  0
LINE
  5
497
330
1F
100
AcDbEntity
  8
0
  62
7
100
AcDbLine
 10
777.419699
 20
476.241644
 30
0.000000
 11
777.466024
 21
476.252787
 31
0.000000
  0
LINE
  5
498
330
1F
100
AcDbEntity
  8
0
  62
7
100
AcDbLine
 10
777.466024
 20
476.252787
 30
0.000000
 11
777.511210
 21
476.264219
 31
0.000000
  0
LINE
  5
499
330
1F
100
AcDbEntity
  8
0
  62
7
100
AcDbLine
 10
777.511210
 20
476.264219
 30
0.000000
 11
777.555417
 21
476.275947
 31
0.000000
  0
LINE
  5
500
330
1F
100
AcDbEntity
  8
0
  62
7
100
AcDbLine
 10
777.555417
 20
476.275947
 30
0.000000
 11
777.598805
 21
476.287974
 31
0.000000
  0
LINE
  5
501
330
1F
100
AcDbEntity
  8
0
  62
7
100
AcDbLine
 10
777.598805
 20
476.287974
 30
0.000000
 11
777.681534
 21
476.311612
 31
0.000000
  0
LINE
  5
502
330
1F
100
AcDbEntity
  8
0
  62
7
100
AcDbLine
 10
777.681534
 20
476.311612
 30
0.000000
 11
777.762528
 21
476.335505
 31
0.000000
  0
LINE
  5
503
330
1F
100
AcDbEntity
  8
0
  62
7
100
AcDbLine
 10
777.762528
 20
476.335505
 30
0.000000
 11
777.841879
 21
476.359755
 31
0.000000
  0
LINE
  5
504
330
1F
100
AcDbEntity
  8
0
  62
7
100
AcDbLine
 10
777.841879
 20
476.359755
 30
0.000000
 11
777.919679
 21
476.384464
 31
0.000000
  0
LINE
  5
505
330
1F
100
AcDbEntity
  8
0
  62
7
100
AcDbLine
 10
777.919679
 20
476.384464
 30
0.000000
 11
777.996020
 21
476.409734
 31
0.000000
  0
LINE
  5
506
330
1F
100
AcDbEntity
  8
0
  62
7
100
AcDbLine
 10
777.996020
 20
476.409734
 30
0.000000
 11
778.070994
 21
476.435668
 31
0.000000
  0
LINE
  5
507
330
1F
100
AcDbEntity
  8
0
  62
7
100
AcDbLine
 10
778.070994
 20
476.435668
 30
0.000000
 11
778.144693
 21
476.462368
 31
0.000000
  0
LINE
  5
508
330
1F
100
AcDbEntity
  8
0
  62
7
100
AcDbLine
 10
778.144693
 20
476.462368
 30
0.000000
 11
778.217209
 21
476.489936
 31
0.000000
  0
LINE
  5
509
330
1F
100
AcDbEntity
  8
0
  62
7
100
AcDbLine
 10
778.217209
 20
476.489936
 30
0.000000
 11
778.288635
 21
476.518474
 31
0.000000
  0
LINE
  5
510
330
1F
100
AcDbEntity
  8
0
  62
7
100
AcDbLine
 10
778.288635
 20
476.518474
 30
0.000000
 11
778.359061
 21
476.548085
 31
0.000000
  0
LINE
  5
511
330
1F
100
AcDbEntity
  8
0
  62
7
100
AcDbLine
 10
778.359061
 20
476.548085
 30
0.000000
 11
778.428580
 21
476.578872
 31
0.000000
  0
LINE
  5
512
330
1F
100
AcDbEntity
  8
0
  62
7
100
AcDbLine
 10
778.428580
 20
476.578872
 30
0.000000
 11
778.497284
 21
476.610935
 31
0.000000
  0
LINE
  5
513
330
1F
100
AcDbEntity
  8
0
  62
7
100
AcDbLine
 10
778.497284
 20
476.610935
 30
0.000000
 11
778.565265
 21
476.644379
 31
0.000000
  0
LINE
  5
514
330
1F
100
AcDbEntity
  8
0
  62
7
100
AcDbLine
 10
778.565265
 20
476.644379
 30
0.000000
 11
778.632615
 21
476.679304
 31
0.000000
  0
LINE
  5
515
330
1F
100
AcDbEntity
  8
0
  62
7
100
AcDbLine
 10
778.632615
 20
476.679304
 30
0.000000
 11
778.699426
 21
476.715813
 31
0.000000
  0
LINE
  5
516
330
1F
100
AcDbEntity
  8
0
  62
7
100
AcDbLine
 10
778.699426
 20
476.715813
 30
0.000000
 11
778.765789
 21
476.754008
 31
0.000000
  0
LINE
  5
517
330
1F
100
AcDbEntity
  8
0
  62
7
100
AcDbLine
 10
778.765789
 20
476.754008
 30
0.000000
 11
778.798832
 21
476.773771
 31
0.000000
  0
LINE
  5
518
330
1F
100
AcDbEntity
  8
0
  62
7
100
AcDbLine
 10
778.798832
 20
476.773771
 30
0.000000
 11
778.831797
 21
476.793993
 31
0.000000
  0
LINE
  5
519
330
1F
100
AcDbEntity
  8
0
  62
7
100
AcDbLine
 10
778.831797
 20
476.793993
 30
0.000000
 11
778.864697
 21
476.814688
 31
0.000000
  0
LINE
  5
520
330
1F
100
AcDbEntity
  8
0
  62
7
100
AcDbLine
 10
778.864697
 20
476.814688
 30
0.000000
 11
778.897543
 21
476.835868
 31
0.000000
  0
LINE
  5
521
330
1F
100
AcDbEntity
  8
0
  62
7
100
AcDbLine
 10
778.897543
 20
476.835868
 30
0.000000
 11
778.930345
 21
476.857547
 31
0.000000
  0
LINE
  5
522
330
1F
100
AcDbEntity
  8
0
  62
7
100
AcDbLine
 10
778.930345
 20
476.857547
 30
0.000000
 11
778.963116
 21
476.879737
 31
0.000000
  0
LINE
  5
523
330
1F
100
AcDbEntity
  8
0
  62
7
100
AcDbLine
 10
778.963116
 20
476.879737
 30
0.000000
 11
778.995868
 21
476.902451
 31
0.000000
  0
LINE
  5
524
330
1F
100
AcDbEntity
  8
0
  62
7
100
AcDbLine
 10
778.995868
 20
476.902451
 30
0.000000
 11
779.028611
 21
476.925702
 31
0.000000
  0
LINE
  5
525
330
1F
100
AcDbEntity
  8
0
  62
7
100
AcDbLine
 10
779.028611
 20
476.925702
 30
0.000000
 11
779.061357
 21
476.949502
 31
0.000000
  0
LINE
  5
526
330
1F
100
AcDbEntity
  8
0
  62
7
100
AcDbLine
 10
779.061357
 20
476.949502
 30
0.000000
 11
779.094118
 21
476.973864
 31
0.000000
  0
LINE
  5
527
330
1F
100
AcDbEntity
  8
0
  62
7
100
AcDbLine
 10
779.094118
 20
476.973864
 30
0.000000
 11
779.126905
 21
476.998801
 31
0.000000
  0
LINE
  5
528
330
1F
100
AcDbEntity
  8
0
  62
7
100
AcDbLine
 10
779.126905
 20
476.998801
 30
0.000000
 11
779.159730
 21
477.024326
 31
0.000000
  0
LINE
  5
529
330
1F
100
AcDbEntity
  8
0
  62
7
100
AcDbLine
 10
779.159730
 20
477.024326
 30
0.000000
 11
779.192604
 21
477.050452
 31
0.000000
  0
LINE
  5
530
330
1F
100
AcDbEntity
  8
0
  62
7
100
AcDbLine
 10
779.192604
 20
477.050452
 30
0.000000
 11
779.225538
 21
477.077191
 31
0.000000
  0
LINE
  5
531
330
1F
100
AcDbEntity
  8
0
  62
7
100
AcDbLine
 10
779.225538
 20
477.077191
 30
0.000000
 11
779.258545
 21
477.104556
 31
0.000000
  0
LINE
  5
532
330
1F
100
AcDbEntity
  8
0
  62
7
100
AcDbLine
 10
779.258545
 20
477.104556
 30
0.000000
 11
779.291636
 21
477.132560
 31
0.000000
  0
LINE
  5
533
330
1F
100
AcDbEntity
  8
0
  62
7
100
AcDbLine
 10
779.291636
 20
477.132560
 30
0.000000
 11
779.358113
 21
477.190537
 31
0.000000
  0
LINE
  5
534
330
1F
100
AcDbEntity
  8
0
  62
7
100
AcDbLine
 10
779.358113
 20
477.190537
 30
0.000000
 11
779.425063
 21
477.251223
 31
0.000000
  0
LINE
  5
535
330
1F
100
AcDbEntity
  8
0
  62
7
100
AcDbLine
 10
779.425063
 20
477.251223
 30
0.000000
 11
779.492578
 21
477.314719
 31
0.000000
  0
LINE
  5
536
330
1F
100
AcDbEntity
  8
0
  62
7
100
AcDbLine
 10
779.492578
 20
477.314719
 30
0.000000
 11
779.560750
 21
477.381131
 31
0.000000
  0
LINE
  5
537
330
1F
100
AcDbEntity
  8
0
  62
7
100
AcDbLine
 10
779.560750
 20
477.381131
 30
0.000000
 11
779.629669
 21
477.450558
 31
0.000000
  0
LINE
  5
538
330
1F
100
AcDbEntity
  8
0
  62
7
100
AcDbLine
 10
779.629669
 20
477.450558
 30
0.000000
 11
779.699429
 21
477.523104
 31
0.000000
  0
LINE
  5
539
330
1F
100
AcDbEntity
  8
0
  62
7
100
AcDbLine
 10
779.699429
 20
477.523104
 30
0.000000
 11
779.770122
 21
477.598869
 31
0.000000
  0
LINE
  5
540
330
1F
100
AcDbEntity
  8
0
  62
7
100
AcDbLine
 10
779.770122
 20
477.598869
 30
0.000000
 11
779.841839
 21
477.677959
 31
0.000000
  0
LINE
  5
541
330
1F
100
AcDbEntity
  8
0
  62
7
100
AcDbLine
 10
779.841839
 20
477.677959
 30
0.000000
 11
779.914673
 21
477.760473
 31
0.000000
  0
LINE
  5
542
330
1F
100
AcDbEntity
  8
0
  62
7
100
AcDbLine
 10
779.914673
 20
477.760473
 30
0.000000
 11
779.988714
 21
477.846515
 31
0.000000
  0
LINE
  5
543
330
1F
100
AcDbEntity
  8
0
  62
7
100
AcDbLine
 10
779.988714
 20
477.846515
 30
0.000000
 11
780.064056
 21
477.936187
 31
0.000000
  0
LINE
  5
544
330
1F
100
AcDbEntity
  8
0
  62
7
100
AcDbLine
 10
780.064056
 20
477.936187
 30
0.000000
 11
780.140791
 21
478.029591
 31
0.000000
  0
LINE
  5
545
330
1F
100
AcDbEntity
  8
0
  62
7
100
AcDbLine
 10
780.140791
 20
478.029591
 30
0.000000
 11
780.219009
 21
478.126829
 31
0.000000
  0
LINE
  5
546
330
1F
100
AcDbEntity
  8
0
  62
7
100
AcDbLine
 10
780.219009
 20
478.126829
 30
0.000000
 11
780.298804
 21
478.228004
 31
0.000000
  0
LINE
  5
547
330
1F
100
AcDbEntity
  8
0
  62
7
100
AcDbLine
 10
780.298804
 20
478.228004
 30
0.000000
 11
780.380267
 21
478.333218
 31
0.000000
  0
LINE
  5
548
330
1F
100
AcDbEntity
  8
0
  62
7
100
AcDbLine
 10
780.380267
 20
478.333218
 30
0.000000
 11
780.463491
 21
478.442573
 31
0.000000
  0
LINE
  5
549
330
1F
100
AcDbEntity
  8
0
  62
7
100
AcDbLine
 10
780.463491
 20
478.442573
 30
0.000000
 11
780.548566
 21
478.556171
 31
0.000000
  0
LINE
  5
550
330
1F
100
AcDbEntity
  8
0
  62
7
100
AcDbLine
 10
780.548566
 20
478.556171
 30
0.000000
 11
780.635586
 21
478.674115
 31
0.000000
  0
LINE
  5
551
330
1F
100
AcDbEntity
  8
0
  62
7
100
AcDbLine
 10
780.635586
 20
478.674115
 30
0.000000
 11
780.724642
 21
478.796507
 31
0.000000
  0
LINE
  5
552
330
1F
100
AcDbEntity
  8
0
  62
7
100
AcDbLine
 10
780.724642
 20
478.796507
 30
0.000000
 11
780.815825
 21
478.923450
 31
0.000000
  0
LINE
  5
553
330
1F
100
AcDbEntity
  8
0
  62
7
100
AcDbLine
 10
780.815825
 20
478.923450
 30
0.000000
 11
780.909229
 21
479.055045
 31
0.000000
  0
LINE
  5
554
330
1F
100
AcDbEntity
  8
0
  62
7
100
AcDbLine
 10
780.909229
 20
479.055045
 30
0.000000
 11
781.004945
 21
479.191395
 31
0.000000
  0
LINE
  5
555
330
1F
100
AcDbEntity
  8
0
  62
7
100
AcDbLine
 10
781.004945
 20
479.191395
 30
0.000000
 11
781.103065
 21
479.332602
 31
0.000000
  0
LINE
  5
556
330
1F
100
AcDbEntity
  8
0
  62
7
100
AcDbLine
 10
781.103065
 20
479.332602
 30
0.000000
 11
781.203681
 21
479.478769
 31
0.000000
  0
LINE
  5
557
330
1F
100
AcDbEntity
  8
0
  62
7
100
AcDbLine
 10
781.203681
 20
479.478769
 30
0.000000
 11
781.306885
 21
479.629998
 31
0.000000
  0
LINE
  5
558
330
1F
100
AcDbEntity
  8
0
  62
7
100
AcDbLine
 10
781.306885
 20
479.629998
 30
0.000000
 11
781.412769
 21
479.786390
 31
0.000000
  0
LINE
  5
559
330
1F
100
AcDbEntity
  8
0
  62
7
100
AcDbLine
 10
781.412769
 20
479.786390
 30
0.000000
 11
781.521424
 21
479.948048
 31
0.000000
  0
LINE
  5
560
330
1F
100
AcDbEntity
  8
0
  62
7
100
AcDbLine
 10
781.521424
 20
479.948048
 30
0.000000
 11
781.632944
 21
480.115076
 31
0.000000
  0
LINE
  5
561
330
1F
100
AcDbEntity
  8
0
  62
7
100
AcDbLine
 10
781.632944
 20
480.115076
 30
0.000000
 11
781.747419
 21
480.287574
 31
0.000000
  0
LINE
  5
562
330
1F
100
AcDbEntity
  8
0
  62
7
100
AcDbLine
 10
781.747419
 20
480.287574
 30
0.000000
 11
781.864943
 21
480.465645
 31
0.000000
  0
LINE
  5
563
330
1F
100
AcDbEntity
  8
0
  62
7
100
AcDbLine
 10
781.864943
 20
480.465645
 30
0.000000
 11
781.985606
 21
480.649392
 31
0.000000
  0
LINE
  5
564
330
1F
100
AcDbEntity
  8
0
  62
7
100
AcDbLine
 10
781.985606
 20
480.649392
 30
0.000000
 11
782.109501
 21
480.838916
 31
0.000000
  0
LINE
  5
565
330
1F
100
AcDbEntity
  8
0
  62
7
100
AcDbLine
 10
782.109501
 20
480.838916
 30
0.000000
 11
782.367354
 21
481.235707
 31
0.000000
  0
LINE
  5
566
330
1F
100
AcDbEntity
  8
0
  62
7
100
AcDbLine
 10
782.367354
 20
481.235707
 30
0.000000
 11
782.639237
 21
481.656837
 31
0.000000
  0
LINE
  5
567
330
1F
100
AcDbEntity
  8
0
  62
7
100
AcDbLine
 10
782.639237
 20
481.656837
 30
0.000000
 11
782.925888
 21
482.103122
 31
0.000000
  0
LINE
  5
568
330
1F
100
AcDbEntity
  8
0
  62
7
100
AcDbLine
 10
782.925888
 20
482.103122
 30
0.000000
 11
783.228040
 21
482.575382
 31
0.000000
  0
LINE
  5
569
330
1F
100
AcDbEntity
  8
0
  62
7
100
AcDbLine
 10
783.228040
 20
482.575382
 30
0.000000
 11
783.748098
 21
483.392274
 31
0.000000
  0
LINE
  5
570
330
1F
100
AcDbEntity
  8
0
  62
7
100
AcDbLine
 10
783.748098
 20
483.392274
 30
0.000000
 11
784.240314
 21
484.168215
 31
0.000000
  0
LINE
  5
571
330
1F
100
AcDbEntity
  8
0
  62
7
100
AcDbLine
 10
784.240314
 20
484.168215
 30
0.000000
 11
784.476227
 21
484.541323
 31
0.000000
  0
LINE
  5
572
330
1F
100
AcDbEntity
  8
0
  62
7
100
AcDbLine
 10
784.476227
 20
484.541323
 30
0.000000
 11
784.705471
 21
484.904786
 31
0.000000
  0
LINE
  5
573
330
1F
100
AcDbEntity
  8
0
  62
7
100
AcDbLine
 10
784.705471
 20
484.904786
 30
0.000000
 11
784.928147
 21
485.258799
 31
0.000000
  0
LINE
  5
574
330
1F
100
AcDbEntity
  8
0
  62
7
100
AcDbLine
 10
784.928147
 20
485.258799
 30
0.000000
 11
785.144350
 21
485.603561
 31
0.000000
  0
LINE
  5
575
330
1F
100
AcDbEntity
  8
0
  62
7
100
AcDbLine
 10
785.144350
 20
485.603561
 30
0.000000
 11
785.354178
 21
485.939269
 31
0.000000
  0
LINE
  5
576
330
1F
100
AcDbEntity
  8
0
  62
7
100
AcDbLine
 10
785.354178
 20
485.939269
 30
0.000000
 11
785.557729
 21
486.266119
 31
0.000000
  0
LINE
  5
577
330
1F
100
AcDbEntity
  8
0
  62
7
100
AcDbLine
 10
785.557729
 20
486.266119
 30
0.000000
 11
785.755100
 21
486.584308
 31
0.000000
  0
LINE
  5
578
330
1F
100
AcDbEntity
  8
0
  62
7
100
AcDbLine
 10
785.755100
 20
486.584308
 30
0.000000
 11
785.946389
 21
486.894033
 31
0.000000
  0
LINE
  5
579
330
1F
100
AcDbEntity
  8
0
  62
7
100
AcDbLine
 10
785.946389
 20
486.894033
 30
0.000000
 11
786.131693
 21
487.195492
 31
0.000000
  0
LINE
  5
580
330
1F
100
AcDbEntity
  8
0
  62
7
100
AcDbLine
 10
786.131693
 20
487.195492
 30
0.000000
 11
786.311110
 21
487.488882
 31
0.000000
  0
LINE
  5
581
330
1F
100
AcDbEntity
  8
0
  62
7
100
AcDbLine
 10
786.311110
 20
487.488882
 30
0.000000
 11
786.484738
 21
487.774399
 31
0.000000
  0
LINE
  5
582
330
1F
100
AcDbEntity
  8
0
  62
7
100
AcDbLine
 10
786.484738
 20
487.774399
 30
0.000000
 11
786.652673
 21
488.052240
 31
0.000000
  0
LINE
  5
583
330
1F
100
AcDbEntity
  8
0
  62
7
100
AcDbLine
 10
786.652673
 20
488.052240
 30
0.000000
 11
786.815014
 21
488.322603
 31
0.000000
  0
LINE
  5
584
330
1F
100
AcDbEntity
  8
0
  62
7
100
AcDbLine
 10
786.815014
 20
488.322603
 30
0.000000
 11
786.971858
 21
488.585685
 31
0.000000
  0
LINE
  5
585
330
1F
100
AcDbEntity
  8
0
  62
7
100
AcDbLine
 10
786.971858
 20
488.585685
 30
0.000000
 11
787.123303
 21
488.841682
 31
0.000000
  0
LINE
  5
586
330
1F
100
AcDbEntity
  8
0
  62
7
100
AcDbLine
 10
787.123303
 20
488.841682
 30
0.000000
 11
787.269445
 21
489.090792
 31
0.000000
  0
LINE
  5
587
330
1F
100
AcDbEntity
  8
0
  62
7
100
AcDbLine
 10
787.269445
 20
489.090792
 30
0.000000
 11
787.410383
 21
489.333212
 31
0.000000
  0
LINE
  5
588
330
1F
100
AcDbEntity
  8
0
  62
7
100
AcDbLine
 10
787.410383
 20
489.333212
 30
0.000000
 11
787.546214
 21
489.569138
 31
0.000000
  0
LINE
  5
589
330
1F
100
AcDbEntity
  8
0
  62
7
100
AcDbLine
 10
787.546214
 20
489.569138
 30
0.000000
 11
787.677036
 21
489.798768
 31
0.000000
  0
LINE
  5
590
330
1F
100
AcDbEntity
  8
0
  62
7
100
AcDbLine
 10
787.677036
 20
489.798768
 30
0.000000
 11
787.802946
 21
490.022299
 31
0.000000
  0
LINE
  5
591
330
1F
100
AcDbEntity
  8
0
  62
7
100
AcDbLine
 10
787.802946
 20
490.022299
 30
0.000000
 11
787.924041
 21
490.239928
 31
0.000000
  0
LINE
  5
592
330
1F
100
AcDbEntity
  8
0
  62
7
100
AcDbLine
 10
787.924041
 20
490.239928
 30
0.000000
 11
788.040419
 21
490.451852
 31
0.000000
  0
LINE
  5
593
330
1F
100
AcDbEntity
  8
0
  62
7
100
AcDbLine
 10
788.040419
 20
490.451852
 30
0.000000
 11
788.152179
 21
490.658267
 31
0.000000
  0
LINE
  5
594
330
1F
100
AcDbEntity
  8
0
  62
7
100
AcDbLine
 10
788.152179
 20
490.658267
 30
0.000000
 11
788.259416
 21
490.859371
 31
0.000000
  0
LINE
  5
595
330
1F
100
AcDbEntity
  8
0
  62
7
100
AcDbLine
 10
788.259416
 20
490.859371
 30
0.000000
 11
788.362229
 21
491.055362
 31
0.000000
  0
LINE
  5
596
330
1F
100
AcDbEntity
  8
0
  62
7
100
AcDbLine
 10
788.362229
 20
491.055362
 30
0.000000
 11
788.460716
 21
491.246435
 31
0.000000
  0
LINE
  5
597
330
1F
100
AcDbEntity
  8
0
  62
7
100
AcDbLine
 10
788.460716
 20
491.246435
 30
0.000000
 11
788.554973
 21
491.432788
 31
0.000000
  0
LINE
  5
598
330
1F
100
AcDbEntity
  8
0
  62
7
100
AcDbLine
 10
788.554973
 20
491.432788
 30
0.000000
 11
788.645098
 21
491.614619
 31
0.000000
  0
LINE
  5
599
330
1F
100
AcDbEntity
  8
0
  62
7
100
AcDbLine
 10
788.645098
 20
491.614619
 30
0.000000
 11
788.688642
 21
491.703899
 31
0.000000
  0
LINE
  5
600
330
1F
100
AcDbEntity
  8
0
  62
7
100
AcDbLine
 10
788.688642
 20
491.703899
 30
0.000000
 11
788.731189
 21
491.792123
 31
0.000000
  0
LINE
  5
601
330
1F
100
AcDbEntity
  8
0
  62
7
100
AcDbLine
 10
788.731189
 20
491.792123
 30
0.000000
 11
788.772753
 21
491.879315
 31
0.000000
  0
LINE
  5
602
330
1F
100
AcDbEntity
  8
0
  62
7
100
AcDbLine
 10
788.772753
 20
491.879315
 30
0.000000
 11
788.813344
 21
491.965499
 31
0.000000
  0
LINE
  5
603
330
1F
100
AcDbEntity
  8
0
  62
7
100
AcDbLine
 10
788.813344
 20
491.965499
 30
0.000000
 11
788.852976
 21
492.050699
 31
0.000000
  0
LINE
  5
604
330
1F
100
AcDbEntity
  8
0
  62
7
100
AcDbLine
 10
788.852976
 20
492.050699
 30
0.000000
 11
788.891660
 21
492.134942
 31
0.000000
  0
LINE
  5
605
330
1F
100
AcDbEntity
  8
0
  62
7
100
AcDbLine
 10
788.891660
 20
492.134942
 30
0.000000
 11
788.929408
 21
492.218251
 31
0.000000
  0
LINE
  5
606
330
1F
100
AcDbEntity
  8
0
  62
7
100
AcDbLine
 10
788.929408
 20
492.218251
 30
0.000000
 11
788.966234
 21
492.300651
 31
0.000000
  0
LINE
  5
607
330
1F
100
AcDbEntity
  8
0
  62
7
100
AcDbLine
 10
788.966234
 20
492.300651
 30
0.000000
 11
789.002148
 21
492.382166
 31
0.000000
  0
LINE
  5
608
330
1F
100
AcDbEntity
  8
0
  62
7
100
AcDbLine
 10
789.002148
 20
492.382166
 30
0.000000
 11
789.037163
 21
492.462822
 31
0.000000
  0
LINE
  5
609
330
1F
100
AcDbEntity
  8
0
  62
7
100
AcDbLine
 10
789.037163
 20
492.462822
 30
0.000000
 11
789.071292
 21
492.542642
 31
0.000000
  0
LINE
  5
610
330
1F
100
AcDbEntity
  8
0
  62
7
100
AcDbLine
 10
789.071292
 20
492.542642
 30
0.000000
 11
789.104547
 21
492.621652
 31
0.000000
  0
LINE
  5
611
330
1F
100
AcDbEntity
  8
0
  62
7
100
AcDbLine
 10
789.104547
 20
492.621652
 30
0.000000
 11
789.136939
 21
492.699876
 31
0.000000
  0
LINE
  5
612
330
1F
100
AcDbEntity
  8
0
  62
7
100
AcDbLine
 10
789.136939
 20
492.699876
 30
0.000000
 11
789.168481
 21
492.777338
 31
0.000000
  0
LINE
  5
613
330
1F
100
AcDbEntity
  8
0
  62
7
100
AcDbLine
 10
789.168481
 20
492.777338
 30
0.000000
 11
789.199185
 21
492.854064
 31
0.000000
  0
LINE
  5
614
330
1F
100
AcDbEntity
  8
0
  62
7
100
AcDbLine
 10
789.199185
 20
492.854064
 30
0.000000
 11
789.229064
 21
492.930078
 31
0.000000
  0
LINE
  5
615
330
1F
100
AcDbEntity
  8
0
  62
7
100
AcDbLine
 10
789.229064
 20
492.930078
 30
0.000000
 11
789.258129
 21
493.005404
 31
0.000000
  0
LINE
  5
616
330
1F
100
AcDbEntity
  8
0
  62
7
100
AcDbLine
 10
789.258129
 20
493.005404
 30
0.000000
 11
789.286393
 21
493.080068
 31
0.000000
  0
LINE
  5
617
330
1F
100
AcDbEntity
  8
0
  62
7
100
AcDbLine
 10
789.286393
 20
493.080068
 30
0.000000
 11
789.313867
 21
493.154093
 31
0.000000
  0
LINE
  5
618
330
1F
100
AcDbEntity
  8
0
  62
7
100
AcDbLine
 10
789.313867
 20
493.154093
 30
0.000000
 11
789.340565
 21
493.227505
 31
0.000000
  0
LINE
  5
619
330
1F
100
AcDbEntity
  8
0
  62
7
100
AcDbLine
 10
789.340565
 20
493.227505
 30
0.000000
 11
789.366498
 21
493.300328
 31
0.000000
  0
LINE
  5
620
330
1F
100
AcDbEntity
  8
0
  62
7
100
AcDbLine
 10
789.366498
 20
493.300328
 30
0.000000
 11
789.391678
 21
493.372587
 31
0.000000
  0
LINE
  5
621
330
1F
100
AcDbEntity
  8
0
  62
7
100
AcDbLine
 10
789.391678
 20
493.372587
 30
0.000000
 11
789.416118
 21
493.444305
 31
0.000000
  0
LINE
  5
622
330
1F
100
AcDbEntity
  8
0
  62
7
100
AcDbLine
 10
789.416118
 20
493.444305
 30
0.000000
 11
789.439830
 21
493.515509
 31
0.000000
  0
LINE
  5
623
330
1F
100
AcDbEntity
  8
0
  62
7
100
AcDbLine
 10
789.439830
 20
493.515509
 30
0.000000
 11
789.462826
 21
493.586223
 31
0.000000
  0
LINE
  5
624
330
1F
100
AcDbEntity
  8
0
  62
7
100
AcDbLine
 10
789.462826
 20
493.586223
 30
0.000000
 11
789.485118
 21
493.656471
 31
0.000000
  0
LINE
  5
625
330
1F
100
AcDbEntity
  8
0
  62
7
100
AcDbLine
 10
789.485118
 20
493.656471
 30
0.000000
 11
789.506719
 21
493.726278
 31
0.000000
  0
LINE
  5
626
330
1F
100
AcDbEntity
  8
0
  62
7
100
AcDbLine
 10
789.506719
 20
493.726278
 30
0.000000
 11
789.527640
 21
493.795667
 31
0.000000
  0
LINE
  5
627
330
1F
100
AcDbEntity
  8
0
  62
7
100
AcDbLine
 10
789.527640
 20
493.795667
 30
0.000000
 11
789.547894
 21
493.864666
 31
0.000000
  0
LINE
  5
628
330
1F
100
AcDbEntity
  8
0
  62
7
100
AcDbLine
 10
789.547894
 20
493.864666
 30
0.000000
 11
789.567493
 21
493.933297
 31
0.000000
  0
LINE
  5
629
330
1F
100
AcDbEntity
  8
0
  62
7
100
AcDbLine
 10
789.567493
 20
493.933297
 30
0.000000
 11
789.586449
 21
494.001586
 31
0.000000
  0
LINE
  5
630
330
1F
100
AcDbEntity
  8
0
  62
7
100
AcDbLine
 10
789.586449
 20
494.001586
 30
0.000000
 11
789.604775
 21
494.069556
 31
0.000000
  0
LINE
  5
631
330
1F
100
AcDbEntity
  8
0
  62
7
100
AcDbLine
 10
789.604775
 20
494.069556
 30
0.000000
 11
789.622482
 21
494.137233
 31
0.000000
  0
LINE
  5
632
330
1F
100
AcDbEntity
  8
0
  62
7
100
AcDbLine
 10
789.622482
 20
494.137233
 30
0.000000
 11
789.639583
 21
494.204641
 31
0.000000
  0
LINE
  5
633
330
1F
100
AcDbEntity
  8
0
  62
7
100
AcDbLine
 10
789.639583
 20
494.204641
 30
0.000000
 11
789.656089
 21
494.271806
 31
0.000000
  0
LINE
  5
634
330
1F
100
AcDbEntity
  8
0
  62
7
100
AcDbLine
 10
789.656089
 20
494.271806
 30
0.000000
 11
789.672014
 21
494.338750
 31
0.000000
  0
LINE
  5
635
330
1F
100
AcDbEntity
  8
0
  62
7
100
AcDbLine
 10
789.672014
 20
494.338750
 30
0.000000
 11
789.687369
 21
494.405500
 31
0.000000
  0
LINE
  5
636
330
1F
100
AcDbEntity
  8
0
  62
7
100
AcDbLine
 10
789.687369
 20
494.405500
 30
0.000000
 11
789.702167
 21
494.472080
 31
0.000000
  0
LINE
  5
637
330
1F
100
AcDbEntity
  8
0
  62
7
100
AcDbLine
 10
789.702167
 20
494.472080
 30
0.000000
 11
789.716419
 21
494.538514
 31
0.000000
  0
LINE
  5
638
330
1F
100
AcDbEntity
  8
0
  62
7
100
AcDbLine
 10
789.716419
 20
494.538514
 30
0.000000
 11
789.730139
 21
494.604827
 31
0.000000
  0
LINE
  5
639
330
1F
100
AcDbEntity
  8
0
  62
7
100
AcDbLine
 10
789.730139
 20
494.604827
 30
0.000000
 11
789.743337
 21
494.671043
 31
0.000000
  0
LINE
  5
640
330
1F
100
AcDbEntity
  8
0
  62
7
100
AcDbLine
 10
789.743337
 20
494.671043
 30
0.000000
 11
789.756027
 21
494.737189
 31
0.000000
  0
LINE
  5
641
330
1F
100
AcDbEntity
  8
0
  62
7
100
AcDbLine
 10
789.756027
 20
494.737189
 30
0.000000
 11
789.768220
 21
494.803287
 31
0.000000
  0
LINE
  5
642
330
1F
100
AcDbEntity
  8
0
  62
7
100
AcDbLine
 10
789.768220
 20
494.803287
 30
0.000000
 11
789.779928
 21
494.869362
 31
0.000000
  0
LINE
  5
643
330
1F
100
AcDbEntity
  8
0
  62
7
100
AcDbLine
 10
789.779928
 20
494.869362
 30
0.000000
 11
789.791165
 21
494.935440
 31
0.000000
  0
LINE
  5
644
330
1F
100
AcDbEntity
  8
0
  62
7
100
AcDbLine
 10
789.791165
 20
494.935440
 30
0.000000
 11
789.801941
 21
495.001544
 31
0.000000
  0
LINE
  5
645
330
1F
100
AcDbEntity
  8
0
  62
7
100
AcDbLine
 10
789.801941
 20
495.001544
 30
0.000000
 11
789.812270
 21
495.067700
 31
0.000000
  0
LINE
  5
646
330
1F
100
AcDbEntity
  8
0
  62
7
100
AcDbLine
 10
789.812270
 20
495.067700
 30
0.000000
 11
789.822163
 21
495.133933
 31
0.000000
  0
LINE
  5
647
330
1F
100
AcDbEntity
  8
0
  62
7
100
AcDbLine
 10
789.822163
 20
495.133933
 30
0.000000
 11
789.840692
 21
495.266723
 31
0.000000
  0
LINE
  5
648
330
1F
100
AcDbEntity
  8
0
  62
7
100
AcDbLine
 10
789.840692
 20
495.266723
 30
0.000000
 11
789.857624
 21
495.400114
 31
0.000000
  0
LINE
  5
649
330
1F
100
AcDbEntity
  8
0
  62
7
100
AcDbLine
 10
789.857624
 20
495.400114
 30
0.000000
 11
789.873058
 21
495.534301
 31
0.000000
  0
LINE
  5
650
330
1F
100
AcDbEntity
  8
0
  62
7
100
AcDbLine
 10
789.873058
 20
495.534301
 30
0.000000
 11
789.887091
 21
495.669483
 31
0.000000
  0
LINE
  5
651
330
1F
100
AcDbEntity
  8
0
  62
7
100
AcDbLine
 10
789.887091
 20
495.669483
 30
0.000000
 11
789.899820
 21
495.805854
 31
0.000000
  0
LINE
  5
652
330
1F
100
AcDbEntity
  8
0
  62
7
100
AcDbLine
 10
789.899820
 20
495.805854
 30
0.000000
 11
789.911343
 21
495.943615
 31
0.000000
  0
LINE
  5
653
330
1F
100
AcDbEntity
  8
0
  62
7
100
AcDbLine
 10
789.911343
 20
495.943615
 30
0.000000
 11
789.921758
 21
496.082960
 31
0.000000
  0
LINE
  5
654
330
1F
100
AcDbEntity
  8
0
  62
7
100
AcDbLine
 10
789.921758
 20
496.082960
 30
0.000000
 11
789.931162
 21
496.224087
 31
0.000000
  0
LINE
  5
655
330
1F
100
AcDbEntity
  8
0
  62
7
100
AcDbLine
 10
789.931162
 20
496.224087
 30
0.000000
 11
789.938508
 21
496.361058
 31
0.000000
  0
LINE
  5
656
330
1F
100
AcDbEntity
  8
0
  62
7
100
AcDbLine
 10
789.938508
 20
496.361058
 30
0.000000
 11
789.944310
 21
496.497535
 31
0.000000
  0
LINE
  5
657
330
1F
100
AcDbEntity
  8
0
  62
7
100
AcDbLine
 10
789.944310
 20
496.497535
 30
0.000000
 11
789.948571
 21
496.633509
 31
0.000000
  0
LINE
  5
658
330
1F
100
AcDbEntity
  8
0
  62
7
100
AcDbLine
 10
789.948571
 20
496.633509
 30
0.000000
 11
789.951295
 21
496.768971
 31
0.000000
  0
LINE
  5
659
330
1F
100
AcDbEntity
  8
0
  62
7
100
AcDbLine
 10
789.951295
 20
496.768971
 30
0.000000
 11
789.952486
 21
496.903909
 31
0.000000
  0
LINE
  5
660
330
1F
100
AcDbEntity
  8
0
  62
7
100
AcDbLine
 10
789.952486
 20
496.903909
 30
0.000000
 11
789.952147
 21
497.038313
 31
0.000000
  0
LINE
  5
661
330
1F
100
AcDbEntity
  8
0
  62
7
100
AcDbLine
 10
789.952147
 20
497.038313
 30
0.000000
 11
789.950281
 21
497.172174
 31
0.000000
  0
LINE
  5
662
330
1F
100
AcDbEntity
  8
0
  62
7
100
AcDbLine
 10
789.950281
 20
497.172174
 30
0.000000
 11
789.946893
 21
497.305481
 31
0.000000
  0
LINE
  5
663
330
1F
100
AcDbEntity
  8
0
  62
7
100
AcDbLine
 10
789.946893
 20
497.305481
 30
0.000000
 11
789.941986
 21
497.438223
 31
0.000000
  0
LINE
  5
664
330
1F
100
AcDbEntity
  8
0
  62
7
100
AcDbLine
 10
789.941986
 20
497.438223
 30
0.000000
 11
789.935563
 21
497.570390
 31
0.000000
  0
LINE
  5
665
330
1F
100
AcDbEntity
  8
0
  62
7
100
AcDbLine
 10
789.935563
 20
497.570390
 30
0.000000
 11
789.927628
 21
497.701972
 31
0.000000
  0
LINE
  5
666
330
1F
100
AcDbEntity
  8
0
  62
7
100
AcDbLine
 10
789.927628
 20
497.701972
 30
0.000000
 11
789.918185
 21
497.832958
 31
0.000000
  0
LINE
  5
667
330
1F
100
AcDbEntity
  8
0
  62
7
100
AcDbLine
 10
789.918185
 20
497.832958
 30
0.000000
 11
789.907236
 21
497.963339
 31
0.000000
  0
LINE
  5
668
330
1F
100
AcDbEntity
  8
0
  62
7
100
AcDbLine
 10
789.907236
 20
497.963339
 30
0.000000
 11
789.894787
 21
498.093104
 31
0.000000
  0
LINE
  5
669
330
1F
100
AcDbEntity
  8
0
  62
7
100
AcDbLine
 10
789.894787
 20
498.093104
 30
0.000000
 11
789.880839
 21
498.222242
 31
0.000000
  0
LINE
  5
670
330
1F
100
AcDbEntity
  8
0
  62
7
100
AcDbLine
 10
789.880839
 20
498.222242
 30
0.000000
 11
789.865398
 21
498.350744
 31
0.000000
  0
LINE
  5
671
330
1F
100
AcDbEntity
  8
0
  62
7
100
AcDbLine
 10
789.865398
 20
498.350744
 30
0.000000
 11
789.848466
 21
498.478598
 31
0.000000
  0
LINE
  5
672
330
1F
100
AcDbEntity
  8
0
  62
7
100
AcDbLine
 10
789.848466
 20
498.478598
 30
0.000000
 11
789.830046
 21
498.605796
 31
0.000000
  0
LINE
  5
673
330
1F
100
AcDbEntity
  8
0
  62
7
100
AcDbLine
 10
789.830046
 20
498.605796
 30
0.000000
 11
789.810144
 21
498.732325
 31
0.000000
  0
LINE
  5
674
330
1F
100
AcDbEntity
  8
0
  62
7
100
AcDbLine
 10
789.810144
 20
498.732325
 30
0.000000
 11
789.788761
 21
498.858177
 31
0.000000
  0
LINE
  5
675
330
1F
100
AcDbEntity
  8
0
  62
7
100
AcDbLine
 10
789.788761
 20
498.858177
 30
0.000000
 11
789.765902
 21
498.983341
 31
0.000000
  0
LINE
  5
676
330
1F
100
AcDbEntity
  8
0
  62
7
100
AcDbLine
 10
789.765902
 20
498.983341
 30
0.000000
 11
789.741571
 21
499.107806
 31
0.000000
  0
LINE
  5
677
330
1F
100
AcDbEntity
  8
0
  62
7
100
AcDbLine
 10
789.741571
 20
499.107806
 30
0.000000
 11
789.715770
 21
499.231562
 31
0.000000
  0
LINE
  5
678
330
1F
100
AcDbEntity
  8
0
  62
7
100
AcDbLine
 10
789.715770
 20
499.231562
 30
0.000000
 11
789.688503
 21
499.354599
 31
0.000000
  0
LINE
  5
679
330
1F
100
AcDbEntity
  8
0
  62
7
100
AcDbLine
 10
789.688503
 20
499.354599
 30
0.000000
 11
789.659775
 21
499.476907
 31
0.000000
  0
LINE
  5
680
330
1F
100
AcDbEntity
  8
0
  62
7
100
AcDbLine
 10
789.659775
 20
499.476907
 30
0.000000
 11
789.629587
 21
499.598475
 31
0.000000
  0
LINE
  5
681
330
1F
100
AcDbEntity
  8
0
  62
7
100
AcDbLine
 10
789.629587
 20
499.598475
 30
0.000000
 11
789.597945
 21
499.719293
 31
0.000000
  0
LINE
  5
682
330
1F
100
AcDbEntity
  8
0
  62
7
100
AcDbLine
 10
789.597945
 20
499.719293
 30
0.000000
 11
789.564852
 21
499.839350
 31
0.000000
  0
LINE
  5
683
330
1F
100
AcDbEntity
  8
0
  62
7
100
AcDbLine
 10
789.564852
 20
499.839350
 30
0.000000
 11
789.530311
 21
499.958637
 31
0.000000
  0
LINE
  5
684
330
1F
100
AcDbEntity
  8
0
  62
7
100
AcDbLine
 10
789.530311
 20
499.958637
 30
0.000000
 11
789.494325
 21
500.077143
 31
0.000000
  0
LINE
  5
685
330
1F
100
AcDbEntity
  8
0
  62
7
100
AcDbLine
 10
789.494325
 20
500.077143
 30
0.000000
 11
789.456899
 21
500.194858
 31
0.000000
  0
LINE
  5
686
330
1F
100
AcDbEntity
  8
0
  62
7
100
AcDbLine
 10
789.456899
 20
500.194858
 30
0.000000
 11
789.418036
 21
500.311770
 31
0.000000
  0
LINE
  5
687
330
1F
100
AcDbEntity
  8
0
  62
7
100
AcDbLine
 10
789.418036
 20
500.311770
 30
0.000000
 11
789.377739
 21
500.427871
 31
0.000000
  0
LINE
  5
688
330
1F
100
AcDbEntity
  8
0
  62
7
100
AcDbLine
 10
789.377739
 20
500.427871
 30
0.000000
 11
789.336013
 21
500.543150
 31
0.000000
  0
LINE
  5
689
330
1F
100
AcDbEntity
  8
0
  62
7
100
AcDbLine
 10
789.336013
 20
500.543150
 30
0.000000
 11
789.292860
 21
500.657596
 31
0.000000
  0
LINE
  5
690
330
1F
100
AcDbEntity
  8
0
  62
7
100
AcDbLine
 10
789.292860
 20
500.657596
 30
0.000000
 11
789.248284
 21
500.771200
 31
0.000000
  0
LINE
  5
691
330
1F
100
AcDbEntity
  8
0
  62
7
100
AcDbLine
 10
789.248284
 20
500.771200
 30
0.000000
 11
789.202288
 21
500.883950
 31
0.000000
  0
LINE
  5
692
330
1F
100
AcDbEntity
  8
0
  62
7
100
AcDbLine
 10
789.202288
 20
500.883950
 30
0.000000
 11
789.154878
 21
500.995837
 31
0.000000
  0
LINE
  5
693
330
1F
100
AcDbEntity
  8
0
  62
7
100
AcDbLine
 10
789.154878
 20
500.995837
 30
0.000000
 11
789.106055
 21
501.106850
 31
0.000000
  0
LINE
  5
694
330
1F
100
AcDbEntity
  8
0
  62
7
100
AcDbLine
 10
789.106055
 20
501.106850
 30
0.000000
 11
789.055823
 21
501.216979
 31
0.000000
  0
LINE
  5
695
330
1F
100
AcDbEntity
  8
0
  62
7
100
AcDbLine
 10
789.055823
 20
501.216979
 30
0.000000
 11
789.004187
 21
501.326214
 31
0.000000
  0
LINE
  5
696
330
1F
100
AcDbEntity
  8
0
  62
7
100
AcDbLine
 10
789.004187
 20
501.326214
 30
0.000000
 11
788.951149
 21
501.434544
 31
0.000000
  0
LINE
  5
697
330
1F
100
AcDbEntity
  8
0
  62
7
100
AcDbLine
 10
788.951149
 20
501.434544
 30
0.000000
 11
788.896713
 21
501.541959
 31
0.000000
  0
LINE
  5
698
330
1F
100
AcDbEntity
  8
0
  62
7
100
AcDbLine
 10
788.896713
 20
501.541959
 30
0.000000
 11
788.840883
 21
501.648449
 31
0.000000
  0
LINE
  5
699
330
1F
100
AcDbEntity
  8
0
  62
7
100
AcDbLine
 10
788.840883
 20
501.648449
 30
0.000000
 11
788.783662
 21
501.754003
 31
0.000000
  0
LINE
  5
700
330
1F
100
AcDbEntity
  8
0
  62
7
100
AcDbLine
 10
788.783662
 20
501.754003
 30
0.000000
 11
788.725054
 21
501.858611
 31
0.000000
  0
LINE
  5
701
330
1F
100
AcDbEntity
  8
0
  62
7
100
AcDbLine
 10
788.725054
 20
501.858611
 30
0.000000
 11
788.665063
 21
501.962264
 31
0.000000
  0
LINE
  5
702
330
1F
100
AcDbEntity
  8
0
  62
7
100
AcDbLine
 10
788.665063
 20
501.962264
 30
0.000000
 11
788.603691
 21
502.064949
 31
0.000000
  0
LINE
  5
703
330
1F
100
AcDbEntity
  8
0
  62
7
100
AcDbLine
 10
788.603691
 20
502.064949
 30
0.000000
 11
788.540943
 21
502.166658
 31
0.000000
  0
LINE
  5
704
330
1F
100
AcDbEntity
  8
0
  62
7
100
AcDbLine
 10
788.540943
 20
502.166658
 30
0.000000
 11
788.476823
 21
502.267379
 31
0.000000
  0
LINE
  5
705
330
1F
100
AcDbEntity
  8
0
  62
7
100
AcDbLine
 10
788.476823
 20
502.267379
 30
0.000000
 11
788.411333
 21
502.367103
 31
0.000000
  0
LINE
  5
706
330
1F
100
AcDbEntity
  8
0
  62
7
100
AcDbLine
 10
788.411333
 20
502.367103
 30
0.000000
 11
788.344477
 21
502.465820
 31
0.000000
  0
LINE
  5
707
330
1F
100
AcDbEntity
  8
0
  62
7
100
AcDbLine
 10
788.344477
 20
502.465820
 30
0.000000
 11
788.276259
 21
502.563518
 31
0.000000
  0
LINE
  5
708
330
1F
100
AcDbEntity
  8
0
  62
7
100
AcDbLine
 10
788.276259
 20
502.563518
 30
0.000000
 11
788.206682
 21
502.660188
 31
0.000000
  0
LINE
  5
709
330
1F
100
AcDbEntity
  8
0
  62
7
100
AcDbLine
 10
788.206682
 20
502.660188
 30
0.000000
 11
788.135751
 21
502.755819
 31
0.000000
  0
LINE
  5
710
330
1F
100
AcDbEntity
  8
0
  62
7
100
AcDbLine
 10
788.135751
 20
502.755819
 30
0.000000
 11
788.063468
 21
502.850401
 31
0.000000
  0
LINE
  5
711
330
1F
100
AcDbEntity
  8
0
  62
7
100
AcDbLine
 10
788.063468
 20
502.850401
 30
0.000000
 11
787.989837
 21
502.943924
 31
0.000000
  0
LINE
  5
712
330
1F
100
AcDbEntity
  8
0
  62
7
100
AcDbLine
 10
787.989837
 20
502.943924
 30
0.000000
 11
787.914861
 21
503.036378
 31
0.000000
  0
LINE
  5
713
330
1F
100
AcDbEntity
  8
0
  62
7
100
AcDbLine
 10
787.914861
 20
503.036378
 30
0.000000
 11
787.838545
 21
503.127752
 31
0.000000
  0
LINE
  5
714
330
1F
100
AcDbEntity
  8
0
  62
7
100
AcDbLine
 10
787.838545
 20
503.127752
 30
0.000000
 11
787.760892
 21
503.218035
 31
0.000000
  0
LINE
  5
715
330
1F
100
AcDbEntity
  8
0
  62
7
100
AcDbLine
 10
787.760892
 20
503.218035
 30
0.000000
 11
787.681905
 21
503.307218
 31
0.000000
  0
LINE
  5
716
330
1F
100
AcDbEntity
  8
0
  62
7
100
AcDbLine
 10
787.681905
 20
503.307218
 30
0.000000
 11
787.641913
 21
503.351393
 31
0.000000
  0
LINE
  5
717
330
1F
100
AcDbEntity
  8
0
  62
7
100
AcDbLine
 10
787.641913
 20
503.351393
 30
0.000000
 11
787.601588
 21
503.395290
 31
0.000000
  0
LINE
  5
718
330
1F
100
AcDbEntity
  8
0
  62
7
100
AcDbLine
 10
787.601588
 20
503.395290
 30
0.000000
 11
787.560932
 21
503.438906
 31
0.000000
  0
LINE
  5
719
330
1F
100
AcDbEntity
  8
0
  62
7
100
AcDbLine
 10
787.560932
 20
503.438906
 30
0.000000
 11
787.519945
 21
503.482240
 31
0.000000
  0
LINE
  5
720
330
1F
100
AcDbEntity
  8
0
  62
7
100
AcDbLine
 10
787.519945
 20
503.482240
 30
0.000000
 11
787.478627
 21
503.525292
 31
0.000000
  0
LINE
  5
721
330
1F
100
AcDbEntity
  8
0
  62
7
100
AcDbLine
 10
787.478627
 20
503.525292
 30
0.000000
 11
787.436978
 21
503.568060
 31
0.000000
  0
LINE
  5
722
330
1F
100
AcDbEntity
  8
0
  62
7
100
AcDbLine
 10
787.436978
 20
503.568060
 30
0.000000
 11
787.358896
 21
503.647346
 31
0.000000
  0
LINE
  5
723
330
1F
100
AcDbEntity
  8
0
  62
7
100
AcDbLine
 10
787.358896
 20
503.647346
 30
0.000000
 11
787.283637
 21
503.722915
 31
0.000000
  0
LINE
  5
724
330
1F
100
AcDbEntity
  8
0
  62
7
100
AcDbLine
 10
787.283637
 20
503.722915
 30
0.000000
 11
787.210979
 21
503.794906
 31
0.000000
  0
LINE
  5
725
330
1F
100
AcDbEntity
  8
0
  62
7
100
AcDbLine
 10
787.210979
 20
503.794906
 30
0.000000
 11
787.140699
 21
503.863459
 31
0.000000
  0
LINE
  5
726
330
1F
100
AcDbEntity
  8
0
  62
7
100
AcDbLine
 10
787.140699
 20
503.863459
 30
0.000000
 11
787.072576
 21
503.928714
 31
0.000000
  0
LINE
  5
727
330
1F
100
AcDbEntity
  8
0
  62
7
100
AcDbLine
 10
787.072576
 20
503.928714
 30
0.000000
 11
787.006387
 21
503.990811
 31
0.000000
  0
LINE
  5
728
330
1F
100
AcDbEntity
  8
0
  62
7
100
AcDbLine
 10
787.006387
 20
503.990811
 30
0.000000
 11
786.941911
 21
504.049887
 31
0.000000
  0
LINE
  5
729
330
1F
100
AcDbEntity
  8
0
  62
7
100
AcDbLine
 10
786.941911
 20
504.049887
 30
0.000000
 11
786.878926
 21
504.106084
 31
0.000000
  0
LINE
  5
730
330
1F
100
AcDbEntity
  8
0
  62
7
100
AcDbLine
 10
786.878926
 20
504.106084
 30
0.000000
 11
786.817209
 21
504.159541
 31
0.000000
  0
LINE
  5
731
330
1F
100
AcDbEntity
  8
0
  62
7
100
AcDbLine
 10
786.817209
 20
504.159541
 30
0.000000
 11
786.756539
 21
504.210398
 31
0.000000
  0
LINE
  5
732
330
1F
100
AcDbEntity
  8
0
  62
7
100
AcDbLine
 10
786.756539
 20
504.210398
 30
0.000000
 11
786.696693
 21
504.258793
 31
0.000000
  0
LINE
  5
733
330
1F
100
AcDbEntity
  8
0
  62
7
100
AcDbLine
 10
786.696693
 20
504.258793
 30
0.000000
 11
786.637450
 21
504.304867
 31
0.000000
  0
LINE
  5
734
330
1F
100
AcDbEntity
  8
0
  62
7
100
AcDbLine
 10
786.637450
 20
504.304867
 30
0.000000
 11
786.578588
 21
504.348758
 31
0.000000
  0
LINE
  5
735
330
1F
100
AcDbEntity
  8
0
  62
7
100
AcDbLine
 10
786.578588
 20
504.348758
 30
0.000000
 11
786.519884
 21
504.390607
 31
0.000000
  0
LINE
  5
736
330
1F
100
AcDbEntity
  8
0
  62
7
100
AcDbLine
 10
786.519884
 20
504.390607
 30
0.000000
 11
786.461117
 21
504.430553
 31
0.000000
  0
LINE
  5
737
330
1F
100
AcDbEntity
  8
0
  62
7
100
AcDbLine
 10
786.461117
 20
504.430553
 30
0.000000
 11
786.402065
 21
504.468736
 31
0.000000
  0
LINE
  5
738
330
1F
100
AcDbEntity
  8
0
  62
7
100
AcDbLine
 10
786.402065
 20
504.468736
 30
0.000000
 11
786.342504
 21
504.505295
 31
0.000000
  0
LINE
  5
739
330
1F
100
AcDbEntity
  8
0
  62
7
100
AcDbLine
 10
786.342504
 20
504.505295
 30
0.000000
 11
786.282215
 21
504.540370
 31
0.000000
  0
LINE
  5
740
330
1F
100
AcDbEntity
  8
0
  62
7
100
AcDbLine
 10
786.282215
 20
504.540370
 30
0.000000
 11
786.220974
 21
504.574100
 31
0.000000
  0
LINE
  5
741
330
1F
100
AcDbEntity
  8
0
  62
7
100
AcDbLine
 10
786.220974
 20
504.574100
 30
0.000000
 11
786.158560
 21
504.606625
 31
0.000000
  0
LINE
  5
742
330
1F
100
AcDbEntity
  8
0
  62
7
100
AcDbLine
 10
786.158560
 20
504.606625
 30
0.000000
 11
786.094750
 21
504.638084
 31
0.000000
  0
LINE
  5
743
330
1F
100
AcDbEntity
  8
0
  62
7
100
AcDbLine
 10
786.094750
 20
504.638084
 30
0.000000
 11
786.029322
 21
504.668618
 31
0.000000
  0
LINE
  5
744
330
1F
100
AcDbEntity
  8
0
  62
7
100
AcDbLine
 10
786.029322
 20
504.668618
 30
0.000000
 11
785.962055
 21
504.698364
 31
0.000000
  0
LINE
  5
745
330
1F
100
AcDbEntity
  8
0
  62
7
100
AcDbLine
 10
785.962055
 20
504.698364
 30
0.000000
 11
785.892727
 21
504.727464
 31
0.000000
  0
LINE
  5
746
330
1F
100
AcDbEntity
  8
0
  62
7
100
AcDbLine
 10
785.892727
 20
504.727464
 30
0.000000
 11
785.821115
 21
504.756056
 31
0.000000
  0
LINE
  5
747
330
1F
100
AcDbEntity
  8
0
  62
7
100
AcDbLine
 10
785.821115
 20
504.756056
 30
0.000000
 11
785.746998
 21
504.784281
 31
0.000000
  0
LINE
  5
748
330
1F
100
AcDbEntity
  8
0
  62
7
100
AcDbLine
 10
785.746998
 20
504.784281
 30
0.000000
 11
785.670153
 21
504.812277
 31
0.000000
  0
LINE
  5
749
330
1F
100
AcDbEntity
  8
0
  62
7
100
AcDbLine
 10
785.670153
 20
504.812277
 30
0.000000
 11
785.590359
 21
504.840184
 31
0.000000
  0
LINE
  5
750
330
1F
100
AcDbEntity
  8
0
  62
7
100
AcDbLine
 10
785.590359
 20
504.840184
 30
0.000000
 11
785.507393
 21
504.868142
 31
0.000000
  0
LINE
  5
751
330
1F
100
AcDbEntity
  8
0
  62
7
100
AcDbLine
 10
785.507393
 20
504.868142
 30
0.000000
 11
785.421033
 21
504.896290
 31
0.000000
  0
LINE
  5
752
330
1F
100
AcDbEntity
  8
0
  62
7
100
AcDbLine
 10
785.421033
 20
504.896290
 30
0.000000
 11
785.331058
 21
504.924768
 31
0.000000
  0
LINE
  5
753
330
1F
100
AcDbEntity
  8
0
  62
7
100
AcDbLine
 10
785.331058
 20
504.924768
 30
0.000000
 11
785.237246
 21
504.953715
 31
0.000000
  0
LINE
  5
754
330
1F
100
AcDbEntity
  8
0
  62
7
100
AcDbLine
 10
785.237246
 20
504.953715
 30
0.000000
 11
785.130668
 21
504.986760
 31
0.000000
  0
LINE
  5
755
330
1F
100
AcDbEntity
  8
0
  62
7
100
AcDbLine
 10
785.130668
 20
504.986760
 30
0.000000
 11
785.078398
 21
505.002502
 31
0.000000
  0
LINE
  5
756
330
1F
100
AcDbEntity
  8
0
  62
7
100
AcDbLine
 10
785.078398
 20
505.002502
 30
0.000000
 11
785.026234
 21
505.017734
 31
0.000000
  0
LINE
  5
757
330
1F
100
AcDbEntity
  8
0
  62
7
100
AcDbLine
 10
785.026234
 20
505.017734
 30
0.000000
 11
784.973747
 21
505.032463
 31
0.000000
  0
LINE
  5
758
330
1F
100
AcDbEntity
  8
0
  62
7
100
AcDbLine
 10
784.973747
 20
505.032463
 30
0.000000
 11
784.920506
 21
505.046696
 31
0.000000
  0
LINE
  5
759
330
1F
100
AcDbEntity
  8
0
  62
7
100
AcDbLine
 10
784.920506
 20
505.046696
 30
0.000000
 11
784.866082
 21
505.060443
 31
0.000000
  0
LINE
  5
760
330
1F
100
AcDbEntity
  8
0
  62
7
100
AcDbLine
 10
784.866082
 20
505.060443
 30
0.000000
 11
784.810046
 21
505.073709
 31
0.000000
  0
LINE
  5
761
330
1F
100
AcDbEntity
  8
0
  62
7
100
AcDbLine
 10
784.810046
 20
505.073709
 30
0.000000
 11
784.751967
 21
505.086502
 31
0.000000
  0
LINE
  5
762
330
1F
100
AcDbEntity
  8
0
  62
7
100
AcDbLine
 10
784.751967
 20
505.086502
 30
0.000000
 11
784.691417
 21
505.098831
 31
0.000000
  0
LINE
  5
763
330
1F
100
AcDbEntity
  8
0
  62
7
100
AcDbLine
 10
784.691417
 20
505.098831
 30
0.000000
 11
784.627964
 21
505.110702
 31
0.000000
  0
LINE
  5
764
330
1F
100
AcDbEntity
  8
0
  62
7
100
AcDbLine
 10
784.627964
 20
505.110702
 30
0.000000
 11
784.561179
 21
505.122123
 31
0.000000
  0
LINE
  5
765
330
1F
100
AcDbEntity
  8
0
  62
7
100
AcDbLine
 10
784.561179
 20
505.122123
 30
0.000000
 11
784.490633
 21
505.133102
 31
0.000000
  0
LINE
  5
766
330
1F
100
AcDbEntity
  8
0
  62
7
100
AcDbLine
 10
784.490633
 20
505.133102
 30
0.000000
 11
784.415896
 21
505.143646
 31
0.000000
  0
LINE
  5
767
330
1F
100
AcDbEntity
  8
0
  62
7
100
AcDbLine
 10
784.415896
 20
505.143646
 30
0.000000
 11
784.336538
 21
505.153762
 31
0.000000
  0
LINE
  5
768
330
1F
100
AcDbEntity
  8
0
  62
7
100
AcDbLine
 10
784.336538
 20
505.153762
 30
0.000000
 11
784.252129
 21
505.163459
 31
0.000000
  0
LINE
  5
769
330
1F
100
AcDbEntity
  8
0
  62
7
100
AcDbLine
 10
784.252129
 20
505.163459
 30
0.000000
 11
784.162240
 21
505.172743
 31
0.000000
  0
LINE
  5
770
330
1F
100
AcDbEntity
  8
0
  62
7
100
AcDbLine
 10
784.162240
 20
505.172743
 30
0.000000
 11
784.066441
 21
505.181622
 31
0.000000
  0
LINE
  5
771
330
1F
100
AcDbEntity
  8
0
  62
7
100
AcDbLine
 10
784.066441
 20
505.181622
 30
0.000000
 11
783.964302
 21
505.190105
 31
0.000000
  0
LINE
  5
772
330
1F
100
AcDbEntity
  8
0
  62
7
100
AcDbLine
 10
783.964302
 20
505.190105
 30
0.000000
 11
783.855394
 21
505.198197
 31
0.000000
  0
LINE
  5
773
330
1F
100
AcDbEntity
  8
0
  62
7
100
AcDbLine
 10
783.855394
 20
505.198197
 30
0.000000
 11
783.739286
 21
505.205907
 31
0.000000
  0
LINE
  5
774
330
1F
100
AcDbEntity
  8
0
  62
7
100
AcDbLine
 10
783.739286
 20
505.205907
 30
0.000000
 11
783.615548
 21
505.213243
 31
0.000000
  0
LINE
  5
775
330
1F
100
AcDbEntity
  8
0
  62
7
100
AcDbLine
 10
783.615548
 20
505.213243
 30
0.000000
 11
783.483753
 21
505.220212
 31
0.000000
  0
LINE
  5
776
330
1F
100
AcDbEntity
  8
0
  62
7
100
AcDbLine
 10
783.483753
 20
505.220212
 30
0.000000
 11
783.343468
 21
505.226821
 31
0.000000
  0
LINE
  5
777
330
1F
100
AcDbEntity
  8
0
  62
7
100
AcDbLine
 10
783.343468
 20
505.226821
 30
0.000000
 11
783.194265
 21
505.233078
 31
0.000000
  0
LINE
  5
778
330
1F
100
AcDbEntity
  8
0
  62
7
100
AcDbLine
 10
783.194265
 20
505.233078
 30
0.000000
 11
783.035714
 21
505.238990
 31
0.000000
  0
LINE
  5
779
330
1F
100
AcDbEntity
  8
0
  62
7
100
AcDbLine
 10
783.035714
 20
505.238990
 30
0.000000
 11
782.867386
 21
505.244566
 31
0.000000
  0
LINE
  5
780
330
1F
100
AcDbEntity
  8
0
  62
7
100
AcDbLine
 10
782.867386
 20
505.244566
 30
0.000000
 11
782.688850
 21
505.249812
 31
0.000000
  0
LINE
  5
781
330
1F
100
AcDbEntity
  8
0
  62
7
100
AcDbLine
 10
782.688850
 20
505.249812
 30
0.000000
 11
782.499676
 21
505.254736
 31
0.000000
  0
LINE
  5
782
330
1F
100
AcDbEntity
  8
0
  62
7
100
AcDbLine
 10
782.499676
 20
505.254736
 30
0.000000
 11
782.299436
 21
505.259346
 31
0.000000
  0
LINE
  5
783
330
1F
100
AcDbEntity
  8
0
  62
7
100
AcDbLine
 10
782.299436
 20
505.259346
 30
0.000000
 11
782.087699
 21
505.263649
 31
0.000000
  0
LINE
  5
784
330
1F
100
AcDbEntity
  8
0
  62
7
100
AcDbLine
 10
782.087699
 20
505.263649
 30
0.000000
 11
781.864035
 21
505.267653
 31
0.000000
  0
LINE
  5
785
330
1F
100
AcDbEntity
  8
0
  62
7
100
AcDbLine
 10
781.864035
 20
505.267653
 30
0.000000
 11
781.628015
 21
505.271365
 31
0.000000
  0
LINE
  5
786
330
1F
100
AcDbEntity
  8
0
  62
7
100
AcDbLine
 10
781.628015
 20
505.271365
 30
0.000000
 11
781.379209
 21
505.274793
 31
0.000000
  0
LINE
  5
787
330
1F
100
AcDbEntity
  8
0
  62
7
100
AcDbLine
 10
781.379209
 20
505.274793
 30
0.000000
 11
780.841520
 21
505.280825
 31
0.000000
  0
LINE
  5
788
330
1F
100
AcDbEntity
  8
0
  62
7
100
AcDbLine
 10
780.841520
 20
505.280825
 30
0.000000
 11
780.247531
 21
505.285812
 31
0.000000
  0
LINE
  5
789
330
1F
100
AcDbEntity
  8
0
  62
7
100
AcDbLine
 10
780.247531
 20
505.285812
 30
0.000000
 11
779.593803
 21
505.289811
 31
0.000000
  0
LINE
  5
790
330
1F
100
AcDbEntity
  8
0
  62
7
100
AcDbLine
 10
779.593803
 20
505.289811
 30
0.000000
 11
778.876898
 21
505.292885
 31
0.000000
  0
LINE
  5
791
330
1F
100
AcDbEntity
  8
0
  62
7
100
AcDbLine
 10
778.876898
 20
505.292885
 30
0.000000
 11
778.093378
 21
505.295093
 31
0.000000
  0
LINE
  5
792
330
1F
100
AcDbEntity
  8
0
  62
7
100
AcDbLine
 10
778.093378
 20
505.295093
 30
0.000000
 11
777.239806
 21
505.296495
 31
0.000000
  0
LINE
  5
793
330
1F
100
AcDbEntity
  8
0
  62
7
100
AcDbLine
 10
777.239806
 20
505.296495
 30
0.000000
 11
776.312744
 21
505.297152
 31
0.000000
  0
LINE
  5
794
330
1F
100
AcDbEntity
  8
0
  62
7
100
AcDbLine
 10
776.312744
 20
505.297152
 30
0.000000
 11
775.308753
 21
505.297124
 31
0.000000
  0
LINE
  5
795
330
1F
100
AcDbEntity
  8
0
  62
7
100
AcDbLine
 10
775.308753
 20
505.297124
 30
0.000000
 11
774.224396
 21
505.296472
 31
0.000000
  0
LINE
  5
796
330
1F
100
AcDbEntity
  8
0
  62
7
100
AcDbLine
 10
774.224396
 20
505.296472
 30
0.000000
 11
771.800831
 21
505.293533
 31
0.000000
  0
LINE
  5
797
330
1F
100
AcDbEntity
  8
0
  62
7
100
AcDbLine
 10
771.800831
 20
505.293533
 30
0.000000
 11
769.014546
 21
505.288818
 31
0.000000
  0
LINE
  5
798
330
1F
100
AcDbEntity
  8
0
  62
7
100
AcDbLine
 10
769.014546
 20
505.288818
 30
0.000000
 11
765.838038
 21
505.282809
 31
0.000000
  0
LINE
  5
799
330
1F
100
AcDbEntity
  8
0
  62
7
100
AcDbLine
 10
765.838038
 20
505.282809
 30
0.000000
 11
763.976976
 21
505.282018
 31
0.000000
  0
LINE
  5
800
330
1F
100
AcDbEntity
  8
0
  62
7
100
AcDbLine
 10
763.976976
 20
505.282018
 30
0.000000
 11
762.154740
 21
505.279730
 31
0.000000
  0
LINE
  5
801
330
1F
100
AcDbEntity
  8
0
  62
7
100
AcDbLine
 10
762.154740
 20
505.279730
 30
0.000000
 11
760.381319
 21
505.276072
 31
0.000000
  0
LINE
  5
802
330
1F
100
AcDbEntity
  8
0
  62
7
100
AcDbLine
 10
760.381319
 20
505.276072
 30
0.000000
 11
758.666711
 21
505.271171
 31
0.000000
  0
LINE
  5
803
330
1F
100
AcDbEntity
  8
0
  62
7
100
AcDbLine
 10
758.666711
 20
505.271171
 30
0.000000
 11
757.020912
 21
505.265154
 31
0.000000
  0
LINE
  5
804
330
1F
100
AcDbEntity
  8
0
  62
7
100
AcDbLine
 10
757.020912
 20
505.265154
 30
0.000000
 11
755.453920
 21
505.258147
 31
0.000000
  0
LINE
  5
805
330
1F
100
AcDbEntity
  8
0
  62
7
100
AcDbLine
 10
755.453920
 20
505.258147
 30
0.000000
 11
753.975729
 21
505.250277
 31
0.000000
  0
LINE
  5
806
330
1F
100
AcDbEntity
  8
0
  62
7
100
AcDbLine
 10
753.975729
 20
505.250277
 30
0.000000
 11
752.596338
 21
505.241672
 31
0.000000
  0
LINE
  5
807
330
1F
100
AcDbEntity
  8
0
  62
7
100
AcDbLine
 10
752.596338
 20
505.241672
 30
0.000000
 11
751.325743
 21
505.232458
 31
0.000000
  0
LINE
  5
808
330
1F
100
AcDbEntity
  8
0
  62
7
100
AcDbLine
 10
751.325743
 20
505.232458
 30
0.000000
 11
750.173940
 21
505.222761
 31
0.000000
  0
LINE
  5
809
330
1F
100
AcDbEntity
  8
0
  62
7
100
AcDbLine
 10
750.173940
 20
505.222761
 30
0.000000
 11
749.150926
 21
505.212710
 31
0.000000
  0
LINE
  5
810
330
1F
100
AcDbEntity
  8
0
  62
7
100
AcDbLine
 10
749.150926
 20
505.212710
 30
0.000000
 11
748.690839
 21
505.207590
 31
0.000000
  0
LINE
  5
811
330
1F
100
AcDbEntity
  8
0
  62
7
100
AcDbLine
 10
748.690839
 20
505.207590
 30
0.000000
 11
748.266698
 21
505.202430
 31
0.000000
  0
LINE
  5
812
330
1F
100
AcDbEntity
  8
0
  62
7
100
AcDbLine
 10
748.266698
 20
505.202430
 30
0.000000
 11
747.879752
 21
505.197244
 31
0.000000
  0
LINE
  5
813
330
1F
100
AcDbEntity
  8
0
  62
7
100
AcDbLine
 10
747.879752
 20
505.197244
 30
0.000000
 11
747.531252
 21
505.192049
 31
0.000000
  0
LINE
  5
814
330
1F
100
AcDbEntity
  8
0
  62
7
100
AcDbLine
 10
747.531252
 20
505.192049
 30
0.000000
 11
747.222446
 21
505.186860
 31
0.000000
  0
LINE
  5
815
330
1F
100
AcDbEntity
  8
0
  62
7
100
AcDbLine
 10
747.222446
 20
505.186860
 30
0.000000
 11
746.954585
 21
505.181693
 31
0.000000
  0
LINE
  5
816
330
1F
100
AcDbEntity
  8
0
  62
7
100
AcDbLine
 10
746.954585
 20
505.181693
 30
0.000000
 11
746.728917
 21
505.176564
 31
0.000000
  0
LINE
  5
817
330
1F
100
AcDbEntity
  8
0
  62
7
100
AcDbLine
 10
746.728917
 20
505.176564
 30
0.000000
 11
746.546693
 21
505.171489
 31
0.000000
  0
LINE
  5
818
330
1F
100
AcDbEntity
  8
0
  62
7
100
AcDbLine
 10
746.546693
 20
505.171489
 30
0.000000
 11
746.409162
 21
505.166484
 31
0.000000
  0
LINE
  5
819
330
1F
100
AcDbEntity
  8
0
  62
7
100
AcDbLine
 10
746.409162
 20
505.166484
 30
0.000000
 11
746.357547
 21
505.164012
 31
0.000000
  0
LINE
  5
820
330
1F
100
AcDbEntity
  8
0
  62
7
100
AcDbLine
 10
746.357547
 20
505.164012
 30
0.000000
 11
746.317574
 21
505.161564
 31
0.000000
  0
LINE
  5
821
330
1F
100
AcDbEntity
  8
0
  62
7
100
AcDbLine
 10
748.181066
 20
502.989178
 30
0.000000
 11
748.124913
 21
502.984462
 31
0.000000
  0
LINE
  5
822
330
1F
100
AcDbEntity
  8
0
  62
7
100
AcDbLine
 10
748.124913
 20
502.984462
 30
0.000000
 11
748.068987
 21
502.979296
 31
0.000000
  0
LINE
  5
823
330
1F
100
AcDbEntity
  8
0
  62
7
100
AcDbLine
 10
748.068987
 20
502.979296
 30
0.000000
 11
748.013288
 21
502.973682
 31
0.000000
  0
LINE
  5
824
330
1F
100
AcDbEntity
  8
0
  62
7
100
AcDbLine
 10
748.013288
 20
502.973682
 30
0.000000
 11
747.957816
 21
502.967622
 31
0.000000
  0
LINE
  5
825
330
1F
100
AcDbEntity
  8
0
  62
7
100
AcDbLine
 10
747.957816
 20
502.967622
 30
0.000000
 11
747.902574
 21
502.961116
 31
0.000000
  0
LINE
  5
826
330
1F
100
AcDbEntity
  8
0
  62
7
100
AcDbLine
 10
747.902574
 20
502.961116
 30
0.000000
 11
747.847561
 21
502.954168
 31
0.000000
  0
LINE
  5
827
330
1F
100
AcDbEntity
  8
0
  62
7
100
AcDbLine
 10
747.847561
 20
502.954168
 30
0.000000
 11
747.792778
 21
502.946778
 31
0.000000
  0
LINE
  5
828
330
1F
100
AcDbEntity
  8
0
  62
7
100
AcDbLine
 10
747.792778
 20
502.946778
 30
0.000000
 11
747.738225
 21
502.938949
 31
0.000000
  0
LINE
  5
829
330
1F
100
AcDbEntity
  8
0
  62
7
100
AcDbLine
 10
747.738225
 20
502.938949
 30
0.000000
 11
747.683905
 21
502.930683
 31
0.000000
  0
LINE
  5
830
330
1F
100
AcDbEntity
  8
0
  62
7
100
AcDbLine
 10
747.683905
 20
502.930683
 30
0.000000
 11
747.629817
 21
502.921980
 31
0.000000
  0
LINE
  5
831
330
1F
100
AcDbEntity
  8
0
  62
7
100
AcDbLine
 10
747.629817
 20
502.921980
 30
0.000000
 11
747.575963
 21
502.912844
 31
0.000000
  0
LINE
  5
832
330
1F
100
AcDbEntity
  8
0
  62
7
100
AcDbLine
 10
747.575963
 20
502.912844
 30
0.000000
 11
747.522342
 21
502.903275
 31
0.000000
  0
LINE
  5
833
330
1F
100
AcDbEntity
  8
0
  62
7
100
AcDbLine
 10
747.522342
 20
502.903275
 30
0.000000
 11
747.468957
 21
502.893276
 31
0.000000
  0
LINE
  5
834
330
1F
100
AcDbEntity
  8
0
  62
7
100
AcDbLine
 10
747.468957
 20
502.893276
 30
0.000000
 11
747.415807
 21
502.882848
 31
0.000000
  0
LINE
  5
835
330
1F
100
AcDbEntity
  8
0
  62
7
100
AcDbLine
 10
747.415807
 20
502.882848
 30
0.000000
 11
747.362893
 21
502.871993
 31
0.000000
  0
LINE
  5
836
330
1F
100
AcDbEntity
  8
0
  62
7
100
AcDbLine
 10
747.362893
 20
502.871993
 30
0.000000
 11
747.310217
 21
502.860713
 31
0.000000
  0
LINE
  5
837
330
1F
100
AcDbEntity
  8
0
  62
7
100
AcDbLine
 10
747.310217
 20
502.860713
 30
0.000000
 11
747.257778
 21
502.849010
 31
0.000000
  0
LINE
  5
838
330
1F
100
AcDbEntity
  8
0
  62
7
100
AcDbLine
 10
747.257778
 20
502.849010
 30
0.000000
 11
747.205579
 21
502.836886
 31
0.000000
  0
LINE
  5
839
330
1F
100
AcDbEntity
  8
0
  62
7
100
AcDbLine
 10
747.205579
 20
502.836886
 30
0.000000
 11
747.153619
 21
502.824342
 31
0.000000
  0
LINE
  5
840
330
1F
100
AcDbEntity
  8
0
  62
7
100
AcDbLine
 10
747.153619
 20
502.824342
 30
0.000000
 11
747.101899
 21
502.811380
 31
0.000000
  0
LINE
  5
841
330
1F
100
AcDbEntity
  8
0
  62
7
100
AcDbLine
 10
747.101899
 20
502.811380
 30
0.000000
 11
747.050421
 21
502.798001
 31
0.000000
  0
LINE
  5
842
330
1F
100
AcDbEntity
  8
0
  62
7
100
AcDbLine
 10
747.050421
 20
502.798001
 30
0.000000
 11
746.999184
 21
502.784209
 31
0.000000
  0
LINE
  5
843
330
1F
100
AcDbEntity
  8
0
  62
7
100
AcDbLine
 10
746.999184
 20
502.784209
 30
0.000000
 11
746.948190
 21
502.770004
 31
0.000000
  0
LINE
  5
844
330
1F
100
AcDbEntity
  8
0
  62
7
100
AcDbLine
 10
746.948190
 20
502.770004
 30
0.000000
 11
746.897439
 21
502.755388
 31
0.000000
  0
LINE
  5
845
330
1F
100
AcDbEntity
  8
0
  62
7
100
AcDbLine
 10
746.897439
 20
502.755388
 30
0.000000
 11
746.846933
 21
502.740363
 31
0.000000
  0
LINE
  5
846
330
1F
100
AcDbEntity
  8
0
  62
7
100
AcDbLine
 10
746.846933
 20
502.740363
 30
0.000000
 11
746.796671
 21
502.724931
 31
0.000000
  0
LINE
  5
847
330
1F
100
AcDbEntity
  8
0
  62
7
100
AcDbLine
 10
746.796671
 20
502.724931
 30
0.000000
 11
746.746656
 21
502.709094
 31
0.000000
  0
LINE
  5
848
330
1F
100
AcDbEntity
  8
0
  62
7
100
AcDbLine
 10
746.746656
 20
502.709094
 30
0.000000
 11
746.696887
 21
502.692853
 31
0.000000
  0
LINE
  5
849
330
1F
100
AcDbEntity
  8
0
  62
7
100
AcDbLine
 10
746.696887
 20
502.692853
 30
0.000000
 11
746.647365
 21
502.676210
 31
0.000000
  0
LINE
  5
850
330
1F
100
AcDbEntity
  8
0
  62
7
100
AcDbLine
 10
746.647365
 20
502.676210
 30
0.000000
 11
746.598092
 21
502.659167
 31
0.000000
  0
LINE
  5
851
330
1F
100
AcDbEntity
  8
0
  62
7
100
AcDbLine
 10
746.598092
 20
502.659167
 30
0.000000
 11
746.549067
 21
502.641726
 31
0.000000
  0
LINE
  5
852
330
1F
100
AcDbEntity
  8
0
  62
7
100
AcDbLine
 10
746.549067
 20
502.641726
 30
0.000000
 11
746.500292
 21
502.623889
 31
0.000000
  0
LINE
  5
853
330
1F
100
AcDbEntity
  8
0
  62
7
100
AcDbLine
 10
746.500292
 20
502.623889
 30
0.000000
 11
746.451767
 21
502.605657
 31
0.000000
  0
LINE
  5
854
330
1F
100
AcDbEntity
  8
0
  62
7
100
AcDbLine
 10
746.451767
 20
502.605657
 30
0.000000
 11
746.403494
 21
502.587032
 31
0.000000
  0
LINE
  5
855
330
1F
100
AcDbEntity
  8
0
  62
7
100
AcDbLine
 10
746.403494
 20
502.587032
 30
0.000000
 11
746.355473
 21
502.568017
 31
0.000000
  0
LINE
  5
856
330
1F
100
AcDbEntity
  8
0
  62
7
100
AcDbLine
 10
746.355473
 20
502.568017
 30
0.000000
 11
746.307705
 21
502.548612
 31
0.000000
  0
LINE
  5
857
330
1F
100
AcDbEntity
  8
0
  62
7
100
AcDbLine
 10
746.307705
 20
502.548612
 30
0.000000
 11
746.260190
 21
502.528820
 31
0.000000
  0
LINE
  5
858
330
1F
100
AcDbEntity
  8
0
  62
7
100
AcDbLine
 10
746.260190
 20
502.528820
 30
0.000000
 11
746.212930
 21
502.508641
 31
0.000000
  0
LINE
  5
859
330
1F
100
AcDbEntity
  8
0
  62
7
100
AcDbLine
 10
746.212930
 20
502.508641
 30
0.000000
 11
746.165924
 21
502.488079
 31
0.000000
  0
LINE
  5
860
330
1F
100
AcDbEntity
  8
0
  62
7
100
AcDbLine
 10
746.165924
 20
502.488079
 30
0.000000
 11
746.119175
 21
502.467135
 31
0.000000
  0
LINE
  5
861
330
1F
100
AcDbEntity
  8
0
  62
7
100
AcDbLine
 10
746.119175
 20
502.467135
 30
0.000000
 11
746.072682
 21
502.445811
 31
0.000000
  0
LINE
  5
862
330
1F
100
AcDbEntity
  8
0
  62
7
100
AcDbLine
 10
746.072682
 20
502.445811
 30
0.000000
 11
746.026447
 21
502.424108
 31
0.000000
  0
LINE
  5
863
330
1F
100
AcDbEntity
  8
0
  62
7
100
AcDbLine
 10
746.026447
 20
502.424108
 30
0.000000
 11
745.980470
 21
502.402029
 31
0.000000
  0
LINE
  5
864
330
1F
100
AcDbEntity
  8
0
  62
7
100
AcDbLine
 10
745.980470
 20
502.402029
 30
0.000000
 11
745.934753
 21
502.379574
 31
0.000000
  0
LINE
  5
865
330
1F
100
AcDbEntity
  8
0
  62
7
100
AcDbLine
 10
745.934753
 20
502.379574
 30
0.000000
 11
745.889295
 21
502.356747
 31
0.000000
  0
LINE
  5
866
330
1F
100
AcDbEntity
  8
0
  62
7
100
AcDbLine
 10
745.889295
 20
502.356747
 30
0.000000
 11
745.844097
 21
502.333548
 31
0.000000
  0
LINE
  5
867
330
1F
100
AcDbEntity
  8
0
  62
7
100
AcDbLine
 10
745.844097
 20
502.333548
 30
0.000000
 11
745.799161
 21
502.309979
 31
0.000000
  0
LINE
  5
868
330
1F
100
AcDbEntity
  8
0
  62
7
100
AcDbLine
 10
745.799161
 20
502.309979
 30
0.000000
 11
745.754488
 21
502.286043
 31
0.000000
  0
LINE
  5
869
330
1F
100
AcDbEntity
  8
0
  62
7
100
AcDbLine
 10
745.754488
 20
502.286043
 30
0.000000
 11
745.710077
 21
502.261741
 31
0.000000
  0
LINE
  5
870
330
1F
100
AcDbEntity
  8
0
  62
7
100
AcDbLine
 10
745.710077
 20
502.261741
 30
0.000000
 11
745.665930
 21
502.237075
 31
0.000000
  0
LINE
  5
871
330
1F
100
AcDbEntity
  8
0
  62
7
100
AcDbLine
 10
745.665930
 20
502.237075
 30
0.000000
 11
745.622047
 21
502.212047
 31
0.000000
  0
LINE
  5
872
330
1F
100
AcDbEntity
  8
0
  62
7
100
AcDbLine
 10
745.622047
 20
502.212047
 30
0.000000
 11
745.578430
 21
502.186658
 31
0.000000
  0
LINE
  5
873
330
1F
100
AcDbEntity
  8
0
  62
7
100
AcDbLine
 10
745.578430
 20
502.186658
 30
0.000000
 11
745.535079
 21
502.160910
 31
0.000000
  0
LINE
  5
874
330
1F
100
AcDbEntity
  8
0
  62
7
100
AcDbLine
 10
745.535079
 20
502.160910
 30
0.000000
 11
745.491995
 21
502.134805
 31
0.000000
  0
LINE
  5
875
330
1F
100
AcDbEntity
  8
0
  62
7
100
AcDbLine
 10
745.491995
 20
502.134805
 30
0.000000
 11
745.449178
 21
502.108345
 31
0.000000
  0
LINE
  5
876
330
1F
100
AcDbEntity
  8
0
  62
7
100
AcDbLine
 10
745.449178
 20
502.108345
 30
0.000000
 11
745.406630
 21
502.081531
 31
0.000000
  0
LINE
  5
877
330
1F
100
AcDbEntity
  8
0
  62
7
100
AcDbLine
 10
745.406630
 20
502.081531
 30
0.000000
 11
745.364351
 21
502.054366
 31
0.000000
  0
LINE
  5
878
330
1F
100
AcDbEntity
  8
0
  62
7
100
AcDbLine
 10
745.364351
 20
502.054366
 30
0.000000
 11
745.322342
 21
502.026851
 31
0.000000
  0
LINE
  5
879
330
1F
100
AcDbEntity
  8
0
  62
7
100
AcDbLine
 10
745.322342
 20
502.026851
 30
0.000000
 11
745.280603
 21
501.998988
 31
0.000000
  0
LINE
  5
880
330
1F
100
AcDbEntity
  8
0
  62
7
100
AcDbLine
 10
745.280603
 20
501.998988
 30
0.000000
 11
745.239137
 21
501.970779
 31
0.000000
  0
LINE
  5
881
330
1F
100
AcDbEntity
  8
0
  62
7
100
AcDbLine
 10
745.239137
 20
501.970779
 30
0.000000
 11
745.197942
 21
501.942225
 31
0.000000
  0
LINE
  5
882
330
1F
100
AcDbEntity
  8
0
  62
7
100
AcDbLine
 10
745.197942
 20
501.942225
 30
0.000000
 11
745.157021
 21
501.913329
 31
0.000000
  0
LINE
  5
883
330
1F
100
AcDbEntity
  8
0
  62
7
100
AcDbLine
 10
745.157021
 20
501.913329
 30
0.000000
 11
745.116373
 21
501.884092
 31
0.000000
  0
LINE
  5
884
330
1F
100
AcDbEntity
  8
0
  62
7
100
AcDbLine
 10
745.116373
 20
501.884092
 30
0.000000
 11
745.076001
 21
501.854516
 31
0.000000
  0
LINE
  5
885
330
1F
100
AcDbEntity
  8
0
  62
7
100
AcDbLine
 10
745.076001
 20
501.854516
 30
0.000000
 11
745.035903
 21
501.824602
 31
0.000000
  0
LINE
  5
886
330
1F
100
AcDbEntity
  8
0
  62
7
100
AcDbLine
 10
745.035903
 20
501.824602
 30
0.000000
 11
744.996082
 21
501.794353
 31
0.000000
  0
LINE
  5
887
330
1F
100
AcDbEntity
  8
0
  62
7
100
AcDbLine
 10
744.996082
 20
501.794353
 30
0.000000
 11
744.956538
 21
501.763770
 31
0.000000
  0
LINE
  5
888
330
1F
100
AcDbEntity
  8
0
  62
7
100
AcDbLine
 10
744.956538
 20
501.763770
 30
0.000000
 11
744.917272
 21
501.732856
 31
0.000000
  0
LINE
  5
889
330
1F
100
AcDbEntity
  8
0
  62
7
100
AcDbLine
 10
744.917272
 20
501.732856
 30
0.000000
 11
744.878284
 21
501.701611
 31
0.000000
  0
LINE
  5
890
330
1F
100
AcDbEntity
  8
0
  62
7
100
AcDbLine
 10
744.878284
 20
501.701611
 30
0.000000
 11
744.839576
 21
501.670038
 31
0.000000
  0
LINE
  5
891
330
1F
100
AcDbEntity
  8
0
  62
7
100
AcDbLine
 10
744.839576
 20
501.670038
 30
0.000000
 11
744.801148
 21
501.638139
 31
0.000000
  0
LINE
  5
892
330
1F
100
AcDbEntity
  8
0
  62
7
100
AcDbLine
 10
744.801148
 20
501.638139
 30
0.000000
 11
744.763000
 21
501.605915
 31
0.000000
  0
LINE
  5
893
330
1F
100
AcDbEntity
  8
0
  62
7
100
AcDbLine
 10
744.763000
 20
501.605915
 30
0.000000
 11
744.725135
 21
501.573367
 31
0.000000
  0
LINE
  5
894
330
1F
100
AcDbEntity
  8
0
  62
7
100
AcDbLine
 10
744.725135
 20
501.573367
 30
0.000000
 11
744.687551
 21
501.540499
 31
0.000000
  0
LINE
  5
895
330
1F
100
AcDbEntity
  8
0
  62
7
100
AcDbLine
 10
744.687551
 20
501.540499
 30
0.000000
 11
744.650251
 21
501.507311
 31
0.000000
  0
LINE
  5
896
330
1F
100
AcDbEntity
  8
0
  62
7
100
AcDbLine
 10
744.650251
 20
501.507311
 30
0.000000
 11
744.613236
 21
501.473806
 31
0.000000
  0
LINE
  5
897
330
1F
100
AcDbEntity
  8
0
  62
7
100
AcDbLine
 10
744.613236
 20
501.473806
 30
0.000000
 11
744.576505
 21
501.439985
 31
0.000000
  0
LINE
  5
898
330
1F
100
AcDbEntity
  8
0
  62
7
100
AcDbLine
 10
744.576505
 20
501.439985
 30
0.000000
 11
744.540059
 21
501.405850
 31
0.000000
  0
LINE
  5
899
330
1F
100
AcDbEntity
  8
0
  62
7
100
AcDbLine
 10
744.540059
 20
501.405850
 30
0.000000
 11
744.503900
 21
501.371403
 31
0.000000
  0
LINE
  5
900
330
1F
100
AcDbEntity
  8
0
  62
7
100
AcDbLine
 10
744.503900
 20
501.371403
 30
0.000000
 11
744.468028
 21
501.336645
 31
0.000000
  0
LINE
  5
901
330
1F
100
AcDbEntity
  8
0
  62
7
100
AcDbLine
 10
744.468028
 20
501.336645
 30
0.000000
 11
744.432444
 21
501.301579
 31
0.000000
  0
LINE
  5
902
330
1F
100
AcDbEntity
  8
0
  62
7
100
AcDbLine
 10
744.432444
 20
501.301579
 30
0.000000
 11
744.397149
 21
501.266206
 31
0.000000
  0
LINE
  5
903
330
1F
100
AcDbEntity
  8
0
  62
7
100
AcDbLine
 10
744.397149
 20
501.266206
 30
0.000000
 11
744.362143
 21
501.230527
 31
0.000000
  0
LINE
  5
904
330
1F
100
AcDbEntity
  8
0
  62
7
100
AcDbLine
 10
744.362143
 20
501.230527
 30
0.000000
 11
744.327427
 21
501.194546
 31
0.000000
  0
LINE
  5
905
330
1F
100
AcDbEntity
  8
0
  62
7
100
AcDbLine
 10
744.327427
 20
501.194546
 30
0.000000
 11
744.293003
 21
501.158263
 31
0.000000
  0
LINE
  5
906
330
1F
100
AcDbEntity
  8
0
  62
7
100
AcDbLine
 10
744.293003
 20
501.158263
 30
0.000000
 11
744.258870
 21
501.121681
 31
0.000000
  0
LINE
  5
907
330
1F
100
AcDbEntity
  8
0
  62
7
100
AcDbLine
 10
744.258870
 20
501.121681
 30
0.000000
 11
744.225030
 21
501.084800
 31
0.000000
  0
LINE
  5
908
330
1F
100
AcDbEntity
  8
0
  62
7
100
AcDbLine
 10
744.225030
 20
501.084800
 30
0.000000
 11
744.191484
 21
501.047624
 31
0.000000
  0
LINE
  5
909
330
1F
100
AcDbEntity
  8
0
  62
7
100
AcDbLine
 10
744.191484
 20
501.047624
 30
0.000000
 11
744.158231
 21
501.010154
 31
0.000000
  0
LINE
  5
910
330
1F
100
AcDbEntity
  8
0
  62
7
100
AcDbLine
 10
744.158231
 20
501.010154
 30
0.000000
 11
744.125274
 21
500.972391
 31
0.000000
  0
LINE
  5
911
330
1F
100
AcDbEntity
  8
0
  62
7
100
AcDbLine
 10
744.125274
 20
500.972391
 30
0.000000
 11
744.092612
 21
500.934337
 31
0.000000
  0
LINE
  5
912
330
1F
100
AcDbEntity
  8
0
  62
7
100
AcDbLine
 10
744.092612
 20
500.934337
 30
0.000000
 11
744.060247
 21
500.895994
 31
0.000000
  0
LINE
  5
913
330
1F
100
AcDbEntity
  8
0
  62
7
100
AcDbLine
 10
744.060247
 20
500.895994
 30
0.000000
 11
744.028179
 21
500.857364
 31
0.000000
  0
LINE
  5
914
330
1F
100
AcDbEntity
  8
0
  62
7
100
AcDbLine
 10
744.028179
 20
500.857364
 30
0.000000
 11
743.996409
 21
500.818449
 31
0.000000
  0
LINE
  5
915
330
1F
100
AcDbEntity
  8
0
  62
7
100
AcDbLine
 10
743.996409
 20
500.818449
 30
0.000000
 11
743.964938
 21
500.779251
 31
0.000000
  0
LINE
  5
916
330
1F
100
AcDbEntity
  8
0
  62
7
100
AcDbLine
 10
743.964938
 20
500.779251
 30
0.000000
 11
743.933766
 21
500.739770
 31
0.000000
  0
LINE
  5
917
330
1F
100
AcDbEntity
  8
0
  62
7
100
AcDbLine
 10
743.933766
 20
500.739770
 30
0.000000
 11
743.902896
 21
500.700010
 31
0.000000
  0
LINE
  5
918
330
1F
100
AcDbEntity
  8
0
  62
7
100
AcDbLine
 10
743.902896
 20
500.700010
 30
0.000000
 11
743.872326
 21
500.659971
 31
0.000000
  0
LINE
  5
919
330
1F
100
AcDbEntity
  8
0
  62
7
100
AcDbLine
 10
743.872326
 20
500.659971
 30
0.000000
 11
743.842058
 21
500.619657
 31
0.000000
  0
LINE
  5
920
330
1F
100
AcDbEntity
  8
0
  62
7
100
AcDbLine
 10
743.842058
 20
500.619657
 30
0.000000
 11
743.812093
 21
500.579067
 31
0.000000
  0
LINE
  5
921
330
1F
100
AcDbEntity
  8
0
  62
7
100
AcDbLine
 10
743.812093
 20
500.579067
 30
0.000000
 11
743.782432
 21
500.538205
 31
0.000000
  0
LINE
  5
922
330
1F
100
AcDbEntity
  8
0
  62
7
100
AcDbLine
 10
743.782432
 20
500.538205
 30
0.000000
 11
743.753075
 21
500.497072
 31
0.000000
  0
LINE
  5
923
330
1F
100
AcDbEntity
  8
0
  62
7
100
AcDbLine
 10
743.753075
 20
500.497072
 30
0.000000
 11
743.724023
 21
500.455670
 31
0.000000
  0
LINE
  5
924
330
1F
100
AcDbEntity
  8
0
  62
7
100
AcDbLine
 10
743.724023
 20
500.455670
 30
0.000000
 11
743.695276
 21
500.414000
 31
0.000000
  0
LINE
  5
925
330
1F
100
AcDbEntity
  8
0
  62
7
100
AcDbLine
 10
743.695276
 20
500.414000
 30
0.000000
 11
743.666837
 21
500.372065
 31
0.000000
  0
LINE
  5
926
330
1F
100
AcDbEntity
  8
0
  62
7
100
AcDbLine
 10
743.666837
 20
500.372065
 30
0.000000
 11
743.638705
 21
500.329865
 31
0.000000
  0
LINE
  5
927
330
1F
100
AcDbEntity
  8
0
  62
7
100
AcDbLine
 10
743.638705
 20
500.329865
 30
0.000000
 11
743.610881
 21
500.287404
 31
0.000000
  0
LINE
  5
928
330
1F
100
AcDbEntity
  8
0
  62
7
100
AcDbLine
 10
743.610881
 20
500.287404
 30
0.000000
 11
743.583366
 21
500.244683
 31
0.000000
  0
LINE
  5
929
330
1F
100
AcDbEntity
  8
0
  62
7
100
AcDbLine
 10
743.583366
 20
500.244683
 30
0.000000
 11
743.556161
 21
500.201703
 31
0.000000
  0
LINE
  5
930
330
1F
100
AcDbEntity
  8
0
  62
7
100
AcDbLine
 10
743.556161
 20
500.201703
 30
0.000000
 11
743.529267
 21
500.158467
 31
0.000000
  0
LINE
  5
931
330
1F
100
AcDbEntity
  8
0
  62
7
100
AcDbLine
 10
743.529267
 20
500.158467
 30
0.000000
 11
743.502684
 21
500.114975
 31
0.000000
  0
LINE
  5
932
330
1F
100
AcDbEntity
  8
0
  62
7
100
AcDbLine
 10
743.502684
 20
500.114975
 30
0.000000
 11
743.476413
 21
500.071231
 31
0.000000
  0
LINE
  5
933
330
1F
100
AcDbEntity
  8
0
  62
7
100
AcDbLine
 10
743.476413
 20
500.071231
 30
0.000000
 11
743.450455
 21
500.027235
 31
0.000000
  0
LINE
  5
934
330
1F
100
AcDbEntity
  8
0
  62
7
100
AcDbLine
 10
743.450455
 20
500.027235
 30
0.000000
 11
743.424811
 21
499.982990
 31
0.000000
  0
LINE
  5
935
330
1F
100
AcDbEntity
  8
0
  62
7
100
AcDbLine
 10
743.424811
 20
499.982990
 30
0.000000
 11
743.399481
 21
499.938497
 31
0.000000
  0
LINE
  5
936
330
1F
100
AcDbEntity
  8
0
  62
7
100
AcDbLine
 10
743.399481
 20
499.938497
 30
0.000000
 11
743.374466
 21
499.893759
 31
0.000000
  0
LINE
  5
937
330
1F
100
AcDbEntity
  8
0
  62
7
100
AcDbLine
 10
743.374466
 20
499.893759
 30
0.000000
 11
743.349768
 21
499.848776
 31
0.000000
  0
LINE
  5
938
330
1F
100
AcDbEntity
  8
0
  62
7
100
AcDbLine
 10
743.349768
 20
499.848776
 30
0.000000
 11
743.325386
 21
499.803551
 31
0.000000
  0
LINE
  5
939
330
1F
100
AcDbEntity
  8
0
  62
7
100
AcDbLine
 10
743.325386
 20
499.803551
 30
0.000000
 11
743.301322
 21
499.758085
 31
0.000000
  0
LINE
  5
940
330
1F
100
AcDbEntity
  8
0
  62
7
100
AcDbLine
 10
743.301322
 20
499.758085
 30
0.000000
 11
743.277576
 21
499.712380
 31
0.000000
  0
LINE
  5
941
330
1F
100
AcDbEntity
  8
0
  62
7
100
AcDbLine
 10
743.277576
 20
499.712380
 30
0.000000
 11
743.254149
 21
499.666439
 31
0.000000
  0
LINE
  5
942
330
1F
100
AcDbEntity
  8
0
  62
7
100
AcDbLine
 10
743.254149
 20
499.666439
 30
0.000000
 11
743.231042
 21
499.620262
 31
0.000000
  0
LINE
  5
943
330
1F
100
AcDbEntity
  8
0
  62
7
100
AcDbLine
 10
743.231042
 20
499.620262
 30
0.000000
 11
743.208256
 21
499.573853
 31
0.000000
  0
LINE
  5
944
330
1F
100
AcDbEntity
  8
0
  62
7
100
AcDbLine
 10
743.208256
 20
499.573853
 30
0.000000
 11
743.185792
 21
499.527212
 31
0.000000
  0
LINE
  5
945
330
1F
100
AcDbEntity
  8
0
  62
7
100
AcDbLine
 10
743.185792
 20
499.527212
 30
0.000000
 11
743.163650
 21
499.480340
 31
0.000000
  0
LINE
  5
946
330
1F
100
AcDbEntity
  8
0
  62
7
100
AcDbLine
 10
743.163650
 20
499.480340
 30
0.000000
 11
743.141831
 21
499.433241
 31
0.000000
  0
LINE
  5
947
330
1F
100
AcDbEntity
  8
0
  62
7
100
AcDbLine
 10
743.141831
 20
499.433241
 30
0.000000
 11
743.120335
 21
499.385916
 31
0.000000
  0
LINE
  5
948
330
1F
100
AcDbEntity
  8
0
  62
7
100
AcDbLine
 10
743.120335
 20
499.385916
 30
0.000000
 11
743.099165
 21
499.338366
 31
0.000000
  0
LINE
  5
949
330
1F
100
AcDbEntity
  8
0
  62
7
100
AcDbLine
 10
743.099165
 20
499.338366
 30
0.000000
 11
743.078319
 21
499.290594
 31
0.000000
  0
LINE
  5
950
330
1F
100
AcDbEntity
  8
0
  62
7
100
AcDbLine
 10
743.078319
 20
499.290594
 30
0.000000
 11
743.057800
 21
499.242601
 31
0.000000
  0
LINE
  5
951
330
1F
100
AcDbEntity
  8
0
  62
7
100
AcDbLine
 10
743.057800
 20
499.242601
 30
0.000000
 11
743.017743
 21
499.145959
 31
0.000000
  0
LINE
  5
952
330
1F
100
AcDbEntity
  8
0
  62
7
100
AcDbLine
 10
743.017743
 20
499.145959
 30
0.000000
 11
742.979001
 21
499.048456
 31
0.000000
  0
LINE
  5
953
330
1F
100
AcDbEntity
  8
0
  62
7
100
AcDbLine
 10
742.979001
 20
499.048456
 30
0.000000
 11
742.941579
 21
498.950105
 31
0.000000
  0
LINE
  5
954
330
1F
100
AcDbEntity
  8
0
  62
7
100
AcDbLine
 10
742.941579
 20
498.950105
 30
0.000000
 11
742.905483
 21
498.850921
 31
0.000000
  0
LINE
  5
955
330
1F
100
AcDbEntity
  8
0
  62
7
100
AcDbLine
 10
742.905483
 20
498.850921
 30
0.000000
 11
742.870720
 21
498.750919
 31
0.000000
  0
LINE
  5
956
330
1F
100
AcDbEntity
  8
0
  62
7
100
AcDbLine
 10
742.870720
 20
498.750919
 30
0.000000
 11
742.837296
 21
498.650112
 31
0.000000
  0
LINE
  5
957
330
1F
100
AcDbEntity
  8
0
  62
7
100
AcDbLine
 10
742.837296
 20
498.650112
 30
0.000000
 11
742.805218
 21
498.548515
 31
0.000000
  0
LINE
  5
958
330
1F
100
AcDbEntity
  8
0
  62
7
100
AcDbLine
 10
742.805218
 20
498.548515
 30
0.000000
 11
742.774491
 21
498.446142
 31
0.000000
  0
LINE
  5
959
330
1F
100
AcDbEntity
  8
0
  62
7
100
AcDbLine
 10
742.774491
 20
498.446142
 30
0.000000
 11
742.745122
 21
498.343008
 31
0.000000
  0
LINE
  5
960
330
1F
100
AcDbEntity
  8
0
  62
7
100
AcDbLine
 10
742.745122
 20
498.343008
 30
0.000000
 11
742.717117
 21
498.239127
 31
0.000000
  0
LINE
  5
961
330
1F
100
AcDbEntity
  8
0
  62
7
100
AcDbLine
 10
742.717117
 20
498.239127
 30
0.000000
 11
742.690482
 21
498.134513
 31
0.000000
  0
LINE
  5
962
330
1F
100
AcDbEntity
  8
0
  62
7
100
AcDbLine
 10
742.690482
 20
498.134513
 30
0.000000
 11
742.665223
 21
498.029181
 31
0.000000
  0
LINE
  5
963
330
1F
100
AcDbEntity
  8
0
  62
7
100
AcDbLine
 10
742.665223
 20
498.029181
 30
0.000000
 11
742.641348
 21
497.923144
 31
0.000000
  0
LINE
  5
964
330
1F
100
AcDbEntity
  8
0
  62
7
100
AcDbLine
 10
742.641348
 20
497.923144
 30
0.000000
 11
742.618861
 21
497.816418
 31
0.000000
  0
LINE
  5
965
330
1F
100
AcDbEntity
  8
0
  62
7
100
AcDbLine
 10
742.618861
 20
497.816418
 30
0.000000
 11
742.597770
 21
497.709017
 31
0.000000
  0
LINE
  5
966
330
1F
100
AcDbEntity
  8
0
  62
7
100
AcDbLine
 10
742.597770
 20
497.709017
 30
0.000000
 11
742.578080
 21
497.600954
 31
0.000000
  0
LINE
  5
967
330
1F
100
AcDbEntity
  8
0
  62
7
100
AcDbLine
 10
742.578080
 20
497.600954
 30
0.000000
 11
742.559798
 21
497.492245
 31
0.000000
  0
LINE
  5
968
330
1F
100
AcDbEntity
  8
0
  62
7
100
AcDbLine
 10
742.559798
 20
497.492245
 30
0.000000
 11
742.542930
 21
497.382903
 31
0.000000
  0
LINE
  5
969
330
1F
100
AcDbEntity
  8
0
  62
7
100
AcDbLine
 10
742.542930
 20
497.382903
 30
0.000000
 11
742.527482
 21
497.272943
 31
0.000000
  0
LINE
  5
970
330
1F
100
AcDbEntity
  8
0
  62
7
100
AcDbLine
 10
742.527482
 20
497.272943
 30
0.000000
 11
742.513461
 21
497.162380
 31
0.000000
  0
LINE
  5
971
330
1F
100
AcDbEntity
  8
0
  62
7
100
AcDbLine
 10
742.513461
 20
497.162380
 30
0.000000
 11
742.500872
 21
497.051227
 31
0.000000
  0
LINE
  5
972
330
1F
100
AcDbEntity
  8
0
  62
7
100
AcDbLine
 10
742.500872
 20
497.051227
 30
0.000000
 11
742.489722
 21
496.939499
 31
0.000000
  0
LINE
  5
973
330
1F
100
AcDbEntity
  8
0
  62
7
100
AcDbLine
 10
742.489722
 20
496.939499
 30
0.000000
 11
742.480018
 21
496.827210
 31
0.000000
  0
LINE
  5
974
330
1F
100
AcDbEntity
  8
0
  62
7
100
AcDbLine
 10
742.480018
 20
496.827210
 30
0.000000
 11
742.471765
 21
496.714375
 31
0.000000
  0
LINE
  5
975
330
1F
100
AcDbEntity
  8
0
  62
7
100
AcDbLine
 10
742.471765
 20
496.714375
 30
0.000000
 11
742.464969
 21
496.601008
 31
0.000000
  0
LINE
  5
976
330
1F
100
AcDbEntity
  8
0
  62
7
100
AcDbLine
 10
742.464969
 20
496.601008
 30
0.000000
 11
742.459638
 21
496.487123
 31
0.000000
  0
LINE
  5
977
330
1F
100
AcDbEntity
  8
0
  62
7
100
AcDbLine
 10
742.459638
 20
496.487123
 30
0.000000
 11
742.455776
 21
496.372735
 31
0.000000
  0
LINE
  5
978
330
1F
100
AcDbEntity
  8
0
  62
7
100
AcDbLine
 10
742.455776
 20
496.372735
 30
0.000000
 11
742.453392
 21
496.257858
 31
0.000000
  0
LINE
  5
979
330
1F
100
AcDbEntity
  8
0
  62
7
100
AcDbLine
 10
742.453392
 20
496.257858
 30
0.000000
 11
742.452489
 21
496.142505
 31
0.000000
  0
LINE
  5
980
330
1F
100
AcDbEntity
  8
0
  62
7
100
AcDbLine
 10
742.452489
 20
496.142505
 30
0.000000
 11
742.453076
 21
496.026693
 31
0.000000
  0
LINE
  5
981
330
1F
100
AcDbEntity
  8
0
  62
7
100
AcDbLine
 10
742.453076
 20
496.026693
 30
0.000000
 11
742.455158
 21
495.910435
 31
0.000000
  0
LINE
  5
982
330
1F
100
AcDbEntity
  8
0
  62
7
100
AcDbLine
 10
742.455158
 20
495.910435
 30
0.000000
 11
742.458741
 21
495.793745
 31
0.000000
  0
LINE
  5
983
330
1F
100
AcDbEntity
  8
0
  62
7
100
AcDbLine
 10
742.458741
 20
495.793745
 30
0.000000
 11
742.463832
 21
495.676637
 31
0.000000
  0
LINE
  5
984
330
1F
100
AcDbEntity
  8
0
  62
7
100
AcDbLine
 10
742.463832
 20
495.676637
 30
0.000000
 11
742.470437
 21
495.559126
 31
0.000000
  0
LINE
  5
985
330
1F
100
AcDbEntity
  8
0
  62
7
100
AcDbLine
 10
742.470437
 20
495.559126
 30
0.000000
 11
742.478562
 21
495.441227
 31
0.000000
  0
LINE
  5
986
330
1F
100
AcDbEntity
  8
0
  62
7
100
AcDbLine
 10
742.478562
 20
495.441227
 30
0.000000
 11
742.488213
 21
495.322953
 31
0.000000
  0
LINE
  5
987
330
1F
100
AcDbEntity
  8
0
  62
7
100
AcDbLine
 10
742.488213
 20
495.322953
 30
0.000000
 11
742.499397
 21
495.204320
 31
0.000000
  0
LINE
  5
988
330
1F
100
AcDbEntity
  8
0
  62
7
100
AcDbLine
 10
742.499397
 20
495.204320
 30
0.000000
 11
742.512120
 21
495.085340
 31
0.000000
  0
LINE
  5
989
330
1F
100
AcDbEntity
  8
0
  62
7
100
AcDbLine
 10
742.512120
 20
495.085340
 30
0.000000
 11
742.526388
 21
494.966029
 31
0.000000
  0
LINE
  5
990
330
1F
100
AcDbEntity
  8
0
  62
7
100
AcDbLine
 10
742.526388
 20
494.966029
 30
0.000000
 11
742.542207
 21
494.846402
 31
0.000000
  0
LINE
  5
991
330
1F
100
AcDbEntity
  8
0
  62
7
100
AcDbLine
 10
742.542207
 20
494.846402
 30
0.000000
 11
742.559584
 21
494.726471
 31
0.000000
  0
LINE
  5
992
330
1F
100
AcDbEntity
  8
0
  62
7
100
AcDbLine
 10
742.559584
 20
494.726471
 30
0.000000
 11
742.578524
 21
494.606252
 31
0.000000
  0
LINE
  5
993
330
1F
100
AcDbEntity
  8
0
  62
7
100
AcDbLine
 10
742.578524
 20
494.606252
 30
0.000000
 11
742.599035
 21
494.485759
 31
0.000000
  0
LINE
  5
994
330
1F
100
AcDbEntity
  8
0
  62
7
100
AcDbLine
 10
742.599035
 20
494.485759
 30
0.000000
 11
742.621122
 21
494.365006
 31
0.000000
  0
LINE
  5
995
330
1F
100
AcDbEntity
  8
0
  62
7
100
AcDbLine
 10
742.621122
 20
494.365006
 30
0.000000
 11
742.644792
 21
494.244009
 31
0.000000
  0
LINE
  5
996
330
1F
100
AcDbEntity
  8
0
  62
7
100
AcDbLine
 10
742.644792
 20
494.244009
 30
0.000000
 11
742.670050
 21
494.122779
 31
0.000000
  0
LINE
  5
997
330
1F
100
AcDbEntity
  8
0
  62
7
100
AcDbLine
 10
742.670050
 20
494.122779
 30
0.000000
 11
742.696904
 21
494.001334
 31
0.000000
  0
LINE
  5
998
330
1F
100
AcDbEntity
  8
0
  62
7
100
AcDbLine
 10
742.696904
 20
494.001334
 30
0.000000
 11
742.725358
 21
493.879686
 31
0.000000
  0
LINE
  5
999
330
1F
100
AcDbEntity
  8
0
  62
7
100
AcDbLine
 10
742.725358
 20
493.879686
 30
0.000000
 11
742.755421
 21
493.757849
 31
0.000000
  0
LINE
  5
1000
330
1F
100
AcDbEntity
  8
0
  62
7
100
AcDbLine
 10
742.755421
 20
493.757849
 30
0.000000
 11
742.787097
 21
493.635840
 31
0.000000
  0
LINE
  5
1001
330
1F
100
AcDbEntity
  8
0
  62
7
100
AcDbLine
 10
742.787097
 20
493.635840
 30
0.000000
 11
742.820393
 21
493.513670
 31
0.000000
  0
LINE
  5
1002
330
1F
100
AcDbEntity
  8
0
  62
7
100
AcDbLine
 10
742.820393
 20
493.513670
 30
0.000000
 11
742.855315
 21
493.391356
 31
0.000000
  0
LINE
  5
1003
330
1F
100
AcDbEntity
  8
0
  62
7
100
AcDbLine
 10
742.855315
 20
493.391356
 30
0.000000
 11
742.891870
 21
493.268911
 31
0.000000
  0
LINE
  5
1004
330
1F
100
AcDbEntity
  8
0
  62
7
100
AcDbLine
 10
742.891870
 20
493.268911
 30
0.000000
 11
742.930064
 21
493.146350
 31
0.000000
  0
LINE
  5
1005
330
1F
100
AcDbEntity
  8
0
  62
7
100
AcDbLine
 10
742.930064
 20
493.146350
 30
0.000000
 11
742.969903
 21
493.023687
 31
0.000000
  0
LINE
  5
1006
330
1F
100
AcDbEntity
  8
0
  62
7
100
AcDbLine
 10
742.969903
 20
493.023687
 30
0.000000
 11
743.011393
 21
492.900935
 31
0.000000
  0
LINE
  5
1007
330
1F
100
AcDbEntity
  8
0
  62
7
100
AcDbLine
 10
743.011393
 20
492.900935
 30
0.000000
 11
743.054540
 21
492.778111
 31
0.000000
  0
LINE
  5
1008
330
1F
100
AcDbEntity
  8
0
  62
7
100
AcDbLine
 10
743.054540
 20
492.778111
 30
0.000000
 11
743.099351
 21
492.655228
 31
0.000000
  0
LINE
  5
1009
330
1F
100
AcDbEntity
  8
0
  62
7
100
AcDbLine
 10
743.099351
 20
492.655228
 30
0.000000
 11
743.122383
 21
492.593768
 31
0.000000
  0
LINE
  5
1010
330
1F
100
AcDbEntity
  8
0
  62
7
100
AcDbLine
 10
743.122383
 20
492.593768
 30
0.000000
 11
743.145833
 21
492.532300
 31
0.000000
  0
LINE
  5
1011
330
1F
100
AcDbEntity
  8
0
  62
7
100
AcDbLine
 10
743.145833
 20
492.532300
 30
0.000000
 11
743.169701
 21
492.470823
 31
0.000000
  0
LINE
  5
1012
330
1F
100
AcDbEntity
  8
0
  62
7
100
AcDbLine
 10
743.169701
 20
492.470823
 30
0.000000
 11
743.193990
 21
492.409341
 31
0.000000
  0
LINE
  5
1013
330
1F
100
AcDbEntity
  8
0
  62
7
100
AcDbLine
 10
743.193990
 20
492.409341
 30
0.000000
 11
743.218699
 21
492.347855
 31
0.000000
  0
LINE
  5
1014
330
1F
100
AcDbEntity
  8
0
  62
7
100
AcDbLine
 10
743.218699
 20
492.347855
 30
0.000000
 11
743.243830
 21
492.286366
 31
0.000000
  0
LINE
  5
1015
330
1F
100
AcDbEntity
  8
0
  62
7
100
AcDbLine
 10
743.243830
 20
492.286366
 30
0.000000
 11
743.269383
 21
492.224878
 31
0.000000
  0
LINE
  5
1016
330
1F
100
AcDbEntity
  8
0
  62
7
100
AcDbLine
 10
743.269383
 20
492.224878
 30
0.000000
 11
743.295358
 21
492.163391
 31
0.000000
  0
LINE
  5
1017
330
1F
100
AcDbEntity
  8
0
  62
7
100
AcDbLine
 10
743.295358
 20
492.163391
 30
0.000000
 11
743.321758
 21
492.101906
 31
0.000000
  0
LINE
  5
1018
330
1F
100
AcDbEntity
  8
0
  62
7
100
AcDbLine
 10
743.321758
 20
492.101906
 30
0.000000
 11
743.348582
 21
492.040427
 31
0.000000
  0
LINE
  5
1019
330
1F
100
AcDbEntity
  8
0
  62
7
100
AcDbLine
 10
743.348582
 20
492.040427
 30
0.000000
 11
743.382442
 21
491.964423
 31
0.000000
  0
LINE
  5
1020
330
1F
100
AcDbEntity
  8
0
  62
7
100
AcDbLine
 10
743.382442
 20
491.964423
 30
0.000000
 11
743.416819
 21
491.888336
 31
0.000000
  0
LINE
  5
1021
330
1F
100
AcDbEntity
  8
0
  62
7
100
AcDbLine
 10
743.416819
 20
491.888336
 30
0.000000
 11
743.451753
 21
491.812104
 31
0.000000
  0
LINE
  5
1022
330
1F
100
AcDbEntity
  8
0
  62
7
100
AcDbLine
 10
743.451753
 20
491.812104
 30
0.000000
 11
743.487282
 21
491.735663
 31
0.000000
  0
LINE
  5
1023
330
1F
100
AcDbEntity
  8
0
  62
7
100
AcDbLine
 10
743.487282
 20
491.735663
 30
0.000000
 11
743.523445
 21
491.658954
 31
0.000000
  0
LINE
  5
1024
330
1F
100
AcDbEntity
  8
0
  62
7
100
AcDbLine
 10
743.523445
 20
491.658954
 30
0.000000
 11
743.560280
 21
491.581912
 31
0.000000
  0
LINE
  5
1025
330
1F
100
AcDbEntity
  8
0
  62
7
100
AcDbLine
 10
743.560280
 20
491.581912
 30
0.000000
 11
743.597825
 21
491.504476
 31
0.000000
  0
LINE
  5
1026
330
1F
100
AcDbEntity
  8
0
  62
7
100
AcDbLine
 10
743.597825
 20
491.504476
 30
0.000000
 11
743.636120
 21
491.426584
 31
0.000000
  0
LINE
  5
1027
330
1F
100
AcDbEntity
  8
0
  62
7
100
AcDbLine
 10
743.636120
 20
491.426584
 30
0.000000
 11
743.675203
 21
491.348175
 31
0.000000
  0
LINE
  5
1028
330
1F
100
AcDbEntity
  8
0
  62
7
100
AcDbLine
 10
743.675203
 20
491.348175
 30
0.000000
 11
743.715112
 21
491.269185
 31
0.000000
  0
LINE
  5
1029
330
1F
100
AcDbEntity
  8
0
  62
7
100
AcDbLine
 10
743.715112
 20
491.269185
 30
0.000000
 11
743.755886
 21
491.189553
 31
0.000000
  0
LINE
  5
1030
330
1F
100
AcDbEntity
  8
0
  62
7
100
AcDbLine
 10
743.755886
 20
491.189553
 30
0.000000
 11
743.797563
 21
491.109216
 31
0.000000
  0
LINE
  5
1031
330
1F
100
AcDbEntity
  8
0
  62
7
100
AcDbLine
 10
743.797563
 20
491.109216
 30
0.000000
 11
743.840183
 21
491.028114
 31
0.000000
  0
LINE
  5
1032
330
1F
100
AcDbEntity
  8
0
  62
7
100
AcDbLine
 10
743.840183
 20
491.028114
 30
0.000000
 11
743.883782
 21
490.946183
 31
0.000000
  0
LINE
  5
1033
330
1F
100
AcDbEntity
  8
0
  62
7
100
AcDbLine
 10
743.883782
 20
490.946183
 30
0.000000
 11
743.928401
 21
490.863361
 31
0.000000
  0
LINE
  5
1034
330
1F
100
AcDbEntity
  8
0
  62
7
100
AcDbLine
 10
743.928401
 20
490.863361
 30
0.000000
 11
743.974077
 21
490.779588
 31
0.000000
  0
LINE
  5
1035
330
1F
100
AcDbEntity
  8
0
  62
7
100
AcDbLine
 10
743.974077
 20
490.779588
 30
0.000000
 11
744.020850
 21
490.694799
 31
0.000000
  0
LINE
  5
1036
330
1F
100
AcDbEntity
  8
0
  62
7
100
AcDbLine
 10
744.020850
 20
490.694799
 30
0.000000
 11
744.068757
 21
490.608934
 31
0.000000
  0
LINE
  5
1037
330
1F
100
AcDbEntity
  8
0
  62
7
100
AcDbLine
 10
744.068757
 20
490.608934
 30
0.000000
 11
744.117837
 21
490.521931
 31
0.000000
  0
LINE
  5
1038
330
1F
100
AcDbEntity
  8
0
  62
7
100
AcDbLine
 10
744.117837
 20
490.521931
 30
0.000000
 11
744.168129
 21
490.433727
 31
0.000000
  0
LINE
  5
1039
330
1F
100
AcDbEntity
  8
0
  62
7
100
AcDbLine
 10
744.168129
 20
490.433727
 30
0.000000
 11
744.219671
 21
490.344259
 31
0.000000
  0
LINE
  5
1040
330
1F
100
AcDbEntity
  8
0
  62
7
100
AcDbLine
 10
744.219671
 20
490.344259
 30
0.000000
 11
744.272501
 21
490.253467
 31
0.000000
  0
LINE
  5
1041
330
1F
100
AcDbEntity
  8
0
  62
7
100
AcDbLine
 10
744.272501
 20
490.253467
 30
0.000000
 11
744.326660
 21
490.161289
 31
0.000000
  0
LINE
  5
1042
330
1F
100
AcDbEntity
  8
0
  62
7
100
AcDbLine
 10
744.326660
 20
490.161289
 30
0.000000
 11
744.382183
 21
490.067661
 31
0.000000
  0
LINE
  5
1043
330
1F
100
AcDbEntity
  8
0
  62
7
100
AcDbLine
 10
744.382183
 20
490.067661
 30
0.000000
 11
744.439112
 21
489.972522
 31
0.000000
  0
LINE
  5
1044
330
1F
100
AcDbEntity
  8
0
  62
7
100
AcDbLine
 10
744.439112
 20
489.972522
 30
0.000000
 11
744.497483
 21
489.875811
 31
0.000000
  0
LINE
  5
1045
330
1F
100
AcDbEntity
  8
0
  62
7
100
AcDbLine
 10
744.497483
 20
489.875811
 30
0.000000
 11
744.557335
 21
489.777464
 31
0.000000
  0
LINE
  5
1046
330
1F
100
AcDbEntity
  8
0
  62
7
100
AcDbLine
 10
744.557335
 20
489.777464
 30
0.000000
 11
744.618708
 21
489.677419
 31
0.000000
  0
LINE
  5
1047
330
1F
100
AcDbEntity
  8
0
  62
7
100
AcDbLine
 10
744.618708
 20
489.677419
 30
0.000000
 11
744.681639
 21
489.575616
 31
0.000000
  0
LINE
  5
1048
330
1F
100
AcDbEntity
  8
0
  62
7
100
AcDbLine
 10
744.681639
 20
489.575616
 30
0.000000
 11
744.746167
 21
489.471992
 31
0.000000
  0
LINE
  5
1049
330
1F
100
AcDbEntity
  8
0
  62
7
100
AcDbLine
 10
744.746167
 20
489.471992
 30
0.000000
 11
744.880168
 21
489.259030
 31
0.000000
  0
LINE
  5
1050
330
1F
100
AcDbEntity
  8
0
  62
7
100
AcDbLine
 10
744.880168
 20
489.259030
 30
0.000000
 11
745.021019
 21
489.038039
 31
0.000000
  0
LINE
  5
1051
330
1F
100
AcDbEntity
  8
0
  62
7
100
AcDbLine
 10
745.021019
 20
489.038039
 30
0.000000
 11
745.169030
 21
488.808521
 31
0.000000
  0
LINE
  5
1052
330
1F
100
AcDbEntity
  8
0
  62
7
100
AcDbLine
 10
745.169030
 20
488.808521
 30
0.000000
 11
745.324507
 21
488.569981
 31
0.000000
  0
LINE
  5
1053
330
1F
100
AcDbEntity
  8
0
  62
7
100
AcDbLine
 10
745.324507
 20
488.569981
 30
0.000000
 11
745.487760
 21
488.321921
 31
0.000000
  0
LINE
  5
1054
330
1F
100
AcDbEntity
  8
0
  62
7
100
AcDbLine
 10
745.487760
 20
488.321921
 30
0.000000
 11
745.659096
 21
488.063846
 31
0.000000
  0
LINE
  5
1055
330
1F
100
AcDbEntity
  8
0
  62
7
100
AcDbLine
 10
745.659096
 20
488.063846
 30
0.000000
 11
745.838824
 21
487.795258
 31
0.000000
  0
LINE
  5
1056
330
1F
100
AcDbEntity
  8
0
  62
7
100
AcDbLine
 10
745.838824
 20
487.795258
 30
0.000000
 11
746.027252
 21
487.515661
 31
0.000000
  0
LINE
  5
1057
330
1F
100
AcDbEntity
  8
0
  62
7
100
AcDbLine
 10
746.027252
 20
487.515661
 30
0.000000
 11
746.224689
 21
487.224560
 31
0.000000
  0
LINE
  5
1058
330
1F
100
AcDbEntity
  8
0
  62
7
100
AcDbLine
 10
746.224689
 20
487.224560
 30
0.000000
 11
746.431442
 21
486.921456
 31
0.000000
  0
LINE
  5
1059
330
1F
100
AcDbEntity
  8
0
  62
7
100
AcDbLine
 10
746.431442
 20
486.921456
 30
0.000000
 11
746.647820
 21
486.605855
 31
0.000000
  0
LINE
  5
1060
330
1F
100
AcDbEntity
  8
0
  62
7
100
AcDbLine
 10
746.647820
 20
486.605855
 30
0.000000
 11
746.874132
 21
486.277258
 31
0.000000
  0
LINE
  5
1061
330
1F
100
AcDbEntity
  8
0
  62
7
100
AcDbLine
 10
746.874132
 20
486.277258
 30
0.000000
 11
747.110684
 21
485.935171
 31
0.000000
  0
LINE
  5
1062
330
1F
100
AcDbEntity
  8
0
  62
7
100
AcDbLine
 10
747.110684
 20
485.935171
 30
0.000000
 11
747.357787
 21
485.579096
 31
0.000000
  0
LINE
  5
1063
330
1F
100
AcDbEntity
  8
0
  62
7
100
AcDbLine
 10
747.357787
 20
485.579096
 30
0.000000
 11
747.615747
 21
485.208538
 31
0.000000
  0
LINE
  5
1064
330
1F
100
AcDbEntity
  8
0
  62
7
100
AcDbLine
 10
747.615747
 20
485.208538
 30
0.000000
 11
747.884874
 21
484.822998
 31
0.000000
  0
LINE
  5
1065
330
1F
100
AcDbEntity
  8
0
  62
7
100
AcDbLine
 10
747.884874
 20
484.822998
 30
0.000000
 11
748.165476
 21
484.421981
 31
0.000000
  0
LINE
  5
1066
330
1F
100
AcDbEntity
  8
0
  62
7
100
AcDbLine
 10
748.165476
 20
484.421981
 30
0.000000
 11
748.440959
 21
484.032476
 31
0.000000
  0
LINE
  5
1067
330
1F
100
AcDbEntity
  8
0
  62
7
100
AcDbLine
 10
748.440959
 20
484.032476
 30
0.000000
 11
748.706406
 21
483.659482
 31
0.000000
  0
LINE
  5
1068
330
1F
100
AcDbEntity
  8
0
  62
7
100
AcDbLine
 10
748.706406
 20
483.659482
 30
0.000000
 11
748.962102
 21
483.302672
 31
0.000000
  0
LINE
  5
1069
330
1F
100
AcDbEntity
  8
0
  62
7
100
AcDbLine
 10
748.962102
 20
483.302672
 30
0.000000
 11
749.086383
 21
483.130234
 31
0.000000
  0
LINE
  5
1070
330
1F
100
AcDbEntity
  8
0
  62
7
100
AcDbLine
 10
749.086383
 20
483.130234
 30
0.000000
 11
749.208333
 21
482.961719
 31
0.000000
  0
LINE
  5
1071
330
1F
100
AcDbEntity
  8
0
  62
7
100
AcDbLine
 10
749.208333
 20
482.961719
 30
0.000000
 11
749.327988
 21
482.797087
 31
0.000000
  0
LINE
  5
1072
330
1F
100
AcDbEntity
  8
0
  62
7
100
AcDbLine
 10
749.327988
 20
482.797087
 30
0.000000
 11
749.445385
 21
482.636297
 31
0.000000
  0
LINE
  5
1073
330
1F
100
AcDbEntity
  8
0
  62
7
100
AcDbLine
 10
749.445385
 20
482.636297
 30
0.000000
 11
749.560557
 21
482.479308
 31
0.000000
  0
LINE
  5
1074
330
1F
100
AcDbEntity
  8
0
  62
7
100
AcDbLine
 10
749.560557
 20
482.479308
 30
0.000000
 11
749.673542
 21
482.326080
 31
0.000000
  0
LINE
  5
1075
330
1F
100
AcDbEntity
  8
0
  62
7
100
AcDbLine
 10
749.673542
 20
482.326080
 30
0.000000
 11
749.784374
 21
482.176571
 31
0.000000
  0
LINE
  5
1076
330
1F
100
AcDbEntity
  8
0
  62
7
100
AcDbLine
 10
749.784374
 20
482.176571
 30
0.000000
 11
749.893090
 21
482.030740
 31
0.000000
  0
LINE
  5
1077
330
1F
100
AcDbEntity
  8
0
  62
7
100
AcDbLine
 10
749.893090
 20
482.030740
 30
0.000000
 11
749.999725
 21
481.888548
 31
0.000000
  0
LINE
  5
1078
330
1F
100
AcDbEntity
  8
0
  62
7
100
AcDbLine
 10
749.999725
 20
481.888548
 30
0.000000
 11
750.104315
 21
481.749952
 31
0.000000
  0
LINE
  5
1079
330
1F
100
AcDbEntity
  8
0
  62
7
100
AcDbLine
 10
750.104315
 20
481.749952
 30
0.000000
 11
750.206896
 21
481.614914
 31
0.000000
  0
LINE
  5
1080
330
1F
100
AcDbEntity
  8
0
  62
7
100
AcDbLine
 10
750.206896
 20
481.614914
 30
0.000000
 11
750.307502
 21
481.483390
 31
0.000000
  0
LINE
  5
1081
330
1F
100
AcDbEntity
  8
0
  62
7
100
AcDbLine
 10
750.307502
 20
481.483390
 30
0.000000
 11
750.406171
 21
481.355341
 31
0.000000
  0
LINE
  5
1082
330
1F
100
AcDbEntity
  8
0
  62
7
100
AcDbLine
 10
750.406171
 20
481.355341
 30
0.000000
 11
750.502937
 21
481.230725
 31
0.000000
  0
LINE
  5
1083
330
1F
100
AcDbEntity
  8
0
  62
7
100
AcDbLine
 10
750.502937
 20
481.230725
 30
0.000000
 11
750.597837
 21
481.109503
 31
0.000000
  0
LINE
  5
1084
330
1F
100
AcDbEntity
  8
0
  62
7
100
AcDbLine
 10
750.597837
 20
481.109503
 30
0.000000
 11
750.690905
 21
480.991633
 31
0.000000
  0
LINE
  5
1085
330
1F
100
AcDbEntity
  8
0
  62
7
100
AcDbLine
 10
750.690905
 20
480.991633
 30
0.000000
 11
750.782178
 21
480.877074
 31
0.000000
  0
LINE
  5
1086
330
1F
100
AcDbEntity
  8
0
  62
7
100
AcDbLine
 10
750.782178
 20
480.877074
 30
0.000000
 11
750.871691
 21
480.765787
 31
0.000000
  0
LINE
  5
1087
330
1F
100
AcDbEntity
  8
0
  62
7
100
AcDbLine
 10
750.871691
 20
480.765787
 30
0.000000
 11
750.959480
 21
480.657728
 31
0.000000
  0
LINE
  5
1088
330
1F
100
AcDbEntity
  8
0
  62
7
100
AcDbLine
 10
750.959480
 20
480.657728
 30
0.000000
 11
751.045581
 21
480.552859
 31
0.000000
  0
LINE
  5
1089
330
1F
100
AcDbEntity
  8
0
  62
7
100
AcDbLine
 10
751.045581
 20
480.552859
 30
0.000000
 11
751.130029
 21
480.451138
 31
0.000000
  0
LINE
  5
1090
330
1F
100
AcDbEntity
  8
0
  62
7
100
AcDbLine
 10
751.130029
 20
480.451138
 30
0.000000
 11
751.212860
 21
480.352524
 31
0.000000
  0
LINE
  5
1091
330
1F
100
AcDbEntity
  8
0
  62
7
100
AcDbLine
 10
751.212860
 20
480.352524
 30
0.000000
 11
751.294110
 21
480.256976
 31
0.000000
  0
LINE
  5
1092
330
1F
100
AcDbEntity
  8
0
  62
7
100
AcDbLine
 10
751.294110
 20
480.256976
 30
0.000000
 11
751.373814
 21
480.164455
 31
0.000000
  0
LINE
  5
1093
330
1F
100
AcDbEntity
  8
0
  62
7
100
AcDbLine
 10
751.373814
 20
480.164455
 30
0.000000
 11
751.452008
 21
480.074918
 31
0.000000
  0
LINE
  5
1094
330
1F
100
AcDbEntity
  8
0
  62
7
100
AcDbLine
 10
751.452008
 20
480.074918
 30
0.000000
 11
751.528728
 21
479.988325
 31
0.000000
  0
LINE
  5
1095
330
1F
100
AcDbEntity
  8
0
  62
7
100
AcDbLine
 10
751.528728
 20
479.988325
 30
0.000000
 11
751.604010
 21
479.904636
 31
0.000000
  0
LINE
  5
1096
330
1F
100
AcDbEntity
  8
0
  62
7
100
AcDbLine
 10
751.604010
 20
479.904636
 30
0.000000
 11
751.677888
 21
479.823809
 31
0.000000
  0
LINE
  5
1097
330
1F
100
AcDbEntity
  8
0
  62
7
100
AcDbLine
 10
751.677888
 20
479.823809
 30
0.000000
 11
751.750399
 21
479.745804
 31
0.000000
  0
LINE
  5
1098
330
1F
100
AcDbEntity
  8
0
  62
7
100
AcDbLine
 10
751.750399
 20
479.745804
 30
0.000000
 11
751.821579
 21
479.670579
 31
0.000000
  0
LINE
  5
1099
330
1F
100
AcDbEntity
  8
0
  62
7
100
AcDbLine
 10
751.821579
 20
479.670579
 30
0.000000
 11
751.891463
 21
479.598095
 31
0.000000
  0
LINE
  5
1100
330
1F
100
AcDbEntity
  8
0
  62
7
100
AcDbLine
 10
751.891463
 20
479.598095
 30
0.000000
 11
751.960086
 21
479.528310
 31
0.000000
  0
LINE
  5
1101
330
1F
100
AcDbEntity
  8
0
  62
7
100
AcDbLine
 10
751.960086
 20
479.528310
 30
0.000000
 11
752.027485
 21
479.461183
 31
0.000000
  0
LINE
  5
1102
330
1F
100
AcDbEntity
  8
0
  62
7
100
AcDbLine
 10
752.027485
 20
479.461183
 30
0.000000
 11
752.093695
 21
479.396674
 31
0.000000
  0
LINE
  5
1103
330
1F
100
AcDbEntity
  8
0
  62
7
100
AcDbLine
 10
752.093695
 20
479.396674
 30
0.000000
 11
752.158752
 21
479.334742
 31
0.000000
  0
LINE
  5
1104
330
1F
100
AcDbEntity
  8
0
  62
7
100
AcDbLine
 10
752.158752
 20
479.334742
 30
0.000000
 11
752.222692
 21
479.275346
 31
0.000000
  0
LINE
  5
1105
330
1F
100
AcDbEntity
  8
0
  62
7
100
AcDbLine
 10
752.222692
 20
479.275346
 30
0.000000
 11
752.285549
 21
479.218445
 31
0.000000
  0
LINE
  5
1106
330
1F
100
AcDbEntity
  8
0
  62
7
100
AcDbLine
 10
752.285549
 20
479.218445
 30
0.000000
 11
752.347361
 21
479.163998
 31
0.000000
  0
LINE
  5
1107
330
1F
100
AcDbEntity
  8
0
  62
7
100
AcDbLine
 10
752.347361
 20
479.163998
 30
0.000000
 11
752.408162
 21
479.111965
 31
0.000000
  0
LINE
  5
1108
330
1F
100
AcDbEntity
  8
0
  62
7
100
AcDbLine
 10
752.408162
 20
479.111965
 30
0.000000
 11
752.467989
 21
479.062304
 31
0.000000
  0
LINE
  5
1109
330
1F
100
AcDbEntity
  8
0
  62
7
100
AcDbLine
 10
752.467989
 20
479.062304
 30
0.000000
 11
752.526876
 21
479.014976
 31
0.000000
  0
LINE
  5
1110
330
1F
100
AcDbEntity
  8
0
  62
7
100
AcDbLine
 10
752.526876
 20
479.014976
 30
0.000000
 11
752.584860
 21
478.969939
 31
0.000000
  0
LINE
  5
1111
330
1F
100
AcDbEntity
  8
0
  62
7
100
AcDbLine
 10
752.584860
 20
478.969939
 30
0.000000
 11
752.641976
 21
478.927151
 31
0.000000
  0
LINE
  5
1112
330
1F
100
AcDbEntity
  8
0
  62
7
100
AcDbLine
 10
752.641976
 20
478.927151
 30
0.000000
 11
752.698260
 21
478.886574
 31
0.000000
  0
LINE
  5
1113
330
1F
100
AcDbEntity
  8
0
  62
7
100
AcDbLine
 10
752.698260
 20
478.886574
 30
0.000000
 11
752.753748
 21
478.848165
 31
0.000000
  0
LINE
  5
1114
330
1F
100
AcDbEntity
  8
0
  62
7
100
AcDbLine
 10
752.753748
 20
478.848165
 30
0.000000
 11
752.808475
 21
478.811884
 31
0.000000
  0
LINE
  5
1115
330
1F
100
AcDbEntity
  8
0
  62
7
100
AcDbLine
 10
752.808475
 20
478.811884
 30
0.000000
 11
752.862477
 21
478.777690
 31
0.000000
  0
LINE
  5
1116
330
1F
100
AcDbEntity
  8
0
  62
7
100
AcDbLine
 10
752.862477
 20
478.777690
 30
0.000000
 11
752.915789
 21
478.745543
 31
0.000000
  0
LINE
  5
1117
330
1F
100
AcDbEntity
  8
0
  62
7
100
AcDbLine
 10
752.915789
 20
478.745543
 30
0.000000
 11
752.968448
 21
478.715400
 31
0.000000
  0
LINE
  5
1118
330
1F
100
AcDbEntity
  8
0
  62
7
100
AcDbLine
 10
752.968448
 20
478.715400
 30
0.000000
 11
753.020489
 21
478.687223
 31
0.000000
  0
LINE
  5
1119
330
1F
100
AcDbEntity
  8
0
  62
7
100
AcDbLine
 10
753.020489
 20
478.687223
 30
0.000000
 11
753.071948
 21
478.660969
 31
0.000000
  0
LINE
  5
1120
330
1F
100
AcDbEntity
  8
0
  62
7
100
AcDbLine
 10
753.071948
 20
478.660969
 30
0.000000
 11
753.122860
 21
478.636598
 31
0.000000
  0
LINE
  5
1121
330
1F
100
AcDbEntity
  8
0
  62
7
100
AcDbLine
 10
753.122860
 20
478.636598
 30
0.000000
 11
753.173262
 21
478.614070
 31
0.000000
  0
LINE
  5
1122
330
1F
100
AcDbEntity
  8
0
  62
7
100
AcDbLine
 10
753.173262
 20
478.614070
 30
0.000000
 11
753.223188
 21
478.593343
 31
0.000000
  0
LINE
  5
1123
330
1F
100
AcDbEntity
  8
0
  62
7
100
AcDbLine
 10
753.223188
 20
478.593343
 30
0.000000
 11
753.272674
 21
478.574376
 31
0.000000
  0
LINE
  5
1124
330
1F
100
AcDbEntity
  8
0
  62
7
100
AcDbLine
 10
753.272674
 20
478.574376
 30
0.000000
 11
753.321757
 21
478.557129
 31
0.000000
  0
LINE
  5
1125
330
1F
100
AcDbEntity
  8
0
  62
7
100
AcDbLine
 10
753.321757
 20
478.557129
 30
0.000000
 11
753.370471
 21
478.541562
 31
0.000000
  0
LINE
  5
1126
330
1F
100
AcDbEntity
  8
0
  62
7
100
AcDbLine
 10
753.370471
 20
478.541562
 30
0.000000
 11
753.418853
 21
478.527632
 31
0.000000
  0
LINE
  5
1127
330
1F
100
AcDbEntity
  8
0
  62
7
100
AcDbLine
 10
753.418853
 20
478.527632
 30
0.000000
 11
753.483527
 21
478.510568
 31
0.000000
  0
LINE
  5
1128
330
1F
100
AcDbEntity
  8
0
  62
7
100
AcDbLine
 10
753.483527
 20
478.510568
 30
0.000000
 11
753.550472
 21
478.493910
 31
0.000000
  0
LINE
  5
1129
330
1F
100
AcDbEntity
  8
0
  62
7
100
AcDbLine
 10
753.550472
 20
478.493910
 30
0.000000
 11
753.619788
 21
478.477656
 31
0.000000
  0
LINE
  5
1130
330
1F
100
AcDbEntity
  8
0
  62
7
100
AcDbLine
 10
753.619788
 20
478.477656
 30
0.000000
 11
753.691578
 21
478.461802
 31
0.000000
  0
LINE
  5
1131
330
1F
100
AcDbEntity
  8
0
  62
7
100
AcDbLine
 10
753.691578
 20
478.461802
 30
0.000000
 11
753.765943
 21
478.446346
 31
0.000000
  0
LINE
  5
1132
330
1F
100
AcDbEntity
  8
0
  62
7
100
AcDbLine
 10
753.765943
 20
478.446346
 30
0.000000
 11
753.842983
 21
478.431281
 31
0.000000
  0
LINE
  5
1133
330
1F
100
AcDbEntity
  8
0
  62
7
100
AcDbLine
 10
753.842983
 20
478.431281
 30
0.000000
 11
753.922801
 21
478.416607
 31
0.000000
  0
LINE
  5
1134
330
1F
100
AcDbEntity
  8
0
  62
7
100
AcDbLine
 10
753.922801
 20
478.416607
 30
0.000000
 11
754.005498
 21
478.402320
 31
0.000000
  0
LINE
  5
1135
330
1F
100
AcDbEntity
  8
0
  62
7
100
AcDbLine
 10
754.005498
 20
478.402320
 30
0.000000
 11
754.091174
 21
478.388415
 31
0.000000
  0
LINE
  5
1136
330
1F
100
AcDbEntity
  8
0
  62
7
100
AcDbLine
 10
754.091174
 20
478.388415
 30
0.000000
 11
754.179932
 21
478.374890
 31
0.000000
  0
LINE
  5
1137
330
1F
100
AcDbEntity
  8
0
  62
7
100
AcDbLine
 10
754.179932
 20
478.374890
 30
0.000000
 11
754.271872
 21
478.361742
 31
0.000000
  0
LINE
  5
1138
330
1F
100
AcDbEntity
  8
0
  62
7
100
AcDbLine
 10
754.271872
 20
478.361742
 30
0.000000
 11
754.367097
 21
478.348967
 31
0.000000
  0
LINE
  5
1139
330
1F
100
AcDbEntity
  8
0
  62
7
100
AcDbLine
 10
754.367097
 20
478.348967
 30
0.000000
 11
754.465706
 21
478.336561
 31
0.000000
  0
LINE
  5
1140
330
1F
100
AcDbEntity
  8
0
  62
7
100
AcDbLine
 10
754.465706
 20
478.336561
 30
0.000000
 11
754.567802
 21
478.324522
 31
0.000000
  0
LINE
  5
1141
330
1F
100
AcDbEntity
  8
0
  62
7
100
AcDbLine
 10
754.567802
 20
478.324522
 30
0.000000
 11
754.673487
 21
478.312845
 31
0.000000
  0
LINE
  5
1142
330
1F
100
AcDbEntity
  8
0
  62
7
100
AcDbLine
 10
754.673487
 20
478.312845
 30
0.000000
 11
754.782860
 21
478.301528
 31
0.000000
  0
LINE
  5
1143
330
1F
100
AcDbEntity
  8
0
  62
7
100
AcDbLine
 10
754.782860
 20
478.301528
 30
0.000000
 11
754.896024
 21
478.290568
 31
0.000000
  0
LINE
  5
1144
330
1F
100
AcDbEntity
  8
0
  62
7
100
AcDbLine
 10
754.896024
 20
478.290568
 30
0.000000
 11
755.013080
 21
478.279960
 31
0.000000
  0
LINE
  5
1145
330
1F
100
AcDbEntity
  8
0
  62
7
100
AcDbLine
 10
755.013080
 20
478.279960
 30
0.000000
 11
755.134129
 21
478.269701
 31
0.000000
  0
LINE
  5
1146
330
1F
100
AcDbEntity
  8
0
  62
7
100
AcDbLine
 10
755.134129
 20
478.269701
 30
0.000000
 11
755.259273
 21
478.259789
 31
0.000000
  0
LINE
  5
1147
330
1F
100
AcDbEntity
  8
0
  62
7
100
AcDbLine
 10
755.259273
 20
478.259789
 30
0.000000
 11
755.388613
 21
478.250219
 31
0.000000
  0
LINE
  5
1148
330
1F
100
AcDbEntity
  8
0
  62
7
100
AcDbLine
 10
755.388613
 20
478.250219
 30
0.000000
 11
755.522249
 21
478.240988
 31
0.000000
  0
LINE
  5
1149
330
1F
100
AcDbEntity
  8
0
  62
7
100
AcDbLine
 10
755.522249
 20
478.240988
 30
0.000000
 11
755.660285
 21
478.232094
 31
0.000000
  0
LINE
  5
1150
330
1F
100
AcDbEntity
  8
0
  62
7
100
AcDbLine
 10
755.660285
 20
478.232094
 30
0.000000
 11
755.802820
 21
478.223532
 31
0.000000
  0
LINE
  5
1151
330
1F
100
AcDbEntity
  8
0
  62
7
100
AcDbLine
 10
755.802820
 20
478.223532
 30
0.000000
 11
755.949957
 21
478.215299
 31
0.000000
  0
LINE
  5
1152
330
1F
100
AcDbEntity
  8
0
  62
7
100
AcDbLine
 10
755.949957
 20
478.215299
 30
0.000000
 11
756.101796
 21
478.207392
 31
0.000000
  0
LINE
  5
1153
330
1F
100
AcDbEntity
  8
0
  62
7
100
AcDbLine
 10
756.101796
 20
478.207392
 30
0.000000
 11
756.258440
 21
478.199807
 31
0.000000
  0
LINE
  5
1154
330
1F
100
AcDbEntity
  8
0
  62
7
100
AcDbLine
 10
756.258440
 20
478.199807
 30
0.000000
 11
756.419988
 21
478.192542
 31
0.000000
  0
LINE
  5
1155
330
1F
100
AcDbEntity
  8
0
  62
7
100
AcDbLine
 10
756.419988
 20
478.192542
 30
0.000000
 11
756.586543
 21
478.185592
 31
0.000000
  0
LINE
  5
1156
330
1F
100
AcDbEntity
  8
0
  62
7
100
AcDbLine
 10
756.586543
 20
478.185592
 30
0.000000
 11
756.758206
 21
478.178954
 31
0.000000
  0
LINE
  5
1157
330
1F
100
AcDbEntity
  8
0
  62
7
100
AcDbLine
 10
756.758206
 20
478.178954
 30
0.000000
 11
756.935078
 21
478.172626
 31
0.000000
  0
LINE
  5
1158
330
1F
100
AcDbEntity
  8
0
  62
7
100
AcDbLine
 10
756.935078
 20
478.172626
 30
0.000000
 11
757.117260
 21
478.166603
 31
0.000000
  0
LINE
  5
1159
330
1F
100
AcDbEntity
  8
0
  62
7
100
AcDbLine
 10
757.117260
 20
478.166603
 30
0.000000
 11
757.304855
 21
478.160883
 31
0.000000
  0
LINE
  5
1160
330
1F
100
AcDbEntity
  8
0
  62
7
100
AcDbLine
 10
757.304855
 20
478.160883
 30
0.000000
 11
757.497963
 21
478.155461
 31
0.000000
  0
LINE
  5
1161
330
1F
100
AcDbEntity
  8
0
  62
7
100
AcDbLine
 10
757.497963
 20
478.155461
 30
0.000000
 11
757.696685
 21
478.150334
 31
0.000000
  0
LINE
  5
1162
330
1F
100
AcDbEntity
  8
0
  62
7
100
AcDbLine
 10
757.696685
 20
478.150334
 30
0.000000
 11
757.901123
 21
478.145500
 31
0.000000
  0
LINE
  5
1163
330
1F
100
AcDbEntity
  8
0
  62
7
100
AcDbLine
 10
757.901123
 20
478.145500
 30
0.000000
 11
758.111378
 21
478.140954
 31
0.000000
  0
LINE
  5
1164
330
1F
100
AcDbEntity
  8
0
  62
7
100
AcDbLine
 10
758.111378
 20
478.140954
 30
0.000000
 11
758.327552
 21
478.136694
 31
0.000000
  0
LINE
  5
1165
330
1F
100
AcDbEntity
  8
0
  62
7
100
AcDbLine
 10
758.327552
 20
478.136694
 30
0.000000
 11
758.549746
 21
478.132715
 31
0.000000
  0
LINE
  5
1166
330
1F
100
AcDbEntity
  8
0
  62
7
100
AcDbLine
 10
758.549746
 20
478.132715
 30
0.000000
 11
758.778061
 21
478.129015
 31
0.000000
  0
LINE
  5
1167
330
1F
100
AcDbEntity
  8
0
  62
7
100
AcDbLine
 10
758.778061
 20
478.129015
 30
0.000000
 11
759.253459
 21
478.122438
 31
0.000000
  0
LINE
  5
1168
330
1F
100
AcDbEntity
  8
0
  62
7
100
AcDbLine
 10
759.253459
 20
478.122438
 30
0.000000
 11
759.754559
 21
478.116934
 31
0.000000
  0
LINE
  5
1169
330
1F
100
AcDbEntity
  8
0
  62
7
100
AcDbLine
 10
759.754559
 20
478.116934
 30
0.000000
 11
760.282169
 21
478.112478
 31
0.000000
  0
LINE
  5
1170
330
1F
100
AcDbEntity
  8
0
  62
7
100
AcDbLine
 10
760.282169
 20
478.112478
 30
0.000000
 11
760.837102
 21
478.109041
 31
0.000000
  0
LINE
  5
1171
330
1F
100
AcDbEntity
  8
0
  62
7
100
AcDbLine
 10
760.837102
 20
478.109041
 30
0.000000
 11
761.420167
 21
478.106598
 31
0.000000
  0
LINE
  5
1172
330
1F
100
AcDbEntity
  8
0
  62
7
100
AcDbLine
 10
761.420167
 20
478.106598
 30
0.000000
 11
762.032176
 21
478.105120
 31
0.000000
  0
LINE
  5
1173
330
1F
100
AcDbEntity
  8
0
  62
7
100
AcDbLine
 10
762.032176
 20
478.105120
 30
0.000000
 11
762.673939
 21
478.104581
 31
0.000000
  0
LINE
  5
1174
330
1F
100
AcDbEntity
  8
0
  62
7
100
AcDbLine
 10
762.673939
 20
478.104581
 30
0.000000
 11
763.346266
 21
478.104954
 31
0.000000
  0
LINE
  5
1175
330
1F
100
AcDbEntity
  8
0
  62
7
100
AcDbLine
 10
763.346266
 20
478.104954
 30
0.000000
 11
764.049968
 21
478.106213
 31
0.000000
  0
LINE
  5
1176
330
1F
100
AcDbEntity
  8
0
  62
7
100
AcDbLine
 10
764.049968
 20
478.106213
 30
0.000000
 11
764.785856
 21
478.108329
 31
0.000000
  0
LINE
  5
1177
330
1F
100
AcDbEntity
  8
0
  62
7
100
AcDbLine
 10
764.785856
 20
478.108329
 30
0.000000
 11
765.554741
 21
478.111276
 31
0.000000
  0
LINE
  5
1178
330
1F
100
AcDbEntity
  8
0
  62
7
100
AcDbLine
 10
765.554741
 20
478.111276
 30
0.000000
 11
766.357433
 21
478.115028
 31
0.000000
  0
LINE
  5
1179
330
1F
100
AcDbEntity
  8
0
  62
7
100
AcDbLine
 10
766.357433
 20
478.115028
 30
0.000000
 11
767.765419
 21
478.123360
 31
0.000000
  0
LINE
  5
1180
330
1F
100
AcDbEntity
  8
0
  62
7
100
AcDbLine
 10
767.765419
 20
478.123360
 30
0.000000
 11
769.025865
 21
478.131951
 31
0.000000
  0
LINE
  5
1181
330
1F
100
AcDbEntity
  8
0
  62
7
100
AcDbLine
 10
769.025865
 20
478.131951
 30
0.000000
 11
769.603638
 21
478.136425
 31
0.000000
  0
LINE
  5
1182
330
1F
100
AcDbEntity
  8
0
  62
7
100
AcDbLine
 10
769.603638
 20
478.136425
 30
0.000000
 11
770.147978
 21
478.141060
 31
0.000000
  0
LINE
  5
1183
330
1F
100
AcDbEntity
  8
0
  62
7
100
AcDbLine
 10
770.147978
 20
478.141060
 30
0.000000
 11
770.660035
 21
478.145890
 31
0.000000
  0
LINE
  5
1184
330
1F
100
AcDbEntity
  8
0
  62
7
100
AcDbLine
 10
770.660035
 20
478.145890
 30
0.000000
 11
771.140959
 21
478.150946
 31
0.000000
  0
LINE
  5
1185
330
1F
100
AcDbEntity
  8
0
  62
7
100
AcDbLine
 10
771.140959
 20
478.150946
 30
0.000000
 11
771.591901
 21
478.156262
 31
0.000000
  0
LINE
  5
1186
330
1F
100
AcDbEntity
  8
0
  62
7
100
AcDbLine
 10
771.591901
 20
478.156262
 30
0.000000
 11
772.014012
 21
478.161869
 31
0.000000
  0
LINE
  5
1187
330
1F
100
AcDbEntity
  8
0
  62
7
100
AcDbLine
 10
772.014012
 20
478.161869
 30
0.000000
 11
772.408440
 21
478.167799
 31
0.000000
  0
LINE
  5
1188
330
1F
100
AcDbEntity
  8
0
  62
7
100
AcDbLine
 10
772.408440
 20
478.167799
 30
0.000000
 11
772.776337
 21
478.174086
 31
0.000000
  0
LINE
  5
1189
330
1F
100
AcDbEntity
  8
0
  62
7
100
AcDbLine
 10
772.776337
 20
478.174086
 30
0.000000
 11
773.118853
 21
478.180761
 31
0.000000
  0
LINE
  5
1190
330
1F
100
AcDbEntity
  8
0
  62
7
100
AcDbLine
 10
773.118853
 20
478.180761
 30
0.000000
 11
773.437138
 21
478.187858
 31
0.000000
  0
LINE
  5
1191
330
1F
100
AcDbEntity
  8
0
  62
7
100
AcDbLine
 10
773.437138
 20
478.187858
 30
0.000000
 11
773.732343
 21
478.195407
 31
0.000000
  0
LINE
  5
1192
330
1F
100
AcDbEntity
  8
0
  62
7
100
AcDbLine
 10
773.732343
 20
478.195407
 30
0.000000
 11
774.005618
 21
478.203443
 31
0.000000
  0
LINE
  5
1193
330
1F
100
AcDbEntity
  8
0
  62
7
100
AcDbLine
 10
774.005618
 20
478.203443
 30
0.000000
 11
774.258113
 21
478.211996
 31
0.000000
  0
LINE
  5
1194
330
1F
100
AcDbEntity
  8
0
  62
7
100
AcDbLine
 10
774.258113
 20
478.211996
 30
0.000000
 11
774.490979
 21
478.221100
 31
0.000000
  0
LINE
  5
1195
330
1F
100
AcDbEntity
  8
0
  62
7
100
AcDbLine
 10
774.490979
 20
478.221100
 30
0.000000
 11
774.705365
 21
478.230786
 31
0.000000
  0
LINE
  5
1196
330
1F
100
AcDbEntity
  8
0
  62
7
100
AcDbLine
 10
774.705365
 20
478.230786
 30
0.000000
 11
774.805988
 21
478.235858
 31
0.000000
  0
LINE
  5
1197
330
1F
100
AcDbEntity
  8
0
  62
7
100
AcDbLine
 10
774.805988
 20
478.235858
 30
0.000000
 11
774.902422
 21
478.241088
 31
0.000000
  0
LINE
  5
1198
330
1F
100
AcDbEntity
  8
0
  62
7
100
AcDbLine
 10
774.902422
 20
478.241088
 30
0.000000
 11
774.994812
 21
478.246480
 31
0.000000
  0
LINE
  5
1199
330
1F
100
AcDbEntity
  8
0
  62
7
100
AcDbLine
 10
774.994812
 20
478.246480
 30
0.000000
 11
775.083301
 21
478.252038
 31
0.000000
  0
LINE
  5
1200
330
1F
100
AcDbEntity
  8
0
  62
7
100
AcDbLine
 10
775.083301
 20
478.252038
 30
0.000000
 11
775.168033
 21
478.257765
 31
0.000000
  0
LINE
  5
1201
330
1F
100
AcDbEntity
  8
0
  62
7
100
AcDbLine
 10
775.168033
 20
478.257765
 30
0.000000
 11
775.249152
 21
478.263667
 31
0.000000
  0
LINE
  5
1202
330
1F
100
AcDbEntity
  8
0
  62
7
100
AcDbLine
 10
775.249152
 20
478.263667
 30
0.000000
 11
775.326801
 21
478.269747
 31
0.000000
  0
LINE
  5
1203
330
1F
100
AcDbEntity
  8
0
  62
7
100
AcDbLine
 10
775.326801
 20
478.269747
 30
0.000000
 11
775.401125
 21
478.276009
 31
0.000000
  0
LINE
  5
1204
330
1F
100
AcDbEntity
  8
0
  62
7
100
AcDbLine
 10
775.401125
 20
478.276009
 30
0.000000
 11
775.472266
 21
478.282457
 31
0.000000
  0
LINE
  5
1205
330
1F
100
AcDbEntity
  8
0
  62
7
100
AcDbLine
 10
775.472266
 20
478.282457
 30
0.000000
 11
775.540370
 21
478.289095
 31
0.000000
  0
LINE
  5
1206
330
1F
100
AcDbEntity
  8
0
  62
7
100
AcDbLine
 10
775.540370
 20
478.289095
 30
0.000000
 11
775.605579
 21
478.295928
 31
0.000000
  0
LINE
  5
1207
330
1F
100
AcDbEntity
  8
0
  62
7
100
AcDbLine
 10
775.605579
 20
478.295928
 30
0.000000
 11
775.668038
 21
478.302958
 31
0.000000
  0
LINE
  5
1208
330
1F
100
AcDbEntity
  8
0
  62
7
100
AcDbLine
 10
775.668038
 20
478.302958
 30
0.000000
 11
775.727889
 21
478.310192
 31
0.000000
  0
LINE
  5
1209
330
1F
100
AcDbEntity
  8
0
  62
7
100
AcDbLine
 10
775.727889
 20
478.310192
 30
0.000000
 11
775.785278
 21
478.317631
 31
0.000000
  0
LINE
  5
1210
330
1F
100
AcDbEntity
  8
0
  62
7
100
AcDbLine
 10
775.785278
 20
478.317631
 30
0.000000
 11
775.840348
 21
478.325281
 31
0.000000
  0
LINE
  5
1211
330
1F
100
AcDbEntity
  8
0
  62
7
100
AcDbLine
 10
775.840348
 20
478.325281
 30
0.000000
 11
775.893242
 21
478.333146
 31
0.000000
  0
LINE
  5
1212
330
1F
100
AcDbEntity
  8
0
  62
7
100
AcDbLine
 10
775.893242
 20
478.333146
 30
0.000000
 11
775.944105
 21
478.341229
 31
0.000000
  0
LINE
  5
1213
330
1F
100
AcDbEntity
  8
0
  62
7
100
AcDbLine
 10
775.944105
 20
478.341229
 30
0.000000
 11
775.993080
 21
478.349535
 31
0.000000
  0
LINE
  5
1214
330
1F
100
AcDbEntity
  8
0
  62
7
100
AcDbLine
 10
775.993080
 20
478.349535
 30
0.000000
 11
776.040311
 21
478.358068
 31
0.000000
  0
LINE
  5
1215
330
1F
100
AcDbEntity
  8
0
  62
7
100
AcDbLine
 10
776.040311
 20
478.358068
 30
0.000000
 11
776.085942
 21
478.366831
 31
0.000000
  0
LINE
  5
1216
330
1F
100
AcDbEntity
  8
0
  62
7
100
AcDbLine
 10
776.085942
 20
478.366831
 30
0.000000
 11
776.130116
 21
478.375829
 31
0.000000
  0
LINE
  5
1217
330
1F
100
AcDbEntity
  8
0
  62
7
100
AcDbLine
 10
776.130116
 20
478.375829
 30
0.000000
 11
776.172978
 21
478.385065
 31
0.000000
  0
LINE
  5
1218
330
1F
100
AcDbEntity
  8
0
  62
7
100
AcDbLine
 10
776.172978
 20
478.385065
 30
0.000000
 11
776.214670
 21
478.394545
 31
0.000000
  0
LINE
  5
1219
330
1F
100
AcDbEntity
  8
0
  62
7
100
AcDbLine
 10
776.214670
 20
478.394545
 30
0.000000
 11
776.255338
 21
478.404271
 31
0.000000
  0
LINE
  5
1220
330
1F
100
AcDbEntity
  8
0
  62
7
100
AcDbLine
 10
776.255338
 20
478.404271
 30
0.000000
 11
776.295124
 21
478.414249
 31
0.000000
  0
LINE
  5
1221
330
1F
100
AcDbEntity
  8
0
  62
7
100
AcDbLine
 10
776.295124
 20
478.414249
 30
0.000000
 11
776.334173
 21
478.424481
 31
0.000000
  0
LINE
  5
1222
330
1F
100
AcDbEntity
  8
0
  62
7
100
AcDbLine
 10
776.334173
 20
478.424481
 30
0.000000
 11
776.408629
 21
478.444592
 31
0.000000
  0
LINE
  5
1223
330
1F
100
AcDbEntity
  8
0
  62
7
100
AcDbLine
 10
776.408629
 20
478.444592
 30
0.000000
 11
776.481524
 21
478.464919
 31
0.000000
  0
LINE
  5
1224
330
1F
100
AcDbEntity
  8
0
  62
7
100
AcDbLine
 10
776.481524
 20
478.464919
 30
0.000000
 11
776.552939
 21
478.485550
 31
0.000000
  0
LINE
  5
1225
330
1F
100
AcDbEntity
  8
0
  62
7
100
AcDbLine
 10
776.552939
 20
478.485550
 30
0.000000
 11
776.622959
 21
478.506571
 31
0.000000
  0
LINE
  5
1226
330
1F
100
AcDbEntity
  8
0
  62
7
100
AcDbLine
 10
776.622959
 20
478.506571
 30
0.000000
 11
776.691666
 21
478.528070
 31
0.000000
  0
LINE
  5
1227
330
1F
100
AcDbEntity
  8
0
  62
7
100
AcDbLine
 10
776.691666
 20
478.528070
 30
0.000000
 11
776.759143
 21
478.550134
 31
0.000000
  0
LINE
  5
1228
330
1F
100
AcDbEntity
  8
0
  62
7
100
AcDbLine
 10
776.759143
 20
478.550134
 30
0.000000
 11
776.825473
 21
478.572849
 31
0.000000
  0
LINE
  5
1229
330
1F
100
AcDbEntity
  8
0
  62
7
100
AcDbLine
 10
776.825473
 20
478.572849
 30
0.000000
 11
776.890737
 21
478.596303
 31
0.000000
  0
LINE
  5
1230
330
1F
100
AcDbEntity
  8
0
  62
7
100
AcDbLine
 10
776.890737
 20
478.596303
 30
0.000000
 11
776.955020
 21
478.620583
 31
0.000000
  0
LINE
  5
1231
330
1F
100
AcDbEntity
  8
0
  62
7
100
AcDbLine
 10
776.955020
 20
478.620583
 30
0.000000
 11
777.018404
 21
478.645775
 31
0.000000
  0
LINE
  5
1232
330
1F
100
AcDbEntity
  8
0
  62
7
100
AcDbLine
 10
777.018404
 20
478.645775
 30
0.000000
 11
777.080971
 21
478.671967
 31
0.000000
  0
LINE
  5
1233
330
1F
100
AcDbEntity
  8
0
  62
7
100
AcDbLine
 10
777.080971
 20
478.671967
 30
0.000000
 11
777.142804
 21
478.699246
 31
0.000000
  0
LINE
  5
1234
330
1F
100
AcDbEntity
  8
0
  62
7
100
AcDbLine
 10
777.142804
 20
478.699246
 30
0.000000
 11
777.203987
 21
478.727698
 31
0.000000
  0
LINE
  5
1235
330
1F
100
AcDbEntity
  8
0
  62
7
100
AcDbLine
 10
777.203987
 20
478.727698
 30
0.000000
 11
777.264602
 21
478.757411
 31
0.000000
  0
LINE
  5
1236
330
1F
100
AcDbEntity
  8
0
  62
7
100
AcDbLine
 10
777.264602
 20
478.757411
 30
0.000000
 11
777.324732
 21
478.788472
 31
0.000000
  0
LINE
  5
1237
330
1F
100
AcDbEntity
  8
0
  62
7
100
AcDbLine
 10
777.324732
 20
478.788472
 30
0.000000
 11
777.384459
 21
478.820968
 31
0.000000
  0
LINE
  5
1238
330
1F
100
AcDbEntity
  8
0
  62
7
100
AcDbLine
 10
777.384459
 20
478.820968
 30
0.000000
 11
777.414198
 21
478.837781
 31
0.000000
  0
LINE
  5
1239
330
1F
100
AcDbEntity
  8
0
  62
7
100
AcDbLine
 10
777.414198
 20
478.837781
 30
0.000000
 11
777.443867
 21
478.854985
 31
0.000000
  0
LINE
  5
1240
330
1F
100
AcDbEntity
  8
0
  62
7
100
AcDbLine
 10
777.443867
 20
478.854985
 30
0.000000
 11
777.473476
 21
478.872592
 31
0.000000
  0
LINE
  5
1241
330
1F
100
AcDbEntity
  8
0
  62
7
100
AcDbLine
 10
777.473476
 20
478.872592
 30
0.000000
 11
777.503037
 21
478.890611
 31
0.000000
  0
LINE
  5
1242
330
1F
100
AcDbEntity
  8
0
  62
7
100
AcDbLine
 10
777.503037
 20
478.890611
 30
0.000000
 11
777.532559
 21
478.909055
 31
0.000000
  0
LINE
  5
1243
330
1F
100
AcDbEntity
  8
0
  62
7
100
AcDbLine
 10
777.532559
 20
478.909055
 30
0.000000
 11
777.562054
 21
478.927934
 31
0.000000
  0
LINE
  5
1244
330
1F
100
AcDbEntity
  8
0
  62
7
100
AcDbLine
 10
777.562054
 20
478.927934
 30
0.000000
 11
777.591530
 21
478.947258
 31
0.000000
  0
LINE
  5
1245
330
1F
100
AcDbEntity
  8
0
  62
7
100
AcDbLine
 10
777.591530
 20
478.947258
 30
0.000000
 11
777.620999
 21
478.967039
 31
0.000000
  0
LINE
  5
1246
330
1F
100
AcDbEntity
  8
0
  62
7
100
AcDbLine
 10
777.620999
 20
478.967039
 30
0.000000
 11
777.650470
 21
478.987287
 31
0.000000
  0
LINE
  5
1247
330
1F
100
AcDbEntity
  8
0
  62
7
100
AcDbLine
 10
777.650470
 20
478.987287
 30
0.000000
 11
777.679955
 21
479.008014
 31
0.000000
  0
LINE
  5
1248
330
1F
100
AcDbEntity
  8
0
  62
7
100
AcDbLine
 10
777.679955
 20
479.008014
 30
0.000000
 11
777.709463
 21
479.029229
 31
0.000000
  0
LINE
  5
1249
330
1F
100
AcDbEntity
  8
0
  62
7
100
AcDbLine
 10
777.709463
 20
479.029229
 30
0.000000
 11
777.739006
 21
479.050945
 31
0.000000
  0
LINE
  5
1250
330
1F
100
AcDbEntity
  8
0
  62
7
100
AcDbLine
 10
777.739006
 20
479.050945
 30
0.000000
 11
777.768592
 21
479.073172
 31
0.000000
  0
LINE
  5
1251
330
1F
100
AcDbEntity
  8
0
  62
7
100
AcDbLine
 10
777.768592
 20
479.073172
 30
0.000000
 11
777.798233
 21
479.095920
 31
0.000000
  0
LINE
  5
1252
330
1F
100
AcDbEntity
  8
0
  62
7
100
AcDbLine
 10
777.798233
 20
479.095920
 30
0.000000
 11
777.827939
 21
479.119202
 31
0.000000
  0
LINE
  5
1253
330
1F
100
AcDbEntity
  8
0
  62
7
100
AcDbLine
 10
777.827939
 20
479.119202
 30
0.000000
 11
777.857721
 21
479.143027
 31
0.000000
  0
LINE
  5
1254
330
1F
100
AcDbEntity
  8
0
  62
7
100
AcDbLine
 10
777.857721
 20
479.143027
 30
0.000000
 11
777.917551
 21
479.192352
 31
0.000000
  0
LINE
  5
1255
330
1F
100
AcDbEntity
  8
0
  62
7
100
AcDbLine
 10
777.917551
 20
479.192352
 30
0.000000
 11
777.977806
 21
479.243981
 31
0.000000
  0
LINE
  5
1256
330
1F
100
AcDbEntity
  8
0
  62
7
100
AcDbLine
 10
777.977806
 20
479.243981
 30
0.000000
 11
778.038569
 21
479.298002
 31
0.000000
  0
LINE
  5
1257
330
1F
100
AcDbEntity
  8
0
  62
7
100
AcDbLine
 10
778.038569
 20
479.298002
 30
0.000000
 11
778.099923
 21
479.354502
 31
0.000000
  0
LINE
  5
1258
330
1F
100
AcDbEntity
  8
0
  62
7
100
AcDbLine
 10
778.099923
 20
479.354502
 30
0.000000
 11
778.161951
 21
479.413569
 31
0.000000
  0
LINE
  5
1259
330
1F
100
AcDbEntity
  8
0
  62
7
100
AcDbLine
 10
778.161951
 20
479.413569
 30
0.000000
 11
778.224735
 21
479.475288
 31
0.000000
  0
LINE
  5
1260
330
1F
100
AcDbEntity
  8
0
  62
7
100
AcDbLine
 10
778.224735
 20
479.475288
 30
0.000000
 11
778.288359
 21
479.539748
 31
0.000000
  0
LINE
  5
1261
330
1F
100
AcDbEntity
  8
0
  62
7
100
AcDbLine
 10
778.288359
 20
479.539748
 30
0.000000
 11
778.352904
 21
479.607034
 31
0.000000
  0
LINE
  5
1262
330
1F
100
AcDbEntity
  8
0
  62
7
100
AcDbLine
 10
778.352904
 20
479.607034
 30
0.000000
 11
778.418454
 21
479.677235
 31
0.000000
  0
LINE
  5
1263
330
1F
100
AcDbEntity
  8
0
  62
7
100
AcDbLine
 10
778.418454
 20
479.677235
 30
0.000000
 11
778.485092
 21
479.750436
 31
0.000000
  0
LINE
  5
1264
330
1F
100
AcDbEntity
  8
0
  62
7
100
AcDbLine
 10
778.485092
 20
479.750436
 30
0.000000
 11
778.552900
 21
479.826726
 31
0.000000
  0
LINE
  5
1265
330
1F
100
AcDbEntity
  8
0
  62
7
100
AcDbLine
 10
778.552900
 20
479.826726
 30
0.000000
 11
778.621960
 21
479.906191
 31
0.000000
  0
LINE
  5
1266
330
1F
100
AcDbEntity
  8
0
  62
7
100
AcDbLine
 10
778.621960
 20
479.906191
 30
0.000000
 11
778.692357
 21
479.988918
 31
0.000000
  0
LINE
  5
1267
330
1F
100
AcDbEntity
  8
0
  62
7
100
AcDbLine
 10
778.692357
 20
479.988918
 30
0.000000
 11
778.764173
 21
480.074994
 31
0.000000
  0
LINE
  5
1268
330
1F
100
AcDbEntity
  8
0
  62
7
100
AcDbLine
 10
778.764173
 20
480.074994
 30
0.000000
 11
778.837489
 21
480.164507
 31
0.000000
  0
LINE
  5
1269
330
1F
100
AcDbEntity
  8
0
  62
7
100
AcDbLine
 10
778.837489
 20
480.164507
 30
0.000000
 11
778.912390
 21
480.257542
 31
0.000000
  0
LINE
  5
1270
330
1F
100
AcDbEntity
  8
0
  62
7
100
AcDbLine
 10
778.912390
 20
480.257542
 30
0.000000
 11
778.988958
 21
480.354188
 31
0.000000
  0
LINE
  5
1271
330
1F
100
AcDbEntity
  8
0
  62
7
100
AcDbLine
 10
778.988958
 20
480.354188
 30
0.000000
 11
779.067276
 21
480.454531
 31
0.000000
  0
LINE
  5
1272
330
1F
100
AcDbEntity
  8
0
  62
7
100
AcDbLine
 10
779.067276
 20
480.454531
 30
0.000000
 11
779.147426
 21
480.558658
 31
0.000000
  0
LINE
  5
1273
330
1F
100
AcDbEntity
  8
0
  62
7
100
AcDbLine
 10
779.147426
 20
480.558658
 30
0.000000
 11
779.229492
 21
480.666657
 31
0.000000
  0
LINE
  5
1274
330
1F
100
AcDbEntity
  8
0
  62
7
100
AcDbLine
 10
779.229492
 20
480.666657
 30
0.000000
 11
779.313555
 21
480.778614
 31
0.000000
  0
LINE
  5
1275
330
1F
100
AcDbEntity
  8
0
  62
7
100
AcDbLine
 10
779.313555
 20
480.778614
 30
0.000000
 11
779.399699
 21
480.894616
 31
0.000000
  0
LINE
  5
1276
330
1F
100
AcDbEntity
  8
0
  62
7
100
AcDbLine
 10
779.399699
 20
480.894616
 30
0.000000
 11
779.488007
 21
481.014750
 31
0.000000
  0
LINE
  5
1277
330
1F
100
AcDbEntity
  8
0
  62
7
100
AcDbLine
 10
779.488007
 20
481.014750
 30
0.000000
 11
779.578562
 21
481.139104
 31
0.000000
  0
LINE
  5
1278
330
1F
100
AcDbEntity
  8
0
  62
7
100
AcDbLine
 10
779.578562
 20
481.139104
 30
0.000000
 11
779.671445
 21
481.267764
 31
0.000000
  0
LINE
  5
1279
330
1F
100
AcDbEntity
  8
0
  62
7
100
AcDbLine
 10
779.671445
 20
481.267764
 30
0.000000
 11
779.766741
 21
481.400817
 31
0.000000
  0
LINE
  5
1280
330
1F
100
AcDbEntity
  8
0
  62
7
100
AcDbLine
 10
779.766741
 20
481.400817
 30
0.000000
 11
779.864531
 21
481.538351
 31
0.000000
  0
LINE
  5
1281
330
1F
100
AcDbEntity
  8
0
  62
7
100
AcDbLine
 10
779.864531
 20
481.538351
 30
0.000000
 11
779.964898
 21
481.680453
 31
0.000000
  0
LINE
  5
1282
330
1F
100
AcDbEntity
  8
0
  62
7
100
AcDbLine
 10
779.964898
 20
481.680453
 30
0.000000
 11
780.067926
 21
481.827208
 31
0.000000
  0
LINE
  5
1283
330
1F
100
AcDbEntity
  8
0
  62
7
100
AcDbLine
 10
780.067926
 20
481.827208
 30
0.000000
 11
780.173697
 21
481.978706
 31
0.000000
  0
LINE
  5
1284
330
1F
100
AcDbEntity
  8
0
  62
7
100
AcDbLine
 10
780.173697
 20
481.978706
 30
0.000000
 11
780.282294
 21
482.135031
 31
0.000000
  0
LINE
  5
1285
330
1F
100
AcDbEntity
  8
0
  62
7
100
AcDbLine
 10
780.282294
 20
482.135031
 30
0.000000
 11
780.393799
 21
482.296272
 31
0.000000
  0
LINE
  5
1286
330
1F
100
AcDbEntity
  8
0
  62
7
100
AcDbLine
 10
780.393799
 20
482.296272
 30
0.000000
 11
780.625867
 21
482.633849
 31
0.000000
  0
LINE
  5
1287
330
1F
100
AcDbEntity
  8
0
  62
7
100
AcDbLine
 10
780.625867
 20
482.633849
 30
0.000000
 11
780.870562
 21
482.992132
 31
0.000000
  0
LINE
  5
1288
330
1F
100
AcDbEntity
  8
0
  62
7
100
AcDbLine
 10
780.870562
 20
482.992132
 30
0.000000
 11
781.128548
 21
483.371817
 31
0.000000
  0
LINE
  5
1289
330
1F
100
AcDbEntity
  8
0
  62
7
100
AcDbLine
 10
781.128548
 20
483.371817
 30
0.000000
 11
781.400485
 21
483.773600
 31
0.000000
  0
LINE
  5
1290
330
1F
100
AcDbEntity
  8
0
  62
7
100
AcDbLine
 10
781.400485
 20
483.773600
 30
0.000000
 11
781.868537
 21
484.468584
 31
0.000000
  0
LINE
  5
1291
330
1F
100
AcDbEntity
  8
0
  62
7
100
AcDbLine
 10
781.868537
 20
484.468584
 30
0.000000
 11
782.311532
 21
485.128730
 31
0.000000
  0
LINE
  5
1292
330
1F
100
AcDbEntity
  8
0
  62
7
100
AcDbLine
 10
782.311532
 20
485.128730
 30
0.000000
 11
782.523853
 21
485.446158
 31
0.000000
  0
LINE
  5
1293
330
1F
100
AcDbEntity
  8
0
  62
7
100
AcDbLine
 10
782.523853
 20
485.446158
 30
0.000000
 11
782.730173
 21
485.755380
 31
0.000000
  0
LINE
  5
1294
330
1F
100
AcDbEntity
  8
0
  62
7
100
AcDbLine
 10
782.730173
 20
485.755380
 30
0.000000
 11
782.930581
 21
486.056563
 31
0.000000
  0
LINE
  5
1295
330
1F
100
AcDbEntity
  8
0
  62
7
100
AcDbLine
 10
782.930581
 20
486.056563
 30
0.000000
 11
783.125163
 21
486.349875
 31
0.000000
  0
LINE
  5
1296
330
1F
100
AcDbEntity
  8
0
  62
7
100
AcDbLine
 10
783.125163
 20
486.349875
 30
0.000000
 11
783.314009
 21
486.635484
 31
0.000000
  0
LINE
  5
1297
330
1F
100
AcDbEntity
  8
0
  62
7
100
AcDbLine
 10
783.314009
 20
486.635484
 30
0.000000
 11
783.497204
 21
486.913557
 31
0.000000
  0
LINE
  5
1298
330
1F
100
AcDbEntity
  8
0
  62
7
100
AcDbLine
 10
783.497204
 20
486.913557
 30
0.000000
 11
783.674839
 21
487.184262
 31
0.000000
  0
LINE
  5
1299
330
1F
100
AcDbEntity
  8
0
  62
7
100
AcDbLine
 10
783.674839
 20
487.184262
 30
0.000000
 11
783.846999
 21
487.447766
 31
0.000000
  0
LINE
  5
1300
330
1F
100
AcDbEntity
  8
0
  62
7
100
AcDbLine
 10
783.846999
 20
487.447766
 30
0.000000
 11
784.013773
 21
487.704237
 31
0.000000
  0
LINE
  5
1301
330
1F
100
AcDbEntity
  8
0
  62
7
100
AcDbLine
 10
784.013773
 20
487.704237
 30
0.000000
 11
784.175248
 21
487.953843
 31
0.000000
  0
LINE
  5
1302
330
1F
100
AcDbEntity
  8
0
  62
7
100
AcDbLine
 10
784.175248
 20
487.953843
 30
0.000000
 11
784.331513
 21
488.196751
 31
0.000000
  0
LINE
  5
1303
330
1F
100
AcDbEntity
  8
0
  62
7
100
AcDbLine
 10
784.331513
 20
488.196751
 30
0.000000
 11
784.482655
 21
488.433130
 31
0.000000
  0
LINE
  5
1304
330
1F
100
AcDbEntity
  8
0
  62
7
100
AcDbLine
 10
784.482655
 20
488.433130
 30
0.000000
 11
784.628762
 21
488.663146
 31
0.000000
  0
LINE
  5
1305
330
1F
100
AcDbEntity
  8
0
  62
7
100
AcDbLine
 10
784.628762
 20
488.663146
 30
0.000000
 11
784.769921
 21
488.886967
 31
0.000000
  0
LINE
  5
1306
330
1F
100
AcDbEntity
  8
0
  62
7
100
AcDbLine
 10
784.769921
 20
488.886967
 30
0.000000
 11
784.906221
 21
489.104761
 31
0.000000
  0
LINE
  5
1307
330
1F
100
AcDbEntity
  8
0
  62
7
100
AcDbLine
 10
784.906221
 20
489.104761
 30
0.000000
 11
785.037749
 21
489.316696
 31
0.000000
  0
LINE
  5
1308
330
1F
100
AcDbEntity
  8
0
  62
7
100
AcDbLine
 10
785.037749
 20
489.316696
 30
0.000000
 11
785.164594
 21
489.522938
 31
0.000000
  0
LINE
  5
1309
330
1F
100
AcDbEntity
  8
0
  62
7
100
AcDbLine
 10
785.164594
 20
489.522938
 30
0.000000
 11
785.286842
 21
489.723657
 31
0.000000
  0
LINE
  5
1310
330
1F
100
AcDbEntity
  8
0
  62
7
100
AcDbLine
 10
785.286842
 20
489.723657
 30
0.000000
 11
785.404581
 21
489.919018
 31
0.000000
  0
LINE
  5
1311
330
1F
100
AcDbEntity
  8
0
  62
7
100
AcDbLine
 10
785.404581
 20
489.919018
 30
0.000000
 11
785.517900
 21
490.109191
 31
0.000000
  0
LINE
  5
1312
330
1F
100
AcDbEntity
  8
0
  62
7
100
AcDbLine
 10
785.517900
 20
490.109191
 30
0.000000
 11
785.626886
 21
490.294343
 31
0.000000
  0
LINE
  5
1313
330
1F
100
AcDbEntity
  8
0
  62
7
100
AcDbLine
 10
785.626886
 20
490.294343
 30
0.000000
 11
785.731626
 21
490.474640
 31
0.000000
  0
LINE
  5
1314
330
1F
100
AcDbEntity
  8
0
  62
7
100
AcDbLine
 10
785.731626
 20
490.474640
 30
0.000000
 11
785.832210
 21
490.650252
 31
0.000000
  0
LINE
  5
1315
330
1F
100
AcDbEntity
  8
0
  62
7
100
AcDbLine
 10
785.832210
 20
490.650252
 30
0.000000
 11
785.928723
 21
490.821344
 31
0.000000
  0
LINE
  5
1316
330
1F
100
AcDbEntity
  8
0
  62
7
100
AcDbLine
 10
785.928723
 20
490.821344
 30
0.000000
 11
786.021255
 21
490.988087
 31
0.000000
  0
LINE
  5
1317
330
1F
100
AcDbEntity
  8
0
  62
7
100
AcDbLine
 10
786.021255
 20
490.988087
 30
0.000000
 11
786.109893
 21
491.150645
 31
0.000000
  0
LINE
  5
1318
330
1F
100
AcDbEntity
  8
0
  62
7
100
AcDbLine
 10
786.109893
 20
491.150645
 30
0.000000
 11
786.194724
 21
491.309189
 31
0.000000
  0
LINE
  5
1319
330
1F
100
AcDbEntity
  8
0
  62
7
100
AcDbLine
 10
786.194724
 20
491.309189
 30
0.000000
 11
786.275837
 21
491.463884
 31
0.000000
  0
LINE
  5
1320
330
1F
100
AcDbEntity
  8
0
  62
7
100
AcDbLine
 10
786.275837
 20
491.463884
 30
0.000000
 11
786.315027
 21
491.539841
 31
0.000000
  0
LINE
  5
1321
330
1F
100
AcDbEntity
  8
0
  62
7
100
AcDbLine
 10
786.315027
 20
491.539841
 30
0.000000
 11
786.353319
 21
491.614899
 31
0.000000
  0
LINE
  5
1322
330
1F
100
AcDbEntity
  8
0
  62
7
100
AcDbLine
 10
786.353319
 20
491.614899
 30
0.000000
 11
786.390726
 21
491.689078
 31
0.000000
  0
LINE
  5
1323
330
1F
100
AcDbEntity
  8
0
  62
7
100
AcDbLine
 10
786.390726
 20
491.689078
 30
0.000000
 11
786.427259
 21
491.762401
 31
0.000000
  0
LINE
  5
1324
330
1F
100
AcDbEntity
  8
0
  62
7
100
AcDbLine
 10
786.427259
 20
491.762401
 30
0.000000
 11
786.462927
 21
491.834887
 31
0.000000
  0
LINE
  5
1325
330
1F
100
AcDbEntity
  8
0
  62
7
100
AcDbLine
 10
786.462927
 20
491.834887
 30
0.000000
 11
786.497742
 21
491.906558
 31
0.000000
  0
LINE
  5
1326
330
1F
100
AcDbEntity
  8
0
  62
7
100
AcDbLine
 10
786.497742
 20
491.906558
 30
0.000000
 11
786.531716
 21
491.977434
 31
0.000000
  0
LINE
  5
1327
330
1F
100
AcDbEntity
  8
0
  62
7
100
AcDbLine
 10
786.531716
 20
491.977434
 30
0.000000
 11
786.564859
 21
492.047537
 31
0.000000
  0
LINE
  5
1328
330
1F
100
AcDbEntity
  8
0
  62
7
100
AcDbLine
 10
786.564859
 20
492.047537
 30
0.000000
 11
786.597182
 21
492.116888
 31
0.000000
  0
LINE
  5
1329
330
1F
100
AcDbEntity
  8
0
  62
7
100
AcDbLine
 10
786.597182
 20
492.116888
 30
0.000000
 11
786.628696
 21
492.185507
 31
0.000000
  0
LINE
  5
1330
330
1F
100
AcDbEntity
  8
0
  62
7
100
AcDbLine
 10
786.628696
 20
492.185507
 30
0.000000
 11
786.659412
 21
492.253416
 31
0.000000
  0
LINE
  5
1331
330
1F
100
AcDbEntity
  8
0
  62
7
100
AcDbLine
 10
786.659412
 20
492.253416
 30
0.000000
 11
786.689341
 21
492.320634
 31
0.000000
  0
LINE
  5
1332
330
1F
100
AcDbEntity
  8
0
  62
7
100
AcDbLine
 10
786.689341
 20
492.320634
 30
0.000000
 11
786.718494
 21
492.387185
 31
0.000000
  0
LINE
  5
1333
330
1F
100
AcDbEntity
  8
0
  62
7
100
AcDbLine
 10
786.718494
 20
492.387185
 30
0.000000
 11
786.746882
 21
492.453087
 31
0.000000
  0
LINE
  5
1334
330
1F
100
AcDbEntity
  8
0
  62
7
100
AcDbLine
 10
786.746882
 20
492.453087
 30
0.000000
 11
786.774516
 21
492.518363
 31
0.000000
  0
LINE
  5
1335
330
1F
100
AcDbEntity
  8
0
  62
7
100
AcDbLine
 10
786.774516
 20
492.518363
 30
0.000000
 11
786.801406
 21
492.583033
 31
0.000000
  0
LINE
  5
1336
330
1F
100
AcDbEntity
  8
0
  62
7
100
AcDbLine
 10
786.801406
 20
492.583033
 30
0.000000
 11
786.827565
 21
492.647118
 31
0.000000
  0
LINE
  5
1337
330
1F
100
AcDbEntity
  8
0
  62
7
100
AcDbLine
 10
786.827565
 20
492.647118
 30
0.000000
 11
786.853002
 21
492.710640
 31
0.000000
  0
LINE
  5
1338
330
1F
100
AcDbEntity
  8
0
  62
7
100
AcDbLine
 10
786.853002
 20
492.710640
 30
0.000000
 11
786.877729
 21
492.773618
 31
0.000000
  0
LINE
  5
1339
330
1F
100
AcDbEntity
  8
0
  62
7
100
AcDbLine
 10
786.877729
 20
492.773618
 30
0.000000
 11
786.901757
 21
492.836074
 31
0.000000
  0
LINE
  5
1340
330
1F
100
AcDbEntity
  8
0
  62
7
100
AcDbLine
 10
786.901757
 20
492.836074
 30
0.000000
 11
786.925097
 21
492.898029
 31
0.000000
  0
LINE
  5
1341
330
1F
100
AcDbEntity
  8
0
  62
7
100
AcDbLine
 10
786.925097
 20
492.898029
 30
0.000000
 11
786.947759
 21
492.959505
 31
0.000000
  0
LINE
  5
1342
330
1F
100
AcDbEntity
  8
0
  62
7
100
AcDbLine
 10
786.947759
 20
492.959505
 30
0.000000
 11
786.969755
 21
493.020521
 31
0.000000
  0
LINE
  5
1343
330
1F
100
AcDbEntity
  8
0
  62
7
100
AcDbLine
 10
786.969755
 20
493.020521
 30
0.000000
 11
786.991096
 21
493.081099
 31
0.000000
  0
LINE
  5
1344
330
1F
100
AcDbEntity
  8
0
  62
7
100
AcDbLine
 10
786.991096
 20
493.081099
 30
0.000000
 11
787.011792
 21
493.141260
 31
0.000000
  0
LINE
  5
1345
330
1F
100
AcDbEntity
  8
0
  62
7
100
AcDbLine
 10
787.011792
 20
493.141260
 30
0.000000
 11
787.031855
 21
493.201024
 31
0.000000
  0
LINE
  5
1346
330
1F
100
AcDbEntity
  8
0
  62
7
100
AcDbLine
 10
787.031855
 20
493.201024
 30
0.000000
 11
787.051296
 21
493.260413
 31
0.000000
  0
LINE
  5
1347
330
1F
100
AcDbEntity
  8
0
  62
7
100
AcDbLine
 10
787.051296
 20
493.260413
 30
0.000000
 11
787.070125
 21
493.319448
 31
0.000000
  0
LINE
  5
1348
330
1F
100
AcDbEntity
  8
0
  62
7
100
AcDbLine
 10
787.070125
 20
493.319448
 30
0.000000
 11
787.088354
 21
493.378150
 31
0.000000
  0
LINE
  5
1349
330
1F
100
AcDbEntity
  8
0
  62
7
100
AcDbLine
 10
787.088354
 20
493.378150
 30
0.000000
 11
787.105993
 21
493.436539
 31
0.000000
  0
LINE
  5
1350
330
1F
100
AcDbEntity
  8
0
  62
7
100
AcDbLine
 10
787.105993
 20
493.436539
 30
0.000000
 11
787.123053
 21
493.494636
 31
0.000000
  0
LINE
  5
1351
330
1F
100
AcDbEntity
  8
0
  62
7
100
AcDbLine
 10
787.123053
 20
493.494636
 30
0.000000
 11
787.139546
 21
493.552463
 31
0.000000
  0
LINE
  5
1352
330
1F
100
AcDbEntity
  8
0
  62
7
100
AcDbLine
 10
787.139546
 20
493.552463
 30
0.000000
 11
787.155482
 21
493.610041
 31
0.000000
  0
LINE
  5
1353
330
1F
100
AcDbEntity
  8
0
  62
7
100
AcDbLine
 10
787.155482
 20
493.610041
 30
0.000000
 11
787.170873
 21
493.667390
 31
0.000000
  0
LINE
  5
1354
330
1F
100
AcDbEntity
  8
0
  62
7
100
AcDbLine
 10
787.170873
 20
493.667390
 30
0.000000
 11
787.185729
 21
493.724531
 31
0.000000
  0
LINE
  5
1355
330
1F
100
AcDbEntity
  8
0
  62
7
100
AcDbLine
 10
787.185729
 20
493.724531
 30
0.000000
 11
787.200062
 21
493.781485
 31
0.000000
  0
LINE
  5
1356
330
1F
100
AcDbEntity
  8
0
  62
7
100
AcDbLine
 10
787.200062
 20
493.781485
 30
0.000000
 11
787.213881
 21
493.838274
 31
0.000000
  0
LINE
  5
1357
330
1F
100
AcDbEntity
  8
0
  62
7
100
AcDbLine
 10
787.213881
 20
493.838274
 30
0.000000
 11
787.227199
 21
493.894917
 31
0.000000
  0
LINE
  5
1358
330
1F
100
AcDbEntity
  8
0
  62
7
100
AcDbLine
 10
787.227199
 20
493.894917
 30
0.000000
 11
787.240026
 21
493.951437
 31
0.000000
  0
LINE
  5
1359
330
1F
100
AcDbEntity
  8
0
  62
7
100
AcDbLine
 10
787.240026
 20
493.951437
 30
0.000000
 11
787.252374
 21
494.007855
 31
0.000000
  0
LINE
  5
1360
330
1F
100
AcDbEntity
  8
0
  62
7
100
AcDbLine
 10
787.252374
 20
494.007855
 30
0.000000
 11
787.264252
 21
494.064189
 31
0.000000
  0
LINE
  5
1361
330
1F
100
AcDbEntity
  8
0
  62
7
100
AcDbLine
 10
787.264252
 20
494.064189
 30
0.000000
 11
787.275673
 21
494.120463
 31
0.000000
  0
LINE
  5
1362
330
1F
100
AcDbEntity
  8
0
  62
7
100
AcDbLine
 10
787.275673
 20
494.120463
 30
0.000000
 11
787.286646
 21
494.176697
 31
0.000000
  0
LINE
  5
1363
330
1F
100
AcDbEntity
  8
0
  62
7
100
AcDbLine
 10
787.286646
 20
494.176697
 30
0.000000
 11
787.297184
 21
494.232912
 31
0.000000
  0
LINE
  5
1364
330
1F
100
AcDbEntity
  8
0
  62
7
100
AcDbLine
 10
787.297184
 20
494.232912
 30
0.000000
 11
787.307297
 21
494.289129
 31
0.000000
  0
LINE
  5
1365
330
1F
100
AcDbEntity
  8
0
  62
7
100
AcDbLine
 10
787.307297
 20
494.289129
 30
0.000000
 11
787.316996
 21
494.345368
 31
0.000000
  0
LINE
  5
1366
330
1F
100
AcDbEntity
  8
0
  62
7
100
AcDbLine
 10
787.316996
 20
494.345368
 30
0.000000
 11
787.326292
 21
494.401652
 31
0.000000
  0
LINE
  5
1367
330
1F
100
AcDbEntity
  8
0
  62
7
100
AcDbLine
 10
787.326292
 20
494.401652
 30
0.000000
 11
787.335196
 21
494.458000
 31
0.000000
  0
LINE
  5
1368
330
1F
100
AcDbEntity
  8
0
  62
7
100
AcDbLine
 10
787.335196
 20
494.458000
 30
0.000000
 11
787.351871
 21
494.570974
 31
0.000000
  0
LINE
  5
1369
330
1F
100
AcDbEntity
  8
0
  62
7
100
AcDbLine
 10
787.351871
 20
494.570974
 30
0.000000
 11
787.367111
 21
494.684458
 31
0.000000
  0
LINE
  5
1370
330
1F
100
AcDbEntity
  8
0
  62
7
100
AcDbLine
 10
787.367111
 20
494.684458
 30
0.000000
 11
787.381001
 21
494.798620
 31
0.000000
  0
LINE
  5
1371
330
1F
100
AcDbEntity
  8
0
  62
7
100
AcDbLine
 10
787.381001
 20
494.798620
 30
0.000000
 11
787.393631
 21
494.913628
 31
0.000000
  0
LINE
  5
1372
330
1F
100
AcDbEntity
  8
0
  62
7
100
AcDbLine
 10
787.393631
 20
494.913628
 30
0.000000
 11
787.405087
 21
495.029649
 31
0.000000
  0
LINE
  5
1373
330
1F
100
AcDbEntity
  8
0
  62
7
100
AcDbLine
 10
787.405087
 20
495.029649
 30
0.000000
 11
787.415458
 21
495.146851
 31
0.000000
  0
LINE
  5
1374
330
1F
100
AcDbEntity
  8
0
  62
7
100
AcDbLine
 10
787.415458
 20
495.146851
 30
0.000000
 11
787.424831
 21
495.265401
 31
0.000000
  0
LINE
  5
1375
330
1F
100
AcDbEntity
  8
0
  62
7
100
AcDbLine
 10
787.424831
 20
495.265401
 30
0.000000
 11
787.433295
 21
495.385467
 31
0.000000
  0
LINE
  5
1376
330
1F
100
AcDbEntity
  8
0
  62
7
100
AcDbLine
 10
787.433295
 20
495.385467
 30
0.000000
 11
787.439906
 21
495.501997
 31
0.000000
  0
LINE
  5
1377
330
1F
100
AcDbEntity
  8
0
  62
7
100
AcDbLine
 10
787.439906
 20
495.501997
 30
0.000000
 11
787.445128
 21
495.618108
 31
0.000000
  0
LINE
  5
1378
330
1F
100
AcDbEntity
  8
0
  62
7
100
AcDbLine
 10
787.445128
 20
495.618108
 30
0.000000
 11
787.448963
 21
495.733790
 31
0.000000
  0
LINE
  5
1379
330
1F
100
AcDbEntity
  8
0
  62
7
100
AcDbLine
 10
787.448963
 20
495.733790
 30
0.000000
 11
787.451414
 21
495.849036
 31
0.000000
  0
LINE
  5
1380
330
1F
100
AcDbEntity
  8
0
  62
7
100
AcDbLine
 10
787.451414
 20
495.849036
 30
0.000000
 11
787.452486
 21
495.963837
 31
0.000000
  0
LINE
  5
1381
330
1F
100
AcDbEntity
  8
0
  62
7
100
AcDbLine
 10
787.452486
 20
495.963837
 30
0.000000
 11
787.452181
 21
496.078185
 31
0.000000
  0
LINE
  5
1382
330
1F
100
AcDbEntity
  8
0
  62
7
100
AcDbLine
 10
787.452181
 20
496.078185
 30
0.000000
 11
787.450502
 21
496.192069
 31
0.000000
  0
LINE
  5
1383
330
1F
100
AcDbEntity
  8
0
  62
7
100
AcDbLine
 10
787.450502
 20
496.192069
 30
0.000000
 11
787.447453
 21
496.305482
 31
0.000000
  0
LINE
  5
1384
330
1F
100
AcDbEntity
  8
0
  62
7
100
AcDbLine
 10
787.447453
 20
496.305482
 30
0.000000
 11
787.443036
 21
496.418414
 31
0.000000
  0
LINE
  5
1385
330
1F
100
AcDbEntity
  8
0
  62
7
100
AcDbLine
 10
787.443036
 20
496.418414
 30
0.000000
 11
787.437255
 21
496.530857
 31
0.000000
  0
LINE
  5
1386
330
1F
100
AcDbEntity
  8
0
  62
7
100
AcDbLine
 10
787.437255
 20
496.530857
 30
0.000000
 11
787.430114
 21
496.642803
 31
0.000000
  0
LINE
  5
1387
330
1F
100
AcDbEntity
  8
0
  62
7
100
AcDbLine
 10
787.430114
 20
496.642803
 30
0.000000
 11
787.421615
 21
496.754242
 31
0.000000
  0
LINE
  5
1388
330
1F
100
AcDbEntity
  8
0
  62
7
100
AcDbLine
 10
787.421615
 20
496.754242
 30
0.000000
 11
787.411761
 21
496.865166
 31
0.000000
  0
LINE
  5
1389
330
1F
100
AcDbEntity
  8
0
  62
7
100
AcDbLine
 10
787.411761
 20
496.865166
 30
0.000000
 11
787.400557
 21
496.975565
 31
0.000000
  0
LINE
  5
1390
330
1F
100
AcDbEntity
  8
0
  62
7
100
AcDbLine
 10
787.400557
 20
496.975565
 30
0.000000
 11
787.388004
 21
497.085432
 31
0.000000
  0
LINE
  5
1391
330
1F
100
AcDbEntity
  8
0
  62
7
100
AcDbLine
 10
787.388004
 20
497.085432
 30
0.000000
 11
787.374107
 21
497.194757
 31
0.000000
  0
LINE
  5
1392
330
1F
100
AcDbEntity
  8
0
  62
7
100
AcDbLine
 10
787.374107
 20
497.194757
 30
0.000000
 11
787.358868
 21
497.303531
 31
0.000000
  0
LINE
  5
1393
330
1F
100
AcDbEntity
  8
0
  62
7
100
AcDbLine
 10
787.358868
 20
497.303531
 30
0.000000
 11
787.342291
 21
497.411746
 31
0.000000
  0
LINE
  5
1394
330
1F
100
AcDbEntity
  8
0
  62
7
100
AcDbLine
 10
787.342291
 20
497.411746
 30
0.000000
 11
787.324378
 21
497.519394
 31
0.000000
  0
LINE
  5
1395
330
1F
100
AcDbEntity
  8
0
  62
7
100
AcDbLine
 10
787.324378
 20
497.519394
 30
0.000000
 11
787.305134
 21
497.626464
 31
0.000000
  0
LINE
  5
1396
330
1F
100
AcDbEntity
  8
0
  62
7
100
AcDbLine
 10
787.305134
 20
497.626464
 30
0.000000
 11
787.284561
 21
497.732949
 31
0.000000
  0
LINE
  5
1397
330
1F
100
AcDbEntity
  8
0
  62
7
100
AcDbLine
 10
787.284561
 20
497.732949
 30
0.000000
 11
787.262662
 21
497.838840
 31
0.000000
  0
LINE
  5
1398
330
1F
100
AcDbEntity
  8
0
  62
7
100
AcDbLine
 10
787.262662
 20
497.838840
 30
0.000000
 11
787.239441
 21
497.944128
 31
0.000000
  0
LINE
  5
1399
330
1F
100
AcDbEntity
  8
0
  62
7
100
AcDbLine
 10
787.239441
 20
497.944128
 30
0.000000
 11
787.214902
 21
498.048804
 31
0.000000
  0
LINE
  5
1400
330
1F
100
AcDbEntity
  8
0
  62
7
100
AcDbLine
 10
787.214902
 20
498.048804
 30
0.000000
 11
787.189046
 21
498.152859
 31
0.000000
  0
LINE
  5
1401
330
1F
100
AcDbEntity
  8
0
  62
7
100
AcDbLine
 10
787.189046
 20
498.152859
 30
0.000000
 11
787.161877
 21
498.256285
 31
0.000000
  0
LINE
  5
1402
330
1F
100
AcDbEntity
  8
0
  62
7
100
AcDbLine
 10
787.161877
 20
498.256285
 30
0.000000
 11
787.133400
 21
498.359073
 31
0.000000
  0
LINE
  5
1403
330
1F
100
AcDbEntity
  8
0
  62
7
100
AcDbLine
 10
787.133400
 20
498.359073
 30
0.000000
 11
787.103616
 21
498.461214
 31
0.000000
  0
LINE
  5
1404
330
1F
100
AcDbEntity
  8
0
  62
7
100
AcDbLine
 10
787.103616
 20
498.461214
 30
0.000000
 11
787.072528
 21
498.562699
 31
0.000000
  0
LINE
  5
1405
330
1F
100
AcDbEntity
  8
0
  62
7
100
AcDbLine
 10
787.072528
 20
498.562699
 30
0.000000
 11
787.040142
 21
498.663520
 31
0.000000
  0
LINE
  5
1406
330
1F
100
AcDbEntity
  8
0
  62
7
100
AcDbLine
 10
787.040142
 20
498.663520
 30
0.000000
 11
787.006458
 21
498.763667
 31
0.000000
  0
LINE
  5
1407
330
1F
100
AcDbEntity
  8
0
  62
7
100
AcDbLine
 10
787.006458
 20
498.763667
 30
0.000000
 11
786.971481
 21
498.863133
 31
0.000000
  0
LINE
  5
1408
330
1F
100
AcDbEntity
  8
0
  62
7
100
AcDbLine
 10
786.971481
 20
498.863133
 30
0.000000
 11
786.935214
 21
498.961908
 31
0.000000
  0
LINE
  5
1409
330
1F
100
AcDbEntity
  8
0
  62
7
100
AcDbLine
 10
786.935214
 20
498.961908
 30
0.000000
 11
786.897660
 21
499.059983
 31
0.000000
  0
LINE
  5
1410
330
1F
100
AcDbEntity
  8
0
  62
7
100
AcDbLine
 10
786.897660
 20
499.059983
 30
0.000000
 11
786.858822
 21
499.157351
 31
0.000000
  0
LINE
  5
1411
330
1F
100
AcDbEntity
  8
0
  62
7
100
AcDbLine
 10
786.858822
 20
499.157351
 30
0.000000
 11
786.818704
 21
499.254001
 31
0.000000
  0
LINE
  5
1412
330
1F
100
AcDbEntity
  8
0
  62
7
100
AcDbLine
 10
786.818704
 20
499.254001
 30
0.000000
 11
786.777308
 21
499.349925
 31
0.000000
  0
LINE
  5
1413
330
1F
100
AcDbEntity
  8
0
  62
7
100
AcDbLine
 10
786.777308
 20
499.349925
 30
0.000000
 11
786.734639
 21
499.445115
 31
0.000000
  0
LINE
  5
1414
330
1F
100
AcDbEntity
  8
0
  62
7
100
AcDbLine
 10
786.734639
 20
499.445115
 30
0.000000
 11
786.690698
 21
499.539561
 31
0.000000
  0
LINE
  5
1415
330
1F
100
AcDbEntity
  8
0
  62
7
100
AcDbLine
 10
786.690698
 20
499.539561
 30
0.000000
 11
786.645490
 21
499.633255
 31
0.000000
  0
LINE
  5
1416
330
1F
100
AcDbEntity
  8
0
  62
7
100
AcDbLine
 10
786.645490
 20
499.633255
 30
0.000000
 11
786.599017
 21
499.726188
 31
0.000000
  0
LINE
  5
1417
330
1F
100
AcDbEntity
  8
0
  62
7
100
AcDbLine
 10
786.599017
 20
499.726188
 30
0.000000
 11
786.551283
 21
499.818352
 31
0.000000
  0
LINE
  5
1418
330
1F
100
AcDbEntity
  8
0
  62
7
100
AcDbLine
 10
786.551283
 20
499.818352
 30
0.000000
 11
786.502290
 21
499.909737
 31
0.000000
  0
LINE
  5
1419
330
1F
100
AcDbEntity
  8
0
  62
7
100
AcDbLine
 10
786.502290
 20
499.909737
 30
0.000000
 11
786.452043
 21
500.000335
 31
0.000000
  0
LINE
  5
1420
330
1F
100
AcDbEntity
  8
0
  62
7
100
AcDbLine
 10
786.452043
 20
500.000335
 30
0.000000
 11
786.400545
 21
500.090137
 31
0.000000
  0
LINE
  5
1421
330
1F
100
AcDbEntity
  8
0
  62
7
100
AcDbLine
 10
786.400545
 20
500.090137
 30
0.000000
 11
786.347798
 21
500.179135
 31
0.000000
  0
LINE
  5
1422
330
1F
100
AcDbEntity
  8
0
  62
7
100
AcDbLine
 10
786.347798
 20
500.179135
 30
0.000000
 11
786.293805
 21
500.267318
 31
0.000000
  0
LINE
  5
1423
330
1F
100
AcDbEntity
  8
0
  62
7
100
AcDbLine
 10
786.293805
 20
500.267318
 30
0.000000
 11
786.238571
 21
500.354680
 31
0.000000
  0
LINE
  5
1424
330
1F
100
AcDbEntity
  8
0
  62
7
100
AcDbLine
 10
786.238571
 20
500.354680
 30
0.000000
 11
786.182098
 21
500.441210
 31
0.000000
  0
LINE
  5
1425
330
1F
100
AcDbEntity
  8
0
  62
7
100
AcDbLine
 10
786.182098
 20
500.441210
 30
0.000000
 11
786.124389
 21
500.526900
 31
0.000000
  0
LINE
  5
1426
330
1F
100
AcDbEntity
  8
0
  62
7
100
AcDbLine
 10
786.124389
 20
500.526900
 30
0.000000
 11
786.065448
 21
500.611743
 31
0.000000
  0
LINE
  5
1427
330
1F
100
AcDbEntity
  8
0
  62
7
100
AcDbLine
 10
786.065448
 20
500.611743
 30
0.000000
 11
786.005278
 21
500.695727
 31
0.000000
  0
LINE
  5
1428
330
1F
100
AcDbEntity
  8
0
  62
7
100
AcDbLine
 10
786.005278
 20
500.695727
 30
0.000000
 11
785.943882
 21
500.778846
 31
0.000000
  0
LINE
  5
1429
330
1F
100
AcDbEntity
  8
0
  62
7
100
AcDbLine
 10
785.943882
 20
500.778846
 30
0.000000
 11
785.881263
 21
500.861089
 31
0.000000
  0
LINE
  5
1430
330
1F
100
AcDbEntity
  8
0
  62
7
100
AcDbLine
 10
785.881263
 20
500.861089
 30
0.000000
 11
785.817424
 21
500.942449
 31
0.000000
  0
LINE
  5
1431
330
1F
100
AcDbEntity
  8
0
  62
7
100
AcDbLine
 10
785.817424
 20
500.942449
 30
0.000000
 11
785.752370
 21
501.022917
 31
0.000000
  0
LINE
  5
1432
330
1F
100
AcDbEntity
  8
0
  62
7
100
AcDbLine
 10
785.752370
 20
501.022917
 30
0.000000
 11
785.686102
 21
501.102483
 31
0.000000
  0
LINE
  5
1433
330
1F
100
AcDbEntity
  8
0
  62
7
100
AcDbLine
 10
785.686102
 20
501.102483
 30
0.000000
 11
785.618624
 21
501.181139
 31
0.000000
  0
LINE
  5
1434
330
1F
100
AcDbEntity
  8
0
  62
7
100
AcDbLine
 10
785.618624
 20
501.181139
 30
0.000000
 11
785.549939
 21
501.258877
 31
0.000000
  0
LINE
  5
1435
330
1F
100
AcDbEntity
  8
0
  62
7
100
AcDbLine
 10
785.549939
 20
501.258877
 30
0.000000
 11
785.480052
 21
501.335687
 31
0.000000
  0
LINE
  5
1436
330
1F
100
AcDbEntity
  8
0
  62
7
100
AcDbLine
 10
785.480052
 20
501.335687
 30
0.000000
 11
785.408963
 21
501.411561
 31
0.000000
  0
LINE
  5
1437
330
1F
100
AcDbEntity
  8
0
  62
7
100
AcDbLine
 10
785.408963
 20
501.411561
 30
0.000000
 11
785.372970
 21
501.449144
 31
0.000000
  0
LINE
  5
1438
330
1F
100
AcDbEntity
  8
0
  62
7
100
AcDbLine
 10
785.372970
 20
501.449144
 30
0.000000
 11
785.336678
 21
501.486490
 31
0.000000
  0
LINE
  5
1439
330
1F
100
AcDbEntity
  8
0
  62
7
100
AcDbLine
 10
785.336678
 20
501.486490
 30
0.000000
 11
785.300088
 21
501.523597
 31
0.000000
  0
LINE
  5
1440
330
1F
100
AcDbEntity
  8
0
  62
7
100
AcDbLine
 10
785.300088
 20
501.523597
 30
0.000000
 11
785.263199
 21
501.560465
 31
0.000000
  0
LINE
  5
1441
330
1F
100
AcDbEntity
  8
0
  62
7
100
AcDbLine
 10
785.263199
 20
501.560465
 30
0.000000
 11
785.226013
 21
501.597092
 31
0.000000
  0
LINE
  5
1442
330
1F
100
AcDbEntity
  8
0
  62
7
100
AcDbLine
 10
785.226013
 20
501.597092
 30
0.000000
 11
785.188529
 21
501.633477
 31
0.000000
  0
LINE
  5
1443
330
1F
100
AcDbEntity
  8
0
  62
7
100
AcDbLine
 10
785.188529
 20
501.633477
 30
0.000000
 11
785.118255
 21
501.700931
 31
0.000000
  0
LINE
  5
1444
330
1F
100
AcDbEntity
  8
0
  62
7
100
AcDbLine
 10
785.118255
 20
501.700931
 30
0.000000
 11
785.050522
 21
501.765222
 31
0.000000
  0
LINE
  5
1445
330
1F
100
AcDbEntity
  8
0
  62
7
100
AcDbLine
 10
785.050522
 20
501.765222
 30
0.000000
 11
784.985129
 21
501.826470
 31
0.000000
  0
LINE
  5
1446
330
1F
100
AcDbEntity
  8
0
  62
7
100
AcDbLine
 10
784.985129
 20
501.826470
 30
0.000000
 11
784.921878
 21
501.884793
 31
0.000000
  0
LINE
  5
1447
330
1F
100
AcDbEntity
  8
0
  62
7
100
AcDbLine
 10
784.921878
 20
501.884793
 30
0.000000
 11
784.860567
 21
501.940310
 31
0.000000
  0
LINE
  5
1448
330
1F
100
AcDbEntity
  8
0
  62
7
100
AcDbLine
 10
784.860567
 20
501.940310
 30
0.000000
 11
784.800997
 21
501.993139
 31
0.000000
  0
LINE
  5
1449
330
1F
100
AcDbEntity
  8
0
  62
7
100
AcDbLine
 10
784.800997
 20
501.993139
 30
0.000000
 11
784.742969
 21
502.043400
 31
0.000000
  0
LINE
  5
1450
330
1F
100
AcDbEntity
  8
0
  62
7
100
AcDbLine
 10
784.742969
 20
502.043400
 30
0.000000
 11
784.686282
 21
502.091210
 31
0.000000
  0
LINE
  5
1451
330
1F
100
AcDbEntity
  8
0
  62
7
100
AcDbLine
 10
784.686282
 20
502.091210
 30
0.000000
 11
784.630737
 21
502.136690
 31
0.000000
  0
LINE
  5
1452
330
1F
100
AcDbEntity
  8
0
  62
7
100
AcDbLine
 10
784.630737
 20
502.136690
 30
0.000000
 11
784.576134
 21
502.179957
 31
0.000000
  0
LINE
  5
1453
330
1F
100
AcDbEntity
  8
0
  62
7
100
AcDbLine
 10
784.576134
 20
502.179957
 30
0.000000
 11
784.522273
 21
502.221130
 31
0.000000
  0
LINE
  5
1454
330
1F
100
AcDbEntity
  8
0
  62
7
100
AcDbLine
 10
784.522273
 20
502.221130
 30
0.000000
 11
784.468954
 21
502.260327
 31
0.000000
  0
LINE
  5
1455
330
1F
100
AcDbEntity
  8
0
  62
7
100
AcDbLine
 10
784.468954
 20
502.260327
 30
0.000000
 11
784.415978
 21
502.297669
 31
0.000000
  0
LINE
  5
1456
330
1F
100
AcDbEntity
  8
0
  62
7
100
AcDbLine
 10
784.415978
 20
502.297669
 30
0.000000
 11
784.363145
 21
502.333273
 31
0.000000
  0
LINE
  5
1457
330
1F
100
AcDbEntity
  8
0
  62
7
100
AcDbLine
 10
784.363145
 20
502.333273
 30
0.000000
 11
784.310254
 21
502.367258
 31
0.000000
  0
LINE
  5
1458
330
1F
100
AcDbEntity
  8
0
  62
7
100
AcDbLine
 10
784.310254
 20
502.367258
 30
0.000000
 11
784.257107
 21
502.399743
 31
0.000000
  0
LINE
  5
1459
330
1F
100
AcDbEntity
  8
0
  62
7
100
AcDbLine
 10
784.257107
 20
502.399743
 30
0.000000
 11
784.203503
 21
502.430846
 31
0.000000
  0
LINE
  5
1460
330
1F
100
AcDbEntity
  8
0
  62
7
100
AcDbLine
 10
784.203503
 20
502.430846
 30
0.000000
 11
784.149242
 21
502.460686
 31
0.000000
  0
LINE
  5
1461
330
1F
100
AcDbEntity
  8
0
  62
7
100
AcDbLine
 10
784.149242
 20
502.460686
 30
0.000000
 11
784.094125
 21
502.489383
 31
0.000000
  0
LINE
  5
1462
330
1F
100
AcDbEntity
  8
0
  62
7
100
AcDbLine
 10
784.094125
 20
502.489383
 30
0.000000
 11
784.037952
 21
502.517054
 31
0.000000
  0
LINE
  5
1463
330
1F
100
AcDbEntity
  8
0
  62
7
100
AcDbLine
 10
784.037952
 20
502.517054
 30
0.000000
 11
783.980523
 21
502.543819
 31
0.000000
  0
LINE
  5
1464
330
1F
100
AcDbEntity
  8
0
  62
7
100
AcDbLine
 10
783.980523
 20
502.543819
 30
0.000000
 11
783.921639
 21
502.569795
 31
0.000000
  0
LINE
  5
1465
330
1F
100
AcDbEntity
  8
0
  62
7
100
AcDbLine
 10
783.921639
 20
502.569795
 30
0.000000
 11
783.861099
 21
502.595102
 31
0.000000
  0
LINE
  5
1466
330
1F
100
AcDbEntity
  8
0
  62
7
100
AcDbLine
 10
783.861099
 20
502.595102
 30
0.000000
 11
783.798703
 21
502.619860
 31
0.000000
  0
LINE
  5
1467
330
1F
100
AcDbEntity
  8
0
  62
7
100
AcDbLine
 10
783.798703
 20
502.619860
 30
0.000000
 11
783.734252
 21
502.644185
 31
0.000000
  0
LINE
  5
1468
330
1F
100
AcDbEntity
  8
0
  62
7
100
AcDbLine
 10
783.734252
 20
502.644185
 30
0.000000
 11
783.667547
 21
502.668197
 31
0.000000
  0
LINE
  5
1469
330
1F
100
AcDbEntity
  8
0
  62
7
100
AcDbLine
 10
783.667547
 20
502.668197
 30
0.000000
 11
783.598386
 21
502.692015
 31
0.000000
  0
LINE
  5
1470
330
1F
100
AcDbEntity
  8
0
  62
7
100
AcDbLine
 10
783.598386
 20
502.692015
 30
0.000000
 11
783.526572
 21
502.715758
 31
0.000000
  0
LINE
  5
1471
330
1F
100
AcDbEntity
  8
0
  62
7
100
AcDbLine
 10
783.526572
 20
502.715758
 30
0.000000
 11
783.451902
 21
502.739544
 31
0.000000
  0
LINE
  5
1472
330
1F
100
AcDbEntity
  8
0
  62
7
100
AcDbLine
 10
783.451902
 20
502.739544
 30
0.000000
 11
783.374179
 21
502.763491
 31
0.000000
  0
LINE
  5
1473
330
1F
100
AcDbEntity
  8
0
  62
7
100
AcDbLine
 10
783.374179
 20
502.763491
 30
0.000000
 11
783.293201
 21
502.787720
 31
0.000000
  0
LINE
  5
1474
330
1F
100
AcDbEntity
  8
0
  62
7
100
AcDbLine
 10
783.293201
 20
502.787720
 30
0.000000
 11
783.208770
 21
502.812347
 31
0.000000
  0
LINE
  5
1475
330
1F
100
AcDbEntity
  8
0
  62
7
100
AcDbLine
 10
783.208770
 20
502.812347
 30
0.000000
 11
783.112850
 21
502.840460
 31
0.000000
  0
LINE
  5
1476
330
1F
100
AcDbEntity
  8
0
  62
7
100
AcDbLine
 10
783.112850
 20
502.840460
 30
0.000000
 11
783.065807
 21
502.853853
 31
0.000000
  0
LINE
  5
1477
330
1F
100
AcDbEntity
  8
0
  62
7
100
AcDbLine
 10
783.065807
 20
502.853853
 30
0.000000
 11
783.018859
 21
502.866811
 31
0.000000
  0
LINE
  5
1478
330
1F
100
AcDbEntity
  8
0
  62
7
100
AcDbLine
 10
783.018859
 20
502.866811
 30
0.000000
 11
782.971621
 21
502.879342
 31
0.000000
  0
LINE
  5
1479
330
1F
100
AcDbEntity
  8
0
  62
7
100
AcDbLine
 10
782.971621
 20
502.879342
 30
0.000000
 11
782.923704
 21
502.891452
 31
0.000000
  0
LINE
  5
1480
330
1F
100
AcDbEntity
  8
0
  62
7
100
AcDbLine
 10
782.923704
 20
502.891452
 30
0.000000
 11
782.874723
 21
502.903147
 31
0.000000
  0
LINE
  5
1481
330
1F
100
AcDbEntity
  8
0
  62
7
100
AcDbLine
 10
782.874723
 20
502.903147
 30
0.000000
 11
782.824290
 21
502.914433
 31
0.000000
  0
LINE
  5
1482
330
1F
100
AcDbEntity
  8
0
  62
7
100
AcDbLine
 10
782.824290
 20
502.914433
 30
0.000000
 11
782.772019
 21
502.925317
 31
0.000000
  0
LINE
  5
1483
330
1F
100
AcDbEntity
  8
0
  62
7
100
AcDbLine
 10
782.772019
 20
502.925317
 30
0.000000
 11
782.717524
 21
502.935806
 31
0.000000
  0
LINE
  5
1484
330
1F
100
AcDbEntity
  8
0
  62
7
100
AcDbLine
 10
782.717524
 20
502.935806
 30
0.000000
 11
782.660416
 21
502.945906
 31
0.000000
  0
LINE
  5
1485
330
1F
100
AcDbEntity
  8
0
  62
7
100
AcDbLine
 10
782.660416
 20
502.945906
 30
0.000000
 11
782.600310
 21
502.955622
 31
0.000000
  0
LINE
  5
1486
330
1F
100
AcDbEntity
  8
0
  62
7
100
AcDbLine
 10
782.600310
 20
502.955622
 30
0.000000
 11
782.536819
 21
502.964963
 31
0.000000
  0
LINE
  5
1487
330
1F
100
AcDbEntity
  8
0
  62
7
100
AcDbLine
 10
782.536819
 20
502.964963
 30
0.000000
 11
782.469555
 21
502.973933
 31
0.000000
  0
LINE
  5
1488
330
1F
100
AcDbEntity
  8
0
  62
7
100
AcDbLine
 10
782.469555
 20
502.973933
 30
0.000000
 11
782.398133
 21
502.982540
 31
0.000000
  0
LINE
  5
1489
330
1F
100
AcDbEntity
  8
0
  62
7
100
AcDbLine
 10
782.398133
 20
502.982540
 30
0.000000
 11
782.322165
 21
502.990789
 31
0.000000
  0
LINE
  5
1490
330
1F
100
AcDbEntity
  8
0
  62
7
100
AcDbLine
 10
782.322165
 20
502.990789
 30
0.000000
 11
782.241265
 21
502.998688
 31
0.000000
  0
LINE
  5
1491
330
1F
100
AcDbEntity
  8
0
  62
7
100
AcDbLine
 10
782.241265
 20
502.998688
 30
0.000000
 11
782.155046
 21
503.006242
 31
0.000000
  0
LINE
  5
1492
330
1F
100
AcDbEntity
  8
0
  62
7
100
AcDbLine
 10
782.155046
 20
503.006242
 30
0.000000
 11
782.063121
 21
503.013459
 31
0.000000
  0
LINE
  5
1493
330
1F
100
AcDbEntity
  8
0
  62
7
100
AcDbLine
 10
782.063121
 20
503.013459
 30
0.000000
 11
781.965103
 21
503.020344
 31
0.000000
  0
LINE
  5
1494
330
1F
100
AcDbEntity
  8
0
  62
7
100
AcDbLine
 10
781.965103
 20
503.020344
 30
0.000000
 11
781.860606
 21
503.026904
 31
0.000000
  0
LINE
  5
1495
330
1F
100
AcDbEntity
  8
0
  62
7
100
AcDbLine
 10
781.860606
 20
503.026904
 30
0.000000
 11
781.749242
 21
503.033145
 31
0.000000
  0
LINE
  5
1496
330
1F
100
AcDbEntity
  8
0
  62
7
100
AcDbLine
 10
781.749242
 20
503.033145
 30
0.000000
 11
781.630626
 21
503.039073
 31
0.000000
  0
LINE
  5
1497
330
1F
100
AcDbEntity
  8
0
  62
7
100
AcDbLine
 10
781.630626
 20
503.039073
 30
0.000000
 11
781.504370
 21
503.044696
 31
0.000000
  0
LINE
  5
1498
330
1F
100
AcDbEntity
  8
0
  62
7
100
AcDbLine
 10
781.504370
 20
503.044696
 30
0.000000
 11
781.370088
 21
503.050019
 31
0.000000
  0
LINE
  5
1499
330
1F
100
AcDbEntity
  8
0
  62
7
100
AcDbLine
 10
781.370088
 20
503.050019
 30
0.000000
 11
781.227392
 21
503.055050
 31
0.000000
  0
LINE
  5
1500
330
1F
100
AcDbEntity
  8
0
  62
7
100
AcDbLine
 10
781.227392
 20
503.055050
 30
0.000000
 11
781.075896
 21
503.059793
 31
0.000000
  0
LINE
  5
1501
330
1F
100
AcDbEntity
  8
0
  62
7
100
AcDbLine
 10
781.075896
 20
503.059793
 30
0.000000
 11
780.915214
 21
503.064256
 31
0.000000
  0
LINE
  5
1502
330
1F
100
AcDbEntity
  8
0
  62
7
100
AcDbLine
 10
780.915214
 20
503.064256
 30
0.000000
 11
780.744957
 21
503.068446
 31
0.000000
  0
LINE
  5
1503
330
1F
100
AcDbEntity
  8
0
  62
7
100
AcDbLine
 10
780.744957
 20
503.068446
 30
0.000000
 11
780.564741
 21
503.072368
 31
0.000000
  0
LINE
  5
1504
330
1F
100
AcDbEntity
  8
0
  62
7
100
AcDbLine
 10
780.564741
 20
503.072368
 30
0.000000
 11
780.374178
 21
503.076029
 31
0.000000
  0
LINE
  5
1505
330
1F
100
AcDbEntity
  8
0
  62
7
100
AcDbLine
 10
780.374178
 20
503.076029
 30
0.000000
 11
780.172880
 21
503.079435
 31
0.000000
  0
LINE
  5
1506
330
1F
100
AcDbEntity
  8
0
  62
7
100
AcDbLine
 10
780.172880
 20
503.079435
 30
0.000000
 11
779.960462
 21
503.082593
 31
0.000000
  0
LINE
  5
1507
330
1F
100
AcDbEntity
  8
0
  62
7
100
AcDbLine
 10
779.960462
 20
503.082593
 30
0.000000
 11
779.736537
 21
503.085509
 31
0.000000
  0
LINE
  5
1508
330
1F
100
AcDbEntity
  8
0
  62
7
100
AcDbLine
 10
779.736537
 20
503.085509
 30
0.000000
 11
779.252617
 21
503.090641
 31
0.000000
  0
LINE
  5
1509
330
1F
100
AcDbEntity
  8
0
  62
7
100
AcDbLine
 10
779.252617
 20
503.090641
 30
0.000000
 11
778.718027
 21
503.094884
 31
0.000000
  0
LINE
  5
1510
330
1F
100
AcDbEntity
  8
0
  62
7
100
AcDbLine
 10
778.718027
 20
503.094884
 30
0.000000
 11
778.129671
 21
503.098286
 31
0.000000
  0
LINE
  5
1511
330
1F
100
AcDbEntity
  8
0
  62
7
100
AcDbLine
 10
778.129671
 20
503.098286
 30
0.000000
 11
777.484457
 21
503.100901
 31
0.000000
  0
LINE
  5
1512
330
1F
100
AcDbEntity
  8
0
  62
7
100
AcDbLine
 10
777.484457
 20
503.100901
 30
0.000000
 11
776.779289
 21
503.102780
 31
0.000000
  0
LINE
  5
1513
330
1F
100
AcDbEntity
  8
0
  62
7
100
AcDbLine
 10
776.779289
 20
503.102780
 30
0.000000
 11
776.011074
 21
503.103973
 31
0.000000
  0
LINE
  5
1514
330
1F
100
AcDbEntity
  8
0
  62
7
100
AcDbLine
 10
776.011074
 20
503.103973
 30
0.000000
 11
775.176718
 21
503.104532
 31
0.000000
  0
LINE
  5
1515
330
1F
100
AcDbEntity
  8
0
  62
7
100
AcDbLine
 10
775.176718
 20
503.104532
 30
0.000000
 11
774.273126
 21
503.104508
 31
0.000000
  0
LINE
  5
1516
330
1F
100
AcDbEntity
  8
0
  62
7
100
AcDbLine
 10
774.273126
 20
503.104508
 30
0.000000
 11
773.297205
 21
503.103953
 31
0.000000
  0
LINE
  5
1517
330
1F
100
AcDbEntity
  8
0
  62
7
100
AcDbLine
 10
773.297205
 20
503.103953
 30
0.000000
 11
771.115997
 21
503.101452
 31
0.000000
  0
LINE
  5
1518
330
1F
100
AcDbEntity
  8
0
  62
7
100
AcDbLine
 10
771.115997
 20
503.101452
 30
0.000000
 11
768.608340
 21
503.097441
 31
0.000000
  0
LINE
  5
1519
330
1F
100
AcDbEntity
  8
0
  62
7
100
AcDbLine
 10
768.608340
 20
503.097441
 30
0.000000
 11
765.749483
 21
503.092329
 31
0.000000
  0
LINE
  5
1520
330
1F
100
AcDbEntity
  8
0
  62
7
100
AcDbLine
 10
765.749483
 20
503.092329
 30
0.000000
 11
764.074527
 21
503.091656
 31
0.000000
  0
LINE
  5
1521
330
1F
100
AcDbEntity
  8
0
  62
7
100
AcDbLine
 10
764.074527
 20
503.091656
 30
0.000000
 11
762.434514
 21
503.089710
 31
0.000000
  0
LINE
  5
1522
330
1F
100
AcDbEntity
  8
0
  62
7
100
AcDbLine
 10
762.434514
 20
503.089710
 30
0.000000
 11
760.838436
 21
503.086598
 31
0.000000
  0
LINE
  5
1523
330
1F
100
AcDbEntity
  8
0
  62
7
100
AcDbLine
 10
760.838436
 20
503.086598
 30
0.000000
 11
759.295289
 21
503.082428
 31
0.000000
  0
LINE
  5
1524
330
1F
100
AcDbEntity
  8
0
  62
7
100
AcDbLine
 10
759.295289
 20
503.082428
 30
0.000000
 11
757.814070
 21
503.077309
 31
0.000000
  0
LINE
  5
1525
330
1F
100
AcDbEntity
  8
0
  62
7
100
AcDbLine
 10
757.814070
 20
503.077309
 30
0.000000
 11
756.403776
 21
503.071347
 31
0.000000
  0
LINE
  5
1526
330
1F
100
AcDbEntity
  8
0
  62
7
100
AcDbLine
 10
756.403776
 20
503.071347
 30
0.000000
 11
755.073405
 21
503.064652
 31
0.000000
  0
LINE
  5
1527
330
1F
100
AcDbEntity
  8
0
  62
7
100
AcDbLine
 10
755.073405
 20
503.064652
 30
0.000000
 11
753.831953
 21
503.057331
 31
0.000000
  0
LINE
  5
1528
330
1F
100
AcDbEntity
  8
0
  62
7
100
AcDbLine
 10
753.831953
 20
503.057331
 30
0.000000
 11
752.688417
 21
503.049492
 31
0.000000
  0
LINE
  5
1529
330
1F
100
AcDbEntity
  8
0
  62
7
100
AcDbLine
 10
752.688417
 20
503.049492
 30
0.000000
 11
751.651795
 21
503.041242
 31
0.000000
  0
LINE
  5
1530
330
1F
100
AcDbEntity
  8
0
  62
7
100
AcDbLine
 10
751.651795
 20
503.041242
 30
0.000000
 11
750.731082
 21
503.032691
 31
0.000000
  0
LINE
  5
1531
330
1F
100
AcDbEntity
  8
0
  62
7
100
AcDbLine
 10
750.731082
 20
503.032691
 30
0.000000
 11
750.317004
 21
503.028335
 31
0.000000
  0
LINE
  5
1532
330
1F
100
AcDbEntity
  8
0
  62
7
100
AcDbLine
 10
750.317004
 20
503.028335
 30
0.000000
 11
749.935277
 21
503.023945
 31
0.000000
  0
LINE
  5
1533
330
1F
100
AcDbEntity
  8
0
  62
7
100
AcDbLine
 10
749.935277
 20
503.023945
 30
0.000000
 11
749.587026
 21
503.019533
 31
0.000000
  0
LINE
  5
1534
330
1F
100
AcDbEntity
  8
0
  62
7
100
AcDbLine
 10
749.587026
 20
503.019533
 30
0.000000
 11
749.273376
 21
503.015113
 31
0.000000
  0
LINE
  5
1535
330
1F
100
AcDbEntity
  8
0
  62
7
100
AcDbLine
 10
749.273376
 20
503.015113
 30
0.000000
 11
748.995450
 21
503.010698
 31
0.000000
  0
LINE
  5
1536
330
1F
100
AcDbEntity
  8
0
  62
7
100
AcDbLine
 10
748.995450
 20
503.010698
 30
0.000000
 11
748.754375
 21
503.006302
 31
0.000000
  0
LINE
  5
1537
330
1F
100
AcDbEntity
  8
0
  62
7
100
AcDbLine
 10
748.754375
 20
503.006302
 30
0.000000
 11
748.551274
 21
503.001939
 31
0.000000
  0
LINE
  5
1538
330
1F
100
AcDbEntity
  8
0
  62
7
100
AcDbLine
 10
748.551274
 20
503.001939
 30
0.000000
 11
748.387273
 21
502.997621
 31
0.000000
  0
LINE
  5
1539
330
1F
100
AcDbEntity
  8
0
  62
7
100
AcDbLine
 10
748.387273
 20
502.997621
 30
0.000000
 11
748.263495
 21
502.993363
 31
0.000000
  0
LINE
  5
1540
330
1F
100
AcDbEntity
  8
0
  62
7
100
AcDbLine
 10
748.263495
 20
502.993363
 30
0.000000
 11
748.217041
 21
502.991260
 31
0.000000
  0
LINE
  5
1541
330
1F
100
AcDbEntity
  8
0
  62
7
100
AcDbLine
 10
748.217041
 20
502.991260
 30
0.000000
 11
748.181066
 21
502.989178
 31
0.000000
 0
ENDSEC
  0
SECTION
  2
OBJECTS
  0
DICTIONARY
  5
C
330
0
100
AcDbDictionary
  3
ACAD_GROUP
350
D
  3
ACAD_LAYOUT
350
1A
  3
ACAD_MLINESTYLE
350
17
  3
ACAD_PLOTSETTINGS
350
19
1001
ACAD
1000
TREAT_AS_HARD
1070
     0
  0
DICTIONARY
  5
46
330
1F
100
AcDbDictionary
  3
ACAD_LAYOUTSELFREF
350
47
  0
DICTIONARY
  5
44
330
1B
100
AcDbDictionary
  3
ACAD_LAYOUTSELFREF
350
45
  0
DICTIONARY
  5
D
102
{ACAD_REACTORS
330
C
102
}
330
C
100
AcDbDictionary
1001
ACAD
1000
TREAT_AS_HARD
1070
     0
  0
DICTIONARY
  5
1A
102
{ACAD_REACTORS
330
C
102
}
330
C
100
AcDbDictionary
1001
ACAD
1000
TREAT_AS_HARD
1070
     0
  0
DICTIONARY
  5
17
102
{ACAD_REACTORS
330
C
102
}
330
C
100
AcDbDictionary
  3
STANDARD
350
18
1001
ACAD
1000
TREAT_AS_HARD
1070
     0
  0
DICTIONARY
  5
19
102
{ACAD_REACTORS
330
C
102
}
330
C
100
AcDbDictionary
1001
ACAD
1000
TREAT_AS_HARD
1070
     0
  0
XRECORD
  5
47
102
{ACAD_REACTORS
330
46
102
}
330
46
100
AcDbXrecord
340
1F
  0
XRECORD
  5
45
102
{ACAD_REACTORS
330
44
102
}
330
44
100
AcDbXrecord
340
1B
  0
MLINESTYLE
  5
18
102
{ACAD_REACTORS
330
17
102
}
330
17
100
AcDbMlineStyle
  2
STANDARD
 70
     0
  3

 62
   256
 51
90.0
 52
90.0
 71
     2
 49
0.5
 62
   256
  6
BYLAYER
 49
-0.5
 62
   256
  6
BYLAYER
  0
ENDSEC
  0
EOF
