ISO-10303-21;
HEADER;
/* Generated by software containing ST-Developer
 * from STEP Tools, Inc. (www.steptools.com) 
 */
/* OPTION: using custom renumber hook */

FILE_DESCRIPTION(
/* description */ ('STEP AP242',
'CAx-IF Rec.Pracs.---Representation and Presentation of Product Manufa
cturing Information (PMI)---4.0---2014-10-13',
'CAx-IF Rec.Pracs.---3D Tessellated Geometry---0.4---2014-09-14','2;1'),

/* implementation_level */ '2;1');

FILE_NAME(
/* name */ '6793d46c27929079eef8ed05',
/* time_stamp */ '2025-01-24T17:57:01Z',
/* author */ (''),
/* organization */ (''),
/* preprocessor_version */ 'ST-DEVELOPER v20',
/* originating_system */ 'ONSHAPE BY PTC INC, 1.192',
/* authorisation */ '  ');

FILE_SCHEMA (('AP242_MANAGED_MODEL_BASED_3D_ENGINEERING_MIM_LF { 1 0 10303 442 1 1 4 }'));
ENDSEC;

DATA;
#10=SHAPE_REPRESENTATION_RELATIONSHIP('','',#447,#11);
#11=ADVANCED_BREP_SHAPE_REPRESENTATION('',(#445),#709);
#12=CYLINDRICAL_SURFACE('',#475,0.0015);
#13=CYLINDRICAL_SURFACE('',#476,0.0015);
#14=CYLINDRICAL_SURFACE('',#477,0.001665);
#15=CYLINDRICAL_SURFACE('',#478,0.001665);
#16=LINE('',#593,#64);
#17=LINE('',#596,#65);
#18=LINE('',#598,#66);
#19=LINE('',#600,#67);
#20=LINE('',#602,#68);
#21=LINE('',#604,#69);
#22=LINE('',#606,#70);
#23=LINE('',#612,#71);
#24=LINE('',#614,#72);
#25=LINE('',#616,#73);
#26=LINE('',#618,#74);
#27=LINE('',#620,#75);
#28=LINE('',#622,#76);
#29=LINE('',#626,#77);
#30=LINE('',#628,#78);
#31=LINE('',#630,#79);
#32=LINE('',#634,#80);
#33=LINE('',#636,#81);
#34=LINE('',#638,#82);
#35=LINE('',#640,#83);
#36=LINE('',#642,#84);
#37=LINE('',#644,#85);
#38=LINE('',#648,#86);
#39=LINE('',#650,#87);
#40=LINE('',#652,#88);
#41=LINE('',#654,#89);
#42=LINE('',#656,#90);
#43=LINE('',#658,#91);
#44=LINE('',#660,#92);
#45=LINE('',#662,#93);
#46=LINE('',#664,#94);
#47=LINE('',#666,#95);
#48=LINE('',#668,#96);
#49=LINE('',#670,#97);
#50=LINE('',#672,#98);
#51=LINE('',#674,#99);
#52=LINE('',#676,#100);
#53=LINE('',#678,#101);
#54=LINE('',#680,#102);
#55=LINE('',#682,#103);
#56=LINE('',#686,#104);
#57=LINE('',#688,#105);
#58=LINE('',#690,#106);
#59=LINE('',#692,#107);
#60=LINE('',#694,#108);
#61=LINE('',#696,#109);
#62=LINE('',#700,#110);
#63=LINE('',#701,#111);
#64=VECTOR('',#485,1.);
#65=VECTOR('',#486,1.);
#66=VECTOR('',#487,1.);
#67=VECTOR('',#488,1.);
#68=VECTOR('',#491,1.);
#69=VECTOR('',#492,1.);
#70=VECTOR('',#493,1.);
#71=VECTOR('',#500,1.);
#72=VECTOR('',#501,1.);
#73=VECTOR('',#502,1.);
#74=VECTOR('',#505,1.);
#75=VECTOR('',#506,1.);
#76=VECTOR('',#507,1.);
#77=VECTOR('',#512,1.);
#78=VECTOR('',#513,1.);
#79=VECTOR('',#514,1.);
#80=VECTOR('',#519,1.);
#81=VECTOR('',#520,1.);
#82=VECTOR('',#521,1.);
#83=VECTOR('',#524,1.);
#84=VECTOR('',#525,1.);
#85=VECTOR('',#526,1.);
#86=VECTOR('',#531,1.);
#87=VECTOR('',#532,1.);
#88=VECTOR('',#533,1.);
#89=VECTOR('',#536,1.);
#90=VECTOR('',#537,1.);
#91=VECTOR('',#538,1.);
#92=VECTOR('',#541,1.);
#93=VECTOR('',#542,1.);
#94=VECTOR('',#543,1.);
#95=VECTOR('',#546,1.);
#96=VECTOR('',#547,1.);
#97=VECTOR('',#548,1.);
#98=VECTOR('',#551,1.);
#99=VECTOR('',#552,1.);
#100=VECTOR('',#553,1.);
#101=VECTOR('',#556,1.);
#102=VECTOR('',#557,1.);
#103=VECTOR('',#558,1.);
#104=VECTOR('',#563,1.);
#105=VECTOR('',#564,1.);
#106=VECTOR('',#565,1.);
#107=VECTOR('',#568,1.);
#108=VECTOR('',#569,1.);
#109=VECTOR('',#570,1.);
#110=VECTOR('',#575,1.);
#111=VECTOR('',#576,1.);
#112=ORIENTED_EDGE('',*,*,#224,.T.);
#113=ORIENTED_EDGE('',*,*,#225,.F.);
#114=ORIENTED_EDGE('',*,*,#226,.F.);
#115=ORIENTED_EDGE('',*,*,#227,.T.);
#116=ORIENTED_EDGE('',*,*,#228,.T.);
#117=ORIENTED_EDGE('',*,*,#229,.F.);
#118=ORIENTED_EDGE('',*,*,#230,.F.);
#119=ORIENTED_EDGE('',*,*,#231,.T.);
#120=ORIENTED_EDGE('',*,*,#226,.T.);
#121=ORIENTED_EDGE('',*,*,#232,.F.);
#122=ORIENTED_EDGE('',*,*,#233,.F.);
#123=ORIENTED_EDGE('',*,*,#234,.T.);
#124=ORIENTED_EDGE('',*,*,#235,.F.);
#125=ORIENTED_EDGE('',*,*,#236,.F.);
#126=ORIENTED_EDGE('',*,*,#230,.T.);
#127=ORIENTED_EDGE('',*,*,#237,.T.);
#128=ORIENTED_EDGE('',*,*,#238,.F.);
#129=ORIENTED_EDGE('',*,*,#239,.F.);
#130=ORIENTED_EDGE('',*,*,#235,.T.);
#131=ORIENTED_EDGE('',*,*,#240,.T.);
#132=ORIENTED_EDGE('',*,*,#241,.T.);
#133=ORIENTED_EDGE('',*,*,#242,.F.);
#134=ORIENTED_EDGE('',*,*,#243,.F.);
#135=ORIENTED_EDGE('',*,*,#238,.T.);
#136=ORIENTED_EDGE('',*,*,#244,.T.);
#137=ORIENTED_EDGE('',*,*,#245,.T.);
#138=ORIENTED_EDGE('',*,*,#246,.F.);
#139=ORIENTED_EDGE('',*,*,#247,.F.);
#140=ORIENTED_EDGE('',*,*,#242,.T.);
#141=ORIENTED_EDGE('',*,*,#248,.F.);
#142=ORIENTED_EDGE('',*,*,#249,.F.);
#143=ORIENTED_EDGE('',*,*,#250,.T.);
#144=ORIENTED_EDGE('',*,*,#246,.T.);
#145=ORIENTED_EDGE('',*,*,#251,.T.);
#146=ORIENTED_EDGE('',*,*,#252,.F.);
#147=ORIENTED_EDGE('',*,*,#253,.F.);
#148=ORIENTED_EDGE('',*,*,#254,.T.);
#149=ORIENTED_EDGE('',*,*,#249,.T.);
#150=ORIENTED_EDGE('',*,*,#255,.F.);
#151=ORIENTED_EDGE('',*,*,#256,.F.);
#152=ORIENTED_EDGE('',*,*,#257,.T.);
#153=ORIENTED_EDGE('',*,*,#253,.T.);
#154=ORIENTED_EDGE('',*,*,#258,.F.);
#155=ORIENTED_EDGE('',*,*,#259,.F.);
#156=ORIENTED_EDGE('',*,*,#260,.T.);
#157=ORIENTED_EDGE('',*,*,#256,.T.);
#158=ORIENTED_EDGE('',*,*,#261,.F.);
#159=ORIENTED_EDGE('',*,*,#262,.F.);
#160=ORIENTED_EDGE('',*,*,#263,.T.);
#161=ORIENTED_EDGE('',*,*,#259,.T.);
#162=ORIENTED_EDGE('',*,*,#264,.T.);
#163=ORIENTED_EDGE('',*,*,#265,.F.);
#164=ORIENTED_EDGE('',*,*,#266,.F.);
#165=ORIENTED_EDGE('',*,*,#262,.T.);
#166=ORIENTED_EDGE('',*,*,#267,.T.);
#167=ORIENTED_EDGE('',*,*,#268,.F.);
#168=ORIENTED_EDGE('',*,*,#269,.F.);
#169=ORIENTED_EDGE('',*,*,#265,.T.);
#170=ORIENTED_EDGE('',*,*,#270,.F.);
#171=ORIENTED_EDGE('',*,*,#271,.T.);
#172=ORIENTED_EDGE('',*,*,#272,.F.);
#173=ORIENTED_EDGE('',*,*,#273,.F.);
#174=ORIENTED_EDGE('',*,*,#268,.T.);
#175=ORIENTED_EDGE('',*,*,#274,.T.);
#176=ORIENTED_EDGE('',*,*,#275,.F.);
#177=ORIENTED_EDGE('',*,*,#276,.F.);
#178=ORIENTED_EDGE('',*,*,#272,.T.);
#179=ORIENTED_EDGE('',*,*,#277,.T.);
#180=ORIENTED_EDGE('',*,*,#278,.F.);
#181=ORIENTED_EDGE('',*,*,#228,.F.);
#182=ORIENTED_EDGE('',*,*,#279,.T.);
#183=ORIENTED_EDGE('',*,*,#275,.T.);
#184=ORIENTED_EDGE('',*,*,#227,.F.);
#185=ORIENTED_EDGE('',*,*,#231,.F.);
#186=ORIENTED_EDGE('',*,*,#236,.T.);
#187=ORIENTED_EDGE('',*,*,#239,.T.);
#188=ORIENTED_EDGE('',*,*,#243,.T.);
#189=ORIENTED_EDGE('',*,*,#247,.T.);
#190=ORIENTED_EDGE('',*,*,#250,.F.);
#191=ORIENTED_EDGE('',*,*,#254,.F.);
#192=ORIENTED_EDGE('',*,*,#257,.F.);
#193=ORIENTED_EDGE('',*,*,#260,.F.);
#194=ORIENTED_EDGE('',*,*,#263,.F.);
#195=ORIENTED_EDGE('',*,*,#266,.T.);
#196=ORIENTED_EDGE('',*,*,#269,.T.);
#197=ORIENTED_EDGE('',*,*,#273,.T.);
#198=ORIENTED_EDGE('',*,*,#276,.T.);
#199=ORIENTED_EDGE('',*,*,#279,.F.);
#200=ORIENTED_EDGE('',*,*,#225,.T.);
#201=ORIENTED_EDGE('',*,*,#278,.T.);
#202=ORIENTED_EDGE('',*,*,#274,.F.);
#203=ORIENTED_EDGE('',*,*,#271,.F.);
#204=ORIENTED_EDGE('',*,*,#267,.F.);
#205=ORIENTED_EDGE('',*,*,#264,.F.);
#206=ORIENTED_EDGE('',*,*,#261,.T.);
#207=ORIENTED_EDGE('',*,*,#258,.T.);
#208=ORIENTED_EDGE('',*,*,#255,.T.);
#209=ORIENTED_EDGE('',*,*,#252,.T.);
#210=ORIENTED_EDGE('',*,*,#248,.T.);
#211=ORIENTED_EDGE('',*,*,#245,.F.);
#212=ORIENTED_EDGE('',*,*,#241,.F.);
#213=ORIENTED_EDGE('',*,*,#237,.F.);
#214=ORIENTED_EDGE('',*,*,#234,.F.);
#215=ORIENTED_EDGE('',*,*,#229,.T.);
#216=ORIENTED_EDGE('',*,*,#277,.F.);
#217=ORIENTED_EDGE('',*,*,#270,.T.);
#218=ORIENTED_EDGE('',*,*,#251,.F.);
#219=ORIENTED_EDGE('',*,*,#244,.F.);
#220=ORIENTED_EDGE('',*,*,#240,.F.);
#221=ORIENTED_EDGE('',*,*,#233,.T.);
#222=ORIENTED_EDGE('',*,*,#224,.F.);
#223=ORIENTED_EDGE('',*,*,#232,.T.);
#224=EDGE_CURVE('',#280,#280,#320,.T.);
#225=EDGE_CURVE('',#281,#282,#16,.T.);
#226=EDGE_CURVE('',#283,#281,#17,.T.);
#227=EDGE_CURVE('',#283,#284,#18,.T.);
#228=EDGE_CURVE('',#284,#282,#19,.T.);
#229=EDGE_CURVE('',#285,#281,#20,.T.);
#230=EDGE_CURVE('',#286,#285,#21,.T.);
#231=EDGE_CURVE('',#286,#283,#22,.T.);
#232=EDGE_CURVE('',#287,#287,#321,.F.);
#233=EDGE_CURVE('',#288,#288,#322,.F.);
#234=EDGE_CURVE('',#285,#289,#23,.T.);
#235=EDGE_CURVE('',#290,#289,#24,.T.);
#236=EDGE_CURVE('',#286,#290,#25,.T.);
#237=EDGE_CURVE('',#289,#291,#26,.T.);
#238=EDGE_CURVE('',#292,#291,#27,.T.);
#239=EDGE_CURVE('',#290,#292,#28,.T.);
#240=EDGE_CURVE('',#293,#293,#323,.T.);
#241=EDGE_CURVE('',#291,#294,#29,.T.);
#242=EDGE_CURVE('',#295,#294,#30,.T.);
#243=EDGE_CURVE('',#292,#295,#31,.T.);
#244=EDGE_CURVE('',#296,#296,#324,.T.);
#245=EDGE_CURVE('',#294,#297,#32,.T.);
#246=EDGE_CURVE('',#298,#297,#33,.T.);
#247=EDGE_CURVE('',#295,#298,#34,.T.);
#248=EDGE_CURVE('',#299,#297,#35,.T.);
#249=EDGE_CURVE('',#300,#299,#36,.T.);
#250=EDGE_CURVE('',#300,#298,#37,.T.);
#251=EDGE_CURVE('',#301,#301,#325,.F.);
#252=EDGE_CURVE('',#302,#299,#38,.T.);
#253=EDGE_CURVE('',#303,#302,#39,.T.);
#254=EDGE_CURVE('',#303,#300,#40,.T.);
#255=EDGE_CURVE('',#304,#302,#41,.T.);
#256=EDGE_CURVE('',#305,#304,#42,.T.);
#257=EDGE_CURVE('',#305,#303,#43,.T.);
#258=EDGE_CURVE('',#306,#304,#44,.T.);
#259=EDGE_CURVE('',#307,#306,#45,.T.);
#260=EDGE_CURVE('',#307,#305,#46,.T.);
#261=EDGE_CURVE('',#308,#306,#47,.T.);
#262=EDGE_CURVE('',#309,#308,#48,.T.);
#263=EDGE_CURVE('',#309,#307,#49,.T.);
#264=EDGE_CURVE('',#308,#310,#50,.T.);
#265=EDGE_CURVE('',#311,#310,#51,.T.);
#266=EDGE_CURVE('',#309,#311,#52,.T.);
#267=EDGE_CURVE('',#310,#312,#53,.T.);
#268=EDGE_CURVE('',#313,#312,#54,.T.);
#269=EDGE_CURVE('',#311,#313,#55,.T.);
#270=EDGE_CURVE('',#314,#314,#326,.F.);
#271=EDGE_CURVE('',#312,#315,#56,.T.);
#272=EDGE_CURVE('',#316,#315,#57,.T.);
#273=EDGE_CURVE('',#313,#316,#58,.T.);
#274=EDGE_CURVE('',#315,#317,#59,.T.);
#275=EDGE_CURVE('',#318,#317,#60,.T.);
#276=EDGE_CURVE('',#316,#318,#61,.T.);
#277=EDGE_CURVE('',#319,#319,#327,.F.);
#278=EDGE_CURVE('',#282,#317,#62,.T.);
#279=EDGE_CURVE('',#284,#318,#63,.T.);
#280=VERTEX_POINT('',#592);
#281=VERTEX_POINT('',#594);
#282=VERTEX_POINT('',#595);
#283=VERTEX_POINT('',#597);
#284=VERTEX_POINT('',#599);
#285=VERTEX_POINT('',#603);
#286=VERTEX_POINT('',#605);
#287=VERTEX_POINT('',#609);
#288=VERTEX_POINT('',#611);
#289=VERTEX_POINT('',#613);
#290=VERTEX_POINT('',#615);
#291=VERTEX_POINT('',#619);
#292=VERTEX_POINT('',#621);
#293=VERTEX_POINT('',#625);
#294=VERTEX_POINT('',#627);
#295=VERTEX_POINT('',#629);
#296=VERTEX_POINT('',#633);
#297=VERTEX_POINT('',#635);
#298=VERTEX_POINT('',#637);
#299=VERTEX_POINT('',#641);
#300=VERTEX_POINT('',#643);
#301=VERTEX_POINT('',#647);
#302=VERTEX_POINT('',#649);
#303=VERTEX_POINT('',#651);
#304=VERTEX_POINT('',#655);
#305=VERTEX_POINT('',#657);
#306=VERTEX_POINT('',#661);
#307=VERTEX_POINT('',#663);
#308=VERTEX_POINT('',#667);
#309=VERTEX_POINT('',#669);
#310=VERTEX_POINT('',#673);
#311=VERTEX_POINT('',#675);
#312=VERTEX_POINT('',#679);
#313=VERTEX_POINT('',#681);
#314=VERTEX_POINT('',#685);
#315=VERTEX_POINT('',#687);
#316=VERTEX_POINT('',#689);
#317=VERTEX_POINT('',#693);
#318=VERTEX_POINT('',#695);
#319=VERTEX_POINT('',#699);
#320=CIRCLE('',#450,0.001665);
#321=CIRCLE('',#453,0.001665);
#322=CIRCLE('',#454,0.001665);
#323=CIRCLE('',#457,0.001665);
#324=CIRCLE('',#459,0.0015);
#325=CIRCLE('',#462,0.0015);
#326=CIRCLE('',#469,0.0015);
#327=CIRCLE('',#472,0.0015);
#328=EDGE_LOOP('',(#112));
#329=EDGE_LOOP('',(#113,#114,#115,#116));
#330=EDGE_LOOP('',(#117,#118,#119,#120));
#331=EDGE_LOOP('',(#121));
#332=EDGE_LOOP('',(#122));
#333=EDGE_LOOP('',(#123,#124,#125,#126));
#334=EDGE_LOOP('',(#127,#128,#129,#130));
#335=EDGE_LOOP('',(#131));
#336=EDGE_LOOP('',(#132,#133,#134,#135));
#337=EDGE_LOOP('',(#136));
#338=EDGE_LOOP('',(#137,#138,#139,#140));
#339=EDGE_LOOP('',(#141,#142,#143,#144));
#340=EDGE_LOOP('',(#145));
#341=EDGE_LOOP('',(#146,#147,#148,#149));
#342=EDGE_LOOP('',(#150,#151,#152,#153));
#343=EDGE_LOOP('',(#154,#155,#156,#157));
#344=EDGE_LOOP('',(#158,#159,#160,#161));
#345=EDGE_LOOP('',(#162,#163,#164,#165));
#346=EDGE_LOOP('',(#166,#167,#168,#169));
#347=EDGE_LOOP('',(#170));
#348=EDGE_LOOP('',(#171,#172,#173,#174));
#349=EDGE_LOOP('',(#175,#176,#177,#178));
#350=EDGE_LOOP('',(#179));
#351=EDGE_LOOP('',(#180,#181,#182,#183));
#352=EDGE_LOOP('',(#184,#185,#186,#187,#188,#189,#190,#191,#192,#193,#194,
#195,#196,#197,#198,#199));
#353=EDGE_LOOP('',(#200,#201,#202,#203,#204,#205,#206,#207,#208,#209,#210,
#211,#212,#213,#214,#215));
#354=EDGE_LOOP('',(#216));
#355=EDGE_LOOP('',(#217));
#356=EDGE_LOOP('',(#218));
#357=EDGE_LOOP('',(#219));
#358=EDGE_LOOP('',(#220));
#359=EDGE_LOOP('',(#221));
#360=EDGE_LOOP('',(#222));
#361=EDGE_LOOP('',(#223));
#362=FACE_BOUND('',#328,.T.);
#363=FACE_BOUND('',#329,.T.);
#364=FACE_BOUND('',#330,.T.);
#365=FACE_BOUND('',#331,.T.);
#366=FACE_BOUND('',#332,.T.);
#367=FACE_BOUND('',#333,.T.);
#368=FACE_BOUND('',#334,.T.);
#369=FACE_BOUND('',#335,.T.);
#370=FACE_BOUND('',#336,.T.);
#371=FACE_BOUND('',#337,.T.);
#372=FACE_BOUND('',#338,.T.);
#373=FACE_BOUND('',#339,.T.);
#374=FACE_BOUND('',#340,.T.);
#375=FACE_BOUND('',#341,.T.);
#376=FACE_BOUND('',#342,.T.);
#377=FACE_BOUND('',#343,.T.);
#378=FACE_BOUND('',#344,.T.);
#379=FACE_BOUND('',#345,.T.);
#380=FACE_BOUND('',#346,.T.);
#381=FACE_BOUND('',#347,.T.);
#382=FACE_BOUND('',#348,.T.);
#383=FACE_BOUND('',#349,.T.);
#384=FACE_BOUND('',#350,.T.);
#385=FACE_BOUND('',#351,.T.);
#386=FACE_BOUND('',#352,.T.);
#387=FACE_BOUND('',#353,.T.);
#388=FACE_BOUND('',#354,.T.);
#389=FACE_BOUND('',#355,.T.);
#390=FACE_BOUND('',#356,.T.);
#391=FACE_BOUND('',#357,.T.);
#392=FACE_BOUND('',#358,.T.);
#393=FACE_BOUND('',#359,.T.);
#394=FACE_BOUND('',#360,.T.);
#395=FACE_BOUND('',#361,.T.);
#396=PLANE('',#449);
#397=PLANE('',#451);
#398=PLANE('',#452);
#399=PLANE('',#455);
#400=PLANE('',#456);
#401=PLANE('',#458);
#402=PLANE('',#460);
#403=PLANE('',#461);
#404=PLANE('',#463);
#405=PLANE('',#464);
#406=PLANE('',#465);
#407=PLANE('',#466);
#408=PLANE('',#467);
#409=PLANE('',#468);
#410=PLANE('',#470);
#411=PLANE('',#471);
#412=PLANE('',#473);
#413=PLANE('',#474);
#414=ADVANCED_FACE('',(#362,#363),#396,.T.);
#415=ADVANCED_FACE('',(#364),#397,.T.);
#416=ADVANCED_FACE('',(#365,#366,#367),#398,.F.);
#417=ADVANCED_FACE('',(#368),#399,.F.);
#418=ADVANCED_FACE('',(#369,#370),#400,.F.);
#419=ADVANCED_FACE('',(#371,#372),#401,.F.);
#420=ADVANCED_FACE('',(#373),#402,.T.);
#421=ADVANCED_FACE('',(#374,#375),#403,.T.);
#422=ADVANCED_FACE('',(#376),#404,.T.);
#423=ADVANCED_FACE('',(#377),#405,.T.);
#424=ADVANCED_FACE('',(#378),#406,.T.);
#425=ADVANCED_FACE('',(#379),#407,.F.);
#426=ADVANCED_FACE('',(#380),#408,.F.);
#427=ADVANCED_FACE('',(#381,#382),#409,.F.);
#428=ADVANCED_FACE('',(#383),#410,.F.);
#429=ADVANCED_FACE('',(#384,#385),#411,.T.);
#430=ADVANCED_FACE('',(#386),#412,.T.);
#431=ADVANCED_FACE('',(#387),#413,.F.);
#432=ADVANCED_FACE('',(#388,#389),#12,.F.);
#433=ADVANCED_FACE('',(#390,#391),#13,.F.);
#434=ADVANCED_FACE('',(#392,#393),#14,.F.);
#435=ADVANCED_FACE('',(#394,#395),#15,.F.);
#436=CLOSED_SHELL('',(#414,#415,#416,#417,#418,#419,#420,#421,#422,#423,
#424,#425,#426,#427,#428,#429,#430,#431,#432,#433,#434,#435));
#437=STYLED_ITEM('',(#438),#445);
#438=PRESENTATION_STYLE_ASSIGNMENT((#439));
#439=SURFACE_STYLE_USAGE(.BOTH.,#440);
#440=SURFACE_SIDE_STYLE('',(#441));
#441=SURFACE_STYLE_FILL_AREA(#442);
#442=FILL_AREA_STYLE('',(#443));
#443=FILL_AREA_STYLE_COLOUR('',#444);
#444=COLOUR_RGB('',0.615686274509804,0.811764705882353,0.929411764705882);
#445=MANIFOLD_SOLID_BREP('Part 1',#436);
#446=SHAPE_DEFINITION_REPRESENTATION(#714,#447);
#447=SHAPE_REPRESENTATION('Part 1',(#448),#709);
#448=AXIS2_PLACEMENT_3D('',#589,#479,#480);
#449=AXIS2_PLACEMENT_3D('',#590,#481,#482);
#450=AXIS2_PLACEMENT_3D('',#591,#483,#484);
#451=AXIS2_PLACEMENT_3D('',#601,#489,#490);
#452=AXIS2_PLACEMENT_3D('',#607,#494,#495);
#453=AXIS2_PLACEMENT_3D('',#608,#496,#497);
#454=AXIS2_PLACEMENT_3D('',#610,#498,#499);
#455=AXIS2_PLACEMENT_3D('',#617,#503,#504);
#456=AXIS2_PLACEMENT_3D('',#623,#508,#509);
#457=AXIS2_PLACEMENT_3D('',#624,#510,#511);
#458=AXIS2_PLACEMENT_3D('',#631,#515,#516);
#459=AXIS2_PLACEMENT_3D('',#632,#517,#518);
#460=AXIS2_PLACEMENT_3D('',#639,#522,#523);
#461=AXIS2_PLACEMENT_3D('',#645,#527,#528);
#462=AXIS2_PLACEMENT_3D('',#646,#529,#530);
#463=AXIS2_PLACEMENT_3D('',#653,#534,#535);
#464=AXIS2_PLACEMENT_3D('',#659,#539,#540);
#465=AXIS2_PLACEMENT_3D('',#665,#544,#545);
#466=AXIS2_PLACEMENT_3D('',#671,#549,#550);
#467=AXIS2_PLACEMENT_3D('',#677,#554,#555);
#468=AXIS2_PLACEMENT_3D('',#683,#559,#560);
#469=AXIS2_PLACEMENT_3D('',#684,#561,#562);
#470=AXIS2_PLACEMENT_3D('',#691,#566,#567);
#471=AXIS2_PLACEMENT_3D('',#697,#571,#572);
#472=AXIS2_PLACEMENT_3D('',#698,#573,#574);
#473=AXIS2_PLACEMENT_3D('',#702,#577,#578);
#474=AXIS2_PLACEMENT_3D('',#703,#579,#580);
#475=AXIS2_PLACEMENT_3D('',#704,#581,#582);
#476=AXIS2_PLACEMENT_3D('',#705,#583,#584);
#477=AXIS2_PLACEMENT_3D('',#706,#585,#586);
#478=AXIS2_PLACEMENT_3D('',#707,#587,#588);
#479=DIRECTION('',(0.,0.,1.));
#480=DIRECTION('',(1.,0.,0.));
#481=DIRECTION('',(1.,4.74833068241827E-16,0.));
#482=DIRECTION('',(-4.74833068241827E-16,1.,0.));
#483=DIRECTION('',(-1.,-3.16555378827884E-16,0.));
#484=DIRECTION('',(3.16555378827884E-16,-1.,0.));
#485=DIRECTION('',(4.74833068241827E-16,-1.,0.));
#486=DIRECTION('',(0.,0.,-1.));
#487=DIRECTION('',(4.74833068241827E-16,-1.,0.));
#488=DIRECTION('',(0.,0.,-1.));
#489=DIRECTION('',(0.,1.,0.));
#490=DIRECTION('',(0.,0.,1.));
#491=DIRECTION('',(1.,0.,0.));
#492=DIRECTION('',(0.,0.,-1.));
#493=DIRECTION('',(1.,0.,0.));
#494=DIRECTION('',(1.,0.,0.));
#495=DIRECTION('',(0.,0.,-1.));
#496=DIRECTION('',(1.,0.,0.));
#497=DIRECTION('',(0.,0.,-1.));
#498=DIRECTION('',(1.,0.,0.));
#499=DIRECTION('',(0.,0.,-1.));
#500=DIRECTION('',(0.,-1.,0.));
#501=DIRECTION('',(0.,0.,-1.));
#502=DIRECTION('',(0.,-1.,0.));
#503=DIRECTION('',(0.,1.,0.));
#504=DIRECTION('',(0.,0.,1.));
#505=DIRECTION('',(1.,0.,0.));
#506=DIRECTION('',(0.,0.,-1.));
#507=DIRECTION('',(1.,0.,0.));
#508=DIRECTION('',(-1.,-3.16555378827884E-16,0.));
#509=DIRECTION('',(3.16555378827884E-16,-1.,0.));
#510=DIRECTION('',(-1.,-3.16555378827884E-16,0.));
#511=DIRECTION('',(3.16555378827884E-16,-1.,0.));
#512=DIRECTION('',(-3.16555378827884E-16,1.,0.));
#513=DIRECTION('',(0.,0.,-1.));
#514=DIRECTION('',(-3.16555378827884E-16,1.,0.));
#515=DIRECTION('',(0.,1.,0.));
#516=DIRECTION('',(0.,0.,1.));
#517=DIRECTION('',(0.,1.,0.));
#518=DIRECTION('',(0.,0.,1.));
#519=DIRECTION('',(1.,0.,0.));
#520=DIRECTION('',(0.,0.,-1.));
#521=DIRECTION('',(1.,0.,0.));
#522=DIRECTION('',(1.,0.,0.));
#523=DIRECTION('',(0.,0.,-1.));
#524=DIRECTION('',(0.,-1.,0.));
#525=DIRECTION('',(0.,0.,-1.));
#526=DIRECTION('',(0.,-1.,0.));
#527=DIRECTION('',(0.,1.,0.));
#528=DIRECTION('',(0.,0.,1.));
#529=DIRECTION('',(0.,1.,0.));
#530=DIRECTION('',(0.,0.,1.));
#531=DIRECTION('',(1.,0.,0.));
#532=DIRECTION('',(0.,0.,-1.));
#533=DIRECTION('',(1.,0.,0.));
#534=DIRECTION('',(-1.,0.,0.));
#535=DIRECTION('',(0.,0.,1.));
#536=DIRECTION('',(0.,1.,0.));
#537=DIRECTION('',(0.,0.,-1.));
#538=DIRECTION('',(0.,1.,0.));
#539=DIRECTION('',(0.,1.,0.));
#540=DIRECTION('',(0.,0.,1.));
#541=DIRECTION('',(1.,0.,0.));
#542=DIRECTION('',(0.,0.,-1.));
#543=DIRECTION('',(1.,0.,0.));
#544=DIRECTION('',(1.,0.,0.));
#545=DIRECTION('',(0.,0.,-1.));
#546=DIRECTION('',(0.,-1.,0.));
#547=DIRECTION('',(0.,0.,-1.));
#548=DIRECTION('',(0.,-1.,0.));
#549=DIRECTION('',(-3.7521055716874E-16,1.,0.));
#550=DIRECTION('',(-1.,-3.7521055716874E-16,0.));
#551=DIRECTION('',(1.,3.7521055716874E-16,0.));
#552=DIRECTION('',(0.,0.,-1.));
#553=DIRECTION('',(1.,3.7521055716874E-16,0.));
#554=DIRECTION('',(1.,3.16555378827885E-16,0.));
#555=DIRECTION('',(-3.16555378827885E-16,1.,0.));
#556=DIRECTION('',(3.16555378827885E-16,-1.,0.));
#557=DIRECTION('',(0.,0.,-1.));
#558=DIRECTION('',(3.16555378827885E-16,-1.,0.));
#559=DIRECTION('',(-5.78241158658936E-16,1.,0.));
#560=DIRECTION('',(-1.,-5.78241158658936E-16,0.));
#561=DIRECTION('',(-5.78241158658936E-16,1.,0.));
#562=DIRECTION('',(-1.,-5.78241158658936E-16,0.));
#563=DIRECTION('',(1.,5.78241158658936E-16,0.));
#564=DIRECTION('',(0.,0.,-1.));
#565=DIRECTION('',(1.,5.78241158658936E-16,0.));
#566=DIRECTION('',(-1.,0.,0.));
#567=DIRECTION('',(0.,0.,1.));
#568=DIRECTION('',(0.,1.,0.));
#569=DIRECTION('',(0.,0.,-1.));
#570=DIRECTION('',(0.,1.,0.));
#571=DIRECTION('',(-4.95635278850516E-16,1.,0.));
#572=DIRECTION('',(-1.,-4.95635278850516E-16,0.));
#573=DIRECTION('',(-4.95635278850516E-16,1.,0.));
#574=DIRECTION('',(-1.,-4.95635278850516E-16,0.));
#575=DIRECTION('',(1.,4.95635278850516E-16,0.));
#576=DIRECTION('',(1.,4.95635278850516E-16,0.));
#577=DIRECTION('',(0.,0.,1.));
#578=DIRECTION('',(1.,0.,0.));
#579=DIRECTION('',(0.,0.,1.));
#580=DIRECTION('',(1.,0.,0.));
#581=DIRECTION('',(0.,1.,0.));
#582=DIRECTION('',(0.,0.,1.));
#583=DIRECTION('',(0.,1.,0.));
#584=DIRECTION('',(0.,0.,1.));
#585=DIRECTION('',(-1.,-3.16555378827884E-16,0.));
#586=DIRECTION('',(3.16555378827884E-16,-1.,0.));
#587=DIRECTION('',(-1.,-3.16555378827884E-16,0.));
#588=DIRECTION('',(3.16555378827884E-16,-1.,0.));
#589=CARTESIAN_POINT('',(0.,0.,0.));
#590=CARTESIAN_POINT('',(-0.007,0.00974,0.01));
#591=CARTESIAN_POINT('',(-0.007,0.01448,0.005));
#592=CARTESIAN_POINT('',(-0.007,0.012815,0.005));
#593=CARTESIAN_POINT('',(-0.007,0.00974,0.));
#594=CARTESIAN_POINT('',(-0.007,0.01848,0.));
#595=CARTESIAN_POINT('',(-0.007,0.007,0.));
#596=CARTESIAN_POINT('',(-0.007,0.01848,0.01));
#597=CARTESIAN_POINT('',(-0.007,0.01848,0.01));
#598=CARTESIAN_POINT('',(-0.007,0.00974,0.01));
#599=CARTESIAN_POINT('',(-0.007,0.007,0.01));
#600=CARTESIAN_POINT('',(-0.007,0.007,0.01));
#601=CARTESIAN_POINT('',(-0.0124525773421591,0.01848,0.01));
#602=CARTESIAN_POINT('',(-0.0124525773421591,0.01848,0.));
#603=CARTESIAN_POINT('',(-0.02487,0.01848,0.));
#604=CARTESIAN_POINT('',(-0.02487,0.01848,0.01));
#605=CARTESIAN_POINT('',(-0.02487,0.01848,0.01));
#606=CARTESIAN_POINT('',(-0.0124525773421591,0.01848,0.01));
#607=CARTESIAN_POINT('',(-0.02487,0.0025,0.01));
#608=CARTESIAN_POINT('',(-0.02487,0.01448,0.005));
#609=CARTESIAN_POINT('',(-0.02487,0.01448,0.003335));
#610=CARTESIAN_POINT('',(-0.02487,-0.00948,0.005));
#611=CARTESIAN_POINT('',(-0.02487,-0.00948,0.003335));
#612=CARTESIAN_POINT('',(-0.02487,0.0025,0.));
#613=CARTESIAN_POINT('',(-0.02487,-0.01348,0.));
#614=CARTESIAN_POINT('',(-0.02487,-0.01348,0.01));
#615=CARTESIAN_POINT('',(-0.02487,-0.01348,0.01));
#616=CARTESIAN_POINT('',(-0.02487,0.0025,0.01));
#617=CARTESIAN_POINT('',(-0.0124525773421591,-0.01348,0.01));
#618=CARTESIAN_POINT('',(-0.0124525773421591,-0.01348,0.));
#619=CARTESIAN_POINT('',(-0.007,-0.01348,0.));
#620=CARTESIAN_POINT('',(-0.007,-0.01348,0.01));
#621=CARTESIAN_POINT('',(-0.007,-0.01348,0.01));
#622=CARTESIAN_POINT('',(-0.0124525773421591,-0.01348,0.01));
#623=CARTESIAN_POINT('',(-0.007,-0.00474,0.01));
#624=CARTESIAN_POINT('',(-0.007,-0.00948,0.005));
#625=CARTESIAN_POINT('',(-0.007,-0.011145,0.005));
#626=CARTESIAN_POINT('',(-0.007,-0.00474,0.));
#627=CARTESIAN_POINT('',(-0.007,-0.002,0.));
#628=CARTESIAN_POINT('',(-0.007,-0.002,0.01));
#629=CARTESIAN_POINT('',(-0.007,-0.002,0.01));
#630=CARTESIAN_POINT('',(-0.007,-0.00474,0.01));
#631=CARTESIAN_POINT('',(-0.0035,-0.002,0.01));
#632=CARTESIAN_POINT('',(-0.0035,-0.002,0.005));
#633=CARTESIAN_POINT('',(-0.0035,-0.002,0.0065));
#634=CARTESIAN_POINT('',(-0.0035,-0.002,0.));
#635=CARTESIAN_POINT('',(0.,-0.002,0.));
#636=CARTESIAN_POINT('',(0.,-0.002,0.01));
#637=CARTESIAN_POINT('',(0.,-0.002,0.01));
#638=CARTESIAN_POINT('',(-0.0035,-0.002,0.01));
#639=CARTESIAN_POINT('',(0.,-0.001,0.01));
#640=CARTESIAN_POINT('',(0.,-0.001,0.));
#641=CARTESIAN_POINT('',(0.,0.,0.));
#642=CARTESIAN_POINT('',(0.,0.,0.01));
#643=CARTESIAN_POINT('',(0.,0.,0.01));
#644=CARTESIAN_POINT('',(0.,-0.001,0.01));
#645=CARTESIAN_POINT('',(-0.0045,0.,0.01));
#646=CARTESIAN_POINT('',(-0.0035,0.,0.005));
#647=CARTESIAN_POINT('',(-0.0035,0.,0.0065));
#648=CARTESIAN_POINT('',(-0.0045,0.,0.));
#649=CARTESIAN_POINT('',(-0.009,0.,0.));
#650=CARTESIAN_POINT('',(-0.009,0.,0.01));
#651=CARTESIAN_POINT('',(-0.009,0.,0.01));
#652=CARTESIAN_POINT('',(-0.0045,0.,0.01));
#653=CARTESIAN_POINT('',(-0.009,-0.00274,0.01));
#654=CARTESIAN_POINT('',(-0.009,-0.00274,0.));
#655=CARTESIAN_POINT('',(-0.009,-0.00548,0.));
#656=CARTESIAN_POINT('',(-0.009,-0.00548,0.01));
#657=CARTESIAN_POINT('',(-0.009,-0.00548,0.01));
#658=CARTESIAN_POINT('',(-0.009,-0.00274,0.01));
#659=CARTESIAN_POINT('',(-0.015935,-0.00548,0.01));
#660=CARTESIAN_POINT('',(-0.015935,-0.00548,0.));
#661=CARTESIAN_POINT('',(-0.02287,-0.00548,0.));
#662=CARTESIAN_POINT('',(-0.02287,-0.00548,0.01));
#663=CARTESIAN_POINT('',(-0.02287,-0.00548,0.01));
#664=CARTESIAN_POINT('',(-0.015935,-0.00548,0.01));
#665=CARTESIAN_POINT('',(-0.02287,0.0025,0.01));
#666=CARTESIAN_POINT('',(-0.02287,0.0025,0.));
#667=CARTESIAN_POINT('',(-0.02287,0.01048,0.));
#668=CARTESIAN_POINT('',(-0.02287,0.01048,0.01));
#669=CARTESIAN_POINT('',(-0.02287,0.01048,0.01));
#670=CARTESIAN_POINT('',(-0.02287,0.0025,0.01));
#671=CARTESIAN_POINT('',(-0.015935,0.01048,0.01));
#672=CARTESIAN_POINT('',(-0.015935,0.01048,0.));
#673=CARTESIAN_POINT('',(-0.009,0.01048,0.));
#674=CARTESIAN_POINT('',(-0.009,0.01048,0.01));
#675=CARTESIAN_POINT('',(-0.009,0.01048,0.01));
#676=CARTESIAN_POINT('',(-0.015935,0.01048,0.01));
#677=CARTESIAN_POINT('',(-0.009,0.00774,0.01));
#678=CARTESIAN_POINT('',(-0.009,0.00774,0.));
#679=CARTESIAN_POINT('',(-0.009,0.005,0.));
#680=CARTESIAN_POINT('',(-0.009,0.005,0.01));
#681=CARTESIAN_POINT('',(-0.009,0.005,0.01));
#682=CARTESIAN_POINT('',(-0.009,0.00774,0.01));
#683=CARTESIAN_POINT('',(-0.0045,0.005,0.01));
#684=CARTESIAN_POINT('',(-0.0035,0.005,0.005));
#685=CARTESIAN_POINT('',(-0.005,0.005,0.005));
#686=CARTESIAN_POINT('',(-0.0045,0.005,0.));
#687=CARTESIAN_POINT('',(-1.7347234759768E-18,0.005,0.));
#688=CARTESIAN_POINT('',(-1.7347234759768E-18,0.005,0.01));
#689=CARTESIAN_POINT('',(-1.7347234759768E-18,0.005,0.01));
#690=CARTESIAN_POINT('',(-0.0045,0.005,0.01));
#691=CARTESIAN_POINT('',(-1.7347234759768E-18,0.006,0.01));
#692=CARTESIAN_POINT('',(-1.7347234759768E-18,0.006,0.));
#693=CARTESIAN_POINT('',(0.,0.007,0.));
#694=CARTESIAN_POINT('',(0.,0.007,0.01));
#695=CARTESIAN_POINT('',(0.,0.007,0.01));
#696=CARTESIAN_POINT('',(-1.7347234759768E-18,0.006,0.01));
#697=CARTESIAN_POINT('',(-0.0035,0.007,0.01));
#698=CARTESIAN_POINT('',(-0.0035,0.007,0.005));
#699=CARTESIAN_POINT('',(-0.005,0.007,0.005));
#700=CARTESIAN_POINT('',(-0.0035,0.007,0.));
#701=CARTESIAN_POINT('',(-0.0035,0.007,0.01));
#702=CARTESIAN_POINT('',(-0.00762704201710159,0.0025,0.01));
#703=CARTESIAN_POINT('',(-0.00762704201710159,0.0025,0.));
#704=CARTESIAN_POINT('',(-0.0035,-0.002,0.005));
#705=CARTESIAN_POINT('',(-0.0035,-0.002,0.005));
#706=CARTESIAN_POINT('',(-0.007,-0.00948,0.005));
#707=CARTESIAN_POINT('',(-0.007,0.01448,0.005));
#708=MECHANICAL_DESIGN_GEOMETRIC_PRESENTATION_REPRESENTATION('',(#437),
#709);
#709=(
GEOMETRIC_REPRESENTATION_CONTEXT(3)
GLOBAL_UNCERTAINTY_ASSIGNED_CONTEXT((#710))
GLOBAL_UNIT_ASSIGNED_CONTEXT((#713,#712,#711))
REPRESENTATION_CONTEXT('Part 1','TOP_LEVEL_ASSEMBLY_PART')
);
#710=UNCERTAINTY_MEASURE_WITH_UNIT(LENGTH_MEASURE(1.E-8),#713,
'DISTANCE_ACCURACY_VALUE','Maximum Tolerance applied to model');
#711=(
NAMED_UNIT(*)
SI_UNIT($,.STERADIAN.)
SOLID_ANGLE_UNIT()
);
#712=(
NAMED_UNIT(*)
PLANE_ANGLE_UNIT()
SI_UNIT($,.RADIAN.)
);
#713=(
LENGTH_UNIT()
NAMED_UNIT(*)
SI_UNIT($,.METRE.)
);
#714=PRODUCT_DEFINITION_SHAPE('','',#715);
#715=PRODUCT_DEFINITION('','',#717,#716);
#716=PRODUCT_DEFINITION_CONTEXT('',#723,'design');
#717=PRODUCT_DEFINITION_FORMATION_WITH_SPECIFIED_SOURCE('','',#719,
 .NOT_KNOWN.);
#718=PRODUCT_RELATED_PRODUCT_CATEGORY('','',(#719));
#719=PRODUCT('Part 1','Part 1','Part 1',(#721));
#720=PRODUCT_CATEGORY('','');
#721=PRODUCT_CONTEXT('',#723,'mechanical');
#722=APPLICATION_PROTOCOL_DEFINITION('international standard',
'ap242_managed_model_based_3d_engineering',2011,#723);
#723=APPLICATION_CONTEXT('managed model based 3d engineering');
ENDSEC;
END-ISO-10303-21;
