ISO-10303-21;
HEADER;
/* Generated by software containing ST-Developer
 * from STEP Tools, Inc. (www.steptools.com) 
 */

FILE_DESCRIPTION(
/* description */ ('',
'CAx-IF Rec.Pracs.---Representation and Presentation of Product Manufa
cturing Information (PMI)---4.0---2014-10-13'),
/* implementation_level */ '2;1');

FILE_NAME(
/* name */ 'Lever.step',
/* time_stamp */ '2024-12-17T21:40:30+02:00',
/* author */ (''),
/* organization */ (''),
/* preprocessor_version */ 'ST-DEVELOPER v20',
/* originating_system */ 'Autodesk Translation Framework v13.20.0.188',

/* authorisation */ '');

FILE_SCHEMA (('AP242_MANAGED_MODEL_BASED_3D_ENGINEERING_MIM_LF { 1 0 10303 442 1 1 4 }'));
ENDSEC;

DATA;
#10=MECHANICAL_DESIGN_GEOMETRIC_PRESENTATION_REPRESENTATION('',(#13),#426);
#11=SHAPE_REPRESENTATION_RELATIONSHIP('SRR','None',#433,#12);
#12=ADVANCED_BREP_SHAPE_REPRESENTATION('',(#14),#425);
#13=STYLED_ITEM('',(#443),#14);
#14=MANIFOLD_SOLID_BREP('Body1',#250);
#15=FACE_BOUND('',#51,.T.);
#16=FACE_BOUND('',#53,.T.);
#17=PLANE('',#267);
#18=PLANE('',#268);
#19=PLANE('',#272);
#20=PLANE('',#273);
#21=PLANE('',#277);
#22=PLANE('',#278);
#23=PLANE('',#279);
#24=PLANE('',#283);
#25=PLANE('',#284);
#26=FACE_OUTER_BOUND('',#39,.T.);
#27=FACE_OUTER_BOUND('',#40,.T.);
#28=FACE_OUTER_BOUND('',#41,.T.);
#29=FACE_OUTER_BOUND('',#42,.T.);
#30=FACE_OUTER_BOUND('',#43,.T.);
#31=FACE_OUTER_BOUND('',#44,.T.);
#32=FACE_OUTER_BOUND('',#45,.T.);
#33=FACE_OUTER_BOUND('',#46,.T.);
#34=FACE_OUTER_BOUND('',#47,.T.);
#35=FACE_OUTER_BOUND('',#48,.T.);
#36=FACE_OUTER_BOUND('',#49,.T.);
#37=FACE_OUTER_BOUND('',#50,.T.);
#38=FACE_OUTER_BOUND('',#52,.T.);
#39=EDGE_LOOP('',(#167,#168,#169,#170));
#40=EDGE_LOOP('',(#171,#172,#173,#174));
#41=EDGE_LOOP('',(#175,#176,#177,#178));
#42=EDGE_LOOP('',(#179,#180,#181,#182));
#43=EDGE_LOOP('',(#183,#184,#185,#186));
#44=EDGE_LOOP('',(#187,#188,#189,#190));
#45=EDGE_LOOP('',(#191,#192,#193,#194));
#46=EDGE_LOOP('',(#195,#196,#197,#198));
#47=EDGE_LOOP('',(#199,#200,#201,#202));
#48=EDGE_LOOP('',(#203,#204,#205,#206));
#49=EDGE_LOOP('',(#207,#208,#209,#210));
#50=EDGE_LOOP('',(#211,#212,#213,#214,#215,#216,#217,#218,#219));
#51=EDGE_LOOP('',(#220,#221));
#52=EDGE_LOOP('',(#222,#223,#224,#225,#226,#227,#228,#229,#230));
#53=EDGE_LOOP('',(#231,#232));
#54=LINE('',#360,#79);
#55=LINE('',#363,#80);
#56=LINE('',#365,#81);
#57=LINE('',#366,#82);
#58=LINE('',#370,#83);
#59=LINE('',#372,#84);
#60=LINE('',#374,#85);
#61=LINE('',#375,#86);
#62=LINE('',#381,#87);
#63=LINE('',#384,#88);
#64=LINE('',#386,#89);
#65=LINE('',#387,#90);
#66=LINE('',#390,#91);
#67=LINE('',#392,#92);
#68=LINE('',#393,#93);
#69=LINE('',#399,#94);
#70=LINE('',#402,#95);
#71=LINE('',#404,#96);
#72=LINE('',#405,#97);
#73=LINE('',#408,#98);
#74=LINE('',#410,#99);
#75=LINE('',#411,#100);
#76=LINE('',#414,#101);
#77=LINE('',#416,#102);
#78=LINE('',#417,#103);
#79=VECTOR('',#291,10.);
#80=VECTOR('',#294,10.);
#81=VECTOR('',#297,10.);
#82=VECTOR('',#298,10.);
#83=VECTOR('',#301,10.);
#84=VECTOR('',#302,10.);
#85=VECTOR('',#303,10.);
#86=VECTOR('',#304,10.);
#87=VECTOR('',#311,10.);
#88=VECTOR('',#314,10.);
#89=VECTOR('',#315,10.);
#90=VECTOR('',#316,10.);
#91=VECTOR('',#319,10.);
#92=VECTOR('',#320,10.);
#93=VECTOR('',#321,10.);
#94=VECTOR('',#328,10.);
#95=VECTOR('',#331,10.);
#96=VECTOR('',#332,10.);
#97=VECTOR('',#333,10.);
#98=VECTOR('',#336,10.);
#99=VECTOR('',#337,10.);
#100=VECTOR('',#338,10.);
#101=VECTOR('',#341,10.);
#102=VECTOR('',#342,10.);
#103=VECTOR('',#343,10.);
#104=CIRCLE('',#265,1.75);
#105=CIRCLE('',#266,1.75);
#106=CIRCLE('',#270,7.);
#107=CIRCLE('',#271,7.);
#108=CIRCLE('',#275,3.5);
#109=CIRCLE('',#276,3.5);
#110=CIRCLE('',#281,7.);
#111=CIRCLE('',#282,7.);
#112=VERTEX_POINT('',#356);
#113=VERTEX_POINT('',#357);
#114=VERTEX_POINT('',#359);
#115=VERTEX_POINT('',#361);
#116=VERTEX_POINT('',#368);
#117=VERTEX_POINT('',#369);
#118=VERTEX_POINT('',#371);
#119=VERTEX_POINT('',#373);
#120=VERTEX_POINT('',#377);
#121=VERTEX_POINT('',#379);
#122=VERTEX_POINT('',#383);
#123=VERTEX_POINT('',#385);
#124=VERTEX_POINT('',#389);
#125=VERTEX_POINT('',#391);
#126=VERTEX_POINT('',#395);
#127=VERTEX_POINT('',#397);
#128=VERTEX_POINT('',#401);
#129=VERTEX_POINT('',#403);
#130=VERTEX_POINT('',#407);
#131=VERTEX_POINT('',#409);
#132=VERTEX_POINT('',#413);
#133=VERTEX_POINT('',#415);
#134=EDGE_CURVE('',#112,#113,#104,.T.);
#135=EDGE_CURVE('',#113,#114,#54,.T.);
#136=EDGE_CURVE('',#115,#114,#105,.T.);
#137=EDGE_CURVE('',#112,#115,#55,.T.);
#138=EDGE_CURVE('',#113,#112,#56,.T.);
#139=EDGE_CURVE('',#114,#115,#57,.T.);
#140=EDGE_CURVE('',#116,#117,#58,.T.);
#141=EDGE_CURVE('',#116,#118,#59,.T.);
#142=EDGE_CURVE('',#119,#118,#60,.T.);
#143=EDGE_CURVE('',#117,#119,#61,.T.);
#144=EDGE_CURVE('',#120,#117,#106,.T.);
#145=EDGE_CURVE('',#121,#119,#107,.T.);
#146=EDGE_CURVE('',#120,#121,#62,.T.);
#147=EDGE_CURVE('',#120,#122,#63,.T.);
#148=EDGE_CURVE('',#123,#121,#64,.T.);
#149=EDGE_CURVE('',#122,#123,#65,.T.);
#150=EDGE_CURVE('',#122,#124,#66,.T.);
#151=EDGE_CURVE('',#125,#123,#67,.T.);
#152=EDGE_CURVE('',#124,#125,#68,.T.);
#153=EDGE_CURVE('',#124,#126,#108,.T.);
#154=EDGE_CURVE('',#127,#125,#109,.T.);
#155=EDGE_CURVE('',#126,#127,#69,.T.);
#156=EDGE_CURVE('',#126,#128,#70,.T.);
#157=EDGE_CURVE('',#129,#127,#71,.T.);
#158=EDGE_CURVE('',#128,#129,#72,.T.);
#159=EDGE_CURVE('',#130,#128,#73,.T.);
#160=EDGE_CURVE('',#131,#129,#74,.T.);
#161=EDGE_CURVE('',#130,#131,#75,.T.);
#162=EDGE_CURVE('',#132,#130,#76,.T.);
#163=EDGE_CURVE('',#133,#131,#77,.T.);
#164=EDGE_CURVE('',#132,#133,#78,.T.);
#165=EDGE_CURVE('',#116,#132,#110,.T.);
#166=EDGE_CURVE('',#118,#133,#111,.T.);
#167=ORIENTED_EDGE('',*,*,#134,.T.);
#168=ORIENTED_EDGE('',*,*,#135,.T.);
#169=ORIENTED_EDGE('',*,*,#136,.F.);
#170=ORIENTED_EDGE('',*,*,#137,.F.);
#171=ORIENTED_EDGE('',*,*,#138,.T.);
#172=ORIENTED_EDGE('',*,*,#137,.T.);
#173=ORIENTED_EDGE('',*,*,#139,.F.);
#174=ORIENTED_EDGE('',*,*,#135,.F.);
#175=ORIENTED_EDGE('',*,*,#140,.F.);
#176=ORIENTED_EDGE('',*,*,#141,.T.);
#177=ORIENTED_EDGE('',*,*,#142,.F.);
#178=ORIENTED_EDGE('',*,*,#143,.F.);
#179=ORIENTED_EDGE('',*,*,#144,.T.);
#180=ORIENTED_EDGE('',*,*,#143,.T.);
#181=ORIENTED_EDGE('',*,*,#145,.F.);
#182=ORIENTED_EDGE('',*,*,#146,.F.);
#183=ORIENTED_EDGE('',*,*,#147,.F.);
#184=ORIENTED_EDGE('',*,*,#146,.T.);
#185=ORIENTED_EDGE('',*,*,#148,.F.);
#186=ORIENTED_EDGE('',*,*,#149,.F.);
#187=ORIENTED_EDGE('',*,*,#150,.F.);
#188=ORIENTED_EDGE('',*,*,#149,.T.);
#189=ORIENTED_EDGE('',*,*,#151,.F.);
#190=ORIENTED_EDGE('',*,*,#152,.F.);
#191=ORIENTED_EDGE('',*,*,#153,.F.);
#192=ORIENTED_EDGE('',*,*,#152,.T.);
#193=ORIENTED_EDGE('',*,*,#154,.F.);
#194=ORIENTED_EDGE('',*,*,#155,.F.);
#195=ORIENTED_EDGE('',*,*,#156,.F.);
#196=ORIENTED_EDGE('',*,*,#155,.T.);
#197=ORIENTED_EDGE('',*,*,#157,.F.);
#198=ORIENTED_EDGE('',*,*,#158,.F.);
#199=ORIENTED_EDGE('',*,*,#159,.T.);
#200=ORIENTED_EDGE('',*,*,#158,.T.);
#201=ORIENTED_EDGE('',*,*,#160,.F.);
#202=ORIENTED_EDGE('',*,*,#161,.F.);
#203=ORIENTED_EDGE('',*,*,#162,.T.);
#204=ORIENTED_EDGE('',*,*,#161,.T.);
#205=ORIENTED_EDGE('',*,*,#163,.F.);
#206=ORIENTED_EDGE('',*,*,#164,.F.);
#207=ORIENTED_EDGE('',*,*,#165,.T.);
#208=ORIENTED_EDGE('',*,*,#164,.T.);
#209=ORIENTED_EDGE('',*,*,#166,.F.);
#210=ORIENTED_EDGE('',*,*,#141,.F.);
#211=ORIENTED_EDGE('',*,*,#166,.T.);
#212=ORIENTED_EDGE('',*,*,#163,.T.);
#213=ORIENTED_EDGE('',*,*,#160,.T.);
#214=ORIENTED_EDGE('',*,*,#157,.T.);
#215=ORIENTED_EDGE('',*,*,#154,.T.);
#216=ORIENTED_EDGE('',*,*,#151,.T.);
#217=ORIENTED_EDGE('',*,*,#148,.T.);
#218=ORIENTED_EDGE('',*,*,#145,.T.);
#219=ORIENTED_EDGE('',*,*,#142,.T.);
#220=ORIENTED_EDGE('',*,*,#139,.T.);
#221=ORIENTED_EDGE('',*,*,#136,.T.);
#222=ORIENTED_EDGE('',*,*,#165,.F.);
#223=ORIENTED_EDGE('',*,*,#140,.T.);
#224=ORIENTED_EDGE('',*,*,#144,.F.);
#225=ORIENTED_EDGE('',*,*,#147,.T.);
#226=ORIENTED_EDGE('',*,*,#150,.T.);
#227=ORIENTED_EDGE('',*,*,#153,.T.);
#228=ORIENTED_EDGE('',*,*,#156,.T.);
#229=ORIENTED_EDGE('',*,*,#159,.F.);
#230=ORIENTED_EDGE('',*,*,#162,.F.);
#231=ORIENTED_EDGE('',*,*,#138,.F.);
#232=ORIENTED_EDGE('',*,*,#134,.F.);
#233=CYLINDRICAL_SURFACE('',#264,1.75);
#234=CYLINDRICAL_SURFACE('',#269,7.);
#235=CYLINDRICAL_SURFACE('',#274,3.5);
#236=CYLINDRICAL_SURFACE('',#280,7.);
#237=ADVANCED_FACE('',(#26),#233,.F.);
#238=ADVANCED_FACE('',(#27),#17,.T.);
#239=ADVANCED_FACE('',(#28),#18,.T.);
#240=ADVANCED_FACE('',(#29),#234,.T.);
#241=ADVANCED_FACE('',(#30),#19,.T.);
#242=ADVANCED_FACE('',(#31),#20,.T.);
#243=ADVANCED_FACE('',(#32),#235,.F.);
#244=ADVANCED_FACE('',(#33),#21,.T.);
#245=ADVANCED_FACE('',(#34),#22,.T.);
#246=ADVANCED_FACE('',(#35),#23,.T.);
#247=ADVANCED_FACE('',(#36),#236,.T.);
#248=ADVANCED_FACE('',(#37,#15),#24,.T.);
#249=ADVANCED_FACE('',(#38,#16),#25,.F.);
#250=CLOSED_SHELL('',(#237,#238,#239,#240,#241,#242,#243,#244,#245,#246,
#247,#248,#249));
#251=DERIVED_UNIT_ELEMENT(#253,1.);
#252=DERIVED_UNIT_ELEMENT(#428,-3.);
#253=(
MASS_UNIT()
NAMED_UNIT(*)
SI_UNIT(.KILO.,.GRAM.)
);
#254=DERIVED_UNIT((#251,#252));
#255=MEASURE_REPRESENTATION_ITEM('density measure',
POSITIVE_RATIO_MEASURE(7850.),#254);
#256=PROPERTY_DEFINITION_REPRESENTATION(#261,#258);
#257=PROPERTY_DEFINITION_REPRESENTATION(#262,#259);
#258=REPRESENTATION('material name',(#260),#425);
#259=REPRESENTATION('density',(#255),#425);
#260=DESCRIPTIVE_REPRESENTATION_ITEM('Steel','Steel');
#261=PROPERTY_DEFINITION('material property','material name',#435);
#262=PROPERTY_DEFINITION('material property','density of part',#435);
#263=AXIS2_PLACEMENT_3D('',#354,#285,#286);
#264=AXIS2_PLACEMENT_3D('',#355,#287,#288);
#265=AXIS2_PLACEMENT_3D('',#358,#289,#290);
#266=AXIS2_PLACEMENT_3D('',#362,#292,#293);
#267=AXIS2_PLACEMENT_3D('',#364,#295,#296);
#268=AXIS2_PLACEMENT_3D('',#367,#299,#300);
#269=AXIS2_PLACEMENT_3D('',#376,#305,#306);
#270=AXIS2_PLACEMENT_3D('',#378,#307,#308);
#271=AXIS2_PLACEMENT_3D('',#380,#309,#310);
#272=AXIS2_PLACEMENT_3D('',#382,#312,#313);
#273=AXIS2_PLACEMENT_3D('',#388,#317,#318);
#274=AXIS2_PLACEMENT_3D('',#394,#322,#323);
#275=AXIS2_PLACEMENT_3D('',#396,#324,#325);
#276=AXIS2_PLACEMENT_3D('',#398,#326,#327);
#277=AXIS2_PLACEMENT_3D('',#400,#329,#330);
#278=AXIS2_PLACEMENT_3D('',#406,#334,#335);
#279=AXIS2_PLACEMENT_3D('',#412,#339,#340);
#280=AXIS2_PLACEMENT_3D('',#418,#344,#345);
#281=AXIS2_PLACEMENT_3D('',#419,#346,#347);
#282=AXIS2_PLACEMENT_3D('',#420,#348,#349);
#283=AXIS2_PLACEMENT_3D('',#421,#350,#351);
#284=AXIS2_PLACEMENT_3D('',#422,#352,#353);
#285=DIRECTION('axis',(0.,0.,1.));
#286=DIRECTION('refdir',(1.,0.,0.));
#287=DIRECTION('center_axis',(0.,0.,1.));
#288=DIRECTION('ref_axis',(1.,0.,0.));
#289=DIRECTION('center_axis',(0.,0.,-1.));
#290=DIRECTION('ref_axis',(1.,0.,0.));
#291=DIRECTION('',(0.,0.,1.));
#292=DIRECTION('center_axis',(0.,0.,-1.));
#293=DIRECTION('ref_axis',(1.,0.,0.));
#294=DIRECTION('',(0.,0.,1.));
#295=DIRECTION('center_axis',(1.,0.,0.));
#296=DIRECTION('ref_axis',(0.,1.,0.));
#297=DIRECTION('',(0.,1.,0.));
#298=DIRECTION('',(0.,1.,0.));
#299=DIRECTION('center_axis',(0.,-1.,0.));
#300=DIRECTION('ref_axis',(1.,0.,0.));
#301=DIRECTION('',(-1.,0.,0.));
#302=DIRECTION('',(0.,0.,1.));
#303=DIRECTION('',(1.,0.,0.));
#304=DIRECTION('',(0.,0.,1.));
#305=DIRECTION('center_axis',(0.,0.,1.));
#306=DIRECTION('ref_axis',(0.,1.,0.));
#307=DIRECTION('center_axis',(0.,0.,1.));
#308=DIRECTION('ref_axis',(0.,1.,0.));
#309=DIRECTION('center_axis',(0.,0.,1.));
#310=DIRECTION('ref_axis',(0.,1.,0.));
#311=DIRECTION('',(0.,0.,1.));
#312=DIRECTION('center_axis',(-7.83686841052936E-17,1.,0.));
#313=DIRECTION('ref_axis',(-1.,-7.83686841052936E-17,0.));
#314=DIRECTION('',(1.,7.83686841052936E-17,0.));
#315=DIRECTION('',(-1.,-7.83686841052936E-17,0.));
#316=DIRECTION('',(0.,0.,1.));
#317=DIRECTION('center_axis',(1.,0.,0.));
#318=DIRECTION('ref_axis',(0.,1.,0.));
#319=DIRECTION('',(0.,-1.,0.));
#320=DIRECTION('',(0.,1.,0.));
#321=DIRECTION('',(0.,0.,1.));
#322=DIRECTION('center_axis',(0.,0.,1.));
#323=DIRECTION('ref_axis',(-1.,-6.12323399573677E-17,0.));
#324=DIRECTION('center_axis',(0.,0.,1.));
#325=DIRECTION('ref_axis',(-1.,-6.12323399573677E-17,0.));
#326=DIRECTION('center_axis',(0.,0.,-1.));
#327=DIRECTION('ref_axis',(-1.,-6.12323399573677E-17,0.));
#328=DIRECTION('',(0.,0.,1.));
#329=DIRECTION('center_axis',(-1.,6.34413156928661E-16,0.));
#330=DIRECTION('ref_axis',(-6.34413156928661E-16,-1.,0.));
#331=DIRECTION('',(6.34413156928661E-16,1.,0.));
#332=DIRECTION('',(-6.34413156928661E-16,-1.,0.));
#333=DIRECTION('',(0.,0.,1.));
#334=DIRECTION('center_axis',(0.,1.,0.));
#335=DIRECTION('ref_axis',(-1.,0.,0.));
#336=DIRECTION('',(-1.,0.,0.));
#337=DIRECTION('',(-1.,0.,0.));
#338=DIRECTION('',(0.,0.,1.));
#339=DIRECTION('center_axis',(1.,1.26882631385732E-15,0.));
#340=DIRECTION('ref_axis',(-1.26882631385732E-15,1.,0.));
#341=DIRECTION('',(-1.26882631385732E-15,1.,0.));
#342=DIRECTION('',(-1.26882631385732E-15,1.,0.));
#343=DIRECTION('',(0.,0.,1.));
#344=DIRECTION('center_axis',(0.,0.,1.));
#345=DIRECTION('ref_axis',(0.,-1.,0.));
#346=DIRECTION('center_axis',(0.,0.,1.));
#347=DIRECTION('ref_axis',(0.,-1.,0.));
#348=DIRECTION('center_axis',(0.,0.,1.));
#349=DIRECTION('ref_axis',(0.,-1.,0.));
#350=DIRECTION('center_axis',(0.,0.,1.));
#351=DIRECTION('ref_axis',(1.,0.,0.));
#352=DIRECTION('center_axis',(0.,0.,1.));
#353=DIRECTION('ref_axis',(1.,0.,0.));
#354=CARTESIAN_POINT('',(0.,0.,0.));
#355=CARTESIAN_POINT('Origin',(-10.4811823106072,29.8604585869943,-10.5));
#356=CARTESIAN_POINT('',(-11.7059271819988,31.1104585869943,-10.5));
#357=CARTESIAN_POINT('',(-11.7059271819988,28.6104585869943,-10.5));
#358=CARTESIAN_POINT('Origin',(-10.4811823106072,29.8604585869943,-10.5));
#359=CARTESIAN_POINT('',(-11.7059271819988,28.6104585869943,-1.5));
#360=CARTESIAN_POINT('',(-11.7059271819988,28.6104585869943,-10.5));
#361=CARTESIAN_POINT('',(-11.7059271819988,31.1104585869943,-1.5));
#362=CARTESIAN_POINT('Origin',(-10.4811823106072,29.8604585869943,-1.5));
#363=CARTESIAN_POINT('',(-11.7059271819988,31.1104585869943,-10.5));
#364=CARTESIAN_POINT('Origin',(-11.7059271819988,28.6104585869943,-10.5));
#365=CARTESIAN_POINT('',(-11.7059271819988,31.1104585869943,-10.5));
#366=CARTESIAN_POINT('',(-11.7059271819988,31.1104585869943,-1.5));
#367=CARTESIAN_POINT('Origin',(-10.4811823106072,22.8604585869942,-10.5));
#368=CARTESIAN_POINT('',(35.5188176817429,22.8604585869942,-10.5));
#369=CARTESIAN_POINT('',(-10.4811823106072,22.8604585869942,-10.5));
#370=CARTESIAN_POINT('',(35.5188176817429,22.8604585869942,-10.5));
#371=CARTESIAN_POINT('',(35.5188176817429,22.8604585869942,-1.5));
#372=CARTESIAN_POINT('',(35.5188176817429,22.8604585869942,-10.5));
#373=CARTESIAN_POINT('',(-10.4811823106072,22.8604585869942,-1.5));
#374=CARTESIAN_POINT('',(35.5188176817429,22.8604585869942,-1.5));
#375=CARTESIAN_POINT('',(-10.4811823106072,22.8604585869942,-10.5));
#376=CARTESIAN_POINT('Origin',(-10.4811823106072,29.8604585869943,-10.5));
#377=CARTESIAN_POINT('',(-10.4811823106072,36.8604585869943,-10.5));
#378=CARTESIAN_POINT('Origin',(-10.4811823106072,29.8604585869943,-10.5));
#379=CARTESIAN_POINT('',(-10.4811823106072,36.8604585869943,-1.5));
#380=CARTESIAN_POINT('Origin',(-10.4811823106072,29.8604585869943,-1.5));
#381=CARTESIAN_POINT('',(-10.4811823106072,36.8604585869943,-10.5));
#382=CARTESIAN_POINT('Origin',(32.0188176817429,36.8604585869943,-10.5));
#383=CARTESIAN_POINT('',(32.0188176817429,36.8604585869943,-10.5));
#384=CARTESIAN_POINT('',(-10.4811823106072,36.8604585869943,-10.5));
#385=CARTESIAN_POINT('',(32.0188176817429,36.8604585869943,-1.5));
#386=CARTESIAN_POINT('',(-10.4811823106072,36.8604585869943,-1.5));
#387=CARTESIAN_POINT('',(32.0188176817429,36.8604585869943,-10.5));
#388=CARTESIAN_POINT('Origin',(32.0188176817429,29.8604585869943,-10.5));
#389=CARTESIAN_POINT('',(32.0188176817429,29.8604585869943,-10.5));
#390=CARTESIAN_POINT('',(32.0188176817429,36.8604585869943,-10.5));
#391=CARTESIAN_POINT('',(32.0188176817429,29.8604585869943,-1.5));
#392=CARTESIAN_POINT('',(32.0188176817429,36.8604585869943,-1.5));
#393=CARTESIAN_POINT('',(32.0188176817429,29.8604585869943,-10.5));
#394=CARTESIAN_POINT('Origin',(35.5188176817429,29.8604585869943,-10.5));
#395=CARTESIAN_POINT('',(39.0188176817429,29.8604585869943,-10.5));
#396=CARTESIAN_POINT('Origin',(35.5188176817429,29.8604585869943,-10.5));
#397=CARTESIAN_POINT('',(39.0188176817429,29.8604585869943,-1.5));
#398=CARTESIAN_POINT('Origin',(35.5188176817429,29.8604585869943,-1.5));
#399=CARTESIAN_POINT('',(39.0188176817429,29.8604585869943,-10.5));
#400=CARTESIAN_POINT('Origin',(39.0188176817429,36.8604585869942,-10.5));
#401=CARTESIAN_POINT('',(39.0188176817429,36.8604585869942,-10.5));
#402=CARTESIAN_POINT('',(39.0188176817429,29.8604585869943,-10.5));
#403=CARTESIAN_POINT('',(39.0188176817429,36.8604585869942,-1.5));
#404=CARTESIAN_POINT('',(39.0188176817429,29.8604585869943,-1.5));
#405=CARTESIAN_POINT('',(39.0188176817429,36.8604585869942,-10.5));
#406=CARTESIAN_POINT('Origin',(42.5188176817429,36.8604585869942,-10.5));
#407=CARTESIAN_POINT('',(42.5188176817429,36.8604585869942,-10.5));
#408=CARTESIAN_POINT('',(42.5188176817429,36.8604585869942,-10.5));
#409=CARTESIAN_POINT('',(42.5188176817429,36.8604585869942,-1.5));
#410=CARTESIAN_POINT('',(42.5188176817429,36.8604585869942,-1.5));
#411=CARTESIAN_POINT('',(42.5188176817429,36.8604585869942,-10.5));
#412=CARTESIAN_POINT('Origin',(42.5188176817429,29.8604585869943,-10.5));
#413=CARTESIAN_POINT('',(42.5188176817429,29.8604585869943,-10.5));
#414=CARTESIAN_POINT('',(42.5188176817429,29.8604585869943,-10.5));
#415=CARTESIAN_POINT('',(42.5188176817429,29.8604585869943,-1.5));
#416=CARTESIAN_POINT('',(42.5188176817429,29.8604585869943,-1.5));
#417=CARTESIAN_POINT('',(42.5188176817429,29.8604585869943,-10.5));
#418=CARTESIAN_POINT('Origin',(35.5188176817429,29.8604585869943,-10.5));
#419=CARTESIAN_POINT('Origin',(35.5188176817429,29.8604585869943,-10.5));
#420=CARTESIAN_POINT('Origin',(35.5188176817429,29.8604585869943,-1.5));
#421=CARTESIAN_POINT('Origin',(12.5188176855678,29.8604585869943,-1.5));
#422=CARTESIAN_POINT('Origin',(12.5188176855678,29.8604585869943,-10.5));
#423=UNCERTAINTY_MEASURE_WITH_UNIT(LENGTH_MEASURE(0.01),#427,
'DISTANCE_ACCURACY_VALUE',
'Maximum model space distance between geometric entities at asserted c
onnectivities');
#424=UNCERTAINTY_MEASURE_WITH_UNIT(LENGTH_MEASURE(0.01),#427,
'DISTANCE_ACCURACY_VALUE',
'Maximum model space distance between geometric entities at asserted c
onnectivities');
#425=(
GEOMETRIC_REPRESENTATION_CONTEXT(3)
GLOBAL_UNCERTAINTY_ASSIGNED_CONTEXT((#423))
GLOBAL_UNIT_ASSIGNED_CONTEXT((#427,#429,#430))
REPRESENTATION_CONTEXT('','3D')
);
#426=(
GEOMETRIC_REPRESENTATION_CONTEXT(3)
GLOBAL_UNCERTAINTY_ASSIGNED_CONTEXT((#424))
GLOBAL_UNIT_ASSIGNED_CONTEXT((#427,#429,#430))
REPRESENTATION_CONTEXT('','3D')
);
#427=(
LENGTH_UNIT()
NAMED_UNIT(*)
SI_UNIT(.MILLI.,.METRE.)
);
#428=(
LENGTH_UNIT()
NAMED_UNIT(*)
SI_UNIT($,.METRE.)
);
#429=(
NAMED_UNIT(*)
PLANE_ANGLE_UNIT()
SI_UNIT($,.RADIAN.)
);
#430=(
NAMED_UNIT(*)
SI_UNIT($,.STERADIAN.)
SOLID_ANGLE_UNIT()
);
#431=SHAPE_DEFINITION_REPRESENTATION(#432,#433);
#432=PRODUCT_DEFINITION_SHAPE('',$,#435);
#433=SHAPE_REPRESENTATION('',(#263),#425);
#434=PRODUCT_DEFINITION_CONTEXT('part definition',#439,'design');
#435=PRODUCT_DEFINITION('Lever Clear-1','Lever Clear-1 v1',#436,#434);
#436=PRODUCT_DEFINITION_FORMATION('',$,#441);
#437=PRODUCT_RELATED_PRODUCT_CATEGORY('Lever Clear-1 v1',
'Lever Clear-1 v1',(#441));
#438=APPLICATION_PROTOCOL_DEFINITION('international standard',
'ap242_managed_model_based_3d_engineering',2011,#439);
#439=APPLICATION_CONTEXT('Managed model based 3d engineering');
#440=PRODUCT_CONTEXT('part definition',#439,'mechanical');
#441=PRODUCT('Lever Clear-1','Lever Clear-1 v1',$,(#440));
#442=PRESENTATION_STYLE_ASSIGNMENT((#444));
#443=PRESENTATION_STYLE_ASSIGNMENT((#445));
#444=SURFACE_STYLE_USAGE(.BOTH.,#446);
#445=SURFACE_STYLE_USAGE(.BOTH.,#447);
#446=SURFACE_SIDE_STYLE('',(#448));
#447=SURFACE_SIDE_STYLE('',(#449));
#448=SURFACE_STYLE_FILL_AREA(#450);
#449=SURFACE_STYLE_FILL_AREA(#451);
#450=FILL_AREA_STYLE('Plate',(#452));
#451=FILL_AREA_STYLE('Opaque(160,160,160)',(#453));
#452=FILL_AREA_STYLE_COLOUR('Plate',#454);
#453=FILL_AREA_STYLE_COLOUR('Opaque(160,160,160)',#455);
#454=COLOUR_RGB('Plate',0.6,0.6,0.6);
#455=COLOUR_RGB('Opaque(160,160,160)',0.627450980392157,0.627450980392157,
0.627450980392157);
ENDSEC;
END-ISO-10303-21;
