ISO-10303-21;
HEADER;
/* Generated by software containing ST-Developer
 * from STEP Tools, Inc. (www.steptools.com) 
 */

FILE_DESCRIPTION(
/* description */ (''),
/* implementation_level */ '2;1');

FILE_NAME(
/* name */ 'chamber_front_left.step',
/* time_stamp */ '2025-09-03T11:09:37+02:00',
/* author */ (''),
/* organization */ (''),
/* preprocessor_version */ 'ST-DEVELOPER v20.1',
/* originating_system */ 'Autodesk Translation Framework v14.10.0.0',
/* authorisation */ '');

FILE_SCHEMA (('AUTOMOTIVE_DESIGN { 1 0 10303 214 3 1 1 }'));
ENDSEC;

DATA;
#10=MECHANICAL_DESIGN_GEOMETRIC_PRESENTATION_REPRESENTATION('',(#13),#555);
#11=SHAPE_REPRESENTATION_RELATIONSHIP('SRR','None',#562,#12);
#12=ADVANCED_BREP_SHAPE_REPRESENTATION('',(#14),#554);
#13=STYLED_ITEM('',(#572),#14);
#14=MANIFOLD_SOLID_BREP('chamber_front_left',#324);
#15=CYLINDRICAL_SURFACE('',#357,1.3);
#16=CYLINDRICAL_SURFACE('',#360,1.3);
#17=CYLINDRICAL_SURFACE('',#363,1.3);
#18=CYLINDRICAL_SURFACE('',#364,1.03775);
#19=(
BOUNDED_CURVE()
B_SPLINE_CURVE(2,(#512,#513,#514),.UNSPECIFIED.,.F.,.F.)
B_SPLINE_CURVE_WITH_KNOTS((3,3),(0.,0.129614813968153),.UNSPECIFIED.)
CURVE()
GEOMETRIC_REPRESENTATION_ITEM()
RATIONAL_B_SPLINE_CURVE((1.,1.05999999999997,1.05999999999997))
REPRESENTATION_ITEM('')
);
#20=(
BOUNDED_CURVE()
B_SPLINE_CURVE(2,(#518,#519,#520),.UNSPECIFIED.,.F.,.F.)
B_SPLINE_CURVE_WITH_KNOTS((3,3),(0.129614813968153,0.259229627936308),
 .UNSPECIFIED.)
CURVE()
GEOMETRIC_REPRESENTATION_ITEM()
RATIONAL_B_SPLINE_CURVE((1.05999999999997,1.05999999999997,1.))
REPRESENTATION_ITEM('')
);
#21=(
BOUNDED_CURVE()
B_SPLINE_CURVE(2,(#523,#524,#525),.UNSPECIFIED.,.F.,.F.)
B_SPLINE_CURVE_WITH_KNOTS((3,3),(0.129614813968155,0.259229627936301),
 .UNSPECIFIED.)
CURVE()
GEOMETRIC_REPRESENTATION_ITEM()
RATIONAL_B_SPLINE_CURVE((1.06000000000001,1.06000000000001,1.))
REPRESENTATION_ITEM('')
);
#22=(
BOUNDED_CURVE()
B_SPLINE_CURVE(2,(#526,#527,#528),.UNSPECIFIED.,.F.,.F.)
B_SPLINE_CURVE_WITH_KNOTS((3,3),(0.,0.129614813968155),.UNSPECIFIED.)
CURVE()
GEOMETRIC_REPRESENTATION_ITEM()
RATIONAL_B_SPLINE_CURVE((1.,1.06000000000001,1.06000000000001))
REPRESENTATION_ITEM('')
);
#23=(
BOUNDED_CURVE()
B_SPLINE_CURVE(2,(#530,#531,#532),.UNSPECIFIED.,.F.,.F.)
B_SPLINE_CURVE_WITH_KNOTS((3,3),(0.129614813968159,0.259229627936301),
 .UNSPECIFIED.)
CURVE()
GEOMETRIC_REPRESENTATION_ITEM()
RATIONAL_B_SPLINE_CURVE((1.06000000000001,1.06,1.))
REPRESENTATION_ITEM('')
);
#24=(
BOUNDED_CURVE()
B_SPLINE_CURVE(2,(#533,#534,#535),.UNSPECIFIED.,.F.,.F.)
B_SPLINE_CURVE_WITH_KNOTS((3,3),(0.,0.129614813968159),.UNSPECIFIED.)
CURVE()
GEOMETRIC_REPRESENTATION_ITEM()
RATIONAL_B_SPLINE_CURVE((1.,1.06000000000001,1.06000000000001))
REPRESENTATION_ITEM('')
);
#25=CONICAL_SURFACE('',#354,2.05,0.785398163397448);
#26=CONICAL_SURFACE('',#358,2.05,0.785398163397448);
#27=CONICAL_SURFACE('',#361,2.05,0.785398163397448);
#28=FACE_BOUND('',#111,.T.);
#29=FACE_BOUND('',#113,.T.);
#30=FACE_BOUND('',#114,.T.);
#31=FACE_BOUND('',#115,.T.);
#32=LINE('',#456,#60);
#33=LINE('',#458,#61);
#34=LINE('',#460,#62);
#35=LINE('',#461,#63);
#36=LINE('',#464,#64);
#37=LINE('',#466,#65);
#38=LINE('',#467,#66);
#39=LINE('',#471,#67);
#40=LINE('',#472,#68);
#41=LINE('',#473,#69);
#42=LINE('',#476,#70);
#43=LINE('',#478,#71);
#44=LINE('',#479,#72);
#45=LINE('',#482,#73);
#46=LINE('',#484,#74);
#47=LINE('',#488,#75);
#48=LINE('',#492,#76);
#49=LINE('',#495,#77);
#50=LINE('',#498,#78);
#51=LINE('',#499,#79);
#52=LINE('',#503,#80);
#53=LINE('',#516,#81);
#54=LINE('',#537,#82);
#55=LINE('',#540,#83);
#56=LINE('',#543,#84);
#57=LINE('',#546,#85);
#58=LINE('',#549,#86);
#59=LINE('',#551,#87);
#60=VECTOR('',#373,10.);
#61=VECTOR('',#374,10.);
#62=VECTOR('',#375,10.);
#63=VECTOR('',#376,10.);
#64=VECTOR('',#379,10.);
#65=VECTOR('',#380,10.);
#66=VECTOR('',#381,10.);
#67=VECTOR('',#384,10.);
#68=VECTOR('',#385,10.);
#69=VECTOR('',#386,10.);
#70=VECTOR('',#389,10.);
#71=VECTOR('',#390,10.);
#72=VECTOR('',#391,10.);
#73=VECTOR('',#394,10.);
#74=VECTOR('',#395,10.);
#75=VECTOR('',#398,10.);
#76=VECTOR('',#401,10.);
#77=VECTOR('',#404,10.);
#78=VECTOR('',#407,10.);
#79=VECTOR('',#408,10.);
#80=VECTOR('',#413,10.);
#81=VECTOR('',#422,2.05);
#82=VECTOR('',#429,1.25);
#83=VECTOR('',#432,2.05);
#84=VECTOR('',#437,1.25);
#85=VECTOR('',#440,2.05);
#86=VECTOR('',#445,1.25);
#87=VECTOR('',#448,1.25000000000001);
#88=FACE_OUTER_BOUND('',#104,.T.);
#89=FACE_OUTER_BOUND('',#105,.T.);
#90=FACE_OUTER_BOUND('',#106,.T.);
#91=FACE_OUTER_BOUND('',#107,.T.);
#92=FACE_OUTER_BOUND('',#108,.T.);
#93=FACE_OUTER_BOUND('',#109,.T.);
#94=FACE_OUTER_BOUND('',#110,.T.);
#95=FACE_OUTER_BOUND('',#112,.T.);
#96=FACE_OUTER_BOUND('',#116,.T.);
#97=FACE_OUTER_BOUND('',#117,.T.);
#98=FACE_OUTER_BOUND('',#118,.T.);
#99=FACE_OUTER_BOUND('',#119,.T.);
#100=FACE_OUTER_BOUND('',#120,.T.);
#101=FACE_OUTER_BOUND('',#121,.T.);
#102=FACE_OUTER_BOUND('',#122,.T.);
#103=FACE_OUTER_BOUND('',#123,.T.);
#104=EDGE_LOOP('',(#209));
#105=EDGE_LOOP('',(#210,#211,#212,#213));
#106=EDGE_LOOP('',(#214,#215,#216,#217));
#107=EDGE_LOOP('',(#218,#219,#220,#221));
#108=EDGE_LOOP('',(#222,#223,#224,#225,#226,#227));
#109=EDGE_LOOP('',(#228,#229,#230,#231,#232,#233,#234,#235,#236,#237));
#110=EDGE_LOOP('',(#238,#239,#240,#241,#242,#243));
#111=EDGE_LOOP('',(#244));
#112=EDGE_LOOP('',(#245,#246,#247,#248));
#113=EDGE_LOOP('',(#249));
#114=EDGE_LOOP('',(#250));
#115=EDGE_LOOP('',(#251));
#116=EDGE_LOOP('',(#252,#253,#254,#255,#256,#257));
#117=EDGE_LOOP('',(#258,#259,#260,#261,#262,#263,#264,#265,#266,#267,#268,
#269,#270));
#118=EDGE_LOOP('',(#271,#272,#273,#274));
#119=EDGE_LOOP('',(#275,#276,#277,#278,#279,#280));
#120=EDGE_LOOP('',(#281,#282,#283,#284));
#121=EDGE_LOOP('',(#285,#286,#287,#288,#289,#290));
#122=EDGE_LOOP('',(#291,#292,#293,#294));
#123=EDGE_LOOP('',(#295,#296,#297,#298));
#124=CIRCLE('',#339,1.03775);
#125=CIRCLE('',#345,2.8);
#126=CIRCLE('',#346,2.8);
#127=CIRCLE('',#347,2.8);
#128=CIRCLE('',#349,1.03775);
#129=CIRCLE('',#351,1.3);
#130=CIRCLE('',#352,1.3);
#131=CIRCLE('',#353,1.3);
#132=CIRCLE('',#355,1.3);
#133=CIRCLE('',#359,1.3);
#134=CIRCLE('',#362,1.3);
#135=VERTEX_POINT('',#451);
#136=VERTEX_POINT('',#454);
#137=VERTEX_POINT('',#455);
#138=VERTEX_POINT('',#457);
#139=VERTEX_POINT('',#459);
#140=VERTEX_POINT('',#463);
#141=VERTEX_POINT('',#465);
#142=VERTEX_POINT('',#469);
#143=VERTEX_POINT('',#470);
#144=VERTEX_POINT('',#475);
#145=VERTEX_POINT('',#477);
#146=VERTEX_POINT('',#481);
#147=VERTEX_POINT('',#483);
#148=VERTEX_POINT('',#485);
#149=VERTEX_POINT('',#487);
#150=VERTEX_POINT('',#489);
#151=VERTEX_POINT('',#491);
#152=VERTEX_POINT('',#493);
#153=VERTEX_POINT('',#497);
#154=VERTEX_POINT('',#500);
#155=VERTEX_POINT('',#504);
#156=VERTEX_POINT('',#506);
#157=VERTEX_POINT('',#508);
#158=VERTEX_POINT('',#511);
#159=VERTEX_POINT('',#515);
#160=VERTEX_POINT('',#522);
#161=VERTEX_POINT('',#529);
#162=VERTEX_POINT('',#539);
#163=VERTEX_POINT('',#545);
#164=EDGE_CURVE('',#135,#135,#124,.T.);
#165=EDGE_CURVE('',#136,#137,#32,.F.);
#166=EDGE_CURVE('',#138,#137,#33,.T.);
#167=EDGE_CURVE('',#139,#138,#34,.T.);
#168=EDGE_CURVE('',#136,#139,#35,.T.);
#169=EDGE_CURVE('',#140,#136,#36,.T.);
#170=EDGE_CURVE('',#140,#141,#37,.F.);
#171=EDGE_CURVE('',#137,#141,#38,.F.);
#172=EDGE_CURVE('',#142,#143,#39,.T.);
#173=EDGE_CURVE('',#141,#142,#40,.F.);
#174=EDGE_CURVE('',#143,#140,#41,.T.);
#175=EDGE_CURVE('',#144,#142,#42,.T.);
#176=EDGE_CURVE('',#145,#144,#43,.T.);
#177=EDGE_CURVE('',#138,#145,#44,.T.);
#178=EDGE_CURVE('',#146,#143,#45,.T.);
#179=EDGE_CURVE('',#147,#146,#46,.T.);
#180=EDGE_CURVE('',#148,#147,#125,.T.);
#181=EDGE_CURVE('',#149,#148,#47,.T.);
#182=EDGE_CURVE('',#150,#149,#126,.T.);
#183=EDGE_CURVE('',#151,#150,#48,.T.);
#184=EDGE_CURVE('',#152,#151,#127,.T.);
#185=EDGE_CURVE('',#144,#152,#49,.T.);
#186=EDGE_CURVE('',#153,#139,#50,.T.);
#187=EDGE_CURVE('',#153,#146,#51,.T.);
#188=EDGE_CURVE('',#154,#154,#128,.T.);
#189=EDGE_CURVE('',#145,#153,#52,.T.);
#190=EDGE_CURVE('',#155,#155,#129,.T.);
#191=EDGE_CURVE('',#156,#156,#130,.T.);
#192=EDGE_CURVE('',#157,#157,#131,.T.);
#193=EDGE_CURVE('',#151,#158,#19,.T.);
#194=EDGE_CURVE('',#158,#159,#53,.T.);
#195=EDGE_CURVE('',#159,#159,#132,.T.);
#196=EDGE_CURVE('',#158,#152,#20,.T.);
#197=EDGE_CURVE('',#160,#150,#21,.T.);
#198=EDGE_CURVE('',#149,#160,#22,.T.);
#199=EDGE_CURVE('',#161,#148,#23,.T.);
#200=EDGE_CURVE('',#147,#161,#24,.T.);
#201=EDGE_CURVE('',#159,#157,#54,.T.);
#202=EDGE_CURVE('',#160,#162,#55,.T.);
#203=EDGE_CURVE('',#162,#162,#133,.T.);
#204=EDGE_CURVE('',#162,#155,#56,.T.);
#205=EDGE_CURVE('',#161,#163,#57,.T.);
#206=EDGE_CURVE('',#163,#163,#134,.T.);
#207=EDGE_CURVE('',#163,#156,#58,.T.);
#208=EDGE_CURVE('',#154,#135,#59,.T.);
#209=ORIENTED_EDGE('',*,*,#164,.F.);
#210=ORIENTED_EDGE('',*,*,#165,.T.);
#211=ORIENTED_EDGE('',*,*,#166,.F.);
#212=ORIENTED_EDGE('',*,*,#167,.F.);
#213=ORIENTED_EDGE('',*,*,#168,.F.);
#214=ORIENTED_EDGE('',*,*,#165,.F.);
#215=ORIENTED_EDGE('',*,*,#169,.F.);
#216=ORIENTED_EDGE('',*,*,#170,.T.);
#217=ORIENTED_EDGE('',*,*,#171,.F.);
#218=ORIENTED_EDGE('',*,*,#172,.F.);
#219=ORIENTED_EDGE('',*,*,#173,.F.);
#220=ORIENTED_EDGE('',*,*,#170,.F.);
#221=ORIENTED_EDGE('',*,*,#174,.F.);
#222=ORIENTED_EDGE('',*,*,#171,.T.);
#223=ORIENTED_EDGE('',*,*,#173,.T.);
#224=ORIENTED_EDGE('',*,*,#175,.F.);
#225=ORIENTED_EDGE('',*,*,#176,.F.);
#226=ORIENTED_EDGE('',*,*,#177,.F.);
#227=ORIENTED_EDGE('',*,*,#166,.T.);
#228=ORIENTED_EDGE('',*,*,#172,.T.);
#229=ORIENTED_EDGE('',*,*,#178,.F.);
#230=ORIENTED_EDGE('',*,*,#179,.F.);
#231=ORIENTED_EDGE('',*,*,#180,.F.);
#232=ORIENTED_EDGE('',*,*,#181,.F.);
#233=ORIENTED_EDGE('',*,*,#182,.F.);
#234=ORIENTED_EDGE('',*,*,#183,.F.);
#235=ORIENTED_EDGE('',*,*,#184,.F.);
#236=ORIENTED_EDGE('',*,*,#185,.F.);
#237=ORIENTED_EDGE('',*,*,#175,.T.);
#238=ORIENTED_EDGE('',*,*,#169,.T.);
#239=ORIENTED_EDGE('',*,*,#168,.T.);
#240=ORIENTED_EDGE('',*,*,#186,.F.);
#241=ORIENTED_EDGE('',*,*,#187,.T.);
#242=ORIENTED_EDGE('',*,*,#178,.T.);
#243=ORIENTED_EDGE('',*,*,#174,.T.);
#244=ORIENTED_EDGE('',*,*,#188,.T.);
#245=ORIENTED_EDGE('',*,*,#167,.T.);
#246=ORIENTED_EDGE('',*,*,#177,.T.);
#247=ORIENTED_EDGE('',*,*,#189,.T.);
#248=ORIENTED_EDGE('',*,*,#186,.T.);
#249=ORIENTED_EDGE('',*,*,#190,.T.);
#250=ORIENTED_EDGE('',*,*,#191,.T.);
#251=ORIENTED_EDGE('',*,*,#192,.T.);
#252=ORIENTED_EDGE('',*,*,#193,.T.);
#253=ORIENTED_EDGE('',*,*,#194,.T.);
#254=ORIENTED_EDGE('',*,*,#195,.T.);
#255=ORIENTED_EDGE('',*,*,#194,.F.);
#256=ORIENTED_EDGE('',*,*,#196,.T.);
#257=ORIENTED_EDGE('',*,*,#184,.T.);
#258=ORIENTED_EDGE('',*,*,#193,.F.);
#259=ORIENTED_EDGE('',*,*,#183,.T.);
#260=ORIENTED_EDGE('',*,*,#197,.F.);
#261=ORIENTED_EDGE('',*,*,#198,.F.);
#262=ORIENTED_EDGE('',*,*,#181,.T.);
#263=ORIENTED_EDGE('',*,*,#199,.F.);
#264=ORIENTED_EDGE('',*,*,#200,.F.);
#265=ORIENTED_EDGE('',*,*,#179,.T.);
#266=ORIENTED_EDGE('',*,*,#187,.F.);
#267=ORIENTED_EDGE('',*,*,#189,.F.);
#268=ORIENTED_EDGE('',*,*,#176,.T.);
#269=ORIENTED_EDGE('',*,*,#185,.T.);
#270=ORIENTED_EDGE('',*,*,#196,.F.);
#271=ORIENTED_EDGE('',*,*,#195,.F.);
#272=ORIENTED_EDGE('',*,*,#201,.T.);
#273=ORIENTED_EDGE('',*,*,#192,.F.);
#274=ORIENTED_EDGE('',*,*,#201,.F.);
#275=ORIENTED_EDGE('',*,*,#198,.T.);
#276=ORIENTED_EDGE('',*,*,#202,.T.);
#277=ORIENTED_EDGE('',*,*,#203,.T.);
#278=ORIENTED_EDGE('',*,*,#202,.F.);
#279=ORIENTED_EDGE('',*,*,#197,.T.);
#280=ORIENTED_EDGE('',*,*,#182,.T.);
#281=ORIENTED_EDGE('',*,*,#203,.F.);
#282=ORIENTED_EDGE('',*,*,#204,.T.);
#283=ORIENTED_EDGE('',*,*,#190,.F.);
#284=ORIENTED_EDGE('',*,*,#204,.F.);
#285=ORIENTED_EDGE('',*,*,#200,.T.);
#286=ORIENTED_EDGE('',*,*,#205,.T.);
#287=ORIENTED_EDGE('',*,*,#206,.T.);
#288=ORIENTED_EDGE('',*,*,#205,.F.);
#289=ORIENTED_EDGE('',*,*,#199,.T.);
#290=ORIENTED_EDGE('',*,*,#180,.T.);
#291=ORIENTED_EDGE('',*,*,#206,.F.);
#292=ORIENTED_EDGE('',*,*,#207,.T.);
#293=ORIENTED_EDGE('',*,*,#191,.F.);
#294=ORIENTED_EDGE('',*,*,#207,.F.);
#295=ORIENTED_EDGE('',*,*,#188,.F.);
#296=ORIENTED_EDGE('',*,*,#208,.T.);
#297=ORIENTED_EDGE('',*,*,#164,.T.);
#298=ORIENTED_EDGE('',*,*,#208,.F.);
#299=PLANE('',#338);
#300=PLANE('',#340);
#301=PLANE('',#341);
#302=PLANE('',#342);
#303=PLANE('',#343);
#304=PLANE('',#344);
#305=PLANE('',#348);
#306=PLANE('',#350);
#307=PLANE('',#356);
#308=ADVANCED_FACE('',(#88),#299,.T.);
#309=ADVANCED_FACE('',(#89),#300,.F.);
#310=ADVANCED_FACE('',(#90),#301,.F.);
#311=ADVANCED_FACE('',(#91),#302,.F.);
#312=ADVANCED_FACE('',(#92),#303,.F.);
#313=ADVANCED_FACE('',(#93),#304,.T.);
#314=ADVANCED_FACE('',(#94,#28),#305,.T.);
#315=ADVANCED_FACE('',(#95,#29,#30,#31),#306,.T.);
#316=ADVANCED_FACE('',(#96),#25,.F.);
#317=ADVANCED_FACE('',(#97),#307,.T.);
#318=ADVANCED_FACE('',(#98),#15,.F.);
#319=ADVANCED_FACE('',(#99),#26,.F.);
#320=ADVANCED_FACE('',(#100),#16,.F.);
#321=ADVANCED_FACE('',(#101),#27,.F.);
#322=ADVANCED_FACE('',(#102),#17,.F.);
#323=ADVANCED_FACE('',(#103),#18,.F.);
#324=CLOSED_SHELL('',(#308,#309,#310,#311,#312,#313,#314,#315,#316,#317,
#318,#319,#320,#321,#322,#323));
#325=DERIVED_UNIT_ELEMENT(#327,1.);
#326=DERIVED_UNIT_ELEMENT(#557,-3.);
#327=(
MASS_UNIT()
NAMED_UNIT(*)
SI_UNIT(.KILO.,.GRAM.)
);
#328=DERIVED_UNIT((#325,#326));
#329=MEASURE_REPRESENTATION_ITEM('density measure',
POSITIVE_RATIO_MEASURE(7850.),#328);
#330=PROPERTY_DEFINITION_REPRESENTATION(#335,#332);
#331=PROPERTY_DEFINITION_REPRESENTATION(#336,#333);
#332=REPRESENTATION('material name',(#334),#554);
#333=REPRESENTATION('density',(#329),#554);
#334=DESCRIPTIVE_REPRESENTATION_ITEM('Steel','Steel');
#335=PROPERTY_DEFINITION('material property','material name',#564);
#336=PROPERTY_DEFINITION('material property','density of part',#564);
#337=AXIS2_PLACEMENT_3D('',#449,#365,#366);
#338=AXIS2_PLACEMENT_3D('',#450,#367,#368);
#339=AXIS2_PLACEMENT_3D('',#452,#369,#370);
#340=AXIS2_PLACEMENT_3D('',#453,#371,#372);
#341=AXIS2_PLACEMENT_3D('',#462,#377,#378);
#342=AXIS2_PLACEMENT_3D('',#468,#382,#383);
#343=AXIS2_PLACEMENT_3D('',#474,#387,#388);
#344=AXIS2_PLACEMENT_3D('',#480,#392,#393);
#345=AXIS2_PLACEMENT_3D('',#486,#396,#397);
#346=AXIS2_PLACEMENT_3D('',#490,#399,#400);
#347=AXIS2_PLACEMENT_3D('',#494,#402,#403);
#348=AXIS2_PLACEMENT_3D('',#496,#405,#406);
#349=AXIS2_PLACEMENT_3D('',#501,#409,#410);
#350=AXIS2_PLACEMENT_3D('',#502,#411,#412);
#351=AXIS2_PLACEMENT_3D('',#505,#414,#415);
#352=AXIS2_PLACEMENT_3D('',#507,#416,#417);
#353=AXIS2_PLACEMENT_3D('',#509,#418,#419);
#354=AXIS2_PLACEMENT_3D('',#510,#420,#421);
#355=AXIS2_PLACEMENT_3D('',#517,#423,#424);
#356=AXIS2_PLACEMENT_3D('',#521,#425,#426);
#357=AXIS2_PLACEMENT_3D('',#536,#427,#428);
#358=AXIS2_PLACEMENT_3D('',#538,#430,#431);
#359=AXIS2_PLACEMENT_3D('',#541,#433,#434);
#360=AXIS2_PLACEMENT_3D('',#542,#435,#436);
#361=AXIS2_PLACEMENT_3D('',#544,#438,#439);
#362=AXIS2_PLACEMENT_3D('',#547,#441,#442);
#363=AXIS2_PLACEMENT_3D('',#548,#443,#444);
#364=AXIS2_PLACEMENT_3D('',#550,#446,#447);
#365=DIRECTION('axis',(0.,0.,1.));
#366=DIRECTION('refdir',(1.,0.,0.));
#367=DIRECTION('center_axis',(0.,0.,1.));
#368=DIRECTION('ref_axis',(-1.,0.,0.));
#369=DIRECTION('center_axis',(0.,0.,-1.));
#370=DIRECTION('ref_axis',(-1.,0.,0.));
#371=DIRECTION('center_axis',(0.,1.,-2.73285667600039E-16));
#372=DIRECTION('ref_axis',(0.,2.73285667600039E-16,1.));
#373=DIRECTION('',(0.,2.73285667600039E-16,1.));
#374=DIRECTION('',(-1.,0.,0.));
#375=DIRECTION('',(0.,-2.73285667600039E-16,-1.));
#376=DIRECTION('',(1.,0.,0.));
#377=DIRECTION('center_axis',(1.,0.,0.));
#378=DIRECTION('ref_axis',(0.,-1.,0.));
#379=DIRECTION('',(0.,-1.,0.));
#380=DIRECTION('',(0.,0.,1.));
#381=DIRECTION('',(0.,-1.,0.));
#382=DIRECTION('center_axis',(0.,1.,0.));
#383=DIRECTION('ref_axis',(1.,0.,0.));
#384=DIRECTION('',(0.,0.,1.));
#385=DIRECTION('',(1.,0.,0.));
#386=DIRECTION('',(1.,0.,0.));
#387=DIRECTION('center_axis',(0.,0.,1.));
#388=DIRECTION('ref_axis',(-1.,0.,0.));
#389=DIRECTION('',(-1.36642833800019E-16,-1.,0.));
#390=DIRECTION('',(-1.,2.19574393003739E-16,0.));
#391=DIRECTION('',(0.,1.,0.));
#392=DIRECTION('center_axis',(-1.,1.36642833800019E-16,0.));
#393=DIRECTION('ref_axis',(-1.36642833800019E-16,-1.,0.));
#394=DIRECTION('',(-1.36642833800019E-16,-1.,0.));
#395=DIRECTION('',(0.,0.,1.));
#396=DIRECTION('center_axis',(-1.,1.36642833800019E-16,0.));
#397=DIRECTION('ref_axis',(-1.36642833800019E-16,-1.,0.));
#398=DIRECTION('',(0.,0.,1.));
#399=DIRECTION('center_axis',(-1.,1.36642833800019E-16,0.));
#400=DIRECTION('ref_axis',(-1.36642833800019E-16,-1.,0.));
#401=DIRECTION('',(0.,0.,1.));
#402=DIRECTION('center_axis',(-1.,1.36642833800019E-16,0.));
#403=DIRECTION('ref_axis',(-1.36642833800019E-16,-1.,0.));
#404=DIRECTION('',(0.,0.,1.));
#405=DIRECTION('center_axis',(0.,0.,1.));
#406=DIRECTION('ref_axis',(1.,0.,0.));
#407=DIRECTION('',(0.,-1.,0.));
#408=DIRECTION('',(-1.,2.19574393003739E-16,0.));
#409=DIRECTION('center_axis',(0.,0.,-1.));
#410=DIRECTION('ref_axis',(-1.,0.,0.));
#411=DIRECTION('center_axis',(1.,0.,0.));
#412=DIRECTION('ref_axis',(0.,1.,0.));
#413=DIRECTION('',(0.,0.,1.));
#414=DIRECTION('center_axis',(-1.,0.,0.));
#415=DIRECTION('ref_axis',(0.,-1.,0.));
#416=DIRECTION('center_axis',(-1.,0.,0.));
#417=DIRECTION('ref_axis',(0.,-1.,0.));
#418=DIRECTION('center_axis',(-1.,0.,0.));
#419=DIRECTION('ref_axis',(0.,-1.,0.));
#420=DIRECTION('center_axis',(-1.,0.,0.));
#421=DIRECTION('ref_axis',(-9.33170572292815E-17,-1.,0.));
#422=DIRECTION('',(0.707106781186548,-0.707106781186548,8.65956056235493E-17));
#423=DIRECTION('center_axis',(1.,-1.36642833800019E-16,0.));
#424=DIRECTION('ref_axis',(0.,-1.,0.));
#425=DIRECTION('center_axis',(2.19574393003739E-16,1.,0.));
#426=DIRECTION('ref_axis',(-1.,2.19574393003739E-16,0.));
#427=DIRECTION('center_axis',(1.,0.,0.));
#428=DIRECTION('ref_axis',(0.,-1.,0.));
#429=DIRECTION('',(1.,0.,0.));
#430=DIRECTION('center_axis',(-1.,0.,0.));
#431=DIRECTION('ref_axis',(-9.33170572292815E-17,-1.,0.));
#432=DIRECTION('',(0.707106781186548,-0.707106781186548,8.65956056235493E-17));
#433=DIRECTION('center_axis',(1.,-1.36642833800019E-16,0.));
#434=DIRECTION('ref_axis',(0.,-1.,0.));
#435=DIRECTION('center_axis',(1.,0.,0.));
#436=DIRECTION('ref_axis',(0.,-1.,0.));
#437=DIRECTION('',(1.,0.,0.));
#438=DIRECTION('center_axis',(-1.,0.,0.));
#439=DIRECTION('ref_axis',(-9.33170572292815E-17,-1.,0.));
#440=DIRECTION('',(0.707106781186548,-0.707106781186548,8.65956056235493E-17));
#441=DIRECTION('center_axis',(1.,-1.36642833800019E-16,0.));
#442=DIRECTION('ref_axis',(0.,-1.,0.));
#443=DIRECTION('center_axis',(1.,0.,0.));
#444=DIRECTION('ref_axis',(0.,-1.,0.));
#445=DIRECTION('',(1.,0.,0.));
#446=DIRECTION('center_axis',(0.,0.,-1.));
#447=DIRECTION('ref_axis',(-1.,0.,0.));
#448=DIRECTION('',(0.,0.,-1.));
#449=CARTESIAN_POINT('',(0.,0.,0.));
#450=CARTESIAN_POINT('Origin',(-78.4,86.5,364.9));
#451=CARTESIAN_POINT('',(-77.3622500000001,86.5,364.9));
#452=CARTESIAN_POINT('Origin',(-78.4,86.5,364.9));
#453=CARTESIAN_POINT('Origin',(-80.9,80.4999999999999,310.));
#454=CARTESIAN_POINT('',(-78.3,80.5,375.));
#455=CARTESIAN_POINT('',(-78.3,80.4999999999999,310.));
#456=CARTESIAN_POINT('',(-78.3,80.4999999999999,342.45));
#457=CARTESIAN_POINT('',(-75.9,80.4999999999999,310.));
#458=CARTESIAN_POINT('',(-40.45,80.4999999999999,310.));
#459=CARTESIAN_POINT('',(-75.9,80.4999999999999,375.));
#460=CARTESIAN_POINT('',(-75.9,80.4999999999999,310.));
#461=CARTESIAN_POINT('',(-40.45,80.5,375.));
#462=CARTESIAN_POINT('Origin',(-78.3,82.4,374.9));
#463=CARTESIAN_POINT('',(-78.3,82.4999999999999,375.));
#464=CARTESIAN_POINT('',(-78.3,40.25,375.));
#465=CARTESIAN_POINT('',(-78.3,82.4999999999999,310.));
#466=CARTESIAN_POINT('',(-78.3,82.4999999999999,374.9));
#467=CARTESIAN_POINT('',(-78.3,41.2,310.));
#468=CARTESIAN_POINT('Origin',(-80.9,82.4999999999999,374.9));
#469=CARTESIAN_POINT('',(-80.9,82.4999999999999,310.));
#470=CARTESIAN_POINT('',(-80.9,82.4999999999999,375.));
#471=CARTESIAN_POINT('',(-80.9,82.5,342.45));
#472=CARTESIAN_POINT('',(-40.45,82.4999999999999,310.));
#473=CARTESIAN_POINT('',(-39.15,82.5,375.));
#474=CARTESIAN_POINT('Origin',(-3.5527136788005E-14,-1.77635683940025E-14,
310.));
#475=CARTESIAN_POINT('',(-80.9,130.,310.));
#476=CARTESIAN_POINT('',(-80.9,130.,310.));
#477=CARTESIAN_POINT('',(-75.9,130.,310.));
#478=CARTESIAN_POINT('',(80.9,130.,310.));
#479=CARTESIAN_POINT('',(-75.9,-38.,310.));
#480=CARTESIAN_POINT('Origin',(-80.9,130.,310.));
#481=CARTESIAN_POINT('',(-80.9,130.,375.));
#482=CARTESIAN_POINT('',(-80.9,130.,375.));
#483=CARTESIAN_POINT('',(-80.9,130.,368.760952021292));
#484=CARTESIAN_POINT('',(-80.9,130.,310.));
#485=CARTESIAN_POINT('',(-80.9,130.,366.239047978708));
#486=CARTESIAN_POINT('Origin',(-80.9,127.5,367.5));
#487=CARTESIAN_POINT('',(-80.9,130.,343.760952021292));
#488=CARTESIAN_POINT('',(-80.9,130.,310.));
#489=CARTESIAN_POINT('',(-80.9,130.,341.239047978708));
#490=CARTESIAN_POINT('Origin',(-80.9,127.5,342.5));
#491=CARTESIAN_POINT('',(-80.9,130.,318.760952021292));
#492=CARTESIAN_POINT('',(-80.9,130.,310.));
#493=CARTESIAN_POINT('',(-80.9,130.,316.239047978708));
#494=CARTESIAN_POINT('Origin',(-80.9,127.5,317.5));
#495=CARTESIAN_POINT('',(-80.9,130.,310.));
#496=CARTESIAN_POINT('Origin',(-3.5527136788005E-14,-1.77635683940025E-14,
375.));
#497=CARTESIAN_POINT('',(-75.9,130.,375.));
#498=CARTESIAN_POINT('',(-75.9,-38.,375.));
#499=CARTESIAN_POINT('',(80.9,130.,375.));
#500=CARTESIAN_POINT('',(-77.3622500000001,86.5,375.));
#501=CARTESIAN_POINT('Origin',(-78.4,86.5,375.));
#502=CARTESIAN_POINT('Origin',(-75.9,-76.,310.));
#503=CARTESIAN_POINT('',(-75.9,130.,310.));
#504=CARTESIAN_POINT('',(-75.9,128.8,342.5));
#505=CARTESIAN_POINT('Origin',(-75.9,127.5,342.5));
#506=CARTESIAN_POINT('',(-75.9,128.8,367.5));
#507=CARTESIAN_POINT('Origin',(-75.9,127.5,367.5));
#508=CARTESIAN_POINT('',(-75.9,128.8,317.5));
#509=CARTESIAN_POINT('Origin',(-75.9,127.5,317.5));
#510=CARTESIAN_POINT('Origin',(-80.15,127.5,317.5));
#511=CARTESIAN_POINT('',(-80.6,130.,317.5));
#512=CARTESIAN_POINT('Ctrl Pts',(-80.9,130.,318.760952021292));
#513=CARTESIAN_POINT('Ctrl Pts',(-80.6,130.,318.094788689289));
#514=CARTESIAN_POINT('Ctrl Pts',(-80.6,130.,317.5));
#515=CARTESIAN_POINT('',(-79.4,128.8,317.5));
#516=CARTESIAN_POINT('',(-80.15,129.55,317.5));
#517=CARTESIAN_POINT('Origin',(-79.4,127.5,317.5));
#518=CARTESIAN_POINT('Ctrl Pts',(-80.6,130.,317.5));
#519=CARTESIAN_POINT('Ctrl Pts',(-80.6,130.,316.905211310711));
#520=CARTESIAN_POINT('Ctrl Pts',(-80.9,130.,316.239047978708));
#521=CARTESIAN_POINT('Origin',(80.9,130.,310.));
#522=CARTESIAN_POINT('',(-80.6,130.,342.5));
#523=CARTESIAN_POINT('Ctrl Pts',(-80.6,130.,342.5));
#524=CARTESIAN_POINT('Ctrl Pts',(-80.6,130.,341.905211310711));
#525=CARTESIAN_POINT('Ctrl Pts',(-80.9,130.,341.239047978708));
#526=CARTESIAN_POINT('Ctrl Pts',(-80.9,130.,343.760952021292));
#527=CARTESIAN_POINT('Ctrl Pts',(-80.6,130.,343.094788689289));
#528=CARTESIAN_POINT('Ctrl Pts',(-80.6,130.,342.5));
#529=CARTESIAN_POINT('',(-80.6,130.,367.5));
#530=CARTESIAN_POINT('Ctrl Pts',(-80.6,130.,367.5));
#531=CARTESIAN_POINT('Ctrl Pts',(-80.6000000000001,130.,366.905211310711));
#532=CARTESIAN_POINT('Ctrl Pts',(-80.9,130.,366.239047978708));
#533=CARTESIAN_POINT('Ctrl Pts',(-80.9,130.,368.760952021292));
#534=CARTESIAN_POINT('Ctrl Pts',(-80.6,130.,368.094788689289));
#535=CARTESIAN_POINT('Ctrl Pts',(-80.6,130.,367.5));
#536=CARTESIAN_POINT('Origin',(-80.9,127.5,317.5));
#537=CARTESIAN_POINT('',(-80.9,128.8,317.5));
#538=CARTESIAN_POINT('Origin',(-80.15,127.5,342.5));
#539=CARTESIAN_POINT('',(-79.4,128.8,342.5));
#540=CARTESIAN_POINT('',(-80.15,129.55,342.5));
#541=CARTESIAN_POINT('Origin',(-79.4,127.5,342.5));
#542=CARTESIAN_POINT('Origin',(-80.9,127.5,342.5));
#543=CARTESIAN_POINT('',(-80.9,128.8,342.5));
#544=CARTESIAN_POINT('Origin',(-80.15,127.5,367.5));
#545=CARTESIAN_POINT('',(-79.4,128.8,367.5));
#546=CARTESIAN_POINT('',(-80.15,129.55,367.5));
#547=CARTESIAN_POINT('Origin',(-79.4,127.5,367.5));
#548=CARTESIAN_POINT('Origin',(-80.9,127.5,367.5));
#549=CARTESIAN_POINT('',(-80.9,128.8,367.5));
#550=CARTESIAN_POINT('Origin',(-78.4,86.5,375.));
#551=CARTESIAN_POINT('',(-77.3622500000001,86.5,375.));
#552=UNCERTAINTY_MEASURE_WITH_UNIT(LENGTH_MEASURE(0.01),#556,
'DISTANCE_ACCURACY_VALUE',
'Maximum model space distance between geometric entities at asserted c
onnectivities');
#553=UNCERTAINTY_MEASURE_WITH_UNIT(LENGTH_MEASURE(0.01),#556,
'DISTANCE_ACCURACY_VALUE',
'Maximum model space distance between geometric entities at asserted c
onnectivities');
#554=(
GEOMETRIC_REPRESENTATION_CONTEXT(3)
GLOBAL_UNCERTAINTY_ASSIGNED_CONTEXT((#552))
GLOBAL_UNIT_ASSIGNED_CONTEXT((#556,#558,#559))
REPRESENTATION_CONTEXT('','3D')
);
#555=(
GEOMETRIC_REPRESENTATION_CONTEXT(3)
GLOBAL_UNCERTAINTY_ASSIGNED_CONTEXT((#553))
GLOBAL_UNIT_ASSIGNED_CONTEXT((#556,#558,#559))
REPRESENTATION_CONTEXT('','3D')
);
#556=(
LENGTH_UNIT()
NAMED_UNIT(*)
SI_UNIT(.MILLI.,.METRE.)
);
#557=(
LENGTH_UNIT()
NAMED_UNIT(*)
SI_UNIT($,.METRE.)
);
#558=(
NAMED_UNIT(*)
PLANE_ANGLE_UNIT()
SI_UNIT($,.RADIAN.)
);
#559=(
NAMED_UNIT(*)
SI_UNIT($,.STERADIAN.)
SOLID_ANGLE_UNIT()
);
#560=SHAPE_DEFINITION_REPRESENTATION(#561,#562);
#561=PRODUCT_DEFINITION_SHAPE('',$,#564);
#562=SHAPE_REPRESENTATION('',(#337),#554);
#563=PRODUCT_DEFINITION_CONTEXT('part definition',#568,'design');
#564=PRODUCT_DEFINITION('chamber_front_left','chamber_front_left',#565,
#563);
#565=PRODUCT_DEFINITION_FORMATION('',$,#570);
#566=PRODUCT_RELATED_PRODUCT_CATEGORY('chamber_front_left',
'chamber_front_left',(#570));
#567=APPLICATION_PROTOCOL_DEFINITION('international standard',
'automotive_design',2009,#568);
#568=APPLICATION_CONTEXT(
'Core Data for Automotive Mechanical Design Process');
#569=PRODUCT_CONTEXT('part definition',#568,'mechanical');
#570=PRODUCT('chamber_front_left','chamber_front_left',$,(#569));
#571=PRESENTATION_STYLE_ASSIGNMENT((#573));
#572=PRESENTATION_STYLE_ASSIGNMENT((#574));
#573=SURFACE_STYLE_USAGE(.BOTH.,#575);
#574=SURFACE_STYLE_USAGE(.BOTH.,#576);
#575=SURFACE_SIDE_STYLE('',(#577));
#576=SURFACE_SIDE_STYLE('',(#578));
#577=SURFACE_STYLE_FILL_AREA(#579);
#578=SURFACE_STYLE_FILL_AREA(#580);
#579=FILL_AREA_STYLE('Steel - Satin',(#581));
#580=FILL_AREA_STYLE('Aluminum - Anodized Rough (Grey)',(#582));
#581=FILL_AREA_STYLE_COLOUR('Steel - Satin',#583);
#582=FILL_AREA_STYLE_COLOUR('Aluminum - Anodized Rough (Grey)',#584);
#583=COLOUR_RGB('Steel - Satin',0.627450980392157,0.627450980392157,0.627450980392157);
#584=COLOUR_RGB('Aluminum - Anodized Rough (Grey)',0.537254901960784,0.537254901960784,
0.537254901960784);
ENDSEC;
END-ISO-10303-21;
