ISO-10303-21;
HEADER;
/* Generated by software containing ST-Developer
 * from STEP Tools, Inc. (www.steptools.com) 
 */

FILE_DESCRIPTION(
/* description */ (''),
/* implementation_level */ '2;1');

FILE_NAME(
/* name */ 'chamber_hinge_lock_front_right.step',
/* time_stamp */ '2025-09-03T11:16:14+02:00',
/* author */ (''),
/* organization */ (''),
/* preprocessor_version */ 'ST-DEVELOPER v20.1',
/* originating_system */ 'Autodesk Translation Framework v14.10.0.0',
/* authorisation */ '');

FILE_SCHEMA (('AUTOMOTIVE_DESIGN { 1 0 10303 214 3 1 1 }'));
ENDSEC;

DATA;
#10=MECHANICAL_DESIGN_GEOMETRIC_PRESENTATION_REPRESENTATION('',(#13),#507);
#11=SHAPE_REPRESENTATION_RELATIONSHIP('SRR','None',#514,#12);
#12=ADVANCED_BREP_SHAPE_REPRESENTATION('',(#14),#506);
#13=STYLED_ITEM('',(#524),#14);
#14=MANIFOLD_SOLID_BREP('chamber_hinge_lock_front_right',#295);
#15=CYLINDRICAL_SURFACE('',#316,1.25);
#16=CYLINDRICAL_SURFACE('',#320,1.25);
#17=CYLINDRICAL_SURFACE('',#324,1.25);
#18=CYLINDRICAL_SURFACE('',#328,1.25);
#19=CYLINDRICAL_SURFACE('',#330,1.525);
#20=FACE_BOUND('',#53,.T.);
#21=FACE_BOUND('',#54,.T.);
#22=FACE_BOUND('',#55,.T.);
#23=FACE_BOUND('',#56,.T.);
#24=FACE_BOUND('',#71,.T.);
#25=FACE_BOUND('',#72,.T.);
#26=FACE_BOUND('',#73,.T.);
#27=FACE_BOUND('',#74,.T.);
#28=PLANE('',#312);
#29=PLANE('',#333);
#30=PLANE('',#334);
#31=PLANE('',#335);
#32=PLANE('',#336);
#33=PLANE('',#337);
#34=PLANE('',#338);
#35=FACE_OUTER_BOUND('',#51,.T.);
#36=FACE_OUTER_BOUND('',#52,.T.);
#37=FACE_OUTER_BOUND('',#57,.T.);
#38=FACE_OUTER_BOUND('',#58,.T.);
#39=FACE_OUTER_BOUND('',#59,.T.);
#40=FACE_OUTER_BOUND('',#60,.T.);
#41=FACE_OUTER_BOUND('',#61,.T.);
#42=FACE_OUTER_BOUND('',#62,.T.);
#43=FACE_OUTER_BOUND('',#63,.T.);
#44=FACE_OUTER_BOUND('',#64,.T.);
#45=FACE_OUTER_BOUND('',#65,.T.);
#46=FACE_OUTER_BOUND('',#66,.T.);
#47=FACE_OUTER_BOUND('',#67,.T.);
#48=FACE_OUTER_BOUND('',#68,.T.);
#49=FACE_OUTER_BOUND('',#69,.T.);
#50=FACE_OUTER_BOUND('',#70,.T.);
#51=EDGE_LOOP('',(#199,#200,#201,#202));
#52=EDGE_LOOP('',(#203,#204,#205,#206));
#53=EDGE_LOOP('',(#207));
#54=EDGE_LOOP('',(#208));
#55=EDGE_LOOP('',(#209));
#56=EDGE_LOOP('',(#210));
#57=EDGE_LOOP('',(#211,#212,#213,#214));
#58=EDGE_LOOP('',(#215,#216,#217,#218));
#59=EDGE_LOOP('',(#219,#220,#221,#222));
#60=EDGE_LOOP('',(#223,#224,#225,#226));
#61=EDGE_LOOP('',(#227,#228,#229,#230));
#62=EDGE_LOOP('',(#231,#232,#233,#234));
#63=EDGE_LOOP('',(#235,#236,#237,#238));
#64=EDGE_LOOP('',(#239,#240,#241,#242));
#65=EDGE_LOOP('',(#243,#244));
#66=EDGE_LOOP('',(#245,#246,#247,#248,#249,#250));
#67=EDGE_LOOP('',(#251,#252,#253,#254));
#68=EDGE_LOOP('',(#255,#256,#257,#258));
#69=EDGE_LOOP('',(#259,#260,#261,#262));
#70=EDGE_LOOP('',(#263,#264,#265,#266,#267,#268,#269,#270));
#71=EDGE_LOOP('',(#271));
#72=EDGE_LOOP('',(#272));
#73=EDGE_LOOP('',(#273));
#74=EDGE_LOOP('',(#274));
#75=LINE('',#430,#99);
#76=LINE('',#435,#100);
#77=LINE('',#437,#101);
#78=LINE('',#439,#102);
#79=LINE('',#440,#103);
#80=LINE('',#449,#104);
#81=LINE('',#454,#105);
#82=LINE('',#457,#106);
#83=LINE('',#462,#107);
#84=LINE('',#465,#108);
#85=LINE('',#470,#109);
#86=LINE('',#473,#110);
#87=LINE('',#480,#111);
#88=LINE('',#483,#112);
#89=LINE('',#485,#113);
#90=LINE('',#488,#114);
#91=LINE('',#489,#115);
#92=LINE('',#491,#116);
#93=LINE('',#492,#117);
#94=LINE('',#495,#118);
#95=LINE('',#496,#119);
#96=LINE('',#499,#120);
#97=LINE('',#500,#121);
#98=LINE('',#502,#122);
#99=VECTOR('',#345,2.);
#100=VECTOR('',#350,10.);
#101=VECTOR('',#351,10.);
#102=VECTOR('',#352,10.);
#103=VECTOR('',#353,10.);
#104=VECTOR('',#362,1.25);
#105=VECTOR('',#369,2.);
#106=VECTOR('',#372,1.25);
#107=VECTOR('',#379,2.);
#108=VECTOR('',#382,1.25);
#109=VECTOR('',#389,2.);
#110=VECTOR('',#392,1.25);
#111=VECTOR('',#399,10.);
#112=VECTOR('',#402,10.);
#113=VECTOR('',#405,10.);
#114=VECTOR('',#408,10.);
#115=VECTOR('',#409,10.);
#116=VECTOR('',#410,10.);
#117=VECTOR('',#411,10.);
#118=VECTOR('',#414,10.);
#119=VECTOR('',#415,10.);
#120=VECTOR('',#418,10.);
#121=VECTOR('',#419,10.);
#122=VECTOR('',#422,10.);
#123=CIRCLE('',#310,1.25);
#124=CIRCLE('',#311,2.75);
#125=CIRCLE('',#313,2.75);
#126=CIRCLE('',#314,2.75);
#127=CIRCLE('',#315,2.75);
#128=CIRCLE('',#317,1.25);
#129=CIRCLE('',#319,1.25);
#130=CIRCLE('',#321,1.25);
#131=CIRCLE('',#323,1.25);
#132=CIRCLE('',#325,1.25);
#133=CIRCLE('',#327,1.25);
#134=CIRCLE('',#329,1.25);
#135=CIRCLE('',#331,1.525);
#136=CIRCLE('',#332,1.525);
#137=VERTEX_POINT('',#427);
#138=VERTEX_POINT('',#429);
#139=VERTEX_POINT('',#433);
#140=VERTEX_POINT('',#434);
#141=VERTEX_POINT('',#436);
#142=VERTEX_POINT('',#438);
#143=VERTEX_POINT('',#441);
#144=VERTEX_POINT('',#443);
#145=VERTEX_POINT('',#445);
#146=VERTEX_POINT('',#448);
#147=VERTEX_POINT('',#452);
#148=VERTEX_POINT('',#456);
#149=VERTEX_POINT('',#460);
#150=VERTEX_POINT('',#464);
#151=VERTEX_POINT('',#468);
#152=VERTEX_POINT('',#472);
#153=VERTEX_POINT('',#476);
#154=VERTEX_POINT('',#477);
#155=VERTEX_POINT('',#479);
#156=VERTEX_POINT('',#481);
#157=VERTEX_POINT('',#487);
#158=VERTEX_POINT('',#490);
#159=VERTEX_POINT('',#494);
#160=VERTEX_POINT('',#498);
#161=EDGE_CURVE('',#137,#137,#123,.T.);
#162=EDGE_CURVE('',#137,#138,#75,.T.);
#163=EDGE_CURVE('',#138,#138,#124,.T.);
#164=EDGE_CURVE('',#139,#140,#76,.T.);
#165=EDGE_CURVE('',#141,#139,#77,.T.);
#166=EDGE_CURVE('',#142,#141,#78,.T.);
#167=EDGE_CURVE('',#140,#142,#79,.T.);
#168=EDGE_CURVE('',#143,#143,#125,.T.);
#169=EDGE_CURVE('',#144,#144,#126,.T.);
#170=EDGE_CURVE('',#145,#145,#127,.T.);
#171=EDGE_CURVE('',#137,#146,#80,.T.);
#172=EDGE_CURVE('',#146,#146,#128,.T.);
#173=EDGE_CURVE('',#147,#147,#129,.T.);
#174=EDGE_CURVE('',#147,#143,#81,.T.);
#175=EDGE_CURVE('',#147,#148,#82,.T.);
#176=EDGE_CURVE('',#148,#148,#130,.T.);
#177=EDGE_CURVE('',#149,#149,#131,.T.);
#178=EDGE_CURVE('',#149,#145,#83,.T.);
#179=EDGE_CURVE('',#149,#150,#84,.T.);
#180=EDGE_CURVE('',#150,#150,#132,.T.);
#181=EDGE_CURVE('',#151,#151,#133,.T.);
#182=EDGE_CURVE('',#151,#144,#85,.T.);
#183=EDGE_CURVE('',#151,#152,#86,.T.);
#184=EDGE_CURVE('',#152,#152,#134,.T.);
#185=EDGE_CURVE('',#153,#154,#135,.T.);
#186=EDGE_CURVE('',#154,#155,#87,.T.);
#187=EDGE_CURVE('',#156,#155,#136,.T.);
#188=EDGE_CURVE('',#156,#153,#88,.T.);
#189=EDGE_CURVE('',#155,#156,#89,.F.);
#190=EDGE_CURVE('',#153,#157,#90,.F.);
#191=EDGE_CURVE('',#157,#139,#91,.T.);
#192=EDGE_CURVE('',#158,#140,#92,.T.);
#193=EDGE_CURVE('',#158,#154,#93,.F.);
#194=EDGE_CURVE('',#157,#159,#94,.F.);
#195=EDGE_CURVE('',#159,#141,#95,.T.);
#196=EDGE_CURVE('',#159,#160,#96,.F.);
#197=EDGE_CURVE('',#160,#142,#97,.T.);
#198=EDGE_CURVE('',#160,#158,#98,.F.);
#199=ORIENTED_EDGE('',*,*,#161,.T.);
#200=ORIENTED_EDGE('',*,*,#162,.T.);
#201=ORIENTED_EDGE('',*,*,#163,.T.);
#202=ORIENTED_EDGE('',*,*,#162,.F.);
#203=ORIENTED_EDGE('',*,*,#164,.F.);
#204=ORIENTED_EDGE('',*,*,#165,.F.);
#205=ORIENTED_EDGE('',*,*,#166,.F.);
#206=ORIENTED_EDGE('',*,*,#167,.F.);
#207=ORIENTED_EDGE('',*,*,#168,.F.);
#208=ORIENTED_EDGE('',*,*,#169,.F.);
#209=ORIENTED_EDGE('',*,*,#170,.F.);
#210=ORIENTED_EDGE('',*,*,#163,.F.);
#211=ORIENTED_EDGE('',*,*,#161,.F.);
#212=ORIENTED_EDGE('',*,*,#171,.T.);
#213=ORIENTED_EDGE('',*,*,#172,.F.);
#214=ORIENTED_EDGE('',*,*,#171,.F.);
#215=ORIENTED_EDGE('',*,*,#173,.T.);
#216=ORIENTED_EDGE('',*,*,#174,.T.);
#217=ORIENTED_EDGE('',*,*,#168,.T.);
#218=ORIENTED_EDGE('',*,*,#174,.F.);
#219=ORIENTED_EDGE('',*,*,#173,.F.);
#220=ORIENTED_EDGE('',*,*,#175,.T.);
#221=ORIENTED_EDGE('',*,*,#176,.F.);
#222=ORIENTED_EDGE('',*,*,#175,.F.);
#223=ORIENTED_EDGE('',*,*,#177,.T.);
#224=ORIENTED_EDGE('',*,*,#178,.T.);
#225=ORIENTED_EDGE('',*,*,#170,.T.);
#226=ORIENTED_EDGE('',*,*,#178,.F.);
#227=ORIENTED_EDGE('',*,*,#177,.F.);
#228=ORIENTED_EDGE('',*,*,#179,.T.);
#229=ORIENTED_EDGE('',*,*,#180,.F.);
#230=ORIENTED_EDGE('',*,*,#179,.F.);
#231=ORIENTED_EDGE('',*,*,#181,.T.);
#232=ORIENTED_EDGE('',*,*,#182,.T.);
#233=ORIENTED_EDGE('',*,*,#169,.T.);
#234=ORIENTED_EDGE('',*,*,#182,.F.);
#235=ORIENTED_EDGE('',*,*,#181,.F.);
#236=ORIENTED_EDGE('',*,*,#183,.T.);
#237=ORIENTED_EDGE('',*,*,#184,.F.);
#238=ORIENTED_EDGE('',*,*,#183,.F.);
#239=ORIENTED_EDGE('',*,*,#185,.T.);
#240=ORIENTED_EDGE('',*,*,#186,.T.);
#241=ORIENTED_EDGE('',*,*,#187,.F.);
#242=ORIENTED_EDGE('',*,*,#188,.T.);
#243=ORIENTED_EDGE('',*,*,#187,.T.);
#244=ORIENTED_EDGE('',*,*,#189,.T.);
#245=ORIENTED_EDGE('',*,*,#185,.F.);
#246=ORIENTED_EDGE('',*,*,#190,.T.);
#247=ORIENTED_EDGE('',*,*,#191,.T.);
#248=ORIENTED_EDGE('',*,*,#164,.T.);
#249=ORIENTED_EDGE('',*,*,#192,.F.);
#250=ORIENTED_EDGE('',*,*,#193,.T.);
#251=ORIENTED_EDGE('',*,*,#194,.T.);
#252=ORIENTED_EDGE('',*,*,#195,.T.);
#253=ORIENTED_EDGE('',*,*,#165,.T.);
#254=ORIENTED_EDGE('',*,*,#191,.F.);
#255=ORIENTED_EDGE('',*,*,#196,.T.);
#256=ORIENTED_EDGE('',*,*,#197,.T.);
#257=ORIENTED_EDGE('',*,*,#166,.T.);
#258=ORIENTED_EDGE('',*,*,#195,.F.);
#259=ORIENTED_EDGE('',*,*,#198,.T.);
#260=ORIENTED_EDGE('',*,*,#192,.T.);
#261=ORIENTED_EDGE('',*,*,#167,.T.);
#262=ORIENTED_EDGE('',*,*,#197,.F.);
#263=ORIENTED_EDGE('',*,*,#188,.F.);
#264=ORIENTED_EDGE('',*,*,#189,.F.);
#265=ORIENTED_EDGE('',*,*,#186,.F.);
#266=ORIENTED_EDGE('',*,*,#193,.F.);
#267=ORIENTED_EDGE('',*,*,#198,.F.);
#268=ORIENTED_EDGE('',*,*,#196,.F.);
#269=ORIENTED_EDGE('',*,*,#194,.F.);
#270=ORIENTED_EDGE('',*,*,#190,.F.);
#271=ORIENTED_EDGE('',*,*,#184,.T.);
#272=ORIENTED_EDGE('',*,*,#172,.T.);
#273=ORIENTED_EDGE('',*,*,#176,.T.);
#274=ORIENTED_EDGE('',*,*,#180,.T.);
#275=CONICAL_SURFACE('',#309,2.,0.785398163397448);
#276=CONICAL_SURFACE('',#318,2.,0.785398163397448);
#277=CONICAL_SURFACE('',#322,2.,0.785398163397448);
#278=CONICAL_SURFACE('',#326,2.,0.785398163397448);
#279=ADVANCED_FACE('',(#35),#275,.F.);
#280=ADVANCED_FACE('',(#36,#20,#21,#22,#23),#28,.F.);
#281=ADVANCED_FACE('',(#37),#15,.F.);
#282=ADVANCED_FACE('',(#38),#276,.F.);
#283=ADVANCED_FACE('',(#39),#16,.F.);
#284=ADVANCED_FACE('',(#40),#277,.F.);
#285=ADVANCED_FACE('',(#41),#17,.F.);
#286=ADVANCED_FACE('',(#42),#278,.F.);
#287=ADVANCED_FACE('',(#43),#18,.F.);
#288=ADVANCED_FACE('',(#44),#19,.F.);
#289=ADVANCED_FACE('',(#45),#29,.F.);
#290=ADVANCED_FACE('',(#46),#30,.F.);
#291=ADVANCED_FACE('',(#47),#31,.F.);
#292=ADVANCED_FACE('',(#48),#32,.F.);
#293=ADVANCED_FACE('',(#49),#33,.F.);
#294=ADVANCED_FACE('',(#50,#24,#25,#26,#27),#34,.T.);
#295=CLOSED_SHELL('',(#279,#280,#281,#282,#283,#284,#285,#286,#287,#288,
#289,#290,#291,#292,#293,#294));
#296=DERIVED_UNIT_ELEMENT(#298,1.);
#297=DERIVED_UNIT_ELEMENT(#509,-3.);
#298=(
MASS_UNIT()
NAMED_UNIT(*)
SI_UNIT(.KILO.,.GRAM.)
);
#299=DERIVED_UNIT((#296,#297));
#300=MEASURE_REPRESENTATION_ITEM('density measure',
POSITIVE_RATIO_MEASURE(7850.),#299);
#301=PROPERTY_DEFINITION_REPRESENTATION(#306,#303);
#302=PROPERTY_DEFINITION_REPRESENTATION(#307,#304);
#303=REPRESENTATION('material name',(#305),#506);
#304=REPRESENTATION('density',(#300),#506);
#305=DESCRIPTIVE_REPRESENTATION_ITEM('Steel','Steel');
#306=PROPERTY_DEFINITION('material property','material name',#516);
#307=PROPERTY_DEFINITION('material property','density of part',#516);
#308=AXIS2_PLACEMENT_3D('',#425,#339,#340);
#309=AXIS2_PLACEMENT_3D('',#426,#341,#342);
#310=AXIS2_PLACEMENT_3D('',#428,#343,#344);
#311=AXIS2_PLACEMENT_3D('',#431,#346,#347);
#312=AXIS2_PLACEMENT_3D('',#432,#348,#349);
#313=AXIS2_PLACEMENT_3D('',#442,#354,#355);
#314=AXIS2_PLACEMENT_3D('',#444,#356,#357);
#315=AXIS2_PLACEMENT_3D('',#446,#358,#359);
#316=AXIS2_PLACEMENT_3D('',#447,#360,#361);
#317=AXIS2_PLACEMENT_3D('',#450,#363,#364);
#318=AXIS2_PLACEMENT_3D('',#451,#365,#366);
#319=AXIS2_PLACEMENT_3D('',#453,#367,#368);
#320=AXIS2_PLACEMENT_3D('',#455,#370,#371);
#321=AXIS2_PLACEMENT_3D('',#458,#373,#374);
#322=AXIS2_PLACEMENT_3D('',#459,#375,#376);
#323=AXIS2_PLACEMENT_3D('',#461,#377,#378);
#324=AXIS2_PLACEMENT_3D('',#463,#380,#381);
#325=AXIS2_PLACEMENT_3D('',#466,#383,#384);
#326=AXIS2_PLACEMENT_3D('',#467,#385,#386);
#327=AXIS2_PLACEMENT_3D('',#469,#387,#388);
#328=AXIS2_PLACEMENT_3D('',#471,#390,#391);
#329=AXIS2_PLACEMENT_3D('',#474,#393,#394);
#330=AXIS2_PLACEMENT_3D('',#475,#395,#396);
#331=AXIS2_PLACEMENT_3D('',#478,#397,#398);
#332=AXIS2_PLACEMENT_3D('',#482,#400,#401);
#333=AXIS2_PLACEMENT_3D('',#484,#403,#404);
#334=AXIS2_PLACEMENT_3D('',#486,#406,#407);
#335=AXIS2_PLACEMENT_3D('',#493,#412,#413);
#336=AXIS2_PLACEMENT_3D('',#497,#416,#417);
#337=AXIS2_PLACEMENT_3D('',#501,#420,#421);
#338=AXIS2_PLACEMENT_3D('',#503,#423,#424);
#339=DIRECTION('axis',(0.,0.,1.));
#340=DIRECTION('refdir',(1.,0.,0.));
#341=DIRECTION('center_axis',(-1.,0.,0.));
#342=DIRECTION('ref_axis',(0.,1.,0.));
#343=DIRECTION('center_axis',(1.,0.,0.));
#344=DIRECTION('ref_axis',(0.,1.,0.));
#345=DIRECTION('',(-0.707106781186548,-0.707106781186548,-8.65956056235493E-17));
#346=DIRECTION('center_axis',(-1.,0.,0.));
#347=DIRECTION('ref_axis',(0.,1.,0.));
#348=DIRECTION('center_axis',(1.,0.,0.));
#349=DIRECTION('ref_axis',(0.,1.,0.));
#350=DIRECTION('',(0.,0.,-1.));
#351=DIRECTION('',(0.,-1.,0.));
#352=DIRECTION('',(0.,0.,1.));
#353=DIRECTION('',(0.,1.,0.));
#354=DIRECTION('center_axis',(-1.,0.,0.));
#355=DIRECTION('ref_axis',(0.,1.,0.));
#356=DIRECTION('center_axis',(-1.,0.,0.));
#357=DIRECTION('ref_axis',(0.,1.,0.));
#358=DIRECTION('center_axis',(-1.,0.,0.));
#359=DIRECTION('ref_axis',(0.,1.,0.));
#360=DIRECTION('center_axis',(1.,0.,0.));
#361=DIRECTION('ref_axis',(0.,1.,0.));
#362=DIRECTION('',(1.,0.,0.));
#363=DIRECTION('center_axis',(-1.,0.,0.));
#364=DIRECTION('ref_axis',(0.,1.,0.));
#365=DIRECTION('center_axis',(-1.,0.,0.));
#366=DIRECTION('ref_axis',(0.,1.,0.));
#367=DIRECTION('center_axis',(1.,0.,0.));
#368=DIRECTION('ref_axis',(0.,1.,0.));
#369=DIRECTION('',(-0.707106781186548,-0.707106781186548,-8.65956056235493E-17));
#370=DIRECTION('center_axis',(1.,0.,0.));
#371=DIRECTION('ref_axis',(0.,1.,0.));
#372=DIRECTION('',(1.,0.,0.));
#373=DIRECTION('center_axis',(-1.,0.,0.));
#374=DIRECTION('ref_axis',(0.,1.,0.));
#375=DIRECTION('center_axis',(-1.,0.,0.));
#376=DIRECTION('ref_axis',(0.,1.,0.));
#377=DIRECTION('center_axis',(1.,0.,0.));
#378=DIRECTION('ref_axis',(0.,1.,0.));
#379=DIRECTION('',(-0.707106781186548,-0.707106781186548,-8.65956056235493E-17));
#380=DIRECTION('center_axis',(1.,0.,0.));
#381=DIRECTION('ref_axis',(0.,1.,0.));
#382=DIRECTION('',(1.,0.,0.));
#383=DIRECTION('center_axis',(-1.,0.,0.));
#384=DIRECTION('ref_axis',(0.,1.,0.));
#385=DIRECTION('center_axis',(-1.,0.,0.));
#386=DIRECTION('ref_axis',(0.,1.,0.));
#387=DIRECTION('center_axis',(1.,0.,0.));
#388=DIRECTION('ref_axis',(0.,1.,0.));
#389=DIRECTION('',(-0.707106781186548,-0.707106781186548,-8.65956056235493E-17));
#390=DIRECTION('center_axis',(1.,0.,0.));
#391=DIRECTION('ref_axis',(0.,1.,0.));
#392=DIRECTION('',(1.,0.,0.));
#393=DIRECTION('center_axis',(-1.,0.,0.));
#394=DIRECTION('ref_axis',(0.,1.,0.));
#395=DIRECTION('center_axis',(0.,-1.,0.));
#396=DIRECTION('ref_axis',(-1.,0.,0.));
#397=DIRECTION('center_axis',(0.,-1.,0.));
#398=DIRECTION('ref_axis',(-1.,0.,0.));
#399=DIRECTION('',(0.,1.,0.));
#400=DIRECTION('center_axis',(0.,-1.,0.));
#401=DIRECTION('ref_axis',(-1.,0.,0.));
#402=DIRECTION('',(0.,-1.,0.));
#403=DIRECTION('center_axis',(0.,1.,0.));
#404=DIRECTION('ref_axis',(-1.,0.,0.));
#405=DIRECTION('',(0.,0.,-1.));
#406=DIRECTION('center_axis',(0.,1.,0.));
#407=DIRECTION('ref_axis',(0.,0.,-1.));
#408=DIRECTION('',(0.,0.,-1.));
#409=DIRECTION('',(-1.,0.,0.));
#410=DIRECTION('',(-1.,0.,0.));
#411=DIRECTION('',(0.,0.,-1.));
#412=DIRECTION('center_axis',(0.,0.,-1.));
#413=DIRECTION('ref_axis',(0.,-1.,0.));
#414=DIRECTION('',(0.,-1.,0.));
#415=DIRECTION('',(-1.,0.,0.));
#416=DIRECTION('center_axis',(0.,-1.,0.));
#417=DIRECTION('ref_axis',(0.,0.,1.));
#418=DIRECTION('',(0.,0.,1.));
#419=DIRECTION('',(-1.,0.,0.));
#420=DIRECTION('center_axis',(0.,0.,1.));
#421=DIRECTION('ref_axis',(0.,1.,0.));
#422=DIRECTION('',(0.,1.,0.));
#423=DIRECTION('center_axis',(1.,0.,0.));
#424=DIRECTION('ref_axis',(0.,1.,0.));
#425=CARTESIAN_POINT('',(0.,0.,0.));
#426=CARTESIAN_POINT('Origin',(-84.15,-62.15,294.25));
#427=CARTESIAN_POINT('',(-83.4,-63.4,294.25));
#428=CARTESIAN_POINT('Origin',(-83.4,-62.15,294.25));
#429=CARTESIAN_POINT('',(-84.9,-64.9,294.25));
#430=CARTESIAN_POINT('',(-84.15,-64.1499999999999,294.25));
#431=CARTESIAN_POINT('Origin',(-84.9,-62.15,294.25));
#432=CARTESIAN_POINT('Origin',(-84.9,-52.6499999999999,298.));
#433=CARTESIAN_POINT('',(-84.9,-65.1499999999999,304.75));
#434=CARTESIAN_POINT('',(-84.9,-65.1499999999999,291.25));
#435=CARTESIAN_POINT('',(-84.9,-65.1499999999999,291.25));
#436=CARTESIAN_POINT('',(-84.9,-40.1499999999999,304.75));
#437=CARTESIAN_POINT('',(-84.9,-65.1499999999999,304.75));
#438=CARTESIAN_POINT('',(-84.9,-40.1499999999999,291.25));
#439=CARTESIAN_POINT('',(-84.9,-40.1499999999999,304.75));
#440=CARTESIAN_POINT('',(-84.9,-40.1499999999999,291.25));
#441=CARTESIAN_POINT('',(-84.9,-45.9000000000006,294.25));
#442=CARTESIAN_POINT('Origin',(-84.9,-43.1500000000006,294.25));
#443=CARTESIAN_POINT('',(-84.9,-64.9,301.75));
#444=CARTESIAN_POINT('Origin',(-84.9,-62.15,301.75));
#445=CARTESIAN_POINT('',(-84.9,-45.9000000000006,301.75));
#446=CARTESIAN_POINT('Origin',(-84.9,-43.1500000000006,301.75));
#447=CARTESIAN_POINT('Origin',(-80.9,-62.15,294.25));
#448=CARTESIAN_POINT('',(-81.,-63.4,294.25));
#449=CARTESIAN_POINT('',(-80.9,-63.4,294.25));
#450=CARTESIAN_POINT('Origin',(-81.,-62.15,294.25));
#451=CARTESIAN_POINT('Origin',(-84.15,-43.1500000000006,294.25));
#452=CARTESIAN_POINT('',(-83.4,-44.4000000000006,294.25));
#453=CARTESIAN_POINT('Origin',(-83.4,-43.1500000000006,294.25));
#454=CARTESIAN_POINT('',(-84.15,-45.1500000000006,294.25));
#455=CARTESIAN_POINT('Origin',(-80.9,-43.1500000000006,294.25));
#456=CARTESIAN_POINT('',(-81.,-44.4000000000006,294.25));
#457=CARTESIAN_POINT('',(-80.9,-44.4000000000006,294.25));
#458=CARTESIAN_POINT('Origin',(-81.,-43.1500000000006,294.25));
#459=CARTESIAN_POINT('Origin',(-84.15,-43.1500000000006,301.75));
#460=CARTESIAN_POINT('',(-83.4,-44.4000000000006,301.75));
#461=CARTESIAN_POINT('Origin',(-83.4,-43.1500000000006,301.75));
#462=CARTESIAN_POINT('',(-84.15,-45.1500000000006,301.75));
#463=CARTESIAN_POINT('Origin',(-80.9,-43.1500000000006,301.75));
#464=CARTESIAN_POINT('',(-81.,-44.4000000000006,301.75));
#465=CARTESIAN_POINT('',(-80.9,-44.4000000000006,301.75));
#466=CARTESIAN_POINT('Origin',(-81.,-43.1500000000006,301.75));
#467=CARTESIAN_POINT('Origin',(-84.15,-62.15,301.75));
#468=CARTESIAN_POINT('',(-83.4,-63.4,301.75));
#469=CARTESIAN_POINT('Origin',(-83.4,-62.15,301.75));
#470=CARTESIAN_POINT('',(-84.15,-64.1499999999999,301.75));
#471=CARTESIAN_POINT('Origin',(-80.9,-62.15,301.75));
#472=CARTESIAN_POINT('',(-81.,-63.4,301.75));
#473=CARTESIAN_POINT('',(-80.9,-63.4,301.75));
#474=CARTESIAN_POINT('Origin',(-81.,-62.15,301.75));
#475=CARTESIAN_POINT('Origin',(-80.9000000000005,-65.1499999999999,298.));
#476=CARTESIAN_POINT('',(-81.,-65.1499999999999,299.521717779353));
#477=CARTESIAN_POINT('',(-81.,-65.1499999999999,296.478282220647));
#478=CARTESIAN_POINT('Origin',(-80.9000000000005,-65.1499999999999,298.));
#479=CARTESIAN_POINT('',(-81.,-45.1499999999999,296.478282220647));
#480=CARTESIAN_POINT('',(-81.,-65.1499999999999,296.478282220647));
#481=CARTESIAN_POINT('',(-81.,-45.1499999999999,299.521717779353));
#482=CARTESIAN_POINT('Origin',(-80.9000000000005,-45.1499999999999,298.));
#483=CARTESIAN_POINT('',(-81.,-65.1499999999999,299.521717779353));
#484=CARTESIAN_POINT('Origin',(-81.6625000000003,-45.1499999999999,298.));
#485=CARTESIAN_POINT('',(-81.,-45.1499999999999,298.));
#486=CARTESIAN_POINT('Origin',(-80.9,-65.1499999999999,304.75));
#487=CARTESIAN_POINT('',(-81.,-65.1499999999999,304.75));
#488=CARTESIAN_POINT('',(-81.,-65.1499999999999,301.375));
#489=CARTESIAN_POINT('',(-80.9,-65.1499999999999,304.75));
#490=CARTESIAN_POINT('',(-81.,-65.1499999999999,291.25));
#491=CARTESIAN_POINT('',(-80.9,-65.1499999999999,291.25));
#492=CARTESIAN_POINT('',(-81.,-65.1499999999999,301.375));
#493=CARTESIAN_POINT('Origin',(-80.9,-40.1499999999999,304.75));
#494=CARTESIAN_POINT('',(-81.,-40.1499999999999,304.75));
#495=CARTESIAN_POINT('',(-81.,-46.3999999999999,304.75));
#496=CARTESIAN_POINT('',(-80.9,-40.1499999999999,304.75));
#497=CARTESIAN_POINT('Origin',(-80.9,-40.1499999999999,291.25));
#498=CARTESIAN_POINT('',(-81.,-40.1499999999999,291.25));
#499=CARTESIAN_POINT('',(-81.,-40.1499999999999,294.625));
#500=CARTESIAN_POINT('',(-80.9,-40.1499999999999,291.25));
#501=CARTESIAN_POINT('Origin',(-80.9,-65.1499999999999,291.25));
#502=CARTESIAN_POINT('',(-81.,-58.8999999999999,291.25));
#503=CARTESIAN_POINT('Origin',(-81.,-52.6499999999999,298.));
#504=UNCERTAINTY_MEASURE_WITH_UNIT(LENGTH_MEASURE(0.01),#508,
'DISTANCE_ACCURACY_VALUE',
'Maximum model space distance between geometric entities at asserted c
onnectivities');
#505=UNCERTAINTY_MEASURE_WITH_UNIT(LENGTH_MEASURE(0.01),#508,
'DISTANCE_ACCURACY_VALUE',
'Maximum model space distance between geometric entities at asserted c
onnectivities');
#506=(
GEOMETRIC_REPRESENTATION_CONTEXT(3)
GLOBAL_UNCERTAINTY_ASSIGNED_CONTEXT((#504))
GLOBAL_UNIT_ASSIGNED_CONTEXT((#508,#510,#511))
REPRESENTATION_CONTEXT('','3D')
);
#507=(
GEOMETRIC_REPRESENTATION_CONTEXT(3)
GLOBAL_UNCERTAINTY_ASSIGNED_CONTEXT((#505))
GLOBAL_UNIT_ASSIGNED_CONTEXT((#508,#510,#511))
REPRESENTATION_CONTEXT('','3D')
);
#508=(
LENGTH_UNIT()
NAMED_UNIT(*)
SI_UNIT(.MILLI.,.METRE.)
);
#509=(
LENGTH_UNIT()
NAMED_UNIT(*)
SI_UNIT($,.METRE.)
);
#510=(
NAMED_UNIT(*)
PLANE_ANGLE_UNIT()
SI_UNIT($,.RADIAN.)
);
#511=(
NAMED_UNIT(*)
SI_UNIT($,.STERADIAN.)
SOLID_ANGLE_UNIT()
);
#512=SHAPE_DEFINITION_REPRESENTATION(#513,#514);
#513=PRODUCT_DEFINITION_SHAPE('',$,#516);
#514=SHAPE_REPRESENTATION('',(#308),#506);
#515=PRODUCT_DEFINITION_CONTEXT('part definition',#520,'design');
#516=PRODUCT_DEFINITION('chamber_hinge_lock_front_right',
'chamber_hinge_lock_front_right',#517,#515);
#517=PRODUCT_DEFINITION_FORMATION('',$,#522);
#518=PRODUCT_RELATED_PRODUCT_CATEGORY('chamber_hinge_lock_front_right',
'chamber_hinge_lock_front_right',(#522));
#519=APPLICATION_PROTOCOL_DEFINITION('international standard',
'automotive_design',2009,#520);
#520=APPLICATION_CONTEXT(
'Core Data for Automotive Mechanical Design Process');
#521=PRODUCT_CONTEXT('part definition',#520,'mechanical');
#522=PRODUCT('chamber_hinge_lock_front_right',
'chamber_hinge_lock_front_right',$,(#521));
#523=PRESENTATION_STYLE_ASSIGNMENT((#525));
#524=PRESENTATION_STYLE_ASSIGNMENT((#526));
#525=SURFACE_STYLE_USAGE(.BOTH.,#527);
#526=SURFACE_STYLE_USAGE(.BOTH.,#528);
#527=SURFACE_SIDE_STYLE('',(#529));
#528=SURFACE_SIDE_STYLE('',(#530));
#529=SURFACE_STYLE_FILL_AREA(#531);
#530=SURFACE_STYLE_FILL_AREA(#532);
#531=FILL_AREA_STYLE('Steel - Satin',(#533));
#532=FILL_AREA_STYLE('Nylon 12 (with Formlabs Fuse 1 3D Printer)',(#534));
#533=FILL_AREA_STYLE_COLOUR('Steel - Satin',#535);
#534=FILL_AREA_STYLE_COLOUR(
'Nylon 12 (with Formlabs Fuse 1 3D Printer)',#536);
#535=COLOUR_RGB('Steel - Satin',0.627450980392157,0.627450980392157,0.627450980392157);
#536=COLOUR_RGB('Nylon 12 (with Formlabs Fuse 1 3D Printer)',0.247058823529412,
0.247058823529412,0.247058823529412);
ENDSEC;
END-ISO-10303-21;
