ISO-10303-21;
HEADER;
/* Generated by software containing ST-Developer
 * from STEP Tools, Inc. (www.steptools.com) 
 */

FILE_DESCRIPTION(
/* description */ (''),
/* implementation_level */ '2;1');

FILE_NAME(
/* name */ 'spacer_left_lower.step',
/* time_stamp */ '2025-09-03T11:15:53+02:00',
/* author */ (''),
/* organization */ (''),
/* preprocessor_version */ 'ST-DEVELOPER v20.1',
/* originating_system */ 'Autodesk Translation Framework v14.10.0.0',
/* authorisation */ '');

FILE_SCHEMA (('AUTOMOTIVE_DESIGN { 1 0 10303 214 3 1 1 }'));
ENDSEC;

DATA;
#10=MECHANICAL_DESIGN_GEOMETRIC_PRESENTATION_REPRESENTATION('',(#13),#300);
#11=SHAPE_REPRESENTATION_RELATIONSHIP('SRR','None',#307,#12);
#12=ADVANCED_BREP_SHAPE_REPRESENTATION('',(#14),#299);
#13=STYLED_ITEM('',(#317),#14);
#14=MANIFOLD_SOLID_BREP('spacer_left_lower',#176);
#15=FACE_BOUND('',#40,.T.);
#16=FACE_BOUND('',#41,.T.);
#17=FACE_BOUND('',#42,.T.);
#18=FACE_BOUND('',#45,.T.);
#19=FACE_BOUND('',#46,.T.);
#20=FACE_BOUND('',#47,.T.);
#21=PLANE('',#199);
#22=PLANE('',#200);
#23=PLANE('',#201);
#24=PLANE('',#202);
#25=PLANE('',#203);
#26=PLANE('',#204);
#27=FACE_OUTER_BOUND('',#36,.T.);
#28=FACE_OUTER_BOUND('',#37,.T.);
#29=FACE_OUTER_BOUND('',#38,.T.);
#30=FACE_OUTER_BOUND('',#39,.T.);
#31=FACE_OUTER_BOUND('',#43,.T.);
#32=FACE_OUTER_BOUND('',#44,.T.);
#33=FACE_OUTER_BOUND('',#48,.T.);
#34=FACE_OUTER_BOUND('',#49,.T.);
#35=FACE_OUTER_BOUND('',#50,.T.);
#36=EDGE_LOOP('',(#122,#123,#124,#125));
#37=EDGE_LOOP('',(#126,#127,#128,#129));
#38=EDGE_LOOP('',(#130,#131,#132,#133));
#39=EDGE_LOOP('',(#134,#135,#136,#137));
#40=EDGE_LOOP('',(#138));
#41=EDGE_LOOP('',(#139));
#42=EDGE_LOOP('',(#140));
#43=EDGE_LOOP('',(#141,#142,#143,#144));
#44=EDGE_LOOP('',(#145,#146,#147,#148));
#45=EDGE_LOOP('',(#149));
#46=EDGE_LOOP('',(#150));
#47=EDGE_LOOP('',(#151));
#48=EDGE_LOOP('',(#152,#153,#154,#155));
#49=EDGE_LOOP('',(#156,#157,#158,#159));
#50=EDGE_LOOP('',(#160,#161,#162,#163));
#51=LINE('',#257,#66);
#52=LINE('',#263,#67);
#53=LINE('',#269,#68);
#54=LINE('',#274,#69);
#55=LINE('',#276,#70);
#56=LINE('',#278,#71);
#57=LINE('',#279,#72);
#58=LINE('',#282,#73);
#59=LINE('',#284,#74);
#60=LINE('',#285,#75);
#61=LINE('',#288,#76);
#62=LINE('',#290,#77);
#63=LINE('',#291,#78);
#64=LINE('',#293,#79);
#65=LINE('',#294,#80);
#66=VECTOR('',#211,1.25);
#67=VECTOR('',#218,1.25);
#68=VECTOR('',#225,1.25);
#69=VECTOR('',#230,10.);
#70=VECTOR('',#231,10.);
#71=VECTOR('',#232,10.);
#72=VECTOR('',#233,10.);
#73=VECTOR('',#236,10.);
#74=VECTOR('',#237,10.);
#75=VECTOR('',#238,10.);
#76=VECTOR('',#241,10.);
#77=VECTOR('',#242,10.);
#78=VECTOR('',#243,10.);
#79=VECTOR('',#246,10.);
#80=VECTOR('',#247,10.);
#81=CIRCLE('',#191,1.03775);
#82=CIRCLE('',#192,1.03775);
#83=CIRCLE('',#194,1.03775);
#84=CIRCLE('',#195,1.03775);
#85=CIRCLE('',#197,1.03775);
#86=CIRCLE('',#198,1.03775);
#87=VERTEX_POINT('',#254);
#88=VERTEX_POINT('',#256);
#89=VERTEX_POINT('',#260);
#90=VERTEX_POINT('',#262);
#91=VERTEX_POINT('',#266);
#92=VERTEX_POINT('',#268);
#93=VERTEX_POINT('',#272);
#94=VERTEX_POINT('',#273);
#95=VERTEX_POINT('',#275);
#96=VERTEX_POINT('',#277);
#97=VERTEX_POINT('',#281);
#98=VERTEX_POINT('',#283);
#99=VERTEX_POINT('',#287);
#100=VERTEX_POINT('',#289);
#101=EDGE_CURVE('',#87,#87,#81,.T.);
#102=EDGE_CURVE('',#87,#88,#51,.T.);
#103=EDGE_CURVE('',#88,#88,#82,.T.);
#104=EDGE_CURVE('',#89,#89,#83,.T.);
#105=EDGE_CURVE('',#89,#90,#52,.T.);
#106=EDGE_CURVE('',#90,#90,#84,.T.);
#107=EDGE_CURVE('',#91,#91,#85,.T.);
#108=EDGE_CURVE('',#91,#92,#53,.T.);
#109=EDGE_CURVE('',#92,#92,#86,.T.);
#110=EDGE_CURVE('',#93,#94,#54,.F.);
#111=EDGE_CURVE('',#93,#95,#55,.T.);
#112=EDGE_CURVE('',#95,#96,#56,.F.);
#113=EDGE_CURVE('',#94,#96,#57,.T.);
#114=EDGE_CURVE('',#93,#97,#58,.T.);
#115=EDGE_CURVE('',#97,#98,#59,.T.);
#116=EDGE_CURVE('',#98,#95,#60,.F.);
#117=EDGE_CURVE('',#99,#97,#61,.F.);
#118=EDGE_CURVE('',#99,#100,#62,.T.);
#119=EDGE_CURVE('',#100,#98,#63,.F.);
#120=EDGE_CURVE('',#94,#99,#64,.F.);
#121=EDGE_CURVE('',#96,#100,#65,.F.);
#122=ORIENTED_EDGE('',*,*,#101,.F.);
#123=ORIENTED_EDGE('',*,*,#102,.T.);
#124=ORIENTED_EDGE('',*,*,#103,.F.);
#125=ORIENTED_EDGE('',*,*,#102,.F.);
#126=ORIENTED_EDGE('',*,*,#104,.F.);
#127=ORIENTED_EDGE('',*,*,#105,.T.);
#128=ORIENTED_EDGE('',*,*,#106,.F.);
#129=ORIENTED_EDGE('',*,*,#105,.F.);
#130=ORIENTED_EDGE('',*,*,#107,.F.);
#131=ORIENTED_EDGE('',*,*,#108,.T.);
#132=ORIENTED_EDGE('',*,*,#109,.F.);
#133=ORIENTED_EDGE('',*,*,#108,.F.);
#134=ORIENTED_EDGE('',*,*,#110,.F.);
#135=ORIENTED_EDGE('',*,*,#111,.T.);
#136=ORIENTED_EDGE('',*,*,#112,.T.);
#137=ORIENTED_EDGE('',*,*,#113,.F.);
#138=ORIENTED_EDGE('',*,*,#103,.T.);
#139=ORIENTED_EDGE('',*,*,#106,.T.);
#140=ORIENTED_EDGE('',*,*,#109,.T.);
#141=ORIENTED_EDGE('',*,*,#114,.T.);
#142=ORIENTED_EDGE('',*,*,#115,.T.);
#143=ORIENTED_EDGE('',*,*,#116,.T.);
#144=ORIENTED_EDGE('',*,*,#111,.F.);
#145=ORIENTED_EDGE('',*,*,#117,.F.);
#146=ORIENTED_EDGE('',*,*,#118,.T.);
#147=ORIENTED_EDGE('',*,*,#119,.T.);
#148=ORIENTED_EDGE('',*,*,#115,.F.);
#149=ORIENTED_EDGE('',*,*,#101,.T.);
#150=ORIENTED_EDGE('',*,*,#104,.T.);
#151=ORIENTED_EDGE('',*,*,#107,.T.);
#152=ORIENTED_EDGE('',*,*,#120,.F.);
#153=ORIENTED_EDGE('',*,*,#113,.T.);
#154=ORIENTED_EDGE('',*,*,#121,.T.);
#155=ORIENTED_EDGE('',*,*,#118,.F.);
#156=ORIENTED_EDGE('',*,*,#121,.F.);
#157=ORIENTED_EDGE('',*,*,#112,.F.);
#158=ORIENTED_EDGE('',*,*,#116,.F.);
#159=ORIENTED_EDGE('',*,*,#119,.F.);
#160=ORIENTED_EDGE('',*,*,#120,.T.);
#161=ORIENTED_EDGE('',*,*,#117,.T.);
#162=ORIENTED_EDGE('',*,*,#114,.F.);
#163=ORIENTED_EDGE('',*,*,#110,.T.);
#164=CYLINDRICAL_SURFACE('',#190,1.03775);
#165=CYLINDRICAL_SURFACE('',#193,1.03775);
#166=CYLINDRICAL_SURFACE('',#196,1.03775);
#167=ADVANCED_FACE('',(#27),#164,.F.);
#168=ADVANCED_FACE('',(#28),#165,.F.);
#169=ADVANCED_FACE('',(#29),#166,.F.);
#170=ADVANCED_FACE('',(#30,#15,#16,#17),#21,.F.);
#171=ADVANCED_FACE('',(#31),#22,.F.);
#172=ADVANCED_FACE('',(#32,#18,#19,#20),#23,.F.);
#173=ADVANCED_FACE('',(#33),#24,.F.);
#174=ADVANCED_FACE('',(#34),#25,.F.);
#175=ADVANCED_FACE('',(#35),#26,.T.);
#176=CLOSED_SHELL('',(#167,#168,#169,#170,#171,#172,#173,#174,#175));
#177=DERIVED_UNIT_ELEMENT(#179,1.);
#178=DERIVED_UNIT_ELEMENT(#302,-3.);
#179=(
MASS_UNIT()
NAMED_UNIT(*)
SI_UNIT(.KILO.,.GRAM.)
);
#180=DERIVED_UNIT((#177,#178));
#181=MEASURE_REPRESENTATION_ITEM('density measure',
POSITIVE_RATIO_MEASURE(7850.),#180);
#182=PROPERTY_DEFINITION_REPRESENTATION(#187,#184);
#183=PROPERTY_DEFINITION_REPRESENTATION(#188,#185);
#184=REPRESENTATION('material name',(#186),#299);
#185=REPRESENTATION('density',(#181),#299);
#186=DESCRIPTIVE_REPRESENTATION_ITEM('Steel','Steel');
#187=PROPERTY_DEFINITION('material property','material name',#309);
#188=PROPERTY_DEFINITION('material property','density of part',#309);
#189=AXIS2_PLACEMENT_3D('',#252,#205,#206);
#190=AXIS2_PLACEMENT_3D('',#253,#207,#208);
#191=AXIS2_PLACEMENT_3D('',#255,#209,#210);
#192=AXIS2_PLACEMENT_3D('',#258,#212,#213);
#193=AXIS2_PLACEMENT_3D('',#259,#214,#215);
#194=AXIS2_PLACEMENT_3D('',#261,#216,#217);
#195=AXIS2_PLACEMENT_3D('',#264,#219,#220);
#196=AXIS2_PLACEMENT_3D('',#265,#221,#222);
#197=AXIS2_PLACEMENT_3D('',#267,#223,#224);
#198=AXIS2_PLACEMENT_3D('',#270,#226,#227);
#199=AXIS2_PLACEMENT_3D('',#271,#228,#229);
#200=AXIS2_PLACEMENT_3D('',#280,#234,#235);
#201=AXIS2_PLACEMENT_3D('',#286,#239,#240);
#202=AXIS2_PLACEMENT_3D('',#292,#244,#245);
#203=AXIS2_PLACEMENT_3D('',#295,#248,#249);
#204=AXIS2_PLACEMENT_3D('',#296,#250,#251);
#205=DIRECTION('axis',(0.,0.,1.));
#206=DIRECTION('refdir',(1.,0.,0.));
#207=DIRECTION('center_axis',(0.,0.,1.));
#208=DIRECTION('ref_axis',(-1.,0.,0.));
#209=DIRECTION('center_axis',(0.,0.,1.));
#210=DIRECTION('ref_axis',(-1.,0.,0.));
#211=DIRECTION('',(0.,0.,1.));
#212=DIRECTION('center_axis',(0.,0.,-1.));
#213=DIRECTION('ref_axis',(-1.,0.,0.));
#214=DIRECTION('center_axis',(0.,0.,1.));
#215=DIRECTION('ref_axis',(-1.,0.,0.));
#216=DIRECTION('center_axis',(0.,0.,1.));
#217=DIRECTION('ref_axis',(-1.,0.,0.));
#218=DIRECTION('',(0.,0.,1.));
#219=DIRECTION('center_axis',(0.,0.,-1.));
#220=DIRECTION('ref_axis',(-1.,0.,0.));
#221=DIRECTION('center_axis',(0.,0.,1.));
#222=DIRECTION('ref_axis',(-1.,0.,0.));
#223=DIRECTION('center_axis',(0.,0.,1.));
#224=DIRECTION('ref_axis',(-1.,0.,0.));
#225=DIRECTION('',(0.,0.,1.));
#226=DIRECTION('center_axis',(0.,0.,-1.));
#227=DIRECTION('ref_axis',(-1.,0.,0.));
#228=DIRECTION('center_axis',(0.,0.,-1.));
#229=DIRECTION('ref_axis',(0.,-1.,0.));
#230=DIRECTION('',(0.,1.,0.));
#231=DIRECTION('',(-1.,0.,0.));
#232=DIRECTION('',(0.,1.,0.));
#233=DIRECTION('',(-1.,0.,0.));
#234=DIRECTION('center_axis',(0.,-1.,0.));
#235=DIRECTION('ref_axis',(5.95228781030313E-113,0.,1.));
#236=DIRECTION('',(2.3373116307898E-17,0.,-1.));
#237=DIRECTION('',(-1.,0.,0.));
#238=DIRECTION('',(0.,0.,-1.));
#239=DIRECTION('center_axis',(0.,0.,1.));
#240=DIRECTION('ref_axis',(0.,1.,0.));
#241=DIRECTION('',(0.,-1.,0.));
#242=DIRECTION('',(-1.,0.,0.));
#243=DIRECTION('',(0.,-1.,0.));
#244=DIRECTION('center_axis',(0.,1.,0.));
#245=DIRECTION('ref_axis',(2.3373116307898E-17,0.,-1.));
#246=DIRECTION('',(-2.3373116307898E-17,0.,1.));
#247=DIRECTION('',(0.,0.,1.));
#248=DIRECTION('center_axis',(1.,0.,0.));
#249=DIRECTION('ref_axis',(0.,0.,1.));
#250=DIRECTION('center_axis',(1.,0.,2.3373116307898E-17));
#251=DIRECTION('ref_axis',(0.,1.,0.));
#252=CARTESIAN_POINT('',(0.,0.,0.));
#253=CARTESIAN_POINT('Origin',(-65.0000000000001,116.6,305.));
#254=CARTESIAN_POINT('',(-63.9622500000001,116.6,-83.37));
#255=CARTESIAN_POINT('Origin',(-65.0000000000001,116.6,-83.37));
#256=CARTESIAN_POINT('',(-63.9622500000001,116.6,-73.37));
#257=CARTESIAN_POINT('',(-63.9622500000001,116.6,305.));
#258=CARTESIAN_POINT('Origin',(-65.0000000000001,116.6,-73.37));
#259=CARTESIAN_POINT('Origin',(-8.18782079174222E-14,116.6,305.));
#260=CARTESIAN_POINT('',(1.03774999999992,116.6,-83.37));
#261=CARTESIAN_POINT('Origin',(-8.18782079174222E-14,116.6,-83.37));
#262=CARTESIAN_POINT('',(1.03774999999992,116.6,-73.37));
#263=CARTESIAN_POINT('',(1.03774999999992,116.6,305.));
#264=CARTESIAN_POINT('Origin',(-8.18782079174222E-14,116.6,-73.37));
#265=CARTESIAN_POINT('Origin',(64.9999999999999,116.6,305.));
#266=CARTESIAN_POINT('',(66.0377499999999,116.6,-83.37));
#267=CARTESIAN_POINT('Origin',(64.9999999999999,116.6,-83.37));
#268=CARTESIAN_POINT('',(66.0377499999999,116.6,-73.37));
#269=CARTESIAN_POINT('',(66.0377499999999,116.6,305.));
#270=CARTESIAN_POINT('Origin',(64.9999999999999,116.6,-73.37));
#271=CARTESIAN_POINT('Origin',(75.,124.1,-73.37));
#272=CARTESIAN_POINT('',(74.95,124.1,-73.37));
#273=CARTESIAN_POINT('',(74.95,100.,-73.37));
#274=CARTESIAN_POINT('',(74.95,118.075,-73.37));
#275=CARTESIAN_POINT('',(-74.95,124.1,-73.37));
#276=CARTESIAN_POINT('',(75.,124.1,-73.37));
#277=CARTESIAN_POINT('',(-74.95,100.,-73.37));
#278=CARTESIAN_POINT('',(-74.95,118.075,-73.37));
#279=CARTESIAN_POINT('',(75.,100.,-73.37));
#280=CARTESIAN_POINT('Origin',(75.,124.1,-83.37));
#281=CARTESIAN_POINT('',(74.95,124.1,-83.37));
#282=CARTESIAN_POINT('',(74.95,124.1,-80.87));
#283=CARTESIAN_POINT('',(-74.95,124.1,-83.37));
#284=CARTESIAN_POINT('',(75.,124.1,-83.37));
#285=CARTESIAN_POINT('',(-74.95,124.1,-80.87));
#286=CARTESIAN_POINT('Origin',(75.,100.,-83.37));
#287=CARTESIAN_POINT('',(74.95,100.,-83.37));
#288=CARTESIAN_POINT('',(74.95,106.025,-83.37));
#289=CARTESIAN_POINT('',(-74.95,100.,-83.37));
#290=CARTESIAN_POINT('',(75.,100.,-83.37));
#291=CARTESIAN_POINT('',(-74.95,106.025,-83.37));
#292=CARTESIAN_POINT('Origin',(75.,100.,-73.37));
#293=CARTESIAN_POINT('',(74.95,100.,-75.87));
#294=CARTESIAN_POINT('',(-74.95,100.,-75.87));
#295=CARTESIAN_POINT('Origin',(-74.95,112.05,-78.37));
#296=CARTESIAN_POINT('Origin',(74.95,112.05,-78.37));
#297=UNCERTAINTY_MEASURE_WITH_UNIT(LENGTH_MEASURE(0.01),#301,
'DISTANCE_ACCURACY_VALUE',
'Maximum model space distance between geometric entities at asserted c
onnectivities');
#298=UNCERTAINTY_MEASURE_WITH_UNIT(LENGTH_MEASURE(0.01),#301,
'DISTANCE_ACCURACY_VALUE',
'Maximum model space distance between geometric entities at asserted c
onnectivities');
#299=(
GEOMETRIC_REPRESENTATION_CONTEXT(3)
GLOBAL_UNCERTAINTY_ASSIGNED_CONTEXT((#297))
GLOBAL_UNIT_ASSIGNED_CONTEXT((#301,#303,#304))
REPRESENTATION_CONTEXT('','3D')
);
#300=(
GEOMETRIC_REPRESENTATION_CONTEXT(3)
GLOBAL_UNCERTAINTY_ASSIGNED_CONTEXT((#298))
GLOBAL_UNIT_ASSIGNED_CONTEXT((#301,#303,#304))
REPRESENTATION_CONTEXT('','3D')
);
#301=(
LENGTH_UNIT()
NAMED_UNIT(*)
SI_UNIT(.MILLI.,.METRE.)
);
#302=(
LENGTH_UNIT()
NAMED_UNIT(*)
SI_UNIT($,.METRE.)
);
#303=(
NAMED_UNIT(*)
PLANE_ANGLE_UNIT()
SI_UNIT($,.RADIAN.)
);
#304=(
NAMED_UNIT(*)
SI_UNIT($,.STERADIAN.)
SOLID_ANGLE_UNIT()
);
#305=SHAPE_DEFINITION_REPRESENTATION(#306,#307);
#306=PRODUCT_DEFINITION_SHAPE('',$,#309);
#307=SHAPE_REPRESENTATION('',(#189),#299);
#308=PRODUCT_DEFINITION_CONTEXT('part definition',#313,'design');
#309=PRODUCT_DEFINITION('spacer_left_lower','spacer_left_lower',#310,#308);
#310=PRODUCT_DEFINITION_FORMATION('',$,#315);
#311=PRODUCT_RELATED_PRODUCT_CATEGORY('spacer_left_lower',
'spacer_left_lower',(#315));
#312=APPLICATION_PROTOCOL_DEFINITION('international standard',
'automotive_design',2009,#313);
#313=APPLICATION_CONTEXT(
'Core Data for Automotive Mechanical Design Process');
#314=PRODUCT_CONTEXT('part definition',#313,'mechanical');
#315=PRODUCT('spacer_left_lower','spacer_left_lower',$,(#314));
#316=PRESENTATION_STYLE_ASSIGNMENT((#318));
#317=PRESENTATION_STYLE_ASSIGNMENT((#319));
#318=SURFACE_STYLE_USAGE(.BOTH.,#320);
#319=SURFACE_STYLE_USAGE(.BOTH.,#321);
#320=SURFACE_SIDE_STYLE('',(#322));
#321=SURFACE_SIDE_STYLE('',(#323));
#322=SURFACE_STYLE_FILL_AREA(#324);
#323=SURFACE_STYLE_FILL_AREA(#325);
#324=FILL_AREA_STYLE('Steel - Satin',(#326));
#325=FILL_AREA_STYLE('Nylon 12 (with Formlabs Fuse 1 3D Printer)',(#327));
#326=FILL_AREA_STYLE_COLOUR('Steel - Satin',#328);
#327=FILL_AREA_STYLE_COLOUR(
'Nylon 12 (with Formlabs Fuse 1 3D Printer)',#329);
#328=COLOUR_RGB('Steel - Satin',0.627450980392157,0.627450980392157,0.627450980392157);
#329=COLOUR_RGB('Nylon 12 (with Formlabs Fuse 1 3D Printer)',0.247058823529412,
0.247058823529412,0.247058823529412);
ENDSEC;
END-ISO-10303-21;
