0
SECTION
2
HEADER
9
$INSUNITS
70
4
9
$ACADVER
1
AC1014
9
$HANDSEED
5
FFFF
0
ENDSEC
0
SECTION
2
TABLES
0
TABLE
2
VPORT
5
8
100
AcDbSymbolTable
0
ENDTAB
0
TABLE
2
LTYPE
5
5
100
AcDbSymbolTable
0
LTYPE
5
14
100
AcDbSymbolTableRecord
100
AcDbLinetypeTableRecord
2
BYBLOCK
70
0
0
LTYPE
5
15
100
AcDbSymbolTableRecord
100
AcDbLinetypeTableRecord
2
BYLAYER
70
0
0
ENDTAB
0
TABLE
2
LAYER
5
2
100
AcDbSymbolTable
70
2
0
LAYER
5
50
100
AcDbSymbolTableRecord
100
AcDbLayerTableRecord
2
0
70
0
6
CONTINUOUS
0
ENDTAB
0
TABLE
2
STYLE
5
3
100
AcDbSymbolTable
70
1
0
STYLE
5
11
100
AcDbSymbolTableRecord
100
AcDbTextStyleTableRecord
2
STANDARD
70
0
0
ENDTAB
0
TABLE
2
VIEW
5
6
100
AcDbSymbolTable
70
0
0
ENDTAB
0
TABLE
2
UCS
5
7
100
AcDbSymbolTable
70
0
0
ENDTAB
0
TABLE
2
APPID
5
9
100
AcDbSymbolTable
70
2
0
APPID
5
12
100
AcDbSymbolTableRecord
100
AcDbRegAppTableRecord
2
ACAD
70
0
0
ENDTAB
0
TABLE
2
DIMSTYLE
5
A
100
AcDbSymbolTable
70
1
0
ENDTAB
0
TABLE
2
BLOCK_RECORD
5
1
100
AcDbSymbolTable
70
1
0
BLOCK_RECORD
5
1F
100
AcDbSymbolTableRecord
100
AcDbBlockTableRecord
2
*MODEL_SPACE
0
BLOCK_RECORD
5
1B
100
AcDbSymbolTableRecord
100
AcDbBlockTableRecord
2
*PAPER_SPACE
0
ENDTAB
0
ENDSEC
0
SECTION
2
BLOCKS
0
BLOCK
5
20
100
AcDbEntity
100
AcDbBlockBegin
2
*MODEL_SPACE
0
ENDBLK
5
21
100
AcDbEntity
100
AcDbBlockEnd
0
BLOCK
5
1C
100
AcDbEntity
100
AcDbBlockBegin
2
*PAPER_SPACE
0
ENDBLK
5
1D
100
AcDbEntity
100
AcDbBlockEnd
0
ENDSEC
0
SECTION
2
ENTITIES
0
LINE
5
100
100
AcDbEntity
8
0
100
AcDbLine
10
5.6315835777777776
20
-5.6315835777777776
30
0
11
16.15790802222222
21
-5.6315835777777776
31
0
0
LINE
5
101
100
AcDbEntity
8
0
100
AcDbLine
10
16.15790802222222
20
-5.6315835777777776
30
0
11
16.157908022222223
21
-9.842113355555556
31
0
0
LINE
5
102
100
AcDbEntity
8
0
100
AcDbLine
10
16.157908022222223
20
-9.842113355555556
30
0
11
26.684232466666664
21
-9.842113355555556
31
0
0
LINE
5
103
100
AcDbEntity
8
0
100
AcDbLine
10
26.684232466666664
20
-9.842113355555556
30
0
11
26.684232466666664
21
-5.6315835777777776
31
0
0
LINE
5
104
100
AcDbEntity
8
0
100
AcDbLine
10
26.684232466666664
20
-5.6315835777777776
30
0
11
35.105292022222223
21
-5.6315835777777776
31
0
0
LINE
5
105
100
AcDbEntity
8
0
100
AcDbLine
10
35.105292022222223
20
-5.6315835777777776
30
0
11
35.105292022222223
21
-9.842113355555556
31
0
0
LINE
5
106
100
AcDbEntity
8
0
100
AcDbLine
10
35.105292022222223
20
-9.842113355555556
30
0
11
43.526351577777774
21
-9.842113355555556
31
0
0
LINE
5
107
100
AcDbEntity
8
0
100
AcDbLine
10
43.526351577777774
20
-9.842113355555556
30
0
11
43.526351577777774
21
-5.6315835777777776
31
0
0
LINE
5
108
100
AcDbEntity
8
0
100
AcDbLine
10
43.526351577777774
20
-5.6315835777777776
30
0
11
51.947411133333347
21
-5.6315835777777776
31
0
0
LINE
5
109
100
AcDbEntity
8
0
100
AcDbLine
10
51.947411133333347
20
-5.6315835777777776
30
0
11
51.947411133333333
21
-9.842113355555556
31
0
0
LINE
5
110
100
AcDbEntity
8
0
100
AcDbLine
10
51.947411133333333
20
-9.842113355555556
30
0
11
60.368470688888891
21
-9.842113355555556
31
0
0
LINE
5
111
100
AcDbEntity
8
0
100
AcDbLine
10
60.368470688888891
20
-9.842113355555556
30
0
11
60.368470688888891
21
-5.6315835777777776
31
0
0
LINE
5
112
100
AcDbEntity
8
0
100
AcDbLine
10
60.368470688888891
20
-5.6315835777777776
30
0
11
68.789530244444435
21
-5.6315835777777776
31
0
0
LINE
5
113
100
AcDbEntity
8
0
100
AcDbLine
10
68.789530244444435
20
-5.6315835777777776
30
0
11
68.789530244444435
21
-9.842113355555556
31
0
0
LINE
5
114
100
AcDbEntity
8
0
100
AcDbLine
10
68.789530244444435
20
-9.842113355555556
30
0
11
77.210589800000008
21
-9.842113355555556
31
0
0
LINE
5
115
100
AcDbEntity
8
0
100
AcDbLine
10
77.210589800000008
20
-9.842113355555556
30
0
11
77.210589800000008
21
-5.6315835777777776
31
0
0
LINE
5
116
100
AcDbEntity
8
0
100
AcDbLine
10
77.210589800000008
20
-5.6315835777777776
30
0
11
85.631649355555567
21
-5.6315835777777776
31
0
0
LINE
5
117
100
AcDbEntity
8
0
100
AcDbLine
10
85.631649355555567
20
-5.6315835777777776
30
0
11
85.631649355555567
21
-9.842113355555556
31
0
0
LINE
5
118
100
AcDbEntity
8
0
100
AcDbLine
10
85.631649355555567
20
-9.842113355555556
30
0
11
94.052708911111125
21
-9.842113355555556
31
0
0
LINE
5
119
100
AcDbEntity
8
0
100
AcDbLine
10
94.052708911111125
20
-9.842113355555556
30
0
11
94.052708911111125
21
-5.6315835777777776
31
0
0
LINE
5
120
100
AcDbEntity
8
0
100
AcDbLine
10
94.052708911111125
20
-5.6315835777777776
30
0
11
102.47376846666667
21
-5.6315835777777776
31
0
0
LINE
5
121
100
AcDbEntity
8
0
100
AcDbLine
10
102.47376846666667
20
-5.6315835777777776
30
0
11
102.47376846666667
21
-9.842113355555556
31
0
0
LINE
5
122
100
AcDbEntity
8
0
100
AcDbLine
10
102.47376846666667
20
-9.842113355555556
30
0
11
110.89482802222221
21
-9.842113355555556
31
0
0
LINE
5
123
100
AcDbEntity
8
0
100
AcDbLine
10
110.89482802222221
20
-9.842113355555556
30
0
11
110.89482802222221
21
-5.6315835777777776
31
0
0
LINE
5
124
100
AcDbEntity
8
0
100
AcDbLine
10
110.89482802222221
20
-5.6315835777777776
30
0
11
119.31588757777777
21
-5.6315835777777776
31
0
0
LINE
5
125
100
AcDbEntity
8
0
100
AcDbLine
10
119.31588757777777
20
-5.6315835777777776
30
0
11
119.3158875777778
21
-9.842113355555556
31
0
0
LINE
5
126
100
AcDbEntity
8
0
100
AcDbLine
10
119.3158875777778
20
-9.842113355555556
30
0
11
127.73694713333335
21
-9.842113355555556
31
0
0
LINE
5
127
100
AcDbEntity
8
0
100
AcDbLine
10
127.73694713333335
20
-9.842113355555556
30
0
11
127.73694713333335
21
-5.6315835777777776
31
0
0
LINE
5
128
100
AcDbEntity
8
0
100
AcDbLine
10
127.73694713333335
20
-5.6315835777777776
30
0
11
136.15800668888889
21
-5.6315835777777776
31
0
0
LINE
5
129
100
AcDbEntity
8
0
100
AcDbLine
10
136.15800668888889
20
-5.6315835777777776
30
0
11
136.15800668888889
21
-9.842113355555556
31
0
0
LINE
5
130
100
AcDbEntity
8
0
100
AcDbLine
10
136.15800668888889
20
-9.842113355555556
30
0
11
144.57906624444445
21
-9.842113355555556
31
0
0
LINE
5
131
100
AcDbEntity
8
0
100
AcDbLine
10
144.57906624444445
20
-9.842113355555556
30
0
11
144.57906624444445
21
-5.6315835777777776
31
0
0
LINE
5
132
100
AcDbEntity
8
0
100
AcDbLine
10
144.57906624444445
20
-5.6315835777777776
30
0
11
153.00012580000001
21
-5.6315835777777776
31
0
0
LINE
5
133
100
AcDbEntity
8
0
100
AcDbLine
10
153.00012580000001
20
-5.6315835777777776
30
0
11
153.00012580000003
21
-9.842113355555556
31
0
0
LINE
5
134
100
AcDbEntity
8
0
100
AcDbLine
10
153.00012580000003
20
-9.842113355555556
30
0
11
163.52645024444445
21
-9.842113355555556
31
0
0
LINE
5
135
100
AcDbEntity
8
0
100
AcDbLine
10
163.52645024444445
20
-9.842113355555556
30
0
11
163.52645024444445
21
-5.6315835777777776
31
0
0
LINE
5
136
100
AcDbEntity
8
0
100
AcDbLine
10
163.52645024444445
20
-5.6315835777777776
30
0
11
174.05277468888892
21
-5.6315835777777776
31
0
0
LINE
5
137
100
AcDbEntity
8
0
100
AcDbLine
10
174.05277468888892
20
-5.6315835777777776
30
0
11
174.05277468888892
21
-19.842121577777778
31
0
0
LINE
5
138
100
AcDbEntity
8
0
100
AcDbLine
10
174.05277468888892
20
-19.842121577777778
30
0
11
169.84224491111115
21
-19.842121577777782
31
0
0
LINE
5
139
100
AcDbEntity
8
0
100
AcDbLine
10
169.84224491111115
20
-19.842121577777782
30
0
11
169.84224491111115
21
-34.052659577777781
31
0
0
LINE
5
140
100
AcDbEntity
8
0
100
AcDbLine
10
169.84224491111115
20
-34.052659577777781
30
0
11
174.05277468888892
21
-34.052659577777781
31
0
0
LINE
5
141
100
AcDbEntity
8
0
100
AcDbLine
10
174.05277468888892
20
-34.052659577777781
30
0
11
174.05277468888892
21
-42.473719133333333
31
0
0
LINE
5
142
100
AcDbEntity
8
0
100
AcDbLine
10
174.05277468888892
20
-42.473719133333333
30
0
11
169.84224491111115
21
-42.473719133333333
31
0
0
LINE
5
143
100
AcDbEntity
8
0
100
AcDbLine
10
169.84224491111115
20
-42.473719133333333
30
0
11
169.84224491111115
21
-50.894778688888884
31
0
0
LINE
5
144
100
AcDbEntity
8
0
100
AcDbLine
10
169.84224491111115
20
-50.894778688888884
30
0
11
174.05277468888892
21
-50.894778688888884
31
0
0
LINE
5
145
100
AcDbEntity
8
0
100
AcDbLine
10
174.05277468888892
20
-50.894778688888884
30
0
11
174.05277468888892
21
-59.31583824444445
31
0
0
LINE
5
146
100
AcDbEntity
8
0
100
AcDbLine
10
174.05277468888892
20
-59.31583824444445
30
0
11
169.84224491111115
21
-59.31583824444445
31
0
0
LINE
5
147
100
AcDbEntity
8
0
100
AcDbLine
10
169.84224491111115
20
-59.31583824444445
30
0
11
169.84224491111115
21
-67.736897800000008
31
0
0
LINE
5
148
100
AcDbEntity
8
0
100
AcDbLine
10
169.84224491111115
20
-67.736897800000008
30
0
11
174.05277468888892
21
-67.736897800000008
31
0
0
LINE
5
149
100
AcDbEntity
8
0
100
AcDbLine
10
174.05277468888892
20
-67.736897800000008
30
0
11
174.05277468888892
21
-76.157957355555567
31
0
0
LINE
5
150
100
AcDbEntity
8
0
100
AcDbLine
10
174.05277468888892
20
-76.157957355555567
30
0
11
169.84224491111115
21
-76.157957355555567
31
0
0
LINE
5
151
100
AcDbEntity
8
0
100
AcDbLine
10
169.84224491111115
20
-76.157957355555567
30
0
11
169.84224491111115
21
-84.579016911111111
31
0
0
LINE
5
152
100
AcDbEntity
8
0
100
AcDbLine
10
169.84224491111115
20
-84.579016911111111
30
0
11
174.05277468888892
21
-84.579016911111111
31
0
0
LINE
5
153
100
AcDbEntity
8
0
100
AcDbLine
10
174.05277468888892
20
-84.579016911111111
30
0
11
174.05277468888892
21
-93.000076466666684
31
0
0
LINE
5
154
100
AcDbEntity
8
0
100
AcDbLine
10
174.05277468888892
20
-93.000076466666684
30
0
11
169.84224491111115
21
-93.000076466666684
31
0
0
LINE
5
155
100
AcDbEntity
8
0
100
AcDbLine
10
169.84224491111115
20
-93.000076466666684
30
0
11
169.84224491111115
21
-107.21061446666667
31
0
0
LINE
5
156
100
AcDbEntity
8
0
100
AcDbLine
10
169.84224491111115
20
-107.21061446666667
30
0
11
174.05277468888892
21
-107.21061446666668
31
0
0
LINE
5
157
100
AcDbEntity
8
0
100
AcDbLine
10
174.05277468888892
20
-107.21061446666668
30
0
11
174.05277468888892
21
-121.42115246666668
31
0
0
LINE
5
158
100
AcDbEntity
8
0
100
AcDbLine
10
174.05277468888892
20
-121.42115246666668
30
0
11
163.52645024444445
21
-121.42115246666668
31
0
0
LINE
5
159
100
AcDbEntity
8
0
100
AcDbLine
10
163.52645024444445
20
-121.42115246666668
30
0
11
163.52645024444445
21
-117.21062268888889
31
0
0
LINE
5
160
100
AcDbEntity
8
0
100
AcDbLine
10
163.52645024444445
20
-117.21062268888889
30
0
11
153.00012580000003
21
-117.21062268888889
31
0
0
LINE
5
161
100
AcDbEntity
8
0
100
AcDbLine
10
153.00012580000003
20
-117.21062268888889
30
0
11
153.00012580000003
21
-121.42115246666668
31
0
0
LINE
5
162
100
AcDbEntity
8
0
100
AcDbLine
10
153.00012580000003
20
-121.42115246666668
30
0
11
144.57906624444448
21
-121.42115246666668
31
0
0
LINE
5
163
100
AcDbEntity
8
0
100
AcDbLine
10
144.57906624444448
20
-121.42115246666668
30
0
11
144.57906624444445
21
-117.21062268888889
31
0
0
LINE
5
164
100
AcDbEntity
8
0
100
AcDbLine
10
144.57906624444445
20
-117.21062268888889
30
0
11
136.15800668888889
21
-117.21062268888889
31
0
0
LINE
5
165
100
AcDbEntity
8
0
100
AcDbLine
10
136.15800668888889
20
-117.21062268888889
30
0
11
136.15800668888889
21
-121.42115246666668
31
0
0
LINE
5
166
100
AcDbEntity
8
0
100
AcDbLine
10
136.15800668888889
20
-121.42115246666668
30
0
11
127.73694713333335
21
-121.42115246666668
31
0
0
LINE
5
167
100
AcDbEntity
8
0
100
AcDbLine
10
127.73694713333335
20
-121.42115246666668
30
0
11
127.73694713333335
21
-117.21062268888889
31
0
0
LINE
5
168
100
AcDbEntity
8
0
100
AcDbLine
10
127.73694713333335
20
-117.21062268888889
30
0
11
119.3158875777778
21
-117.21062268888889
31
0
0
LINE
5
169
100
AcDbEntity
8
0
100
AcDbLine
10
119.3158875777778
20
-117.21062268888889
30
0
11
119.3158875777778
21
-121.42115246666668
31
0
0
LINE
5
170
100
AcDbEntity
8
0
100
AcDbLine
10
119.3158875777778
20
-121.42115246666668
30
0
11
110.89482802222223
21
-121.42115246666668
31
0
0
LINE
5
171
100
AcDbEntity
8
0
100
AcDbLine
10
110.89482802222223
20
-121.42115246666668
30
0
11
110.89482802222221
21
-117.21062268888889
31
0
0
LINE
5
172
100
AcDbEntity
8
0
100
AcDbLine
10
110.89482802222221
20
-117.21062268888889
30
0
11
102.47376846666667
21
-117.21062268888889
31
0
0
LINE
5
173
100
AcDbEntity
8
0
100
AcDbLine
10
102.47376846666667
20
-117.21062268888889
30
0
11
102.47376846666667
21
-121.42115246666668
31
0
0
LINE
5
174
100
AcDbEntity
8
0
100
AcDbLine
10
102.47376846666667
20
-121.42115246666668
30
0
11
94.052708911111125
21
-121.42115246666668
31
0
0
LINE
5
175
100
AcDbEntity
8
0
100
AcDbLine
10
94.052708911111125
20
-121.42115246666668
30
0
11
94.052708911111125
21
-117.21062268888889
31
0
0
LINE
5
176
100
AcDbEntity
8
0
100
AcDbLine
10
94.052708911111125
20
-117.21062268888889
30
0
11
85.631649355555567
21
-117.21062268888889
31
0
0
LINE
5
177
100
AcDbEntity
8
0
100
AcDbLine
10
85.631649355555567
20
-117.21062268888889
30
0
11
85.631649355555567
21
-121.42115246666668
31
0
0
LINE
5
178
100
AcDbEntity
8
0
100
AcDbLine
10
85.631649355555567
20
-121.42115246666668
30
0
11
77.210589800000022
21
-121.42115246666668
31
0
0
LINE
5
179
100
AcDbEntity
8
0
100
AcDbLine
10
77.210589800000022
20
-121.42115246666668
30
0
11
77.210589800000008
21
-117.21062268888889
31
0
0
LINE
5
180
100
AcDbEntity
8
0
100
AcDbLine
10
77.210589800000008
20
-117.21062268888889
30
0
11
68.78953024444445
21
-117.21062268888889
31
0
0
LINE
5
181
100
AcDbEntity
8
0
100
AcDbLine
10
68.78953024444445
20
-117.21062268888889
30
0
11
68.789530244444435
21
-121.42115246666668
31
0
0
LINE
5
182
100
AcDbEntity
8
0
100
AcDbLine
10
68.789530244444435
20
-121.42115246666668
30
0
11
60.368470688888891
21
-121.42115246666668
31
0
0
LINE
5
183
100
AcDbEntity
8
0
100
AcDbLine
10
60.368470688888891
20
-121.42115246666668
30
0
11
60.368470688888891
21
-117.21062268888889
31
0
0
LINE
5
184
100
AcDbEntity
8
0
100
AcDbLine
10
60.368470688888891
20
-117.21062268888889
30
0
11
51.947411133333347
21
-117.21062268888889
31
0
0
LINE
5
185
100
AcDbEntity
8
0
100
AcDbLine
10
51.947411133333347
20
-117.21062268888889
30
0
11
51.947411133333333
21
-121.42115246666668
31
0
0
LINE
5
186
100
AcDbEntity
8
0
100
AcDbLine
10
51.947411133333333
20
-121.42115246666668
30
0
11
43.526351577777774
21
-121.42115246666668
31
0
0
LINE
5
187
100
AcDbEntity
8
0
100
AcDbLine
10
43.526351577777774
20
-121.42115246666668
30
0
11
43.526351577777774
21
-117.21062268888889
31
0
0
LINE
5
188
100
AcDbEntity
8
0
100
AcDbLine
10
43.526351577777774
20
-117.21062268888889
30
0
11
35.105292022222223
21
-117.21062268888889
31
0
0
LINE
5
189
100
AcDbEntity
8
0
100
AcDbLine
10
35.105292022222223
20
-117.21062268888889
30
0
11
35.105292022222223
21
-121.42115246666668
31
0
0
LINE
5
190
100
AcDbEntity
8
0
100
AcDbLine
10
35.105292022222223
20
-121.42115246666668
30
0
11
26.684232466666664
21
-121.42115246666668
31
0
0
LINE
5
191
100
AcDbEntity
8
0
100
AcDbLine
10
26.684232466666664
20
-121.42115246666668
30
0
11
26.684232466666664
21
-117.21062268888889
31
0
0
LINE
5
192
100
AcDbEntity
8
0
100
AcDbLine
10
26.684232466666664
20
-117.21062268888889
30
0
11
16.157908022222223
21
-117.21062268888889
31
0
0
LINE
5
193
100
AcDbEntity
8
0
100
AcDbLine
10
16.157908022222223
20
-117.21062268888889
30
0
11
16.157908022222223
21
-121.42115246666668
31
0
0
LINE
5
194
100
AcDbEntity
8
0
100
AcDbLine
10
16.157908022222223
20
-121.42115246666668
30
0
11
5.6315835777777785
21
-121.42115246666668
31
0
0
LINE
5
195
100
AcDbEntity
8
0
100
AcDbLine
10
5.6315835777777785
20
-121.42115246666668
30
0
11
5.6315835777777776
21
-107.21061446666668
31
0
0
LINE
5
196
100
AcDbEntity
8
0
100
AcDbLine
10
5.6315835777777776
20
-107.21061446666668
30
0
11
9.842113355555556
21
-107.21061446666668
31
0
0
LINE
5
197
100
AcDbEntity
8
0
100
AcDbLine
10
9.842113355555556
20
-107.21061446666668
30
0
11
9.842113355555556
21
-93.000076466666698
31
0
0
LINE
5
198
100
AcDbEntity
8
0
100
AcDbLine
10
9.842113355555556
20
-93.000076466666698
30
0
11
5.6315835777777776
21
-93.000076466666684
31
0
0
LINE
5
199
100
AcDbEntity
8
0
100
AcDbLine
10
5.6315835777777776
20
-93.000076466666684
30
0
11
5.6315835777777776
21
-84.579016911111111
31
0
0
LINE
5
200
100
AcDbEntity
8
0
100
AcDbLine
10
5.6315835777777776
20
-84.579016911111111
30
0
11
9.842113355555556
21
-84.579016911111111
31
0
0
LINE
5
201
100
AcDbEntity
8
0
100
AcDbLine
10
9.842113355555556
20
-84.579016911111111
30
0
11
9.842113355555556
21
-76.157957355555567
31
0
0
LINE
5
202
100
AcDbEntity
8
0
100
AcDbLine
10
9.842113355555556
20
-76.157957355555567
30
0
11
5.6315835777777776
21
-76.157957355555567
31
0
0
LINE
5
203
100
AcDbEntity
8
0
100
AcDbLine
10
5.6315835777777776
20
-76.157957355555567
30
0
11
5.6315835777777776
21
-67.736897800000008
31
0
0
LINE
5
204
100
AcDbEntity
8
0
100
AcDbLine
10
5.6315835777777776
20
-67.736897800000008
30
0
11
9.842113355555556
21
-67.736897800000008
31
0
0
LINE
5
205
100
AcDbEntity
8
0
100
AcDbLine
10
9.842113355555556
20
-67.736897800000008
30
0
11
9.842113355555556
21
-59.31583824444445
31
0
0
LINE
5
206
100
AcDbEntity
8
0
100
AcDbLine
10
9.842113355555556
20
-59.31583824444445
30
0
11
5.6315835777777776
21
-59.31583824444445
31
0
0
LINE
5
207
100
AcDbEntity
8
0
100
AcDbLine
10
5.6315835777777776
20
-59.31583824444445
30
0
11
5.6315835777777776
21
-50.894778688888884
31
0
0
LINE
5
208
100
AcDbEntity
8
0
100
AcDbLine
10
5.6315835777777776
20
-50.894778688888884
30
0
11
9.842113355555556
21
-50.894778688888884
31
0
0
LINE
5
209
100
AcDbEntity
8
0
100
AcDbLine
10
9.842113355555556
20
-50.894778688888884
30
0
11
9.842113355555556
21
-42.473719133333333
31
0
0
LINE
5
210
100
AcDbEntity
8
0
100
AcDbLine
10
9.842113355555556
20
-42.473719133333333
30
0
11
5.6315835777777776
21
-42.473719133333333
31
0
0
LINE
5
211
100
AcDbEntity
8
0
100
AcDbLine
10
5.6315835777777776
20
-42.473719133333333
30
0
11
5.6315835777777776
21
-34.052659577777781
31
0
0
LINE
5
212
100
AcDbEntity
8
0
100
AcDbLine
10
5.6315835777777776
20
-34.052659577777781
30
0
11
9.842113355555556
21
-34.052659577777781
31
0
0
LINE
5
213
100
AcDbEntity
8
0
100
AcDbLine
10
9.842113355555556
20
-34.052659577777781
30
0
11
9.842113355555556
21
-19.842121577777782
31
0
0
LINE
5
214
100
AcDbEntity
8
0
100
AcDbLine
10
9.842113355555556
20
-19.842121577777782
30
0
11
5.6315835777777776
21
-19.842121577777782
31
0
0
LINE
5
215
100
AcDbEntity
8
0
100
AcDbLine
10
5.6315835777777776
20
-19.842121577777782
30
0
11
5.6315835777777776
21
-5.6315835777777776
31
0
0
LINE
5
216
100
AcDbEntity
8
0
100
AcDbLine
10
174.05277468888892
20
-5.6315835777777776
30
0
11
184.57909913333336
21
-5.6315835777777776
31
0
0
LINE
5
217
100
AcDbEntity
8
0
100
AcDbLine
10
184.57909913333336
20
-5.6315835777777776
30
0
11
184.57909913333333
21
-9.842113355555556
31
0
0
LINE
5
218
100
AcDbEntity
8
0
100
AcDbLine
10
184.57909913333333
20
-9.842113355555556
30
0
11
195.1054235777778
21
-9.842113355555556
31
0
0
LINE
5
219
100
AcDbEntity
8
0
100
AcDbLine
10
195.1054235777778
20
-9.842113355555556
30
0
11
195.1054235777778
21
-5.6315835777777776
31
0
0
LINE
5
220
100
AcDbEntity
8
0
100
AcDbLine
10
195.1054235777778
20
-5.6315835777777776
30
0
11
203.52648313333333
21
-5.6315835777777776
31
0
0
LINE
5
221
100
AcDbEntity
8
0
100
AcDbLine
10
203.52648313333333
20
-5.6315835777777776
30
0
11
203.52648313333333
21
-9.842113355555556
31
0
0
LINE
5
222
100
AcDbEntity
8
0
100
AcDbLine
10
203.52648313333333
20
-9.842113355555556
30
0
11
211.94754268888889
21
-9.842113355555556
31
0
0
LINE
5
223
100
AcDbEntity
8
0
100
AcDbLine
10
211.94754268888889
20
-9.842113355555556
30
0
11
211.94754268888889
21
-5.6315835777777776
31
0
0
LINE
5
224
100
AcDbEntity
8
0
100
AcDbLine
10
211.94754268888889
20
-5.6315835777777776
30
0
11
220.36860224444445
21
-5.6315835777777776
31
0
0
LINE
5
225
100
AcDbEntity
8
0
100
AcDbLine
10
220.36860224444445
20
-5.6315835777777776
30
0
11
220.36860224444445
21
-9.842113355555556
31
0
0
LINE
5
226
100
AcDbEntity
8
0
100
AcDbLine
10
220.36860224444445
20
-9.842113355555556
30
0
11
228.78966179999998
21
-9.842113355555556
31
0
0
LINE
5
227
100
AcDbEntity
8
0
100
AcDbLine
10
228.78966179999998
20
-9.842113355555556
30
0
11
228.78966179999998
21
-5.6315835777777776
31
0
0
LINE
5
228
100
AcDbEntity
8
0
100
AcDbLine
10
228.78966179999998
20
-5.6315835777777776
30
0
11
237.21072135555551
21
-5.6315835777777776
31
0
0
LINE
5
229
100
AcDbEntity
8
0
100
AcDbLine
10
237.21072135555551
20
-5.6315835777777776
30
0
11
237.21072135555556
21
-9.842113355555556
31
0
0
LINE
5
230
100
AcDbEntity
8
0
100
AcDbLine
10
237.21072135555556
20
-9.842113355555556
30
0
11
245.63178091111112
21
-9.842113355555556
31
0
0
LINE
5
231
100
AcDbEntity
8
0
100
AcDbLine
10
245.63178091111112
20
-9.842113355555556
30
0
11
245.63178091111112
21
-5.6315835777777776
31
0
0
LINE
5
232
100
AcDbEntity
8
0
100
AcDbLine
10
245.63178091111112
20
-5.6315835777777776
30
0
11
254.05284046666668
21
-5.6315835777777776
31
0
0
LINE
5
233
100
AcDbEntity
8
0
100
AcDbLine
10
254.05284046666668
20
-5.6315835777777776
30
0
11
254.05284046666668
21
-9.842113355555556
31
0
0
LINE
5
234
100
AcDbEntity
8
0
100
AcDbLine
10
254.05284046666668
20
-9.842113355555556
30
0
11
262.47390002222221
21
-9.842113355555556
31
0
0
LINE
5
235
100
AcDbEntity
8
0
100
AcDbLine
10
262.47390002222221
20
-9.842113355555556
30
0
11
262.47390002222221
21
-5.6315835777777776
31
0
0
LINE
5
236
100
AcDbEntity
8
0
100
AcDbLine
10
262.47390002222221
20
-5.6315835777777776
30
0
11
270.8949595777778
21
-5.6315835777777776
31
0
0
LINE
5
237
100
AcDbEntity
8
0
100
AcDbLine
10
270.8949595777778
20
-5.6315835777777776
30
0
11
270.8949595777778
21
-9.842113355555556
31
0
0
LINE
5
238
100
AcDbEntity
8
0
100
AcDbLine
10
270.8949595777778
20
-9.842113355555556
30
0
11
279.31601913333333
21
-9.842113355555556
31
0
0
LINE
5
239
100
AcDbEntity
8
0
100
AcDbLine
10
279.31601913333333
20
-9.842113355555556
30
0
11
279.31601913333333
21
-5.6315835777777776
31
0
0
LINE
5
240
100
AcDbEntity
8
0
100
AcDbLine
10
279.31601913333333
20
-5.6315835777777776
30
0
11
287.73707868888886
21
-5.6315835777777776
31
0
0
LINE
5
241
100
AcDbEntity
8
0
100
AcDbLine
10
287.73707868888886
20
-5.6315835777777776
30
0
11
287.73707868888886
21
-9.842113355555556
31
0
0
LINE
5
242
100
AcDbEntity
8
0
100
AcDbLine
10
287.73707868888886
20
-9.842113355555556
30
0
11
296.15813824444444
21
-9.842113355555556
31
0
0
LINE
5
243
100
AcDbEntity
8
0
100
AcDbLine
10
296.15813824444444
20
-9.842113355555556
30
0
11
296.15813824444444
21
-5.6315835777777776
31
0
0
LINE
5
244
100
AcDbEntity
8
0
100
AcDbLine
10
296.15813824444444
20
-5.6315835777777776
30
0
11
304.57919780000003
21
-5.6315835777777776
31
0
0
LINE
5
245
100
AcDbEntity
8
0
100
AcDbLine
10
304.57919780000003
20
-5.6315835777777776
30
0
11
304.57919780000003
21
-9.842113355555556
31
0
0
LINE
5
246
100
AcDbEntity
8
0
100
AcDbLine
10
304.57919780000003
20
-9.842113355555556
30
0
11
313.00025735555556
21
-9.842113355555556
31
0
0
LINE
5
247
100
AcDbEntity
8
0
100
AcDbLine
10
313.00025735555556
20
-9.842113355555556
30
0
11
313.00025735555556
21
-5.6315835777777776
31
0
0
LINE
5
248
100
AcDbEntity
8
0
100
AcDbLine
10
313.00025735555556
20
-5.6315835777777776
30
0
11
321.42131691111109
21
-5.6315835777777776
31
0
0
LINE
5
249
100
AcDbEntity
8
0
100
AcDbLine
10
321.42131691111109
20
-5.6315835777777776
30
0
11
321.42131691111109
21
-9.842113355555556
31
0
0
LINE
5
250
100
AcDbEntity
8
0
100
AcDbLine
10
321.42131691111109
20
-9.842113355555556
30
0
11
331.94764135555556
21
-9.842113355555556
31
0
0
LINE
5
251
100
AcDbEntity
8
0
100
AcDbLine
10
331.94764135555556
20
-9.842113355555556
30
0
11
331.94764135555556
21
-5.6315835777777776
31
0
0
LINE
5
252
100
AcDbEntity
8
0
100
AcDbLine
10
331.94764135555556
20
-5.6315835777777776
30
0
11
342.47396579999992
21
-5.6315835777777776
31
0
0
LINE
5
253
100
AcDbEntity
8
0
100
AcDbLine
10
342.47396579999992
20
-5.6315835777777776
30
0
11
342.47396579999997
21
-19.842121577777778
31
0
0
LINE
5
254
100
AcDbEntity
8
0
100
AcDbLine
10
342.47396579999997
20
-19.842121577777778
30
0
11
338.26343602222221
21
-19.842121577777782
31
0
0
LINE
5
255
100
AcDbEntity
8
0
100
AcDbLine
10
338.26343602222221
20
-19.842121577777782
30
0
11
338.26343602222221
21
-34.052659577777781
31
0
0
LINE
5
256
100
AcDbEntity
8
0
100
AcDbLine
10
338.26343602222221
20
-34.052659577777781
30
0
11
342.47396579999997
21
-34.052659577777781
31
0
0
LINE
5
257
100
AcDbEntity
8
0
100
AcDbLine
10
342.47396579999997
20
-34.052659577777781
30
0
11
342.47396579999997
21
-42.473719133333333
31
0
0
LINE
5
258
100
AcDbEntity
8
0
100
AcDbLine
10
342.47396579999997
20
-42.473719133333333
30
0
11
338.26343602222221
21
-42.473719133333333
31
0
0
LINE
5
259
100
AcDbEntity
8
0
100
AcDbLine
10
338.26343602222221
20
-42.473719133333333
30
0
11
338.26343602222221
21
-50.894778688888884
31
0
0
LINE
5
260
100
AcDbEntity
8
0
100
AcDbLine
10
338.26343602222221
20
-50.894778688888884
30
0
11
342.47396579999997
21
-50.894778688888884
31
0
0
LINE
5
261
100
AcDbEntity
8
0
100
AcDbLine
10
342.47396579999997
20
-50.894778688888884
30
0
11
342.47396579999997
21
-59.31583824444445
31
0
0
LINE
5
262
100
AcDbEntity
8
0
100
AcDbLine
10
342.47396579999997
20
-59.31583824444445
30
0
11
338.26343602222221
21
-59.31583824444445
31
0
0
LINE
5
263
100
AcDbEntity
8
0
100
AcDbLine
10
338.26343602222221
20
-59.31583824444445
30
0
11
338.26343602222221
21
-67.736897800000008
31
0
0
LINE
5
264
100
AcDbEntity
8
0
100
AcDbLine
10
338.26343602222221
20
-67.736897800000008
30
0
11
342.47396579999997
21
-67.736897800000008
31
0
0
LINE
5
265
100
AcDbEntity
8
0
100
AcDbLine
10
342.47396579999997
20
-67.736897800000008
30
0
11
342.47396579999997
21
-76.157957355555567
31
0
0
LINE
5
266
100
AcDbEntity
8
0
100
AcDbLine
10
342.47396579999997
20
-76.157957355555567
30
0
11
338.26343602222221
21
-76.157957355555567
31
0
0
LINE
5
267
100
AcDbEntity
8
0
100
AcDbLine
10
338.26343602222221
20
-76.157957355555567
30
0
11
338.26343602222221
21
-84.579016911111111
31
0
0
LINE
5
268
100
AcDbEntity
8
0
100
AcDbLine
10
338.26343602222221
20
-84.579016911111111
30
0
11
342.47396579999997
21
-84.579016911111111
31
0
0
LINE
5
269
100
AcDbEntity
8
0
100
AcDbLine
10
342.47396579999997
20
-84.579016911111111
30
0
11
342.47396579999997
21
-93.000076466666684
31
0
0
LINE
5
270
100
AcDbEntity
8
0
100
AcDbLine
10
342.47396579999997
20
-93.000076466666684
30
0
11
338.26343602222221
21
-93.000076466666684
31
0
0
LINE
5
271
100
AcDbEntity
8
0
100
AcDbLine
10
338.26343602222221
20
-93.000076466666684
30
0
11
338.26343602222221
21
-107.21061446666667
31
0
0
LINE
5
272
100
AcDbEntity
8
0
100
AcDbLine
10
338.26343602222221
20
-107.21061446666667
30
0
11
342.47396579999997
21
-107.21061446666668
31
0
0
LINE
5
273
100
AcDbEntity
8
0
100
AcDbLine
10
342.47396579999997
20
-107.21061446666668
30
0
11
342.47396579999997
21
-121.42115246666668
31
0
0
LINE
5
274
100
AcDbEntity
8
0
100
AcDbLine
10
342.47396579999997
20
-121.42115246666668
30
0
11
331.94764135555567
21
-121.42115246666668
31
0
0
LINE
5
275
100
AcDbEntity
8
0
100
AcDbLine
10
331.94764135555567
20
-121.42115246666668
30
0
11
331.94764135555556
21
-117.21062268888889
31
0
0
LINE
5
276
100
AcDbEntity
8
0
100
AcDbLine
10
331.94764135555556
20
-117.21062268888889
30
0
11
321.42131691111109
21
-117.21062268888889
31
0
0
LINE
5
277
100
AcDbEntity
8
0
100
AcDbLine
10
321.42131691111109
20
-117.21062268888889
30
0
11
321.42131691111109
21
-121.42115246666668
31
0
0
LINE
5
278
100
AcDbEntity
8
0
100
AcDbLine
10
321.42131691111109
20
-121.42115246666668
30
0
11
313.00025735555556
21
-121.42115246666668
31
0
0
LINE
5
279
100
AcDbEntity
8
0
100
AcDbLine
10
313.00025735555556
20
-121.42115246666668
30
0
11
313.00025735555556
21
-117.21062268888889
31
0
0
LINE
5
280
100
AcDbEntity
8
0
100
AcDbLine
10
313.00025735555556
20
-117.21062268888889
30
0
11
304.57919780000003
21
-117.21062268888889
31
0
0
LINE
5
281
100
AcDbEntity
8
0
100
AcDbLine
10
304.57919780000003
20
-117.21062268888889
30
0
11
304.57919780000003
21
-121.42115246666668
31
0
0
LINE
5
282
100
AcDbEntity
8
0
100
AcDbLine
10
304.57919780000003
20
-121.42115246666668
30
0
11
296.15813824444444
21
-121.42115246666668
31
0
0
LINE
5
283
100
AcDbEntity
8
0
100
AcDbLine
10
296.15813824444444
20
-121.42115246666668
30
0
11
296.15813824444444
21
-117.21062268888889
31
0
0
LINE
5
284
100
AcDbEntity
8
0
100
AcDbLine
10
296.15813824444444
20
-117.21062268888889
30
0
11
287.73707868888886
21
-117.21062268888889
31
0
0
LINE
5
285
100
AcDbEntity
8
0
100
AcDbLine
10
287.73707868888886
20
-117.21062268888889
30
0
11
287.73707868888886
21
-121.42115246666668
31
0
0
LINE
5
286
100
AcDbEntity
8
0
100
AcDbLine
10
287.73707868888886
20
-121.42115246666668
30
0
11
279.31601913333333
21
-121.42115246666668
31
0
0
LINE
5
287
100
AcDbEntity
8
0
100
AcDbLine
10
279.31601913333333
20
-121.42115246666668
30
0
11
279.31601913333333
21
-117.21062268888889
31
0
0
LINE
5
288
100
AcDbEntity
8
0
100
AcDbLine
10
279.31601913333333
20
-117.21062268888889
30
0
11
270.8949595777778
21
-117.21062268888889
31
0
0
LINE
5
289
100
AcDbEntity
8
0
100
AcDbLine
10
270.8949595777778
20
-117.21062268888889
30
0
11
270.8949595777778
21
-121.42115246666668
31
0
0
LINE
5
290
100
AcDbEntity
8
0
100
AcDbLine
10
270.8949595777778
20
-121.42115246666668
30
0
11
262.47390002222221
21
-121.42115246666668
31
0
0
LINE
5
291
100
AcDbEntity
8
0
100
AcDbLine
10
262.47390002222221
20
-121.42115246666668
30
0
11
262.47390002222221
21
-117.21062268888889
31
0
0
LINE
5
292
100
AcDbEntity
8
0
100
AcDbLine
10
262.47390002222221
20
-117.21062268888889
30
0
11
254.05284046666668
21
-117.21062268888889
31
0
0
LINE
5
293
100
AcDbEntity
8
0
100
AcDbLine
10
254.05284046666668
20
-117.21062268888889
30
0
11
254.05284046666668
21
-121.42115246666668
31
0
0
LINE
5
294
100
AcDbEntity
8
0
100
AcDbLine
10
254.05284046666668
20
-121.42115246666668
30
0
11
245.63178091111112
21
-121.42115246666668
31
0
0
LINE
5
295
100
AcDbEntity
8
0
100
AcDbLine
10
245.63178091111112
20
-121.42115246666668
30
0
11
245.63178091111112
21
-117.21062268888889
31
0
0
LINE
5
296
100
AcDbEntity
8
0
100
AcDbLine
10
245.63178091111112
20
-117.21062268888889
30
0
11
237.21072135555556
21
-117.21062268888889
31
0
0
LINE
5
297
100
AcDbEntity
8
0
100
AcDbLine
10
237.21072135555556
20
-117.21062268888889
30
0
11
237.21072135555556
21
-121.42115246666668
31
0
0
LINE
5
298
100
AcDbEntity
8
0
100
AcDbLine
10
237.21072135555556
20
-121.42115246666668
30
0
11
228.78966180000003
21
-121.42115246666668
31
0
0
LINE
5
299
100
AcDbEntity
8
0
100
AcDbLine
10
228.78966180000003
20
-121.42115246666668
30
0
11
228.78966179999998
21
-117.21062268888889
31
0
0
LINE
5
300
100
AcDbEntity
8
0
100
AcDbLine
10
228.78966179999998
20
-117.21062268888889
30
0
11
220.36860224444445
21
-117.21062268888889
31
0
0
LINE
5
301
100
AcDbEntity
8
0
100
AcDbLine
10
220.36860224444445
20
-117.21062268888889
30
0
11
220.36860224444445
21
-121.42115246666668
31
0
0
LINE
5
302
100
AcDbEntity
8
0
100
AcDbLine
10
220.36860224444445
20
-121.42115246666668
30
0
11
211.94754268888889
21
-121.42115246666668
31
0
0
LINE
5
303
100
AcDbEntity
8
0
100
AcDbLine
10
211.94754268888889
20
-121.42115246666668
30
0
11
211.94754268888889
21
-117.21062268888889
31
0
0
LINE
5
304
100
AcDbEntity
8
0
100
AcDbLine
10
211.94754268888889
20
-117.21062268888889
30
0
11
203.52648313333333
21
-117.21062268888889
31
0
0
LINE
5
305
100
AcDbEntity
8
0
100
AcDbLine
10
203.52648313333333
20
-117.21062268888889
30
0
11
203.52648313333333
21
-121.42115246666668
31
0
0
LINE
5
306
100
AcDbEntity
8
0
100
AcDbLine
10
203.52648313333333
20
-121.42115246666668
30
0
11
195.1054235777778
21
-121.42115246666668
31
0
0
LINE
5
307
100
AcDbEntity
8
0
100
AcDbLine
10
195.1054235777778
20
-121.42115246666668
30
0
11
195.1054235777778
21
-117.21062268888889
31
0
0
LINE
5
308
100
AcDbEntity
8
0
100
AcDbLine
10
195.1054235777778
20
-117.21062268888889
30
0
11
184.57909913333333
21
-117.21062268888889
31
0
0
LINE
5
309
100
AcDbEntity
8
0
100
AcDbLine
10
184.57909913333333
20
-117.21062268888889
30
0
11
184.57909913333333
21
-121.42115246666668
31
0
0
LINE
5
310
100
AcDbEntity
8
0
100
AcDbLine
10
184.57909913333333
20
-121.42115246666668
30
0
11
174.05277468888892
21
-121.42115246666668
31
0
0
LINE
5
311
100
AcDbEntity
8
0
100
AcDbLine
10
174.05277468888892
20
-121.42115246666668
30
0
11
174.05277468888892
21
-107.21061446666668
31
0
0
LINE
5
312
100
AcDbEntity
8
0
100
AcDbLine
10
174.05277468888892
20
-107.21061446666668
30
0
11
178.26330446666668
21
-107.21061446666668
31
0
0
LINE
5
313
100
AcDbEntity
8
0
100
AcDbLine
10
178.26330446666668
20
-107.21061446666668
30
0
11
178.26330446666668
21
-93.000076466666698
31
0
0
LINE
5
314
100
AcDbEntity
8
0
100
AcDbLine
10
178.26330446666668
20
-93.000076466666698
30
0
11
174.05277468888892
21
-93.000076466666684
31
0
0
LINE
5
315
100
AcDbEntity
8
0
100
AcDbLine
10
174.05277468888892
20
-93.000076466666684
30
0
11
174.05277468888892
21
-84.579016911111111
31
0
0
LINE
5
316
100
AcDbEntity
8
0
100
AcDbLine
10
174.05277468888892
20
-84.579016911111111
30
0
11
178.26330446666668
21
-84.579016911111111
31
0
0
LINE
5
317
100
AcDbEntity
8
0
100
AcDbLine
10
178.26330446666668
20
-84.579016911111111
30
0
11
178.26330446666668
21
-76.157957355555567
31
0
0
LINE
5
318
100
AcDbEntity
8
0
100
AcDbLine
10
178.26330446666668
20
-76.157957355555567
30
0
11
174.05277468888892
21
-76.157957355555567
31
0
0
LINE
5
319
100
AcDbEntity
8
0
100
AcDbLine
10
174.05277468888892
20
-76.157957355555567
30
0
11
174.05277468888892
21
-67.736897800000008
31
0
0
LINE
5
320
100
AcDbEntity
8
0
100
AcDbLine
10
174.05277468888892
20
-67.736897800000008
30
0
11
178.26330446666668
21
-67.736897800000008
31
0
0
LINE
5
321
100
AcDbEntity
8
0
100
AcDbLine
10
178.26330446666668
20
-67.736897800000008
30
0
11
178.26330446666668
21
-59.31583824444445
31
0
0
LINE
5
322
100
AcDbEntity
8
0
100
AcDbLine
10
178.26330446666668
20
-59.31583824444445
30
0
11
174.05277468888892
21
-59.31583824444445
31
0
0
LINE
5
323
100
AcDbEntity
8
0
100
AcDbLine
10
174.05277468888892
20
-59.31583824444445
30
0
11
174.05277468888892
21
-50.894778688888884
31
0
0
LINE
5
324
100
AcDbEntity
8
0
100
AcDbLine
10
174.05277468888892
20
-50.894778688888884
30
0
11
178.26330446666668
21
-50.894778688888884
31
0
0
LINE
5
325
100
AcDbEntity
8
0
100
AcDbLine
10
178.26330446666668
20
-50.894778688888884
30
0
11
178.26330446666668
21
-42.473719133333333
31
0
0
LINE
5
326
100
AcDbEntity
8
0
100
AcDbLine
10
178.26330446666668
20
-42.473719133333333
30
0
11
174.05277468888892
21
-42.473719133333333
31
0
0
LINE
5
327
100
AcDbEntity
8
0
100
AcDbLine
10
174.05277468888892
20
-42.473719133333333
30
0
11
174.05277468888892
21
-34.052659577777781
31
0
0
LINE
5
328
100
AcDbEntity
8
0
100
AcDbLine
10
174.05277468888892
20
-34.052659577777781
30
0
11
178.26330446666668
21
-34.052659577777781
31
0
0
LINE
5
329
100
AcDbEntity
8
0
100
AcDbLine
10
178.26330446666668
20
-34.052659577777781
30
0
11
178.26330446666668
21
-19.842121577777782
31
0
0
LINE
5
330
100
AcDbEntity
8
0
100
AcDbLine
10
178.26330446666668
20
-19.842121577777782
30
0
11
174.05277468888892
21
-19.842121577777778
31
0
0
LINE
5
331
100
AcDbEntity
8
0
100
AcDbLine
10
174.05277468888892
20
-19.842121577777778
30
0
11
174.05277468888892
21
-5.6315835777777776
31
0
0
LINE
5
332
100
AcDbEntity
8
0
100
AcDbLine
10
346.68449557777785
20
-5.6315835777777776
30
0
11
353.0002902444445
21
-5.6315835777777776
31
0
0
LINE
5
333
100
AcDbEntity
8
0
100
AcDbLine
10
353.0002902444445
20
-5.6315835777777776
30
0
11
353.0002902444445
21
-9.842113355555556
31
0
0
LINE
5
334
100
AcDbEntity
8
0
100
AcDbLine
10
353.0002902444445
20
-9.842113355555556
30
0
11
363.52661468888891
21
-9.842113355555556
31
0
0
LINE
5
335
100
AcDbEntity
8
0
100
AcDbLine
10
363.52661468888891
20
-9.842113355555556
30
0
11
363.52661468888891
21
-5.6315835777777776
31
0
0
LINE
5
336
100
AcDbEntity
8
0
100
AcDbLine
10
363.52661468888891
20
-5.6315835777777776
30
0
11
371.9476742444445
21
-5.6315835777777776
31
0
0
LINE
5
337
100
AcDbEntity
8
0
100
AcDbLine
10
371.9476742444445
20
-5.6315835777777776
30
0
11
371.9476742444445
21
-9.842113355555556
31
0
0
LINE
5
338
100
AcDbEntity
8
0
100
AcDbLine
10
371.9476742444445
20
-9.842113355555556
30
0
11
380.36873380000003
21
-9.842113355555556
31
0
0
LINE
5
339
100
AcDbEntity
8
0
100
AcDbLine
10
380.36873380000003
20
-9.842113355555556
30
0
11
380.36873380000003
21
-5.6315835777777776
31
0
0
LINE
5
340
100
AcDbEntity
8
0
100
AcDbLine
10
380.36873380000003
20
-5.6315835777777776
30
0
11
388.78979335555556
21
-5.6315835777777776
31
0
0
LINE
5
341
100
AcDbEntity
8
0
100
AcDbLine
10
388.78979335555556
20
-5.6315835777777776
30
0
11
388.78979335555556
21
-9.842113355555556
31
0
0
LINE
5
342
100
AcDbEntity
8
0
100
AcDbLine
10
388.78979335555556
20
-9.842113355555556
30
0
11
397.21085291111109
21
-9.842113355555556
31
0
0
LINE
5
343
100
AcDbEntity
8
0
100
AcDbLine
10
397.21085291111109
20
-9.842113355555556
30
0
11
397.21085291111109
21
-5.6315835777777776
31
0
0
LINE
5
344
100
AcDbEntity
8
0
100
AcDbLine
10
397.21085291111109
20
-5.6315835777777776
30
0
11
405.63191246666668
21
-5.6315835777777776
31
0
0
LINE
5
345
100
AcDbEntity
8
0
100
AcDbLine
10
405.63191246666668
20
-5.6315835777777776
30
0
11
405.63191246666668
21
-9.842113355555556
31
0
0
LINE
5
346
100
AcDbEntity
8
0
100
AcDbLine
10
405.63191246666668
20
-9.842113355555556
30
0
11
414.05297202222221
21
-9.842113355555556
31
0
0
LINE
5
347
100
AcDbEntity
8
0
100
AcDbLine
10
414.05297202222221
20
-9.842113355555556
30
0
11
414.05297202222232
21
-5.6315835777777776
31
0
0
LINE
5
348
100
AcDbEntity
8
0
100
AcDbLine
10
414.05297202222232
20
-5.6315835777777776
30
0
11
422.47403157777785
21
-5.6315835777777776
31
0
0
LINE
5
349
100
AcDbEntity
8
0
100
AcDbLine
10
422.47403157777785
20
-5.6315835777777776
30
0
11
422.47403157777785
21
-9.842113355555556
31
0
0
LINE
5
350
100
AcDbEntity
8
0
100
AcDbLine
10
422.47403157777785
20
-9.842113355555556
30
0
11
430.89509113333344
21
-9.842113355555556
31
0
0
LINE
5
351
100
AcDbEntity
8
0
100
AcDbLine
10
430.89509113333344
20
-9.842113355555556
30
0
11
430.89509113333344
21
-5.6315835777777776
31
0
0
LINE
5
352
100
AcDbEntity
8
0
100
AcDbLine
10
430.89509113333344
20
-5.6315835777777776
30
0
11
439.31615068888897
21
-5.6315835777777776
31
0
0
LINE
5
353
100
AcDbEntity
8
0
100
AcDbLine
10
439.31615068888897
20
-5.6315835777777776
30
0
11
439.31615068888897
21
-9.842113355555556
31
0
0
LINE
5
354
100
AcDbEntity
8
0
100
AcDbLine
10
439.31615068888897
20
-9.842113355555556
30
0
11
447.7372102444445
21
-9.842113355555556
31
0
0
LINE
5
355
100
AcDbEntity
8
0
100
AcDbLine
10
447.7372102444445
20
-9.842113355555556
30
0
11
447.7372102444445
21
-5.6315835777777776
31
0
0
LINE
5
356
100
AcDbEntity
8
0
100
AcDbLine
10
447.7372102444445
20
-5.6315835777777776
30
0
11
456.15826980000008
21
-5.6315835777777776
31
0
0
LINE
5
357
100
AcDbEntity
8
0
100
AcDbLine
10
456.15826980000008
20
-5.6315835777777776
30
0
11
456.15826980000008
21
-9.842113355555556
31
0
0
LINE
5
358
100
AcDbEntity
8
0
100
AcDbLine
10
456.15826980000008
20
-9.842113355555556
30
0
11
464.57932935555561
21
-9.842113355555556
31
0
0
LINE
5
359
100
AcDbEntity
8
0
100
AcDbLine
10
464.57932935555561
20
-9.842113355555556
30
0
11
464.57932935555561
21
-5.6315835777777776
31
0
0
LINE
5
360
100
AcDbEntity
8
0
100
AcDbLine
10
464.57932935555561
20
-5.6315835777777776
30
0
11
473.00038891111114
21
-5.6315835777777776
31
0
0
LINE
5
361
100
AcDbEntity
8
0
100
AcDbLine
10
473.00038891111114
20
-5.6315835777777776
30
0
11
473.00038891111114
21
-9.842113355555556
31
0
0
LINE
5
362
100
AcDbEntity
8
0
100
AcDbLine
10
473.00038891111114
20
-9.842113355555556
30
0
11
481.42144846666673
21
-9.842113355555556
31
0
0
LINE
5
363
100
AcDbEntity
8
0
100
AcDbLine
10
481.42144846666673
20
-9.842113355555556
30
0
11
481.42144846666673
21
-5.6315835777777776
31
0
0
LINE
5
364
100
AcDbEntity
8
0
100
AcDbLine
10
481.42144846666673
20
-5.6315835777777776
30
0
11
489.84250802222226
21
-5.6315835777777776
31
0
0
LINE
5
365
100
AcDbEntity
8
0
100
AcDbLine
10
489.84250802222226
20
-5.6315835777777776
30
0
11
489.84250802222226
21
-9.842113355555556
31
0
0
LINE
5
366
100
AcDbEntity
8
0
100
AcDbLine
10
489.84250802222226
20
-9.842113355555556
30
0
11
500.36883246666667
21
-9.842113355555556
31
0
0
LINE
5
367
100
AcDbEntity
8
0
100
AcDbLine
10
500.36883246666667
20
-9.842113355555556
30
0
11
500.36883246666667
21
-5.6315835777777776
31
0
0
LINE
5
368
100
AcDbEntity
8
0
100
AcDbLine
10
500.36883246666667
20
-5.6315835777777776
30
0
11
506.68462713333338
21
-5.6315835777777776
31
0
0
LINE
5
369
100
AcDbEntity
8
0
100
AcDbLine
10
506.68462713333338
20
-5.6315835777777776
30
0
11
506.68462713333338
21
-19.842121577777778
31
0
0
LINE
5
370
100
AcDbEntity
8
0
100
AcDbLine
10
506.68462713333338
20
-19.842121577777778
30
0
11
510.89515691111114
21
-19.842121577777782
31
0
0
LINE
5
371
100
AcDbEntity
8
0
100
AcDbLine
10
510.89515691111114
20
-19.842121577777782
30
0
11
510.89515691111114
21
-34.052659577777781
31
0
0
LINE
5
372
100
AcDbEntity
8
0
100
AcDbLine
10
510.89515691111114
20
-34.052659577777781
30
0
11
506.68462713333338
21
-34.052659577777781
31
0
0
LINE
5
373
100
AcDbEntity
8
0
100
AcDbLine
10
506.68462713333338
20
-34.052659577777781
30
0
11
506.68462713333338
21
-42.473719133333333
31
0
0
LINE
5
374
100
AcDbEntity
8
0
100
AcDbLine
10
506.68462713333338
20
-42.473719133333333
30
0
11
510.89515691111114
21
-42.473719133333333
31
0
0
LINE
5
375
100
AcDbEntity
8
0
100
AcDbLine
10
510.89515691111114
20
-42.473719133333333
30
0
11
510.89515691111114
21
-50.894778688888884
31
0
0
LINE
5
376
100
AcDbEntity
8
0
100
AcDbLine
10
510.89515691111114
20
-50.894778688888884
30
0
11
506.68462713333338
21
-50.894778688888884
31
0
0
LINE
5
377
100
AcDbEntity
8
0
100
AcDbLine
10
506.68462713333338
20
-50.894778688888884
30
0
11
506.68462713333338
21
-59.31583824444445
31
0
0
LINE
5
378
100
AcDbEntity
8
0
100
AcDbLine
10
506.68462713333338
20
-59.31583824444445
30
0
11
510.89515691111114
21
-59.31583824444445
31
0
0
LINE
5
379
100
AcDbEntity
8
0
100
AcDbLine
10
510.89515691111114
20
-59.31583824444445
30
0
11
510.89515691111114
21
-67.736897800000008
31
0
0
LINE
5
380
100
AcDbEntity
8
0
100
AcDbLine
10
510.89515691111114
20
-67.736897800000008
30
0
11
506.68462713333338
21
-67.736897800000008
31
0
0
LINE
5
381
100
AcDbEntity
8
0
100
AcDbLine
10
506.68462713333338
20
-67.736897800000008
30
0
11
506.68462713333338
21
-76.157957355555567
31
0
0
LINE
5
382
100
AcDbEntity
8
0
100
AcDbLine
10
506.68462713333338
20
-76.157957355555567
30
0
11
510.89515691111114
21
-76.157957355555567
31
0
0
LINE
5
383
100
AcDbEntity
8
0
100
AcDbLine
10
510.89515691111114
20
-76.157957355555567
30
0
11
510.89515691111114
21
-84.579016911111111
31
0
0
LINE
5
384
100
AcDbEntity
8
0
100
AcDbLine
10
510.89515691111114
20
-84.579016911111111
30
0
11
506.68462713333338
21
-84.579016911111111
31
0
0
LINE
5
385
100
AcDbEntity
8
0
100
AcDbLine
10
506.68462713333338
20
-84.579016911111111
30
0
11
506.68462713333338
21
-93.000076466666684
31
0
0
LINE
5
386
100
AcDbEntity
8
0
100
AcDbLine
10
506.68462713333338
20
-93.000076466666684
30
0
11
510.89515691111114
21
-93.000076466666684
31
0
0
LINE
5
387
100
AcDbEntity
8
0
100
AcDbLine
10
510.89515691111114
20
-93.000076466666684
30
0
11
510.89515691111114
21
-107.21061446666667
31
0
0
LINE
5
388
100
AcDbEntity
8
0
100
AcDbLine
10
510.89515691111114
20
-107.21061446666667
30
0
11
506.68462713333338
21
-107.21061446666668
31
0
0
LINE
5
389
100
AcDbEntity
8
0
100
AcDbLine
10
506.68462713333338
20
-107.21061446666668
30
0
11
506.68462713333338
21
-121.42115246666668
31
0
0
LINE
5
390
100
AcDbEntity
8
0
100
AcDbLine
10
506.68462713333338
20
-121.42115246666668
30
0
11
500.36883246666667
21
-121.42115246666668
31
0
0
LINE
5
391
100
AcDbEntity
8
0
100
AcDbLine
10
500.36883246666667
20
-121.42115246666668
30
0
11
500.36883246666667
21
-117.21062268888889
31
0
0
LINE
5
392
100
AcDbEntity
8
0
100
AcDbLine
10
500.36883246666667
20
-117.21062268888889
30
0
11
489.84250802222226
21
-117.21062268888889
31
0
0
LINE
5
393
100
AcDbEntity
8
0
100
AcDbLine
10
489.84250802222226
20
-117.21062268888889
30
0
11
489.84250802222226
21
-121.42115246666668
31
0
0
LINE
5
394
100
AcDbEntity
8
0
100
AcDbLine
10
489.84250802222226
20
-121.42115246666668
30
0
11
481.42144846666673
21
-121.42115246666668
31
0
0
LINE
5
395
100
AcDbEntity
8
0
100
AcDbLine
10
481.42144846666673
20
-121.42115246666668
30
0
11
481.42144846666673
21
-117.21062268888889
31
0
0
LINE
5
396
100
AcDbEntity
8
0
100
AcDbLine
10
481.42144846666673
20
-117.21062268888889
30
0
11
473.00038891111114
21
-117.21062268888889
31
0
0
LINE
5
397
100
AcDbEntity
8
0
100
AcDbLine
10
473.00038891111114
20
-117.21062268888889
30
0
11
473.00038891111114
21
-121.42115246666668
31
0
0
LINE
5
398
100
AcDbEntity
8
0
100
AcDbLine
10
473.00038891111114
20
-121.42115246666668
30
0
11
464.57932935555561
21
-121.42115246666668
31
0
0
LINE
5
399
100
AcDbEntity
8
0
100
AcDbLine
10
464.57932935555561
20
-121.42115246666668
30
0
11
464.57932935555561
21
-117.21062268888889
31
0
0
LINE
5
400
100
AcDbEntity
8
0
100
AcDbLine
10
464.57932935555561
20
-117.21062268888889
30
0
11
456.15826980000008
21
-117.21062268888889
31
0
0
LINE
5
401
100
AcDbEntity
8
0
100
AcDbLine
10
456.15826980000008
20
-117.21062268888889
30
0
11
456.15826980000008
21
-121.42115246666668
31
0
0
LINE
5
402
100
AcDbEntity
8
0
100
AcDbLine
10
456.15826980000008
20
-121.42115246666668
30
0
11
447.7372102444445
21
-121.42115246666668
31
0
0
LINE
5
403
100
AcDbEntity
8
0
100
AcDbLine
10
447.7372102444445
20
-121.42115246666668
30
0
11
447.7372102444445
21
-117.21062268888889
31
0
0
LINE
5
404
100
AcDbEntity
8
0
100
AcDbLine
10
447.7372102444445
20
-117.21062268888889
30
0
11
439.31615068888897
21
-117.21062268888889
31
0
0
LINE
5
405
100
AcDbEntity
8
0
100
AcDbLine
10
439.31615068888897
20
-117.21062268888889
30
0
11
439.31615068888897
21
-121.42115246666668
31
0
0
LINE
5
406
100
AcDbEntity
8
0
100
AcDbLine
10
439.31615068888897
20
-121.42115246666668
30
0
11
430.89509113333344
21
-121.42115246666668
31
0
0
LINE
5
407
100
AcDbEntity
8
0
100
AcDbLine
10
430.89509113333344
20
-121.42115246666668
30
0
11
430.89509113333344
21
-117.21062268888889
31
0
0
LINE
5
408
100
AcDbEntity
8
0
100
AcDbLine
10
430.89509113333344
20
-117.21062268888889
30
0
11
422.47403157777785
21
-117.21062268888889
31
0
0
LINE
5
409
100
AcDbEntity
8
0
100
AcDbLine
10
422.47403157777785
20
-117.21062268888889
30
0
11
422.47403157777785
21
-121.42115246666668
31
0
0
LINE
5
410
100
AcDbEntity
8
0
100
AcDbLine
10
422.47403157777785
20
-121.42115246666668
30
0
11
414.05297202222232
21
-121.42115246666668
31
0
0
LINE
5
411
100
AcDbEntity
8
0
100
AcDbLine
10
414.05297202222232
20
-121.42115246666668
30
0
11
414.05297202222232
21
-117.21062268888889
31
0
0
LINE
5
412
100
AcDbEntity
8
0
100
AcDbLine
10
414.05297202222232
20
-117.21062268888889
30
0
11
405.63191246666679
21
-117.21062268888889
31
0
0
LINE
5
413
100
AcDbEntity
8
0
100
AcDbLine
10
405.63191246666679
20
-117.21062268888889
30
0
11
405.63191246666668
21
-121.42115246666668
31
0
0
LINE
5
414
100
AcDbEntity
8
0
100
AcDbLine
10
405.63191246666668
20
-121.42115246666668
30
0
11
397.21085291111109
21
-121.42115246666668
31
0
0
LINE
5
415
100
AcDbEntity
8
0
100
AcDbLine
10
397.21085291111109
20
-121.42115246666668
30
0
11
397.21085291111109
21
-117.21062268888889
31
0
0
LINE
5
416
100
AcDbEntity
8
0
100
AcDbLine
10
397.21085291111109
20
-117.21062268888889
30
0
11
388.78979335555556
21
-117.21062268888889
31
0
0
LINE
5
417
100
AcDbEntity
8
0
100
AcDbLine
10
388.78979335555556
20
-117.21062268888889
30
0
11
388.78979335555556
21
-121.42115246666668
31
0
0
LINE
5
418
100
AcDbEntity
8
0
100
AcDbLine
10
388.78979335555556
20
-121.42115246666668
30
0
11
380.36873380000003
21
-121.42115246666668
31
0
0
LINE
5
419
100
AcDbEntity
8
0
100
AcDbLine
10
380.36873380000003
20
-121.42115246666668
30
0
11
380.36873380000003
21
-117.21062268888889
31
0
0
LINE
5
420
100
AcDbEntity
8
0
100
AcDbLine
10
380.36873380000003
20
-117.21062268888889
30
0
11
371.9476742444445
21
-117.21062268888889
31
0
0
LINE
5
421
100
AcDbEntity
8
0
100
AcDbLine
10
371.9476742444445
20
-117.21062268888889
30
0
11
371.9476742444445
21
-121.42115246666668
31
0
0
LINE
5
422
100
AcDbEntity
8
0
100
AcDbLine
10
371.9476742444445
20
-121.42115246666668
30
0
11
363.52661468888891
21
-121.42115246666668
31
0
0
LINE
5
423
100
AcDbEntity
8
0
100
AcDbLine
10
363.52661468888891
20
-121.42115246666668
30
0
11
363.52661468888891
21
-117.21062268888889
31
0
0
LINE
5
424
100
AcDbEntity
8
0
100
AcDbLine
10
363.52661468888891
20
-117.21062268888889
30
0
11
353.0002902444445
21
-117.21062268888889
31
0
0
LINE
5
425
100
AcDbEntity
8
0
100
AcDbLine
10
353.0002902444445
20
-117.21062268888889
30
0
11
353.0002902444445
21
-121.42115246666668
31
0
0
LINE
5
426
100
AcDbEntity
8
0
100
AcDbLine
10
353.0002902444445
20
-121.42115246666668
30
0
11
346.68449557777785
21
-121.42115246666668
31
0
0
LINE
5
427
100
AcDbEntity
8
0
100
AcDbLine
10
346.68449557777785
20
-121.42115246666668
30
0
11
346.68449557777785
21
-107.21061446666668
31
0
0
LINE
5
428
100
AcDbEntity
8
0
100
AcDbLine
10
346.68449557777785
20
-107.21061446666668
30
0
11
342.47396579999997
21
-107.21061446666668
31
0
0
LINE
5
429
100
AcDbEntity
8
0
100
AcDbLine
10
342.47396579999997
20
-107.21061446666668
30
0
11
342.47396579999997
21
-93.000076466666684
31
0
0
LINE
5
430
100
AcDbEntity
8
0
100
AcDbLine
10
342.47396579999997
20
-93.000076466666684
30
0
11
346.68449557777785
21
-93.000076466666684
31
0
0
LINE
5
431
100
AcDbEntity
8
0
100
AcDbLine
10
346.68449557777785
20
-93.000076466666684
30
0
11
346.68449557777785
21
-84.579016911111111
31
0
0
LINE
5
432
100
AcDbEntity
8
0
100
AcDbLine
10
346.68449557777785
20
-84.579016911111111
30
0
11
342.47396579999997
21
-84.579016911111111
31
0
0
LINE
5
433
100
AcDbEntity
8
0
100
AcDbLine
10
342.47396579999997
20
-84.579016911111111
30
0
11
342.47396579999997
21
-76.157957355555567
31
0
0
LINE
5
434
100
AcDbEntity
8
0
100
AcDbLine
10
342.47396579999997
20
-76.157957355555567
30
0
11
346.68449557777785
21
-76.157957355555567
31
0
0
LINE
5
435
100
AcDbEntity
8
0
100
AcDbLine
10
346.68449557777785
20
-76.157957355555567
30
0
11
346.68449557777785
21
-67.736897800000008
31
0
0
LINE
5
436
100
AcDbEntity
8
0
100
AcDbLine
10
346.68449557777785
20
-67.736897800000008
30
0
11
342.47396579999997
21
-67.736897800000008
31
0
0
LINE
5
437
100
AcDbEntity
8
0
100
AcDbLine
10
342.47396579999997
20
-67.736897800000008
30
0
11
342.47396579999997
21
-59.31583824444445
31
0
0
LINE
5
438
100
AcDbEntity
8
0
100
AcDbLine
10
342.47396579999997
20
-59.31583824444445
30
0
11
346.68449557777785
21
-59.31583824444445
31
0
0
LINE
5
439
100
AcDbEntity
8
0
100
AcDbLine
10
346.68449557777785
20
-59.31583824444445
30
0
11
346.68449557777785
21
-50.894778688888884
31
0
0
LINE
5
440
100
AcDbEntity
8
0
100
AcDbLine
10
346.68449557777785
20
-50.894778688888884
30
0
11
342.47396579999997
21
-50.894778688888884
31
0
0
LINE
5
441
100
AcDbEntity
8
0
100
AcDbLine
10
342.47396579999997
20
-50.894778688888884
30
0
11
342.47396579999997
21
-42.473719133333333
31
0
0
LINE
5
442
100
AcDbEntity
8
0
100
AcDbLine
10
342.47396579999997
20
-42.473719133333333
30
0
11
346.68449557777785
21
-42.473719133333333
31
0
0
LINE
5
443
100
AcDbEntity
8
0
100
AcDbLine
10
346.68449557777785
20
-42.473719133333333
30
0
11
346.68449557777785
21
-34.052659577777781
31
0
0
LINE
5
444
100
AcDbEntity
8
0
100
AcDbLine
10
346.68449557777785
20
-34.052659577777781
30
0
11
342.47396579999997
21
-34.052659577777781
31
0
0
LINE
5
445
100
AcDbEntity
8
0
100
AcDbLine
10
342.47396579999997
20
-34.052659577777781
30
0
11
342.47396579999997
21
-19.842121577777778
31
0
0
LINE
5
446
100
AcDbEntity
8
0
100
AcDbLine
10
342.47396579999997
20
-19.842121577777778
30
0
11
346.68449557777785
21
-19.842121577777782
31
0
0
LINE
5
447
100
AcDbEntity
8
0
100
AcDbLine
10
346.68449557777785
20
-19.842121577777782
30
0
11
346.68449557777785
21
-5.6315835777777776
31
0
0
LINE
5
448
100
AcDbEntity
8
0
100
AcDbLine
10
346.68449557777785
20
-121.42115246666668
30
0
11
353.0002902444445
21
-121.42115246666668
31
0
0
LINE
5
449
100
AcDbEntity
8
0
100
AcDbLine
10
353.0002902444445
20
-121.42115246666668
30
0
11
353.0002902444445
21
-125.63168224444446
31
0
0
LINE
5
450
100
AcDbEntity
8
0
100
AcDbLine
10
353.0002902444445
20
-125.63168224444446
30
0
11
363.52661468888891
21
-125.63168224444446
31
0
0
LINE
5
451
100
AcDbEntity
8
0
100
AcDbLine
10
363.52661468888891
20
-125.63168224444446
30
0
11
363.52661468888891
21
-121.42115246666668
31
0
0
LINE
5
452
100
AcDbEntity
8
0
100
AcDbLine
10
363.52661468888891
20
-121.42115246666668
30
0
11
371.9476742444445
21
-121.42115246666668
31
0
0
LINE
5
453
100
AcDbEntity
8
0
100
AcDbLine
10
371.9476742444445
20
-121.42115246666668
30
0
11
371.9476742444445
21
-125.63168224444446
31
0
0
LINE
5
454
100
AcDbEntity
8
0
100
AcDbLine
10
371.9476742444445
20
-125.63168224444446
30
0
11
380.36873380000003
21
-125.63168224444446
31
0
0
LINE
5
455
100
AcDbEntity
8
0
100
AcDbLine
10
380.36873380000003
20
-125.63168224444446
30
0
11
380.36873380000003
21
-121.42115246666668
31
0
0
LINE
5
456
100
AcDbEntity
8
0
100
AcDbLine
10
380.36873380000003
20
-121.42115246666668
30
0
11
388.78979335555556
21
-121.42115246666668
31
0
0
LINE
5
457
100
AcDbEntity
8
0
100
AcDbLine
10
388.78979335555556
20
-121.42115246666668
30
0
11
388.78979335555556
21
-125.63168224444446
31
0
0
LINE
5
458
100
AcDbEntity
8
0
100
AcDbLine
10
388.78979335555556
20
-125.63168224444446
30
0
11
397.21085291111109
21
-125.63168224444446
31
0
0
LINE
5
459
100
AcDbEntity
8
0
100
AcDbLine
10
397.21085291111109
20
-125.63168224444446
30
0
11
397.21085291111109
21
-121.42115246666668
31
0
0
LINE
5
460
100
AcDbEntity
8
0
100
AcDbLine
10
397.21085291111109
20
-121.42115246666668
30
0
11
405.63191246666668
21
-121.42115246666668
31
0
0
LINE
5
461
100
AcDbEntity
8
0
100
AcDbLine
10
405.63191246666668
20
-121.42115246666668
30
0
11
405.63191246666668
21
-125.63168224444446
31
0
0
LINE
5
462
100
AcDbEntity
8
0
100
AcDbLine
10
405.63191246666668
20
-125.63168224444446
30
0
11
414.05297202222221
21
-125.63168224444446
31
0
0
LINE
5
463
100
AcDbEntity
8
0
100
AcDbLine
10
414.05297202222221
20
-125.63168224444446
30
0
11
414.05297202222232
21
-121.42115246666668
31
0
0
LINE
5
464
100
AcDbEntity
8
0
100
AcDbLine
10
414.05297202222232
20
-121.42115246666668
30
0
11
422.47403157777785
21
-121.42115246666668
31
0
0
LINE
5
465
100
AcDbEntity
8
0
100
AcDbLine
10
422.47403157777785
20
-121.42115246666668
30
0
11
422.47403157777785
21
-125.63168224444446
31
0
0
LINE
5
466
100
AcDbEntity
8
0
100
AcDbLine
10
422.47403157777785
20
-125.63168224444446
30
0
11
430.89509113333344
21
-125.63168224444446
31
0
0
LINE
5
467
100
AcDbEntity
8
0
100
AcDbLine
10
430.89509113333344
20
-125.63168224444446
30
0
11
430.89509113333344
21
-121.42115246666668
31
0
0
LINE
5
468
100
AcDbEntity
8
0
100
AcDbLine
10
430.89509113333344
20
-121.42115246666668
30
0
11
439.31615068888897
21
-121.42115246666668
31
0
0
LINE
5
469
100
AcDbEntity
8
0
100
AcDbLine
10
439.31615068888897
20
-121.42115246666668
30
0
11
439.31615068888897
21
-125.63168224444446
31
0
0
LINE
5
470
100
AcDbEntity
8
0
100
AcDbLine
10
439.31615068888897
20
-125.63168224444446
30
0
11
447.7372102444445
21
-125.63168224444446
31
0
0
LINE
5
471
100
AcDbEntity
8
0
100
AcDbLine
10
447.7372102444445
20
-125.63168224444446
30
0
11
447.7372102444445
21
-121.42115246666668
31
0
0
LINE
5
472
100
AcDbEntity
8
0
100
AcDbLine
10
447.7372102444445
20
-121.42115246666668
30
0
11
456.15826980000008
21
-121.42115246666668
31
0
0
LINE
5
473
100
AcDbEntity
8
0
100
AcDbLine
10
456.15826980000008
20
-121.42115246666668
30
0
11
456.15826980000008
21
-125.63168224444446
31
0
0
LINE
5
474
100
AcDbEntity
8
0
100
AcDbLine
10
456.15826980000008
20
-125.63168224444446
30
0
11
464.57932935555561
21
-125.63168224444446
31
0
0
LINE
5
475
100
AcDbEntity
8
0
100
AcDbLine
10
464.57932935555561
20
-125.63168224444446
30
0
11
464.57932935555561
21
-121.42115246666668
31
0
0
LINE
5
476
100
AcDbEntity
8
0
100
AcDbLine
10
464.57932935555561
20
-121.42115246666668
30
0
11
473.00038891111114
21
-121.42115246666668
31
0
0
LINE
5
477
100
AcDbEntity
8
0
100
AcDbLine
10
473.00038891111114
20
-121.42115246666668
30
0
11
473.00038891111114
21
-125.63168224444446
31
0
0
LINE
5
478
100
AcDbEntity
8
0
100
AcDbLine
10
473.00038891111114
20
-125.63168224444446
30
0
11
481.42144846666673
21
-125.63168224444446
31
0
0
LINE
5
479
100
AcDbEntity
8
0
100
AcDbLine
10
481.42144846666673
20
-125.63168224444446
30
0
11
481.42144846666673
21
-121.42115246666668
31
0
0
LINE
5
480
100
AcDbEntity
8
0
100
AcDbLine
10
481.42144846666673
20
-121.42115246666668
30
0
11
489.84250802222226
21
-121.42115246666668
31
0
0
LINE
5
481
100
AcDbEntity
8
0
100
AcDbLine
10
489.84250802222226
20
-121.42115246666668
30
0
11
489.84250802222226
21
-125.63168224444446
31
0
0
LINE
5
482
100
AcDbEntity
8
0
100
AcDbLine
10
489.84250802222226
20
-125.63168224444446
30
0
11
500.36883246666667
21
-125.63168224444446
31
0
0
LINE
5
483
100
AcDbEntity
8
0
100
AcDbLine
10
500.36883246666667
20
-125.63168224444446
30
0
11
500.36883246666667
21
-121.42115246666668
31
0
0
LINE
5
484
100
AcDbEntity
8
0
100
AcDbLine
10
500.36883246666667
20
-121.42115246666668
30
0
11
506.68462713333338
21
-121.42115246666668
31
0
0
LINE
5
485
100
AcDbEntity
8
0
100
AcDbLine
10
506.68462713333338
20
-121.42115246666668
30
0
11
506.68462713333338
21
-135.63169046666667
31
0
0
LINE
5
486
100
AcDbEntity
8
0
100
AcDbLine
10
506.68462713333338
20
-135.63169046666667
30
0
11
510.89515691111114
21
-135.63169046666667
31
0
0
LINE
5
487
100
AcDbEntity
8
0
100
AcDbLine
10
510.89515691111114
20
-135.63169046666667
30
0
11
510.89515691111114
21
-149.84222846666668
31
0
0
LINE
5
488
100
AcDbEntity
8
0
100
AcDbLine
10
510.89515691111114
20
-149.84222846666668
30
0
11
506.68462713333338
21
-149.84222846666668
31
0
0
LINE
5
489
100
AcDbEntity
8
0
100
AcDbLine
10
506.68462713333338
20
-149.84222846666668
30
0
11
506.68462713333338
21
-158.26328802222224
31
0
0
LINE
5
490
100
AcDbEntity
8
0
100
AcDbLine
10
506.68462713333338
20
-158.26328802222224
30
0
11
510.89515691111114
21
-158.26328802222224
31
0
0
LINE
5
491
100
AcDbEntity
8
0
100
AcDbLine
10
510.89515691111114
20
-158.26328802222224
30
0
11
510.89515691111114
21
-166.68434757777777
31
0
0
LINE
5
492
100
AcDbEntity
8
0
100
AcDbLine
10
510.89515691111114
20
-166.68434757777777
30
0
11
506.68462713333338
21
-166.68434757777777
31
0
0
LINE
5
493
100
AcDbEntity
8
0
100
AcDbLine
10
506.68462713333338
20
-166.68434757777777
30
0
11
506.68462713333338
21
-175.10540713333336
31
0
0
LINE
5
494
100
AcDbEntity
8
0
100
AcDbLine
10
506.68462713333338
20
-175.10540713333336
30
0
11
510.89515691111114
21
-175.10540713333336
31
0
0
LINE
5
495
100
AcDbEntity
8
0
100
AcDbLine
10
510.89515691111114
20
-175.10540713333336
30
0
11
510.89515691111114
21
-183.52646668888892
31
0
0
LINE
5
496
100
AcDbEntity
8
0
100
AcDbLine
10
510.89515691111114
20
-183.52646668888892
30
0
11
506.68462713333338
21
-183.52646668888892
31
0
0
LINE
5
497
100
AcDbEntity
8
0
100
AcDbLine
10
506.68462713333338
20
-183.52646668888892
30
0
11
506.68462713333338
21
-191.94752624444445
31
0
0
LINE
5
498
100
AcDbEntity
8
0
100
AcDbLine
10
506.68462713333338
20
-191.94752624444445
30
0
11
510.89515691111114
21
-191.94752624444445
31
0
0
LINE
5
499
100
AcDbEntity
8
0
100
AcDbLine
10
510.89515691111114
20
-191.94752624444445
30
0
11
510.89515691111114
21
-200.36858580000001
31
0
0
LINE
5
500
100
AcDbEntity
8
0
100
AcDbLine
10
510.89515691111114
20
-200.36858580000001
30
0
11
506.68462713333338
21
-200.36858580000001
31
0
0
LINE
5
501
100
AcDbEntity
8
0
100
AcDbLine
10
506.68462713333338
20
-200.36858580000001
30
0
11
506.68462713333338
21
-208.78964535555556
31
0
0
LINE
5
502
100
AcDbEntity
8
0
100
AcDbLine
10
506.68462713333338
20
-208.78964535555556
30
0
11
510.89515691111114
21
-208.78964535555556
31
0
0
LINE
5
503
100
AcDbEntity
8
0
100
AcDbLine
10
510.89515691111114
20
-208.78964535555556
30
0
11
510.89515691111114
21
-223.00018335555561
31
0
0
LINE
5
504
100
AcDbEntity
8
0
100
AcDbLine
10
510.89515691111114
20
-223.00018335555561
30
0
11
506.68462713333338
21
-223.00018335555561
31
0
0
LINE
5
505
100
AcDbEntity
8
0
100
AcDbLine
10
506.68462713333338
20
-223.00018335555561
30
0
11
506.68462713333338
21
-237.21072135555559
31
0
0
LINE
5
506
100
AcDbEntity
8
0
100
AcDbLine
10
506.68462713333338
20
-237.21072135555559
30
0
11
500.36883246666667
21
-237.21072135555559
31
0
0
LINE
5
507
100
AcDbEntity
8
0
100
AcDbLine
10
500.36883246666667
20
-237.21072135555559
30
0
11
500.36883246666667
21
-233.00019157777783
31
0
0
LINE
5
508
100
AcDbEntity
8
0
100
AcDbLine
10
500.36883246666667
20
-233.00019157777783
30
0
11
489.84250802222226
21
-233.0001915777778
31
0
0
LINE
5
509
100
AcDbEntity
8
0
100
AcDbLine
10
489.84250802222226
20
-233.0001915777778
30
0
11
489.84250802222226
21
-237.21072135555556
31
0
0
LINE
5
510
100
AcDbEntity
8
0
100
AcDbLine
10
489.84250802222226
20
-237.21072135555556
30
0
11
481.42144846666673
21
-237.21072135555559
31
0
0
LINE
5
511
100
AcDbEntity
8
0
100
AcDbLine
10
481.42144846666673
20
-237.21072135555559
30
0
11
481.42144846666673
21
-233.00019157777783
31
0
0
LINE
5
512
100
AcDbEntity
8
0
100
AcDbLine
10
481.42144846666673
20
-233.00019157777783
30
0
11
473.00038891111114
21
-233.0001915777778
31
0
0
LINE
5
513
100
AcDbEntity
8
0
100
AcDbLine
10
473.00038891111114
20
-233.0001915777778
30
0
11
473.00038891111114
21
-237.21072135555556
31
0
0
LINE
5
514
100
AcDbEntity
8
0
100
AcDbLine
10
473.00038891111114
20
-237.21072135555556
30
0
11
464.57932935555561
21
-237.21072135555559
31
0
0
LINE
5
515
100
AcDbEntity
8
0
100
AcDbLine
10
464.57932935555561
20
-237.21072135555559
30
0
11
464.57932935555561
21
-233.00019157777783
31
0
0
LINE
5
516
100
AcDbEntity
8
0
100
AcDbLine
10
464.57932935555561
20
-233.00019157777783
30
0
11
456.15826980000008
21
-233.0001915777778
31
0
0
LINE
5
517
100
AcDbEntity
8
0
100
AcDbLine
10
456.15826980000008
20
-233.0001915777778
30
0
11
456.15826980000008
21
-237.21072135555556
31
0
0
LINE
5
518
100
AcDbEntity
8
0
100
AcDbLine
10
456.15826980000008
20
-237.21072135555556
30
0
11
447.7372102444445
21
-237.21072135555559
31
0
0
LINE
5
519
100
AcDbEntity
8
0
100
AcDbLine
10
447.7372102444445
20
-237.21072135555559
30
0
11
447.7372102444445
21
-233.00019157777783
31
0
0
LINE
5
520
100
AcDbEntity
8
0
100
AcDbLine
10
447.7372102444445
20
-233.00019157777783
30
0
11
439.31615068888897
21
-233.0001915777778
31
0
0
LINE
5
521
100
AcDbEntity
8
0
100
AcDbLine
10
439.31615068888897
20
-233.0001915777778
30
0
11
439.31615068888897
21
-237.21072135555556
31
0
0
LINE
5
522
100
AcDbEntity
8
0
100
AcDbLine
10
439.31615068888897
20
-237.21072135555556
30
0
11
430.89509113333344
21
-237.21072135555559
31
0
0
LINE
5
523
100
AcDbEntity
8
0
100
AcDbLine
10
430.89509113333344
20
-237.21072135555559
30
0
11
430.89509113333344
21
-233.00019157777783
31
0
0
LINE
5
524
100
AcDbEntity
8
0
100
AcDbLine
10
430.89509113333344
20
-233.00019157777783
30
0
11
422.47403157777785
21
-233.0001915777778
31
0
0
LINE
5
525
100
AcDbEntity
8
0
100
AcDbLine
10
422.47403157777785
20
-233.0001915777778
30
0
11
422.47403157777785
21
-237.21072135555556
31
0
0
LINE
5
526
100
AcDbEntity
8
0
100
AcDbLine
10
422.47403157777785
20
-237.21072135555556
30
0
11
414.05297202222232
21
-237.21072135555559
31
0
0
LINE
5
527
100
AcDbEntity
8
0
100
AcDbLine
10
414.05297202222232
20
-237.21072135555559
30
0
11
414.05297202222232
21
-233.00019157777783
31
0
0
LINE
5
528
100
AcDbEntity
8
0
100
AcDbLine
10
414.05297202222232
20
-233.00019157777783
30
0
11
405.63191246666679
21
-233.0001915777778
31
0
0
LINE
5
529
100
AcDbEntity
8
0
100
AcDbLine
10
405.63191246666679
20
-233.0001915777778
30
0
11
405.63191246666668
21
-237.21072135555556
31
0
0
LINE
5
530
100
AcDbEntity
8
0
100
AcDbLine
10
405.63191246666668
20
-237.21072135555556
30
0
11
397.21085291111109
21
-237.21072135555559
31
0
0
LINE
5
531
100
AcDbEntity
8
0
100
AcDbLine
10
397.21085291111109
20
-237.21072135555559
30
0
11
397.21085291111109
21
-233.00019157777783
31
0
0
LINE
5
532
100
AcDbEntity
8
0
100
AcDbLine
10
397.21085291111109
20
-233.00019157777783
30
0
11
388.78979335555556
21
-233.0001915777778
31
0
0
LINE
5
533
100
AcDbEntity
8
0
100
AcDbLine
10
388.78979335555556
20
-233.0001915777778
30
0
11
388.78979335555556
21
-237.21072135555556
31
0
0
LINE
5
534
100
AcDbEntity
8
0
100
AcDbLine
10
388.78979335555556
20
-237.21072135555556
30
0
11
380.36873380000003
21
-237.21072135555559
31
0
0
LINE
5
535
100
AcDbEntity
8
0
100
AcDbLine
10
380.36873380000003
20
-237.21072135555559
30
0
11
380.36873380000003
21
-233.00019157777783
31
0
0
LINE
5
536
100
AcDbEntity
8
0
100
AcDbLine
10
380.36873380000003
20
-233.00019157777783
30
0
11
371.9476742444445
21
-233.0001915777778
31
0
0
LINE
5
537
100
AcDbEntity
8
0
100
AcDbLine
10
371.9476742444445
20
-233.0001915777778
30
0
11
371.9476742444445
21
-237.21072135555556
31
0
0
LINE
5
538
100
AcDbEntity
8
0
100
AcDbLine
10
371.9476742444445
20
-237.21072135555556
30
0
11
363.52661468888891
21
-237.21072135555559
31
0
0
LINE
5
539
100
AcDbEntity
8
0
100
AcDbLine
10
363.52661468888891
20
-237.21072135555559
30
0
11
363.52661468888891
21
-233.00019157777783
31
0
0
LINE
5
540
100
AcDbEntity
8
0
100
AcDbLine
10
363.52661468888891
20
-233.00019157777783
30
0
11
353.0002902444445
21
-233.0001915777778
31
0
0
LINE
5
541
100
AcDbEntity
8
0
100
AcDbLine
10
353.0002902444445
20
-233.0001915777778
30
0
11
353.0002902444445
21
-237.21072135555556
31
0
0
LINE
5
542
100
AcDbEntity
8
0
100
AcDbLine
10
353.0002902444445
20
-237.21072135555556
30
0
11
346.68449557777785
21
-237.21072135555559
31
0
0
LINE
5
543
100
AcDbEntity
8
0
100
AcDbLine
10
346.68449557777785
20
-237.21072135555559
30
0
11
346.68449557777785
21
-223.00018335555561
31
0
0
LINE
5
544
100
AcDbEntity
8
0
100
AcDbLine
10
346.68449557777785
20
-223.00018335555561
30
0
11
342.47396579999997
21
-223.00018335555561
31
0
0
LINE
5
545
100
AcDbEntity
8
0
100
AcDbLine
10
342.47396579999997
20
-223.00018335555561
30
0
11
342.47396579999997
21
-208.78964535555556
31
0
0
LINE
5
546
100
AcDbEntity
8
0
100
AcDbLine
10
342.47396579999997
20
-208.78964535555556
30
0
11
346.68449557777785
21
-208.78964535555556
31
0
0
LINE
5
547
100
AcDbEntity
8
0
100
AcDbLine
10
346.68449557777785
20
-208.78964535555556
30
0
11
346.68449557777785
21
-200.36858580000001
31
0
0
LINE
5
548
100
AcDbEntity
8
0
100
AcDbLine
10
346.68449557777785
20
-200.36858580000001
30
0
11
342.47396579999997
21
-200.36858580000001
31
0
0
LINE
5
549
100
AcDbEntity
8
0
100
AcDbLine
10
342.47396579999997
20
-200.36858580000001
30
0
11
342.47396579999997
21
-191.94752624444445
31
0
0
LINE
5
550
100
AcDbEntity
8
0
100
AcDbLine
10
342.47396579999997
20
-191.94752624444445
30
0
11
346.68449557777785
21
-191.94752624444445
31
0
0
LINE
5
551
100
AcDbEntity
8
0
100
AcDbLine
10
346.68449557777785
20
-191.94752624444445
30
0
11
346.68449557777785
21
-183.52646668888892
31
0
0
LINE
5
552
100
AcDbEntity
8
0
100
AcDbLine
10
346.68449557777785
20
-183.52646668888892
30
0
11
342.47396579999997
21
-183.52646668888892
31
0
0
LINE
5
553
100
AcDbEntity
8
0
100
AcDbLine
10
342.47396579999997
20
-183.52646668888892
30
0
11
342.47396579999997
21
-175.10540713333336
31
0
0
LINE
5
554
100
AcDbEntity
8
0
100
AcDbLine
10
342.47396579999997
20
-175.10540713333336
30
0
11
346.68449557777785
21
-175.10540713333336
31
0
0
LINE
5
555
100
AcDbEntity
8
0
100
AcDbLine
10
346.68449557777785
20
-175.10540713333336
30
0
11
346.68449557777785
21
-166.68434757777777
31
0
0
LINE
5
556
100
AcDbEntity
8
0
100
AcDbLine
10
346.68449557777785
20
-166.68434757777777
30
0
11
342.47396579999997
21
-166.68434757777777
31
0
0
LINE
5
557
100
AcDbEntity
8
0
100
AcDbLine
10
342.47396579999997
20
-166.68434757777777
30
0
11
342.47396579999997
21
-158.26328802222224
31
0
0
LINE
5
558
100
AcDbEntity
8
0
100
AcDbLine
10
342.47396579999997
20
-158.26328802222224
30
0
11
346.68449557777785
21
-158.26328802222224
31
0
0
LINE
5
559
100
AcDbEntity
8
0
100
AcDbLine
10
346.68449557777785
20
-158.26328802222224
30
0
11
346.68449557777785
21
-149.84222846666668
31
0
0
LINE
5
560
100
AcDbEntity
8
0
100
AcDbLine
10
346.68449557777785
20
-149.84222846666668
30
0
11
342.47396579999997
21
-149.84222846666668
31
0
0
LINE
5
561
100
AcDbEntity
8
0
100
AcDbLine
10
342.47396579999997
20
-149.84222846666668
30
0
11
342.47396579999997
21
-135.63169046666667
31
0
0
LINE
5
562
100
AcDbEntity
8
0
100
AcDbLine
10
342.47396579999997
20
-135.63169046666667
30
0
11
346.68449557777785
21
-135.63169046666667
31
0
0
LINE
5
563
100
AcDbEntity
8
0
100
AcDbLine
10
346.68449557777785
20
-135.63169046666667
30
0
11
346.68449557777785
21
-121.42115246666668
31
0
0
LINE
5
564
100
AcDbEntity
8
0
100
AcDbLine
10
9.842113355555556
20
-125.63168224444446
30
0
11
16.157908022222223
21
-125.63168224444446
31
0
0
LINE
5
565
100
AcDbEntity
8
0
100
AcDbLine
10
16.157908022222223
20
-125.63168224444446
30
0
11
16.157908022222223
21
-121.42115246666668
31
0
0
LINE
5
566
100
AcDbEntity
8
0
100
AcDbLine
10
16.157908022222223
20
-121.42115246666668
30
0
11
26.684232466666664
21
-121.42115246666668
31
0
0
LINE
5
567
100
AcDbEntity
8
0
100
AcDbLine
10
26.684232466666664
20
-121.42115246666668
30
0
11
26.684232466666664
21
-125.63168224444446
31
0
0
LINE
5
568
100
AcDbEntity
8
0
100
AcDbLine
10
26.684232466666664
20
-125.63168224444446
30
0
11
35.105292022222223
21
-125.63168224444446
31
0
0
LINE
5
569
100
AcDbEntity
8
0
100
AcDbLine
10
35.105292022222223
20
-125.63168224444446
30
0
11
35.105292022222223
21
-121.42115246666668
31
0
0
LINE
5
570
100
AcDbEntity
8
0
100
AcDbLine
10
35.105292022222223
20
-121.42115246666668
30
0
11
43.526351577777774
21
-121.42115246666668
31
0
0
LINE
5
571
100
AcDbEntity
8
0
100
AcDbLine
10
43.526351577777774
20
-121.42115246666668
30
0
11
43.526351577777774
21
-125.63168224444446
31
0
0
LINE
5
572
100
AcDbEntity
8
0
100
AcDbLine
10
43.526351577777774
20
-125.63168224444446
30
0
11
51.947411133333347
21
-125.63168224444446
31
0
0
LINE
5
573
100
AcDbEntity
8
0
100
AcDbLine
10
51.947411133333347
20
-125.63168224444446
30
0
11
51.947411133333333
21
-121.42115246666668
31
0
0
LINE
5
574
100
AcDbEntity
8
0
100
AcDbLine
10
51.947411133333333
20
-121.42115246666668
30
0
11
60.368470688888891
21
-121.42115246666668
31
0
0
LINE
5
575
100
AcDbEntity
8
0
100
AcDbLine
10
60.368470688888891
20
-121.42115246666668
30
0
11
60.368470688888891
21
-125.63168224444446
31
0
0
LINE
5
576
100
AcDbEntity
8
0
100
AcDbLine
10
60.368470688888891
20
-125.63168224444446
30
0
11
68.789530244444435
21
-125.63168224444446
31
0
0
LINE
5
577
100
AcDbEntity
8
0
100
AcDbLine
10
68.789530244444435
20
-125.63168224444446
30
0
11
68.789530244444435
21
-121.42115246666668
31
0
0
LINE
5
578
100
AcDbEntity
8
0
100
AcDbLine
10
68.789530244444435
20
-121.42115246666668
30
0
11
77.210589800000022
21
-121.42115246666668
31
0
0
LINE
5
579
100
AcDbEntity
8
0
100
AcDbLine
10
77.210589800000022
20
-121.42115246666668
30
0
11
77.210589800000008
21
-125.63168224444446
31
0
0
LINE
5
580
100
AcDbEntity
8
0
100
AcDbLine
10
77.210589800000008
20
-125.63168224444446
30
0
11
85.631649355555567
21
-125.63168224444446
31
0
0
LINE
5
581
100
AcDbEntity
8
0
100
AcDbLine
10
85.631649355555567
20
-125.63168224444446
30
0
11
85.631649355555567
21
-121.42115246666668
31
0
0
LINE
5
582
100
AcDbEntity
8
0
100
AcDbLine
10
85.631649355555567
20
-121.42115246666668
30
0
11
94.052708911111125
21
-121.42115246666668
31
0
0
LINE
5
583
100
AcDbEntity
8
0
100
AcDbLine
10
94.052708911111125
20
-121.42115246666668
30
0
11
94.052708911111125
21
-125.63168224444446
31
0
0
LINE
5
584
100
AcDbEntity
8
0
100
AcDbLine
10
94.052708911111125
20
-125.63168224444446
30
0
11
102.47376846666667
21
-125.63168224444446
31
0
0
LINE
5
585
100
AcDbEntity
8
0
100
AcDbLine
10
102.47376846666667
20
-125.63168224444446
30
0
11
102.47376846666667
21
-121.42115246666668
31
0
0
LINE
5
586
100
AcDbEntity
8
0
100
AcDbLine
10
102.47376846666667
20
-121.42115246666668
30
0
11
110.89482802222223
21
-121.42115246666668
31
0
0
LINE
5
587
100
AcDbEntity
8
0
100
AcDbLine
10
110.89482802222223
20
-121.42115246666668
30
0
11
110.89482802222221
21
-125.63168224444446
31
0
0
LINE
5
588
100
AcDbEntity
8
0
100
AcDbLine
10
110.89482802222221
20
-125.63168224444446
30
0
11
119.31588757777777
21
-125.63168224444446
31
0
0
LINE
5
589
100
AcDbEntity
8
0
100
AcDbLine
10
119.31588757777777
20
-125.63168224444446
30
0
11
119.3158875777778
21
-121.42115246666668
31
0
0
LINE
5
590
100
AcDbEntity
8
0
100
AcDbLine
10
119.3158875777778
20
-121.42115246666668
30
0
11
127.73694713333335
21
-121.42115246666668
31
0
0
LINE
5
591
100
AcDbEntity
8
0
100
AcDbLine
10
127.73694713333335
20
-121.42115246666668
30
0
11
127.73694713333335
21
-125.63168224444446
31
0
0
LINE
5
592
100
AcDbEntity
8
0
100
AcDbLine
10
127.73694713333335
20
-125.63168224444446
30
0
11
136.15800668888889
21
-125.63168224444446
31
0
0
LINE
5
593
100
AcDbEntity
8
0
100
AcDbLine
10
136.15800668888889
20
-125.63168224444446
30
0
11
136.15800668888889
21
-121.42115246666668
31
0
0
LINE
5
594
100
AcDbEntity
8
0
100
AcDbLine
10
136.15800668888889
20
-121.42115246666668
30
0
11
144.57906624444448
21
-121.42115246666668
31
0
0
LINE
5
595
100
AcDbEntity
8
0
100
AcDbLine
10
144.57906624444448
20
-121.42115246666668
30
0
11
144.57906624444445
21
-125.63168224444446
31
0
0
LINE
5
596
100
AcDbEntity
8
0
100
AcDbLine
10
144.57906624444445
20
-125.63168224444446
30
0
11
153.00012580000001
21
-125.63168224444446
31
0
0
LINE
5
597
100
AcDbEntity
8
0
100
AcDbLine
10
153.00012580000001
20
-125.63168224444446
30
0
11
153.00012580000003
21
-121.42115246666668
31
0
0
LINE
5
598
100
AcDbEntity
8
0
100
AcDbLine
10
153.00012580000003
20
-121.42115246666668
30
0
11
163.52645024444445
21
-121.42115246666668
31
0
0
LINE
5
599
100
AcDbEntity
8
0
100
AcDbLine
10
163.52645024444445
20
-121.42115246666668
30
0
11
163.52645024444445
21
-125.63168224444446
31
0
0
LINE
5
600
100
AcDbEntity
8
0
100
AcDbLine
10
163.52645024444445
20
-125.63168224444446
30
0
11
169.84224491111115
21
-125.63168224444446
31
0
0
LINE
5
601
100
AcDbEntity
8
0
100
AcDbLine
10
169.84224491111115
20
-125.63168224444446
30
0
11
169.84224491111115
21
-131.9474769111111
31
0
0
LINE
5
602
100
AcDbEntity
8
0
100
AcDbLine
10
169.84224491111115
20
-131.9474769111111
30
0
11
174.05277468888892
21
-131.9474769111111
31
0
0
LINE
5
603
100
AcDbEntity
8
0
100
AcDbLine
10
174.05277468888892
20
-131.9474769111111
30
0
11
174.05277468888892
21
-142.47380135555557
31
0
0
LINE
5
604
100
AcDbEntity
8
0
100
AcDbLine
10
174.05277468888892
20
-142.47380135555557
30
0
11
169.84224491111115
21
-142.47380135555557
31
0
0
LINE
5
605
100
AcDbEntity
8
0
100
AcDbLine
10
169.84224491111115
20
-142.47380135555557
30
0
11
169.84224491111115
21
-150.8948609111111
31
0
0
LINE
5
606
100
AcDbEntity
8
0
100
AcDbLine
10
169.84224491111115
20
-150.8948609111111
30
0
11
174.05277468888892
21
-150.89486091111112
31
0
0
LINE
5
607
100
AcDbEntity
8
0
100
AcDbLine
10
174.05277468888892
20
-150.89486091111112
30
0
11
174.05277468888892
21
-159.31592046666668
31
0
0
LINE
5
608
100
AcDbEntity
8
0
100
AcDbLine
10
174.05277468888892
20
-159.31592046666668
30
0
11
169.84224491111115
21
-159.31592046666668
31
0
0
LINE
5
609
100
AcDbEntity
8
0
100
AcDbLine
10
169.84224491111115
20
-159.31592046666668
30
0
11
169.84224491111115
21
-167.73698002222221
31
0
0
LINE
5
610
100
AcDbEntity
8
0
100
AcDbLine
10
169.84224491111115
20
-167.73698002222221
30
0
11
174.05277468888892
21
-167.73698002222221
31
0
0
LINE
5
611
100
AcDbEntity
8
0
100
AcDbLine
10
174.05277468888892
20
-167.73698002222221
30
0
11
174.05277468888892
21
-176.1580395777778
31
0
0
LINE
5
612
100
AcDbEntity
8
0
100
AcDbLine
10
174.05277468888892
20
-176.1580395777778
30
0
11
169.84224491111115
21
-176.1580395777778
31
0
0
LINE
5
613
100
AcDbEntity
8
0
100
AcDbLine
10
169.84224491111115
20
-176.1580395777778
30
0
11
169.84224491111115
21
-184.57909913333336
31
0
0
LINE
5
614
100
AcDbEntity
8
0
100
AcDbLine
10
169.84224491111115
20
-184.57909913333336
30
0
11
174.05277468888892
21
-184.57909913333336
31
0
0
LINE
5
615
100
AcDbEntity
8
0
100
AcDbLine
10
174.05277468888892
20
-184.57909913333336
30
0
11
174.05277468888892
21
-193.00015868888889
31
0
0
LINE
5
616
100
AcDbEntity
8
0
100
AcDbLine
10
174.05277468888892
20
-193.00015868888889
30
0
11
169.84224491111115
21
-193.00015868888889
31
0
0
LINE
5
617
100
AcDbEntity
8
0
100
AcDbLine
10
169.84224491111115
20
-193.00015868888889
30
0
11
169.84224491111115
21
-201.42121824444445
31
0
0
LINE
5
618
100
AcDbEntity
8
0
100
AcDbLine
10
169.84224491111115
20
-201.42121824444445
30
0
11
174.05277468888892
21
-201.42121824444445
31
0
0
LINE
5
619
100
AcDbEntity
8
0
100
AcDbLine
10
174.05277468888892
20
-201.42121824444445
30
0
11
174.05277468888892
21
-209.84227780000001
31
0
0
LINE
5
620
100
AcDbEntity
8
0
100
AcDbLine
10
174.05277468888892
20
-209.84227780000001
30
0
11
169.84224491111115
21
-209.84227780000003
31
0
0
LINE
5
621
100
AcDbEntity
8
0
100
AcDbLine
10
169.84224491111115
20
-209.84227780000003
30
0
11
169.84224491111115
21
-218.26333735555556
31
0
0
LINE
5
622
100
AcDbEntity
8
0
100
AcDbLine
10
169.84224491111115
20
-218.26333735555556
30
0
11
174.05277468888892
21
-218.26333735555556
31
0
0
LINE
5
623
100
AcDbEntity
8
0
100
AcDbLine
10
174.05277468888892
20
-218.26333735555556
30
0
11
174.05277468888892
21
-226.68439691111109
31
0
0
LINE
5
624
100
AcDbEntity
8
0
100
AcDbLine
10
174.05277468888892
20
-226.68439691111109
30
0
11
169.84224491111115
21
-226.68439691111109
31
0
0
LINE
5
625
100
AcDbEntity
8
0
100
AcDbLine
10
169.84224491111115
20
-226.68439691111109
30
0
11
169.84224491111115
21
-235.10545646666671
31
0
0
LINE
5
626
100
AcDbEntity
8
0
100
AcDbLine
10
169.84224491111115
20
-235.10545646666671
30
0
11
174.05277468888892
21
-235.10545646666671
31
0
0
LINE
5
627
100
AcDbEntity
8
0
100
AcDbLine
10
174.05277468888892
20
-235.10545646666671
30
0
11
174.05277468888892
21
-243.52651602222224
31
0
0
LINE
5
628
100
AcDbEntity
8
0
100
AcDbLine
10
174.05277468888892
20
-243.52651602222224
30
0
11
169.84224491111115
21
-243.52651602222224
31
0
0
LINE
5
629
100
AcDbEntity
8
0
100
AcDbLine
10
169.84224491111115
20
-243.52651602222224
30
0
11
169.84224491111115
21
-251.94757557777777
31
0
0
LINE
5
630
100
AcDbEntity
8
0
100
AcDbLine
10
169.84224491111115
20
-251.94757557777777
30
0
11
174.05277468888892
21
-251.94757557777777
31
0
0
LINE
5
631
100
AcDbEntity
8
0
100
AcDbLine
10
174.05277468888892
20
-251.94757557777777
30
0
11
174.05277468888892
21
-260.36863513333338
31
0
0
LINE
5
632
100
AcDbEntity
8
0
100
AcDbLine
10
174.05277468888892
20
-260.36863513333338
30
0
11
169.84224491111115
21
-260.36863513333338
31
0
0
LINE
5
633
100
AcDbEntity
8
0
100
AcDbLine
10
169.84224491111115
20
-260.36863513333338
30
0
11
169.84224491111115
21
-268.78969468888891
31
0
0
LINE
5
634
100
AcDbEntity
8
0
100
AcDbLine
10
169.84224491111115
20
-268.78969468888891
30
0
11
174.05277468888892
21
-268.78969468888891
31
0
0
LINE
5
635
100
AcDbEntity
8
0
100
AcDbLine
10
174.05277468888892
20
-268.78969468888891
30
0
11
174.05277468888892
21
-279.31601913333333
31
0
0
LINE
5
636
100
AcDbEntity
8
0
100
AcDbLine
10
174.05277468888892
20
-279.31601913333333
30
0
11
169.84224491111115
21
-279.31601913333333
31
0
0
LINE
5
637
100
AcDbEntity
8
0
100
AcDbLine
10
169.84224491111115
20
-279.31601913333333
30
0
11
169.84224491111115
21
-285.63181380000003
31
0
0
LINE
5
638
100
AcDbEntity
8
0
100
AcDbLine
10
169.84224491111115
20
-285.63181380000003
30
0
11
163.52645024444445
21
-285.63181380000003
31
0
0
LINE
5
639
100
AcDbEntity
8
0
100
AcDbLine
10
163.52645024444445
20
-285.63181380000003
30
0
11
163.52645024444445
21
-289.8423435777778
31
0
0
LINE
5
640
100
AcDbEntity
8
0
100
AcDbLine
10
163.52645024444445
20
-289.8423435777778
30
0
11
153.00012580000003
21
-289.8423435777778
31
0
0
LINE
5
641
100
AcDbEntity
8
0
100
AcDbLine
10
153.00012580000003
20
-289.8423435777778
30
0
11
153.00012580000003
21
-285.63181380000003
31
0
0
LINE
5
642
100
AcDbEntity
8
0
100
AcDbLine
10
153.00012580000003
20
-285.63181380000003
30
0
11
144.57906624444448
21
-285.63181380000003
31
0
0
LINE
5
643
100
AcDbEntity
8
0
100
AcDbLine
10
144.57906624444448
20
-285.63181380000003
30
0
11
144.57906624444445
21
-289.8423435777778
31
0
0
LINE
5
644
100
AcDbEntity
8
0
100
AcDbLine
10
144.57906624444445
20
-289.8423435777778
30
0
11
136.15800668888889
21
-289.8423435777778
31
0
0
LINE
5
645
100
AcDbEntity
8
0
100
AcDbLine
10
136.15800668888889
20
-289.8423435777778
30
0
11
136.15800668888889
21
-285.63181380000003
31
0
0
LINE
5
646
100
AcDbEntity
8
0
100
AcDbLine
10
136.15800668888889
20
-285.63181380000003
30
0
11
127.73694713333335
21
-285.63181380000003
31
0
0
LINE
5
647
100
AcDbEntity
8
0
100
AcDbLine
10
127.73694713333335
20
-285.63181380000003
30
0
11
127.73694713333335
21
-289.8423435777778
31
0
0
LINE
5
648
100
AcDbEntity
8
0
100
AcDbLine
10
127.73694713333335
20
-289.8423435777778
30
0
11
119.3158875777778
21
-289.8423435777778
31
0
0
LINE
5
649
100
AcDbEntity
8
0
100
AcDbLine
10
119.3158875777778
20
-289.8423435777778
30
0
11
119.3158875777778
21
-285.63181380000003
31
0
0
LINE
5
650
100
AcDbEntity
8
0
100
AcDbLine
10
119.3158875777778
20
-285.63181380000003
30
0
11
110.89482802222223
21
-285.63181380000003
31
0
0
LINE
5
651
100
AcDbEntity
8
0
100
AcDbLine
10
110.89482802222223
20
-285.63181380000003
30
0
11
110.89482802222221
21
-289.8423435777778
31
0
0
LINE
5
652
100
AcDbEntity
8
0
100
AcDbLine
10
110.89482802222221
20
-289.8423435777778
30
0
11
102.47376846666667
21
-289.8423435777778
31
0
0
LINE
5
653
100
AcDbEntity
8
0
100
AcDbLine
10
102.47376846666667
20
-289.8423435777778
30
0
11
102.47376846666667
21
-285.63181380000003
31
0
0
LINE
5
654
100
AcDbEntity
8
0
100
AcDbLine
10
102.47376846666667
20
-285.63181380000003
30
0
11
94.052708911111125
21
-285.63181380000003
31
0
0
LINE
5
655
100
AcDbEntity
8
0
100
AcDbLine
10
94.052708911111125
20
-285.63181380000003
30
0
11
94.052708911111125
21
-289.8423435777778
31
0
0
LINE
5
656
100
AcDbEntity
8
0
100
AcDbLine
10
94.052708911111125
20
-289.8423435777778
30
0
11
85.631649355555567
21
-289.8423435777778
31
0
0
LINE
5
657
100
AcDbEntity
8
0
100
AcDbLine
10
85.631649355555567
20
-289.8423435777778
30
0
11
85.631649355555567
21
-285.63181380000003
31
0
0
LINE
5
658
100
AcDbEntity
8
0
100
AcDbLine
10
85.631649355555567
20
-285.63181380000003
30
0
11
77.210589800000022
21
-285.63181380000003
31
0
0
LINE
5
659
100
AcDbEntity
8
0
100
AcDbLine
10
77.210589800000022
20
-285.63181380000003
30
0
11
77.210589800000008
21
-289.8423435777778
31
0
0
LINE
5
660
100
AcDbEntity
8
0
100
AcDbLine
10
77.210589800000008
20
-289.8423435777778
30
0
11
68.78953024444445
21
-289.8423435777778
31
0
0
LINE
5
661
100
AcDbEntity
8
0
100
AcDbLine
10
68.78953024444445
20
-289.8423435777778
30
0
11
68.789530244444435
21
-285.63181380000003
31
0
0
LINE
5
662
100
AcDbEntity
8
0
100
AcDbLine
10
68.789530244444435
20
-285.63181380000003
30
0
11
60.368470688888891
21
-285.63181380000003
31
0
0
LINE
5
663
100
AcDbEntity
8
0
100
AcDbLine
10
60.368470688888891
20
-285.63181380000003
30
0
11
60.368470688888891
21
-289.8423435777778
31
0
0
LINE
5
664
100
AcDbEntity
8
0
100
AcDbLine
10
60.368470688888891
20
-289.8423435777778
30
0
11
51.947411133333347
21
-289.8423435777778
31
0
0
LINE
5
665
100
AcDbEntity
8
0
100
AcDbLine
10
51.947411133333347
20
-289.8423435777778
30
0
11
51.947411133333333
21
-285.63181380000003
31
0
0
LINE
5
666
100
AcDbEntity
8
0
100
AcDbLine
10
51.947411133333333
20
-285.63181380000003
30
0
11
43.526351577777774
21
-285.63181380000003
31
0
0
LINE
5
667
100
AcDbEntity
8
0
100
AcDbLine
10
43.526351577777774
20
-285.63181380000003
30
0
11
43.526351577777774
21
-289.8423435777778
31
0
0
LINE
5
668
100
AcDbEntity
8
0
100
AcDbLine
10
43.526351577777774
20
-289.8423435777778
30
0
11
35.105292022222223
21
-289.8423435777778
31
0
0
LINE
5
669
100
AcDbEntity
8
0
100
AcDbLine
10
35.105292022222223
20
-289.8423435777778
30
0
11
35.105292022222223
21
-285.63181380000003
31
0
0
LINE
5
670
100
AcDbEntity
8
0
100
AcDbLine
10
35.105292022222223
20
-285.63181380000003
30
0
11
26.684232466666664
21
-285.63181380000003
31
0
0
LINE
5
671
100
AcDbEntity
8
0
100
AcDbLine
10
26.684232466666664
20
-285.63181380000003
30
0
11
26.684232466666664
21
-289.8423435777778
31
0
0
LINE
5
672
100
AcDbEntity
8
0
100
AcDbLine
10
26.684232466666664
20
-289.8423435777778
30
0
11
16.157908022222223
21
-289.8423435777778
31
0
0
LINE
5
673
100
AcDbEntity
8
0
100
AcDbLine
10
16.157908022222223
20
-289.8423435777778
30
0
11
16.157908022222223
21
-285.63181380000003
31
0
0
LINE
5
674
100
AcDbEntity
8
0
100
AcDbLine
10
16.157908022222223
20
-285.63181380000003
30
0
11
9.842113355555556
21
-285.63181380000003
31
0
0
LINE
5
675
100
AcDbEntity
8
0
100
AcDbLine
10
9.842113355555556
20
-285.63181380000003
30
0
11
9.842113355555556
21
-279.31601913333333
31
0
0
LINE
5
676
100
AcDbEntity
8
0
100
AcDbLine
10
9.842113355555556
20
-279.31601913333333
30
0
11
5.6315835777777776
21
-279.31601913333333
31
0
0
LINE
5
677
100
AcDbEntity
8
0
100
AcDbLine
10
5.6315835777777776
20
-279.31601913333333
30
0
11
5.6315835777777776
21
-268.78969468888891
31
0
0
LINE
5
678
100
AcDbEntity
8
0
100
AcDbLine
10
5.6315835777777776
20
-268.78969468888891
30
0
11
9.842113355555556
21
-268.78969468888891
31
0
0
LINE
5
679
100
AcDbEntity
8
0
100
AcDbLine
10
9.842113355555556
20
-268.78969468888891
30
0
11
9.842113355555556
21
-260.36863513333338
31
0
0
LINE
5
680
100
AcDbEntity
8
0
100
AcDbLine
10
9.842113355555556
20
-260.36863513333338
30
0
11
5.6315835777777776
21
-260.36863513333338
31
0
0
LINE
5
681
100
AcDbEntity
8
0
100
AcDbLine
10
5.6315835777777776
20
-260.36863513333338
30
0
11
5.6315835777777776
21
-251.94757557777777
31
0
0
LINE
5
682
100
AcDbEntity
8
0
100
AcDbLine
10
5.6315835777777776
20
-251.94757557777777
30
0
11
9.842113355555556
21
-251.94757557777777
31
0
0
LINE
5
683
100
AcDbEntity
8
0
100
AcDbLine
10
9.842113355555556
20
-251.94757557777777
30
0
11
9.842113355555556
21
-243.52651602222224
31
0
0
LINE
5
684
100
AcDbEntity
8
0
100
AcDbLine
10
9.842113355555556
20
-243.52651602222224
30
0
11
5.6315835777777776
21
-243.52651602222224
31
0
0
LINE
5
685
100
AcDbEntity
8
0
100
AcDbLine
10
5.6315835777777776
20
-243.52651602222224
30
0
11
5.6315835777777776
21
-235.10545646666671
31
0
0
LINE
5
686
100
AcDbEntity
8
0
100
AcDbLine
10
5.6315835777777776
20
-235.10545646666671
30
0
11
9.842113355555556
21
-235.10545646666671
31
0
0
LINE
5
687
100
AcDbEntity
8
0
100
AcDbLine
10
9.842113355555556
20
-235.10545646666671
30
0
11
9.842113355555556
21
-226.68439691111109
31
0
0
LINE
5
688
100
AcDbEntity
8
0
100
AcDbLine
10
9.842113355555556
20
-226.68439691111109
30
0
11
5.6315835777777776
21
-226.68439691111109
31
0
0
LINE
5
689
100
AcDbEntity
8
0
100
AcDbLine
10
5.6315835777777776
20
-226.68439691111109
30
0
11
5.6315835777777776
21
-218.26333735555556
31
0
0
LINE
5
690
100
AcDbEntity
8
0
100
AcDbLine
10
5.6315835777777776
20
-218.26333735555556
30
0
11
9.842113355555556
21
-218.26333735555556
31
0
0
LINE
5
691
100
AcDbEntity
8
0
100
AcDbLine
10
9.842113355555556
20
-218.26333735555556
30
0
11
9.842113355555556
21
-209.84227780000003
31
0
0
LINE
5
692
100
AcDbEntity
8
0
100
AcDbLine
10
9.842113355555556
20
-209.84227780000003
30
0
11
5.6315835777777776
21
-209.84227780000003
31
0
0
LINE
5
693
100
AcDbEntity
8
0
100
AcDbLine
10
5.6315835777777776
20
-209.84227780000003
30
0
11
5.6315835777777776
21
-201.42121824444447
31
0
0
LINE
5
694
100
AcDbEntity
8
0
100
AcDbLine
10
5.6315835777777776
20
-201.42121824444447
30
0
11
9.842113355555556
21
-201.42121824444445
31
0
0
LINE
5
695
100
AcDbEntity
8
0
100
AcDbLine
10
9.842113355555556
20
-201.42121824444445
30
0
11
9.842113355555556
21
-193.00015868888889
31
0
0
LINE
5
696
100
AcDbEntity
8
0
100
AcDbLine
10
9.842113355555556
20
-193.00015868888889
30
0
11
5.6315835777777776
21
-193.00015868888889
31
0
0
LINE
5
697
100
AcDbEntity
8
0
100
AcDbLine
10
5.6315835777777776
20
-193.00015868888889
30
0
11
5.6315835777777776
21
-184.57909913333336
31
0
0
LINE
5
698
100
AcDbEntity
8
0
100
AcDbLine
10
5.6315835777777776
20
-184.57909913333336
30
0
11
9.842113355555556
21
-184.57909913333336
31
0
0
LINE
5
699
100
AcDbEntity
8
0
100
AcDbLine
10
9.842113355555556
20
-184.57909913333336
30
0
11
9.842113355555556
21
-176.1580395777778
31
0
0
LINE
5
700
100
AcDbEntity
8
0
100
AcDbLine
10
9.842113355555556
20
-176.1580395777778
30
0
11
5.6315835777777776
21
-176.1580395777778
31
0
0
LINE
5
701
100
AcDbEntity
8
0
100
AcDbLine
10
5.6315835777777776
20
-176.1580395777778
30
0
11
5.6315835777777776
21
-167.73698002222221
31
0
0
LINE
5
702
100
AcDbEntity
8
0
100
AcDbLine
10
5.6315835777777776
20
-167.73698002222221
30
0
11
9.842113355555556
21
-167.73698002222221
31
0
0
LINE
5
703
100
AcDbEntity
8
0
100
AcDbLine
10
9.842113355555556
20
-167.73698002222221
30
0
11
9.842113355555556
21
-159.31592046666668
31
0
0
LINE
5
704
100
AcDbEntity
8
0
100
AcDbLine
10
9.842113355555556
20
-159.31592046666668
30
0
11
5.6315835777777776
21
-159.31592046666668
31
0
0
LINE
5
705
100
AcDbEntity
8
0
100
AcDbLine
10
5.6315835777777776
20
-159.31592046666668
30
0
11
5.6315835777777776
21
-150.89486091111112
31
0
0
LINE
5
706
100
AcDbEntity
8
0
100
AcDbLine
10
5.6315835777777776
20
-150.89486091111112
30
0
11
9.842113355555556
21
-150.89486091111112
31
0
0
LINE
5
707
100
AcDbEntity
8
0
100
AcDbLine
10
9.842113355555556
20
-150.89486091111112
30
0
11
9.842113355555556
21
-142.47380135555557
31
0
0
LINE
5
708
100
AcDbEntity
8
0
100
AcDbLine
10
9.842113355555556
20
-142.47380135555557
30
0
11
5.6315835777777776
21
-142.47380135555557
31
0
0
LINE
5
709
100
AcDbEntity
8
0
100
AcDbLine
10
5.6315835777777776
20
-142.47380135555557
30
0
11
5.6315835777777776
21
-131.9474769111111
31
0
0
LINE
5
710
100
AcDbEntity
8
0
100
AcDbLine
10
5.6315835777777776
20
-131.9474769111111
30
0
11
9.842113355555556
21
-131.9474769111111
31
0
0
LINE
5
711
100
AcDbEntity
8
0
100
AcDbLine
10
9.842113355555556
20
-131.9474769111111
30
0
11
9.842113355555556
21
-125.63168224444446
31
0
0
LINE
5
712
100
AcDbEntity
8
0
100
AcDbLine
10
178.26330446666668
20
-125.63168224444446
30
0
11
184.57909913333336
21
-125.63168224444446
31
0
0
LINE
5
713
100
AcDbEntity
8
0
100
AcDbLine
10
184.57909913333336
20
-125.63168224444446
30
0
11
184.57909913333333
21
-121.42115246666668
31
0
0
LINE
5
714
100
AcDbEntity
8
0
100
AcDbLine
10
184.57909913333333
20
-121.42115246666668
30
0
11
195.1054235777778
21
-121.42115246666668
31
0
0
LINE
5
715
100
AcDbEntity
8
0
100
AcDbLine
10
195.1054235777778
20
-121.42115246666668
30
0
11
195.1054235777778
21
-125.63168224444446
31
0
0
LINE
5
716
100
AcDbEntity
8
0
100
AcDbLine
10
195.1054235777778
20
-125.63168224444446
30
0
11
203.52648313333333
21
-125.63168224444446
31
0
0
LINE
5
717
100
AcDbEntity
8
0
100
AcDbLine
10
203.52648313333333
20
-125.63168224444446
30
0
11
203.52648313333333
21
-121.42115246666668
31
0
0
LINE
5
718
100
AcDbEntity
8
0
100
AcDbLine
10
203.52648313333333
20
-121.42115246666668
30
0
11
211.94754268888889
21
-121.42115246666668
31
0
0
LINE
5
719
100
AcDbEntity
8
0
100
AcDbLine
10
211.94754268888889
20
-121.42115246666668
30
0
11
211.94754268888889
21
-125.63168224444446
31
0
0
LINE
5
720
100
AcDbEntity
8
0
100
AcDbLine
10
211.94754268888889
20
-125.63168224444446
30
0
11
220.36860224444445
21
-125.63168224444446
31
0
0
LINE
5
721
100
AcDbEntity
8
0
100
AcDbLine
10
220.36860224444445
20
-125.63168224444446
30
0
11
220.36860224444445
21
-121.42115246666668
31
0
0
LINE
5
722
100
AcDbEntity
8
0
100
AcDbLine
10
220.36860224444445
20
-121.42115246666668
30
0
11
228.78966180000003
21
-121.42115246666668
31
0
0
LINE
5
723
100
AcDbEntity
8
0
100
AcDbLine
10
228.78966180000003
20
-121.42115246666668
30
0
11
228.78966179999998
21
-125.63168224444446
31
0
0
LINE
5
724
100
AcDbEntity
8
0
100
AcDbLine
10
228.78966179999998
20
-125.63168224444446
30
0
11
237.21072135555551
21
-125.63168224444446
31
0
0
LINE
5
725
100
AcDbEntity
8
0
100
AcDbLine
10
237.21072135555551
20
-125.63168224444446
30
0
11
237.21072135555556
21
-121.42115246666668
31
0
0
LINE
5
726
100
AcDbEntity
8
0
100
AcDbLine
10
237.21072135555556
20
-121.42115246666668
30
0
11
245.63178091111112
21
-121.42115246666668
31
0
0
LINE
5
727
100
AcDbEntity
8
0
100
AcDbLine
10
245.63178091111112
20
-121.42115246666668
30
0
11
245.63178091111112
21
-125.63168224444446
31
0
0
LINE
5
728
100
AcDbEntity
8
0
100
AcDbLine
10
245.63178091111112
20
-125.63168224444446
30
0
11
254.05284046666668
21
-125.63168224444446
31
0
0
LINE
5
729
100
AcDbEntity
8
0
100
AcDbLine
10
254.05284046666668
20
-125.63168224444446
30
0
11
254.05284046666668
21
-121.42115246666668
31
0
0
LINE
5
730
100
AcDbEntity
8
0
100
AcDbLine
10
254.05284046666668
20
-121.42115246666668
30
0
11
262.47390002222221
21
-121.42115246666668
31
0
0
LINE
5
731
100
AcDbEntity
8
0
100
AcDbLine
10
262.47390002222221
20
-121.42115246666668
30
0
11
262.47390002222221
21
-125.63168224444446
31
0
0
LINE
5
732
100
AcDbEntity
8
0
100
AcDbLine
10
262.47390002222221
20
-125.63168224444446
30
0
11
270.8949595777778
21
-125.63168224444446
31
0
0
LINE
5
733
100
AcDbEntity
8
0
100
AcDbLine
10
270.8949595777778
20
-125.63168224444446
30
0
11
270.8949595777778
21
-121.42115246666668
31
0
0
LINE
5
734
100
AcDbEntity
8
0
100
AcDbLine
10
270.8949595777778
20
-121.42115246666668
30
0
11
279.31601913333333
21
-121.42115246666668
31
0
0
LINE
5
735
100
AcDbEntity
8
0
100
AcDbLine
10
279.31601913333333
20
-121.42115246666668
30
0
11
279.31601913333333
21
-125.63168224444446
31
0
0
LINE
5
736
100
AcDbEntity
8
0
100
AcDbLine
10
279.31601913333333
20
-125.63168224444446
30
0
11
287.73707868888886
21
-125.63168224444446
31
0
0
LINE
5
737
100
AcDbEntity
8
0
100
AcDbLine
10
287.73707868888886
20
-125.63168224444446
30
0
11
287.73707868888886
21
-121.42115246666668
31
0
0
LINE
5
738
100
AcDbEntity
8
0
100
AcDbLine
10
287.73707868888886
20
-121.42115246666668
30
0
11
296.15813824444444
21
-121.42115246666668
31
0
0
LINE
5
739
100
AcDbEntity
8
0
100
AcDbLine
10
296.15813824444444
20
-121.42115246666668
30
0
11
296.15813824444444
21
-125.63168224444446
31
0
0
LINE
5
740
100
AcDbEntity
8
0
100
AcDbLine
10
296.15813824444444
20
-125.63168224444446
30
0
11
304.57919780000003
21
-125.63168224444446
31
0
0
LINE
5
741
100
AcDbEntity
8
0
100
AcDbLine
10
304.57919780000003
20
-125.63168224444446
30
0
11
304.57919780000003
21
-121.42115246666668
31
0
0
LINE
5
742
100
AcDbEntity
8
0
100
AcDbLine
10
304.57919780000003
20
-121.42115246666668
30
0
11
313.00025735555556
21
-121.42115246666668
31
0
0
LINE
5
743
100
AcDbEntity
8
0
100
AcDbLine
10
313.00025735555556
20
-121.42115246666668
30
0
11
313.00025735555556
21
-125.63168224444446
31
0
0
LINE
5
744
100
AcDbEntity
8
0
100
AcDbLine
10
313.00025735555556
20
-125.63168224444446
30
0
11
321.42131691111109
21
-125.63168224444446
31
0
0
LINE
5
745
100
AcDbEntity
8
0
100
AcDbLine
10
321.42131691111109
20
-125.63168224444446
30
0
11
321.42131691111109
21
-121.42115246666668
31
0
0
LINE
5
746
100
AcDbEntity
8
0
100
AcDbLine
10
321.42131691111109
20
-121.42115246666668
30
0
11
331.94764135555567
21
-121.42115246666668
31
0
0
LINE
5
747
100
AcDbEntity
8
0
100
AcDbLine
10
331.94764135555567
20
-121.42115246666668
30
0
11
331.94764135555556
21
-125.63168224444446
31
0
0
LINE
5
748
100
AcDbEntity
8
0
100
AcDbLine
10
331.94764135555556
20
-125.63168224444446
30
0
11
338.26343602222221
21
-125.63168224444446
31
0
0
LINE
5
749
100
AcDbEntity
8
0
100
AcDbLine
10
338.26343602222221
20
-125.63168224444446
30
0
11
338.26343602222221
21
-131.9474769111111
31
0
0
LINE
5
750
100
AcDbEntity
8
0
100
AcDbLine
10
338.26343602222221
20
-131.9474769111111
30
0
11
342.47396579999997
21
-131.9474769111111
31
0
0
LINE
5
751
100
AcDbEntity
8
0
100
AcDbLine
10
342.47396579999997
20
-131.9474769111111
30
0
11
342.47396579999997
21
-142.47380135555557
31
0
0
LINE
5
752
100
AcDbEntity
8
0
100
AcDbLine
10
342.47396579999997
20
-142.47380135555557
30
0
11
338.26343602222221
21
-142.47380135555557
31
0
0
LINE
5
753
100
AcDbEntity
8
0
100
AcDbLine
10
338.26343602222221
20
-142.47380135555557
30
0
11
338.26343602222221
21
-150.8948609111111
31
0
0
LINE
5
754
100
AcDbEntity
8
0
100
AcDbLine
10
338.26343602222221
20
-150.8948609111111
30
0
11
342.47396579999997
21
-150.89486091111112
31
0
0
LINE
5
755
100
AcDbEntity
8
0
100
AcDbLine
10
342.47396579999997
20
-150.89486091111112
30
0
11
342.47396579999997
21
-159.31592046666668
31
0
0
LINE
5
756
100
AcDbEntity
8
0
100
AcDbLine
10
342.47396579999997
20
-159.31592046666668
30
0
11
338.26343602222221
21
-159.31592046666668
31
0
0
LINE
5
757
100
AcDbEntity
8
0
100
AcDbLine
10
338.26343602222221
20
-159.31592046666668
30
0
11
338.26343602222221
21
-167.73698002222221
31
0
0
LINE
5
758
100
AcDbEntity
8
0
100
AcDbLine
10
338.26343602222221
20
-167.73698002222221
30
0
11
342.47396579999997
21
-167.73698002222221
31
0
0
LINE
5
759
100
AcDbEntity
8
0
100
AcDbLine
10
342.47396579999997
20
-167.73698002222221
30
0
11
342.47396579999997
21
-176.1580395777778
31
0
0
LINE
5
760
100
AcDbEntity
8
0
100
AcDbLine
10
342.47396579999997
20
-176.1580395777778
30
0
11
338.26343602222221
21
-176.1580395777778
31
0
0
LINE
5
761
100
AcDbEntity
8
0
100
AcDbLine
10
338.26343602222221
20
-176.1580395777778
30
0
11
338.26343602222221
21
-184.57909913333336
31
0
0
LINE
5
762
100
AcDbEntity
8
0
100
AcDbLine
10
338.26343602222221
20
-184.57909913333336
30
0
11
342.47396579999997
21
-184.57909913333336
31
0
0
LINE
5
763
100
AcDbEntity
8
0
100
AcDbLine
10
342.47396579999997
20
-184.57909913333336
30
0
11
342.47396579999997
21
-193.00015868888889
31
0
0
LINE
5
764
100
AcDbEntity
8
0
100
AcDbLine
10
342.47396579999997
20
-193.00015868888889
30
0
11
338.26343602222221
21
-193.00015868888889
31
0
0
LINE
5
765
100
AcDbEntity
8
0
100
AcDbLine
10
338.26343602222221
20
-193.00015868888889
30
0
11
338.26343602222221
21
-201.42121824444445
31
0
0
LINE
5
766
100
AcDbEntity
8
0
100
AcDbLine
10
338.26343602222221
20
-201.42121824444445
30
0
11
342.47396579999997
21
-201.42121824444445
31
0
0
LINE
5
767
100
AcDbEntity
8
0
100
AcDbLine
10
342.47396579999997
20
-201.42121824444445
30
0
11
342.47396579999997
21
-209.84227780000001
31
0
0
LINE
5
768
100
AcDbEntity
8
0
100
AcDbLine
10
342.47396579999997
20
-209.84227780000001
30
0
11
338.26343602222221
21
-209.84227780000003
31
0
0
LINE
5
769
100
AcDbEntity
8
0
100
AcDbLine
10
338.26343602222221
20
-209.84227780000003
30
0
11
338.26343602222221
21
-218.26333735555556
31
0
0
LINE
5
770
100
AcDbEntity
8
0
100
AcDbLine
10
338.26343602222221
20
-218.26333735555556
30
0
11
342.47396579999997
21
-218.26333735555556
31
0
0
LINE
5
771
100
AcDbEntity
8
0
100
AcDbLine
10
342.47396579999997
20
-218.26333735555556
30
0
11
342.47396579999997
21
-226.68439691111109
31
0
0
LINE
5
772
100
AcDbEntity
8
0
100
AcDbLine
10
342.47396579999997
20
-226.68439691111109
30
0
11
338.26343602222221
21
-226.68439691111109
31
0
0
LINE
5
773
100
AcDbEntity
8
0
100
AcDbLine
10
338.26343602222221
20
-226.68439691111109
30
0
11
338.26343602222221
21
-235.10545646666671
31
0
0
LINE
5
774
100
AcDbEntity
8
0
100
AcDbLine
10
338.26343602222221
20
-235.10545646666671
30
0
11
342.47396579999997
21
-235.10545646666671
31
0
0
LINE
5
775
100
AcDbEntity
8
0
100
AcDbLine
10
342.47396579999997
20
-235.10545646666671
30
0
11
342.47396579999997
21
-243.52651602222224
31
0
0
LINE
5
776
100
AcDbEntity
8
0
100
AcDbLine
10
342.47396579999997
20
-243.52651602222224
30
0
11
338.26343602222221
21
-243.52651602222224
31
0
0
LINE
5
777
100
AcDbEntity
8
0
100
AcDbLine
10
338.26343602222221
20
-243.52651602222224
30
0
11
338.26343602222221
21
-251.94757557777777
31
0
0
LINE
5
778
100
AcDbEntity
8
0
100
AcDbLine
10
338.26343602222221
20
-251.94757557777777
30
0
11
342.47396579999997
21
-251.94757557777777
31
0
0
LINE
5
779
100
AcDbEntity
8
0
100
AcDbLine
10
342.47396579999997
20
-251.94757557777777
30
0
11
342.47396579999997
21
-260.36863513333338
31
0
0
LINE
5
780
100
AcDbEntity
8
0
100
AcDbLine
10
342.47396579999997
20
-260.36863513333338
30
0
11
338.26343602222221
21
-260.36863513333338
31
0
0
LINE
5
781
100
AcDbEntity
8
0
100
AcDbLine
10
338.26343602222221
20
-260.36863513333338
30
0
11
338.26343602222221
21
-268.78969468888891
31
0
0
LINE
5
782
100
AcDbEntity
8
0
100
AcDbLine
10
338.26343602222221
20
-268.78969468888891
30
0
11
342.47396579999997
21
-268.78969468888891
31
0
0
LINE
5
783
100
AcDbEntity
8
0
100
AcDbLine
10
342.47396579999997
20
-268.78969468888891
30
0
11
342.47396579999997
21
-279.31601913333333
31
0
0
LINE
5
784
100
AcDbEntity
8
0
100
AcDbLine
10
342.47396579999997
20
-279.31601913333333
30
0
11
338.26343602222221
21
-279.31601913333333
31
0
0
LINE
5
785
100
AcDbEntity
8
0
100
AcDbLine
10
338.26343602222221
20
-279.31601913333333
30
0
11
338.26343602222221
21
-285.63181380000003
31
0
0
LINE
5
786
100
AcDbEntity
8
0
100
AcDbLine
10
338.26343602222221
20
-285.63181380000003
30
0
11
331.94764135555556
21
-285.63181380000003
31
0
0
LINE
5
787
100
AcDbEntity
8
0
100
AcDbLine
10
331.94764135555556
20
-285.63181380000003
30
0
11
331.94764135555556
21
-289.8423435777778
31
0
0
LINE
5
788
100
AcDbEntity
8
0
100
AcDbLine
10
331.94764135555556
20
-289.8423435777778
30
0
11
321.42131691111109
21
-289.8423435777778
31
0
0
LINE
5
789
100
AcDbEntity
8
0
100
AcDbLine
10
321.42131691111109
20
-289.8423435777778
30
0
11
321.42131691111109
21
-285.63181380000003
31
0
0
LINE
5
790
100
AcDbEntity
8
0
100
AcDbLine
10
321.42131691111109
20
-285.63181380000003
30
0
11
313.00025735555556
21
-285.63181380000003
31
0
0
LINE
5
791
100
AcDbEntity
8
0
100
AcDbLine
10
313.00025735555556
20
-285.63181380000003
30
0
11
313.00025735555556
21
-289.8423435777778
31
0
0
LINE
5
792
100
AcDbEntity
8
0
100
AcDbLine
10
313.00025735555556
20
-289.8423435777778
30
0
11
304.57919780000003
21
-289.8423435777778
31
0
0
LINE
5
793
100
AcDbEntity
8
0
100
AcDbLine
10
304.57919780000003
20
-289.8423435777778
30
0
11
304.57919780000003
21
-285.63181380000003
31
0
0
LINE
5
794
100
AcDbEntity
8
0
100
AcDbLine
10
304.57919780000003
20
-285.63181380000003
30
0
11
296.15813824444444
21
-285.63181380000003
31
0
0
LINE
5
795
100
AcDbEntity
8
0
100
AcDbLine
10
296.15813824444444
20
-285.63181380000003
30
0
11
296.15813824444444
21
-289.8423435777778
31
0
0
LINE
5
796
100
AcDbEntity
8
0
100
AcDbLine
10
296.15813824444444
20
-289.8423435777778
30
0
11
287.73707868888886
21
-289.8423435777778
31
0
0
LINE
5
797
100
AcDbEntity
8
0
100
AcDbLine
10
287.73707868888886
20
-289.8423435777778
30
0
11
287.73707868888886
21
-285.63181380000003
31
0
0
LINE
5
798
100
AcDbEntity
8
0
100
AcDbLine
10
287.73707868888886
20
-285.63181380000003
30
0
11
279.31601913333333
21
-285.63181380000003
31
0
0
LINE
5
799
100
AcDbEntity
8
0
100
AcDbLine
10
279.31601913333333
20
-285.63181380000003
30
0
11
279.31601913333333
21
-289.8423435777778
31
0
0
LINE
5
800
100
AcDbEntity
8
0
100
AcDbLine
10
279.31601913333333
20
-289.8423435777778
30
0
11
270.8949595777778
21
-289.8423435777778
31
0
0
LINE
5
801
100
AcDbEntity
8
0
100
AcDbLine
10
270.8949595777778
20
-289.8423435777778
30
0
11
270.8949595777778
21
-285.63181380000003
31
0
0
LINE
5
802
100
AcDbEntity
8
0
100
AcDbLine
10
270.8949595777778
20
-285.63181380000003
30
0
11
262.47390002222221
21
-285.63181380000003
31
0
0
LINE
5
803
100
AcDbEntity
8
0
100
AcDbLine
10
262.47390002222221
20
-285.63181380000003
30
0
11
262.47390002222221
21
-289.8423435777778
31
0
0
LINE
5
804
100
AcDbEntity
8
0
100
AcDbLine
10
262.47390002222221
20
-289.8423435777778
30
0
11
254.05284046666668
21
-289.8423435777778
31
0
0
LINE
5
805
100
AcDbEntity
8
0
100
AcDbLine
10
254.05284046666668
20
-289.8423435777778
30
0
11
254.05284046666668
21
-285.63181380000003
31
0
0
LINE
5
806
100
AcDbEntity
8
0
100
AcDbLine
10
254.05284046666668
20
-285.63181380000003
30
0
11
245.63178091111112
21
-285.63181380000003
31
0
0
LINE
5
807
100
AcDbEntity
8
0
100
AcDbLine
10
245.63178091111112
20
-285.63181380000003
30
0
11
245.63178091111112
21
-289.8423435777778
31
0
0
LINE
5
808
100
AcDbEntity
8
0
100
AcDbLine
10
245.63178091111112
20
-289.8423435777778
30
0
11
237.21072135555556
21
-289.8423435777778
31
0
0
LINE
5
809
100
AcDbEntity
8
0
100
AcDbLine
10
237.21072135555556
20
-289.8423435777778
30
0
11
237.21072135555556
21
-285.63181380000003
31
0
0
LINE
5
810
100
AcDbEntity
8
0
100
AcDbLine
10
237.21072135555556
20
-285.63181380000003
30
0
11
228.78966180000003
21
-285.63181380000003
31
0
0
LINE
5
811
100
AcDbEntity
8
0
100
AcDbLine
10
228.78966180000003
20
-285.63181380000003
30
0
11
228.78966179999998
21
-289.8423435777778
31
0
0
LINE
5
812
100
AcDbEntity
8
0
100
AcDbLine
10
228.78966179999998
20
-289.8423435777778
30
0
11
220.36860224444445
21
-289.8423435777778
31
0
0
LINE
5
813
100
AcDbEntity
8
0
100
AcDbLine
10
220.36860224444445
20
-289.8423435777778
30
0
11
220.36860224444445
21
-285.63181380000003
31
0
0
LINE
5
814
100
AcDbEntity
8
0
100
AcDbLine
10
220.36860224444445
20
-285.63181380000003
30
0
11
211.94754268888889
21
-285.63181380000003
31
0
0
LINE
5
815
100
AcDbEntity
8
0
100
AcDbLine
10
211.94754268888889
20
-285.63181380000003
30
0
11
211.94754268888889
21
-289.8423435777778
31
0
0
LINE
5
816
100
AcDbEntity
8
0
100
AcDbLine
10
211.94754268888889
20
-289.8423435777778
30
0
11
203.52648313333333
21
-289.8423435777778
31
0
0
LINE
5
817
100
AcDbEntity
8
0
100
AcDbLine
10
203.52648313333333
20
-289.8423435777778
30
0
11
203.52648313333333
21
-285.63181380000003
31
0
0
LINE
5
818
100
AcDbEntity
8
0
100
AcDbLine
10
203.52648313333333
20
-285.63181380000003
30
0
11
195.1054235777778
21
-285.63181380000003
31
0
0
LINE
5
819
100
AcDbEntity
8
0
100
AcDbLine
10
195.1054235777778
20
-285.63181380000003
30
0
11
195.1054235777778
21
-289.8423435777778
31
0
0
LINE
5
820
100
AcDbEntity
8
0
100
AcDbLine
10
195.1054235777778
20
-289.8423435777778
30
0
11
184.57909913333333
21
-289.8423435777778
31
0
0
LINE
5
821
100
AcDbEntity
8
0
100
AcDbLine
10
184.57909913333333
20
-289.8423435777778
30
0
11
184.57909913333333
21
-285.63181380000003
31
0
0
LINE
5
822
100
AcDbEntity
8
0
100
AcDbLine
10
184.57909913333333
20
-285.63181380000003
30
0
11
178.26330446666663
21
-285.63181380000003
31
0
0
LINE
5
823
100
AcDbEntity
8
0
100
AcDbLine
10
178.26330446666663
20
-285.63181380000003
30
0
11
178.26330446666668
21
-279.31601913333333
31
0
0
LINE
5
824
100
AcDbEntity
8
0
100
AcDbLine
10
178.26330446666668
20
-279.31601913333333
30
0
11
174.05277468888892
21
-279.31601913333333
31
0
0
LINE
5
825
100
AcDbEntity
8
0
100
AcDbLine
10
174.05277468888892
20
-279.31601913333333
30
0
11
174.05277468888892
21
-268.78969468888891
31
0
0
LINE
5
826
100
AcDbEntity
8
0
100
AcDbLine
10
174.05277468888892
20
-268.78969468888891
30
0
11
178.26330446666668
21
-268.78969468888891
31
0
0
LINE
5
827
100
AcDbEntity
8
0
100
AcDbLine
10
178.26330446666668
20
-268.78969468888891
30
0
11
178.26330446666668
21
-260.36863513333338
31
0
0
LINE
5
828
100
AcDbEntity
8
0
100
AcDbLine
10
178.26330446666668
20
-260.36863513333338
30
0
11
174.05277468888892
21
-260.36863513333338
31
0
0
LINE
5
829
100
AcDbEntity
8
0
100
AcDbLine
10
174.05277468888892
20
-260.36863513333338
30
0
11
174.05277468888892
21
-251.94757557777777
31
0
0
LINE
5
830
100
AcDbEntity
8
0
100
AcDbLine
10
174.05277468888892
20
-251.94757557777777
30
0
11
178.26330446666668
21
-251.94757557777777
31
0
0
LINE
5
831
100
AcDbEntity
8
0
100
AcDbLine
10
178.26330446666668
20
-251.94757557777777
30
0
11
178.26330446666668
21
-243.52651602222224
31
0
0
LINE
5
832
100
AcDbEntity
8
0
100
AcDbLine
10
178.26330446666668
20
-243.52651602222224
30
0
11
174.05277468888892
21
-243.52651602222224
31
0
0
LINE
5
833
100
AcDbEntity
8
0
100
AcDbLine
10
174.05277468888892
20
-243.52651602222224
30
0
11
174.05277468888892
21
-235.10545646666671
31
0
0
LINE
5
834
100
AcDbEntity
8
0
100
AcDbLine
10
174.05277468888892
20
-235.10545646666671
30
0
11
178.26330446666668
21
-235.10545646666671
31
0
0
LINE
5
835
100
AcDbEntity
8
0
100
AcDbLine
10
178.26330446666668
20
-235.10545646666671
30
0
11
178.26330446666668
21
-226.68439691111109
31
0
0
LINE
5
836
100
AcDbEntity
8
0
100
AcDbLine
10
178.26330446666668
20
-226.68439691111109
30
0
11
174.05277468888892
21
-226.68439691111109
31
0
0
LINE
5
837
100
AcDbEntity
8
0
100
AcDbLine
10
174.05277468888892
20
-226.68439691111109
30
0
11
174.05277468888892
21
-218.26333735555556
31
0
0
LINE
5
838
100
AcDbEntity
8
0
100
AcDbLine
10
174.05277468888892
20
-218.26333735555556
30
0
11
178.26330446666668
21
-218.26333735555556
31
0
0
LINE
5
839
100
AcDbEntity
8
0
100
AcDbLine
10
178.26330446666668
20
-218.26333735555556
30
0
11
178.26330446666668
21
-209.84227780000003
31
0
0
LINE
5
840
100
AcDbEntity
8
0
100
AcDbLine
10
178.26330446666668
20
-209.84227780000003
30
0
11
174.05277468888892
21
-209.84227780000001
31
0
0
LINE
5
841
100
AcDbEntity
8
0
100
AcDbLine
10
174.05277468888892
20
-209.84227780000001
30
0
11
174.05277468888892
21
-201.42121824444445
31
0
0
LINE
5
842
100
AcDbEntity
8
0
100
AcDbLine
10
174.05277468888892
20
-201.42121824444445
30
0
11
178.26330446666668
21
-201.42121824444445
31
0
0
LINE
5
843
100
AcDbEntity
8
0
100
AcDbLine
10
178.26330446666668
20
-201.42121824444445
30
0
11
178.26330446666668
21
-193.00015868888889
31
0
0
LINE
5
844
100
AcDbEntity
8
0
100
AcDbLine
10
178.26330446666668
20
-193.00015868888889
30
0
11
174.05277468888892
21
-193.00015868888889
31
0
0
LINE
5
845
100
AcDbEntity
8
0
100
AcDbLine
10
174.05277468888892
20
-193.00015868888889
30
0
11
174.05277468888892
21
-184.57909913333336
31
0
0
LINE
5
846
100
AcDbEntity
8
0
100
AcDbLine
10
174.05277468888892
20
-184.57909913333336
30
0
11
178.26330446666668
21
-184.57909913333336
31
0
0
LINE
5
847
100
AcDbEntity
8
0
100
AcDbLine
10
178.26330446666668
20
-184.57909913333336
30
0
11
178.26330446666668
21
-176.1580395777778
31
0
0
LINE
5
848
100
AcDbEntity
8
0
100
AcDbLine
10
178.26330446666668
20
-176.1580395777778
30
0
11
174.05277468888892
21
-176.1580395777778
31
0
0
LINE
5
849
100
AcDbEntity
8
0
100
AcDbLine
10
174.05277468888892
20
-176.1580395777778
30
0
11
174.05277468888892
21
-167.73698002222221
31
0
0
LINE
5
850
100
AcDbEntity
8
0
100
AcDbLine
10
174.05277468888892
20
-167.73698002222221
30
0
11
178.26330446666668
21
-167.73698002222221
31
0
0
LINE
5
851
100
AcDbEntity
8
0
100
AcDbLine
10
178.26330446666668
20
-167.73698002222221
30
0
11
178.26330446666668
21
-159.31592046666668
31
0
0
LINE
5
852
100
AcDbEntity
8
0
100
AcDbLine
10
178.26330446666668
20
-159.31592046666668
30
0
11
174.05277468888892
21
-159.31592046666668
31
0
0
LINE
5
853
100
AcDbEntity
8
0
100
AcDbLine
10
174.05277468888892
20
-159.31592046666668
30
0
11
174.05277468888892
21
-150.89486091111112
31
0
0
LINE
5
854
100
AcDbEntity
8
0
100
AcDbLine
10
174.05277468888892
20
-150.89486091111112
30
0
11
178.26330446666668
21
-150.89486091111112
31
0
0
LINE
5
855
100
AcDbEntity
8
0
100
AcDbLine
10
178.26330446666668
20
-150.89486091111112
30
0
11
178.26330446666668
21
-142.47380135555557
31
0
0
LINE
5
856
100
AcDbEntity
8
0
100
AcDbLine
10
178.26330446666668
20
-142.47380135555557
30
0
11
174.05277468888892
21
-142.47380135555557
31
0
0
LINE
5
857
100
AcDbEntity
8
0
100
AcDbLine
10
174.05277468888892
20
-142.47380135555557
30
0
11
174.05277468888892
21
-131.9474769111111
31
0
0
LINE
5
858
100
AcDbEntity
8
0
100
AcDbLine
10
174.05277468888892
20
-131.9474769111111
30
0
11
178.26330446666668
21
-131.9474769111111
31
0
0
LINE
5
859
100
AcDbEntity
8
0
100
AcDbLine
10
178.26330446666668
20
-131.9474769111111
30
0
11
178.26330446666668
21
-125.63168224444446
31
0
0
LINE
5
860
100
AcDbEntity
8
0
100
AcDbLine
10
5.6315835777777776
20
-5.6315835777777776
30
0
11
16.15790802222222
21
-5.6315835777777776
31
0
0
LINE
5
861
100
AcDbEntity
8
0
100
AcDbLine
10
16.15790802222222
20
-5.6315835777777776
30
0
11
16.157908022222223
21
-9.842113355555556
31
0
0
LINE
5
862
100
AcDbEntity
8
0
100
AcDbLine
10
16.157908022222223
20
-9.842113355555556
30
0
11
26.684232466666664
21
-9.842113355555556
31
0
0
LINE
5
863
100
AcDbEntity
8
0
100
AcDbLine
10
26.684232466666664
20
-9.842113355555556
30
0
11
26.684232466666664
21
-5.6315835777777776
31
0
0
LINE
5
864
100
AcDbEntity
8
0
100
AcDbLine
10
26.684232466666664
20
-5.6315835777777776
30
0
11
35.105292022222223
21
-5.6315835777777776
31
0
0
LINE
5
865
100
AcDbEntity
8
0
100
AcDbLine
10
35.105292022222223
20
-5.6315835777777776
30
0
11
35.105292022222223
21
-9.842113355555556
31
0
0
LINE
5
866
100
AcDbEntity
8
0
100
AcDbLine
10
35.105292022222223
20
-9.842113355555556
30
0
11
43.526351577777774
21
-9.842113355555556
31
0
0
LINE
5
867
100
AcDbEntity
8
0
100
AcDbLine
10
43.526351577777774
20
-9.842113355555556
30
0
11
43.526351577777774
21
-5.6315835777777776
31
0
0
LINE
5
868
100
AcDbEntity
8
0
100
AcDbLine
10
43.526351577777774
20
-5.6315835777777776
30
0
11
51.947411133333347
21
-5.6315835777777776
31
0
0
LINE
5
869
100
AcDbEntity
8
0
100
AcDbLine
10
51.947411133333347
20
-5.6315835777777776
30
0
11
51.947411133333333
21
-9.842113355555556
31
0
0
LINE
5
870
100
AcDbEntity
8
0
100
AcDbLine
10
51.947411133333333
20
-9.842113355555556
30
0
11
60.368470688888891
21
-9.842113355555556
31
0
0
LINE
5
871
100
AcDbEntity
8
0
100
AcDbLine
10
60.368470688888891
20
-9.842113355555556
30
0
11
60.368470688888891
21
-5.6315835777777776
31
0
0
LINE
5
872
100
AcDbEntity
8
0
100
AcDbLine
10
60.368470688888891
20
-5.6315835777777776
30
0
11
68.789530244444435
21
-5.6315835777777776
31
0
0
LINE
5
873
100
AcDbEntity
8
0
100
AcDbLine
10
68.789530244444435
20
-5.6315835777777776
30
0
11
68.789530244444435
21
-9.842113355555556
31
0
0
LINE
5
874
100
AcDbEntity
8
0
100
AcDbLine
10
68.789530244444435
20
-9.842113355555556
30
0
11
77.210589800000008
21
-9.842113355555556
31
0
0
LINE
5
875
100
AcDbEntity
8
0
100
AcDbLine
10
77.210589800000008
20
-9.842113355555556
30
0
11
77.210589800000008
21
-5.6315835777777776
31
0
0
LINE
5
876
100
AcDbEntity
8
0
100
AcDbLine
10
77.210589800000008
20
-5.6315835777777776
30
0
11
85.631649355555567
21
-5.6315835777777776
31
0
0
LINE
5
877
100
AcDbEntity
8
0
100
AcDbLine
10
85.631649355555567
20
-5.6315835777777776
30
0
11
85.631649355555567
21
-9.842113355555556
31
0
0
LINE
5
878
100
AcDbEntity
8
0
100
AcDbLine
10
85.631649355555567
20
-9.842113355555556
30
0
11
94.052708911111125
21
-9.842113355555556
31
0
0
LINE
5
879
100
AcDbEntity
8
0
100
AcDbLine
10
94.052708911111125
20
-9.842113355555556
30
0
11
94.052708911111125
21
-5.6315835777777776
31
0
0
LINE
5
880
100
AcDbEntity
8
0
100
AcDbLine
10
94.052708911111125
20
-5.6315835777777776
30
0
11
102.47376846666667
21
-5.6315835777777776
31
0
0
LINE
5
881
100
AcDbEntity
8
0
100
AcDbLine
10
102.47376846666667
20
-5.6315835777777776
30
0
11
102.47376846666667
21
-9.842113355555556
31
0
0
LINE
5
882
100
AcDbEntity
8
0
100
AcDbLine
10
102.47376846666667
20
-9.842113355555556
30
0
11
110.89482802222221
21
-9.842113355555556
31
0
0
LINE
5
883
100
AcDbEntity
8
0
100
AcDbLine
10
110.89482802222221
20
-9.842113355555556
30
0
11
110.89482802222221
21
-5.6315835777777776
31
0
0
LINE
5
884
100
AcDbEntity
8
0
100
AcDbLine
10
110.89482802222221
20
-5.6315835777777776
30
0
11
119.31588757777777
21
-5.6315835777777776
31
0
0
LINE
5
885
100
AcDbEntity
8
0
100
AcDbLine
10
119.31588757777777
20
-5.6315835777777776
30
0
11
119.3158875777778
21
-9.842113355555556
31
0
0
LINE
5
886
100
AcDbEntity
8
0
100
AcDbLine
10
119.3158875777778
20
-9.842113355555556
30
0
11
127.73694713333335
21
-9.842113355555556
31
0
0
LINE
5
887
100
AcDbEntity
8
0
100
AcDbLine
10
127.73694713333335
20
-9.842113355555556
30
0
11
127.73694713333335
21
-5.6315835777777776
31
0
0
LINE
5
888
100
AcDbEntity
8
0
100
AcDbLine
10
127.73694713333335
20
-5.6315835777777776
30
0
11
136.15800668888889
21
-5.6315835777777776
31
0
0
LINE
5
889
100
AcDbEntity
8
0
100
AcDbLine
10
136.15800668888889
20
-5.6315835777777776
30
0
11
136.15800668888889
21
-9.842113355555556
31
0
0
LINE
5
890
100
AcDbEntity
8
0
100
AcDbLine
10
136.15800668888889
20
-9.842113355555556
30
0
11
144.57906624444445
21
-9.842113355555556
31
0
0
LINE
5
891
100
AcDbEntity
8
0
100
AcDbLine
10
144.57906624444445
20
-9.842113355555556
30
0
11
144.57906624444445
21
-5.6315835777777776
31
0
0
LINE
5
892
100
AcDbEntity
8
0
100
AcDbLine
10
144.57906624444445
20
-5.6315835777777776
30
0
11
153.00012580000001
21
-5.6315835777777776
31
0
0
LINE
5
893
100
AcDbEntity
8
0
100
AcDbLine
10
153.00012580000001
20
-5.6315835777777776
30
0
11
153.00012580000003
21
-9.842113355555556
31
0
0
LINE
5
894
100
AcDbEntity
8
0
100
AcDbLine
10
153.00012580000003
20
-9.842113355555556
30
0
11
163.52645024444445
21
-9.842113355555556
31
0
0
LINE
5
895
100
AcDbEntity
8
0
100
AcDbLine
10
163.52645024444445
20
-9.842113355555556
30
0
11
163.52645024444445
21
-5.6315835777777776
31
0
0
LINE
5
896
100
AcDbEntity
8
0
100
AcDbLine
10
163.52645024444445
20
-5.6315835777777776
30
0
11
174.05277468888892
21
-5.6315835777777776
31
0
0
LINE
5
897
100
AcDbEntity
8
0
100
AcDbLine
10
174.05277468888892
20
-5.6315835777777776
30
0
11
174.05277468888892
21
-19.842121577777778
31
0
0
LINE
5
898
100
AcDbEntity
8
0
100
AcDbLine
10
174.05277468888892
20
-19.842121577777778
30
0
11
169.84224491111115
21
-19.842121577777782
31
0
0
LINE
5
899
100
AcDbEntity
8
0
100
AcDbLine
10
169.84224491111115
20
-19.842121577777782
30
0
11
169.84224491111115
21
-34.052659577777781
31
0
0
LINE
5
900
100
AcDbEntity
8
0
100
AcDbLine
10
169.84224491111115
20
-34.052659577777781
30
0
11
174.05277468888892
21
-34.052659577777781
31
0
0
LINE
5
901
100
AcDbEntity
8
0
100
AcDbLine
10
174.05277468888892
20
-34.052659577777781
30
0
11
174.05277468888892
21
-42.473719133333333
31
0
0
LINE
5
902
100
AcDbEntity
8
0
100
AcDbLine
10
174.05277468888892
20
-42.473719133333333
30
0
11
169.84224491111115
21
-42.473719133333333
31
0
0
LINE
5
903
100
AcDbEntity
8
0
100
AcDbLine
10
169.84224491111115
20
-42.473719133333333
30
0
11
169.84224491111115
21
-50.894778688888884
31
0
0
LINE
5
904
100
AcDbEntity
8
0
100
AcDbLine
10
169.84224491111115
20
-50.894778688888884
30
0
11
174.05277468888892
21
-50.894778688888884
31
0
0
LINE
5
905
100
AcDbEntity
8
0
100
AcDbLine
10
174.05277468888892
20
-50.894778688888884
30
0
11
174.05277468888892
21
-59.31583824444445
31
0
0
LINE
5
906
100
AcDbEntity
8
0
100
AcDbLine
10
174.05277468888892
20
-59.31583824444445
30
0
11
169.84224491111115
21
-59.31583824444445
31
0
0
LINE
5
907
100
AcDbEntity
8
0
100
AcDbLine
10
169.84224491111115
20
-59.31583824444445
30
0
11
169.84224491111115
21
-67.736897800000008
31
0
0
LINE
5
908
100
AcDbEntity
8
0
100
AcDbLine
10
169.84224491111115
20
-67.736897800000008
30
0
11
174.05277468888892
21
-67.736897800000008
31
0
0
LINE
5
909
100
AcDbEntity
8
0
100
AcDbLine
10
174.05277468888892
20
-67.736897800000008
30
0
11
174.05277468888892
21
-76.157957355555567
31
0
0
LINE
5
910
100
AcDbEntity
8
0
100
AcDbLine
10
174.05277468888892
20
-76.157957355555567
30
0
11
169.84224491111115
21
-76.157957355555567
31
0
0
LINE
5
911
100
AcDbEntity
8
0
100
AcDbLine
10
169.84224491111115
20
-76.157957355555567
30
0
11
169.84224491111115
21
-84.579016911111111
31
0
0
LINE
5
912
100
AcDbEntity
8
0
100
AcDbLine
10
169.84224491111115
20
-84.579016911111111
30
0
11
174.05277468888892
21
-84.579016911111111
31
0
0
LINE
5
913
100
AcDbEntity
8
0
100
AcDbLine
10
174.05277468888892
20
-84.579016911111111
30
0
11
174.05277468888892
21
-93.000076466666684
31
0
0
LINE
5
914
100
AcDbEntity
8
0
100
AcDbLine
10
174.05277468888892
20
-93.000076466666684
30
0
11
169.84224491111115
21
-93.000076466666684
31
0
0
LINE
5
915
100
AcDbEntity
8
0
100
AcDbLine
10
169.84224491111115
20
-93.000076466666684
30
0
11
169.84224491111115
21
-107.21061446666667
31
0
0
LINE
5
916
100
AcDbEntity
8
0
100
AcDbLine
10
169.84224491111115
20
-107.21061446666667
30
0
11
174.05277468888892
21
-107.21061446666668
31
0
0
LINE
5
917
100
AcDbEntity
8
0
100
AcDbLine
10
174.05277468888892
20
-107.21061446666668
30
0
11
174.05277468888892
21
-121.42115246666668
31
0
0
LINE
5
918
100
AcDbEntity
8
0
100
AcDbLine
10
174.05277468888892
20
-121.42115246666668
30
0
11
163.52645024444445
21
-121.42115246666668
31
0
0
LINE
5
919
100
AcDbEntity
8
0
100
AcDbLine
10
163.52645024444445
20
-121.42115246666668
30
0
11
163.52645024444445
21
-117.21062268888889
31
0
0
LINE
5
920
100
AcDbEntity
8
0
100
AcDbLine
10
163.52645024444445
20
-117.21062268888889
30
0
11
153.00012580000003
21
-117.21062268888889
31
0
0
LINE
5
921
100
AcDbEntity
8
0
100
AcDbLine
10
153.00012580000003
20
-117.21062268888889
30
0
11
153.00012580000003
21
-121.42115246666668
31
0
0
LINE
5
922
100
AcDbEntity
8
0
100
AcDbLine
10
153.00012580000003
20
-121.42115246666668
30
0
11
144.57906624444448
21
-121.42115246666668
31
0
0
LINE
5
923
100
AcDbEntity
8
0
100
AcDbLine
10
144.57906624444448
20
-121.42115246666668
30
0
11
144.57906624444445
21
-117.21062268888889
31
0
0
LINE
5
924
100
AcDbEntity
8
0
100
AcDbLine
10
144.57906624444445
20
-117.21062268888889
30
0
11
136.15800668888889
21
-117.21062268888889
31
0
0
LINE
5
925
100
AcDbEntity
8
0
100
AcDbLine
10
136.15800668888889
20
-117.21062268888889
30
0
11
136.15800668888889
21
-121.42115246666668
31
0
0
LINE
5
926
100
AcDbEntity
8
0
100
AcDbLine
10
136.15800668888889
20
-121.42115246666668
30
0
11
127.73694713333335
21
-121.42115246666668
31
0
0
LINE
5
927
100
AcDbEntity
8
0
100
AcDbLine
10
127.73694713333335
20
-121.42115246666668
30
0
11
127.73694713333335
21
-117.21062268888889
31
0
0
LINE
5
928
100
AcDbEntity
8
0
100
AcDbLine
10
127.73694713333335
20
-117.21062268888889
30
0
11
119.3158875777778
21
-117.21062268888889
31
0
0
LINE
5
929
100
AcDbEntity
8
0
100
AcDbLine
10
119.3158875777778
20
-117.21062268888889
30
0
11
119.3158875777778
21
-121.42115246666668
31
0
0
LINE
5
930
100
AcDbEntity
8
0
100
AcDbLine
10
119.3158875777778
20
-121.42115246666668
30
0
11
110.89482802222223
21
-121.42115246666668
31
0
0
LINE
5
931
100
AcDbEntity
8
0
100
AcDbLine
10
110.89482802222223
20
-121.42115246666668
30
0
11
110.89482802222221
21
-117.21062268888889
31
0
0
LINE
5
932
100
AcDbEntity
8
0
100
AcDbLine
10
110.89482802222221
20
-117.21062268888889
30
0
11
102.47376846666667
21
-117.21062268888889
31
0
0
LINE
5
933
100
AcDbEntity
8
0
100
AcDbLine
10
102.47376846666667
20
-117.21062268888889
30
0
11
102.47376846666667
21
-121.42115246666668
31
0
0
LINE
5
934
100
AcDbEntity
8
0
100
AcDbLine
10
102.47376846666667
20
-121.42115246666668
30
0
11
94.052708911111125
21
-121.42115246666668
31
0
0
LINE
5
935
100
AcDbEntity
8
0
100
AcDbLine
10
94.052708911111125
20
-121.42115246666668
30
0
11
94.052708911111125
21
-117.21062268888889
31
0
0
LINE
5
936
100
AcDbEntity
8
0
100
AcDbLine
10
94.052708911111125
20
-117.21062268888889
30
0
11
85.631649355555567
21
-117.21062268888889
31
0
0
LINE
5
937
100
AcDbEntity
8
0
100
AcDbLine
10
85.631649355555567
20
-117.21062268888889
30
0
11
85.631649355555567
21
-121.42115246666668
31
0
0
LINE
5
938
100
AcDbEntity
8
0
100
AcDbLine
10
85.631649355555567
20
-121.42115246666668
30
0
11
77.210589800000022
21
-121.42115246666668
31
0
0
LINE
5
939
100
AcDbEntity
8
0
100
AcDbLine
10
77.210589800000022
20
-121.42115246666668
30
0
11
77.210589800000008
21
-117.21062268888889
31
0
0
LINE
5
940
100
AcDbEntity
8
0
100
AcDbLine
10
77.210589800000008
20
-117.21062268888889
30
0
11
68.78953024444445
21
-117.21062268888889
31
0
0
LINE
5
941
100
AcDbEntity
8
0
100
AcDbLine
10
68.78953024444445
20
-117.21062268888889
30
0
11
68.789530244444435
21
-121.42115246666668
31
0
0
LINE
5
942
100
AcDbEntity
8
0
100
AcDbLine
10
68.789530244444435
20
-121.42115246666668
30
0
11
60.368470688888891
21
-121.42115246666668
31
0
0
LINE
5
943
100
AcDbEntity
8
0
100
AcDbLine
10
60.368470688888891
20
-121.42115246666668
30
0
11
60.368470688888891
21
-117.21062268888889
31
0
0
LINE
5
944
100
AcDbEntity
8
0
100
AcDbLine
10
60.368470688888891
20
-117.21062268888889
30
0
11
51.947411133333347
21
-117.21062268888889
31
0
0
LINE
5
945
100
AcDbEntity
8
0
100
AcDbLine
10
51.947411133333347
20
-117.21062268888889
30
0
11
51.947411133333333
21
-121.42115246666668
31
0
0
LINE
5
946
100
AcDbEntity
8
0
100
AcDbLine
10
51.947411133333333
20
-121.42115246666668
30
0
11
43.526351577777774
21
-121.42115246666668
31
0
0
LINE
5
947
100
AcDbEntity
8
0
100
AcDbLine
10
43.526351577777774
20
-121.42115246666668
30
0
11
43.526351577777774
21
-117.21062268888889
31
0
0
LINE
5
948
100
AcDbEntity
8
0
100
AcDbLine
10
43.526351577777774
20
-117.21062268888889
30
0
11
35.105292022222223
21
-117.21062268888889
31
0
0
LINE
5
949
100
AcDbEntity
8
0
100
AcDbLine
10
35.105292022222223
20
-117.21062268888889
30
0
11
35.105292022222223
21
-121.42115246666668
31
0
0
LINE
5
950
100
AcDbEntity
8
0
100
AcDbLine
10
35.105292022222223
20
-121.42115246666668
30
0
11
26.684232466666664
21
-121.42115246666668
31
0
0
LINE
5
951
100
AcDbEntity
8
0
100
AcDbLine
10
26.684232466666664
20
-121.42115246666668
30
0
11
26.684232466666664
21
-117.21062268888889
31
0
0
LINE
5
952
100
AcDbEntity
8
0
100
AcDbLine
10
26.684232466666664
20
-117.21062268888889
30
0
11
16.157908022222223
21
-117.21062268888889
31
0
0
LINE
5
953
100
AcDbEntity
8
0
100
AcDbLine
10
16.157908022222223
20
-117.21062268888889
30
0
11
16.157908022222223
21
-121.42115246666668
31
0
0
LINE
5
954
100
AcDbEntity
8
0
100
AcDbLine
10
16.157908022222223
20
-121.42115246666668
30
0
11
5.6315835777777785
21
-121.42115246666668
31
0
0
LINE
5
955
100
AcDbEntity
8
0
100
AcDbLine
10
5.6315835777777785
20
-121.42115246666668
30
0
11
5.6315835777777776
21
-107.21061446666668
31
0
0
LINE
5
956
100
AcDbEntity
8
0
100
AcDbLine
10
5.6315835777777776
20
-107.21061446666668
30
0
11
9.842113355555556
21
-107.21061446666668
31
0
0
LINE
5
957
100
AcDbEntity
8
0
100
AcDbLine
10
9.842113355555556
20
-107.21061446666668
30
0
11
9.842113355555556
21
-93.000076466666698
31
0
0
LINE
5
958
100
AcDbEntity
8
0
100
AcDbLine
10
9.842113355555556
20
-93.000076466666698
30
0
11
5.6315835777777776
21
-93.000076466666684
31
0
0
LINE
5
959
100
AcDbEntity
8
0
100
AcDbLine
10
5.6315835777777776
20
-93.000076466666684
30
0
11
5.6315835777777776
21
-84.579016911111111
31
0
0
LINE
5
960
100
AcDbEntity
8
0
100
AcDbLine
10
5.6315835777777776
20
-84.579016911111111
30
0
11
9.842113355555556
21
-84.579016911111111
31
0
0
LINE
5
961
100
AcDbEntity
8
0
100
AcDbLine
10
9.842113355555556
20
-84.579016911111111
30
0
11
9.842113355555556
21
-76.157957355555567
31
0
0
LINE
5
962
100
AcDbEntity
8
0
100
AcDbLine
10
9.842113355555556
20
-76.157957355555567
30
0
11
5.6315835777777776
21
-76.157957355555567
31
0
0
LINE
5
963
100
AcDbEntity
8
0
100
AcDbLine
10
5.6315835777777776
20
-76.157957355555567
30
0
11
5.6315835777777776
21
-67.736897800000008
31
0
0
LINE
5
964
100
AcDbEntity
8
0
100
AcDbLine
10
5.6315835777777776
20
-67.736897800000008
30
0
11
9.842113355555556
21
-67.736897800000008
31
0
0
LINE
5
965
100
AcDbEntity
8
0
100
AcDbLine
10
9.842113355555556
20
-67.736897800000008
30
0
11
9.842113355555556
21
-59.31583824444445
31
0
0
LINE
5
966
100
AcDbEntity
8
0
100
AcDbLine
10
9.842113355555556
20
-59.31583824444445
30
0
11
5.6315835777777776
21
-59.31583824444445
31
0
0
LINE
5
967
100
AcDbEntity
8
0
100
AcDbLine
10
5.6315835777777776
20
-59.31583824444445
30
0
11
5.6315835777777776
21
-50.894778688888884
31
0
0
LINE
5
968
100
AcDbEntity
8
0
100
AcDbLine
10
5.6315835777777776
20
-50.894778688888884
30
0
11
9.842113355555556
21
-50.894778688888884
31
0
0
LINE
5
969
100
AcDbEntity
8
0
100
AcDbLine
10
9.842113355555556
20
-50.894778688888884
30
0
11
9.842113355555556
21
-42.473719133333333
31
0
0
LINE
5
970
100
AcDbEntity
8
0
100
AcDbLine
10
9.842113355555556
20
-42.473719133333333
30
0
11
5.6315835777777776
21
-42.473719133333333
31
0
0
LINE
5
971
100
AcDbEntity
8
0
100
AcDbLine
10
5.6315835777777776
20
-42.473719133333333
30
0
11
5.6315835777777776
21
-34.052659577777781
31
0
0
LINE
5
972
100
AcDbEntity
8
0
100
AcDbLine
10
5.6315835777777776
20
-34.052659577777781
30
0
11
9.842113355555556
21
-34.052659577777781
31
0
0
LINE
5
973
100
AcDbEntity
8
0
100
AcDbLine
10
9.842113355555556
20
-34.052659577777781
30
0
11
9.842113355555556
21
-19.842121577777782
31
0
0
LINE
5
974
100
AcDbEntity
8
0
100
AcDbLine
10
9.842113355555556
20
-19.842121577777782
30
0
11
5.6315835777777776
21
-19.842121577777782
31
0
0
LINE
5
975
100
AcDbEntity
8
0
100
AcDbLine
10
5.6315835777777776
20
-19.842121577777782
30
0
11
5.6315835777777776
21
-5.6315835777777776
31
0
0
LINE
5
976
100
AcDbEntity
8
0
100
AcDbLine
10
174.05277468888892
20
-5.6315835777777776
30
0
11
184.57909913333336
21
-5.6315835777777776
31
0
0
LINE
5
977
100
AcDbEntity
8
0
100
AcDbLine
10
184.57909913333336
20
-5.6315835777777776
30
0
11
184.57909913333333
21
-9.842113355555556
31
0
0
LINE
5
978
100
AcDbEntity
8
0
100
AcDbLine
10
184.57909913333333
20
-9.842113355555556
30
0
11
195.1054235777778
21
-9.842113355555556
31
0
0
LINE
5
979
100
AcDbEntity
8
0
100
AcDbLine
10
195.1054235777778
20
-9.842113355555556
30
0
11
195.1054235777778
21
-5.6315835777777776
31
0
0
LINE
5
980
100
AcDbEntity
8
0
100
AcDbLine
10
195.1054235777778
20
-5.6315835777777776
30
0
11
203.52648313333333
21
-5.6315835777777776
31
0
0
LINE
5
981
100
AcDbEntity
8
0
100
AcDbLine
10
203.52648313333333
20
-5.6315835777777776
30
0
11
203.52648313333333
21
-9.842113355555556
31
0
0
LINE
5
982
100
AcDbEntity
8
0
100
AcDbLine
10
203.52648313333333
20
-9.842113355555556
30
0
11
211.94754268888889
21
-9.842113355555556
31
0
0
LINE
5
983
100
AcDbEntity
8
0
100
AcDbLine
10
211.94754268888889
20
-9.842113355555556
30
0
11
211.94754268888889
21
-5.6315835777777776
31
0
0
LINE
5
984
100
AcDbEntity
8
0
100
AcDbLine
10
211.94754268888889
20
-5.6315835777777776
30
0
11
220.36860224444445
21
-5.6315835777777776
31
0
0
LINE
5
985
100
AcDbEntity
8
0
100
AcDbLine
10
220.36860224444445
20
-5.6315835777777776
30
0
11
220.36860224444445
21
-9.842113355555556
31
0
0
LINE
5
986
100
AcDbEntity
8
0
100
AcDbLine
10
220.36860224444445
20
-9.842113355555556
30
0
11
228.78966179999998
21
-9.842113355555556
31
0
0
LINE
5
987
100
AcDbEntity
8
0
100
AcDbLine
10
228.78966179999998
20
-9.842113355555556
30
0
11
228.78966179999998
21
-5.6315835777777776
31
0
0
LINE
5
988
100
AcDbEntity
8
0
100
AcDbLine
10
228.78966179999998
20
-5.6315835777777776
30
0
11
237.21072135555551
21
-5.6315835777777776
31
0
0
LINE
5
989
100
AcDbEntity
8
0
100
AcDbLine
10
237.21072135555551
20
-5.6315835777777776
30
0
11
237.21072135555556
21
-9.842113355555556
31
0
0
LINE
5
990
100
AcDbEntity
8
0
100
AcDbLine
10
237.21072135555556
20
-9.842113355555556
30
0
11
245.63178091111112
21
-9.842113355555556
31
0
0
LINE
5
991
100
AcDbEntity
8
0
100
AcDbLine
10
245.63178091111112
20
-9.842113355555556
30
0
11
245.63178091111112
21
-5.6315835777777776
31
0
0
LINE
5
992
100
AcDbEntity
8
0
100
AcDbLine
10
245.63178091111112
20
-5.6315835777777776
30
0
11
254.05284046666668
21
-5.6315835777777776
31
0
0
LINE
5
993
100
AcDbEntity
8
0
100
AcDbLine
10
254.05284046666668
20
-5.6315835777777776
30
0
11
254.05284046666668
21
-9.842113355555556
31
0
0
LINE
5
994
100
AcDbEntity
8
0
100
AcDbLine
10
254.05284046666668
20
-9.842113355555556
30
0
11
262.47390002222221
21
-9.842113355555556
31
0
0
LINE
5
995
100
AcDbEntity
8
0
100
AcDbLine
10
262.47390002222221
20
-9.842113355555556
30
0
11
262.47390002222221
21
-5.6315835777777776
31
0
0
LINE
5
996
100
AcDbEntity
8
0
100
AcDbLine
10
262.47390002222221
20
-5.6315835777777776
30
0
11
270.8949595777778
21
-5.6315835777777776
31
0
0
LINE
5
997
100
AcDbEntity
8
0
100
AcDbLine
10
270.8949595777778
20
-5.6315835777777776
30
0
11
270.8949595777778
21
-9.842113355555556
31
0
0
LINE
5
998
100
AcDbEntity
8
0
100
AcDbLine
10
270.8949595777778
20
-9.842113355555556
30
0
11
279.31601913333333
21
-9.842113355555556
31
0
0
LINE
5
999
100
AcDbEntity
8
0
100
AcDbLine
10
279.31601913333333
20
-9.842113355555556
30
0
11
279.31601913333333
21
-5.6315835777777776
31
0
0
LINE
5
1000
100
AcDbEntity
8
0
100
AcDbLine
10
279.31601913333333
20
-5.6315835777777776
30
0
11
287.73707868888886
21
-5.6315835777777776
31
0
0
LINE
5
1001
100
AcDbEntity
8
0
100
AcDbLine
10
287.73707868888886
20
-5.6315835777777776
30
0
11
287.73707868888886
21
-9.842113355555556
31
0
0
LINE
5
1002
100
AcDbEntity
8
0
100
AcDbLine
10
287.73707868888886
20
-9.842113355555556
30
0
11
296.15813824444444
21
-9.842113355555556
31
0
0
LINE
5
1003
100
AcDbEntity
8
0
100
AcDbLine
10
296.15813824444444
20
-9.842113355555556
30
0
11
296.15813824444444
21
-5.6315835777777776
31
0
0
LINE
5
1004
100
AcDbEntity
8
0
100
AcDbLine
10
296.15813824444444
20
-5.6315835777777776
30
0
11
304.57919780000003
21
-5.6315835777777776
31
0
0
LINE
5
1005
100
AcDbEntity
8
0
100
AcDbLine
10
304.57919780000003
20
-5.6315835777777776
30
0
11
304.57919780000003
21
-9.842113355555556
31
0
0
LINE
5
1006
100
AcDbEntity
8
0
100
AcDbLine
10
304.57919780000003
20
-9.842113355555556
30
0
11
313.00025735555556
21
-9.842113355555556
31
0
0
LINE
5
1007
100
AcDbEntity
8
0
100
AcDbLine
10
313.00025735555556
20
-9.842113355555556
30
0
11
313.00025735555556
21
-5.6315835777777776
31
0
0
LINE
5
1008
100
AcDbEntity
8
0
100
AcDbLine
10
313.00025735555556
20
-5.6315835777777776
30
0
11
321.42131691111109
21
-5.6315835777777776
31
0
0
LINE
5
1009
100
AcDbEntity
8
0
100
AcDbLine
10
321.42131691111109
20
-5.6315835777777776
30
0
11
321.42131691111109
21
-9.842113355555556
31
0
0
LINE
5
1010
100
AcDbEntity
8
0
100
AcDbLine
10
321.42131691111109
20
-9.842113355555556
30
0
11
331.94764135555556
21
-9.842113355555556
31
0
0
LINE
5
1011
100
AcDbEntity
8
0
100
AcDbLine
10
331.94764135555556
20
-9.842113355555556
30
0
11
331.94764135555556
21
-5.6315835777777776
31
0
0
LINE
5
1012
100
AcDbEntity
8
0
100
AcDbLine
10
331.94764135555556
20
-5.6315835777777776
30
0
11
342.47396579999992
21
-5.6315835777777776
31
0
0
LINE
5
1013
100
AcDbEntity
8
0
100
AcDbLine
10
342.47396579999992
20
-5.6315835777777776
30
0
11
342.47396579999997
21
-19.842121577777778
31
0
0
LINE
5
1014
100
AcDbEntity
8
0
100
AcDbLine
10
342.47396579999997
20
-19.842121577777778
30
0
11
338.26343602222221
21
-19.842121577777782
31
0
0
LINE
5
1015
100
AcDbEntity
8
0
100
AcDbLine
10
338.26343602222221
20
-19.842121577777782
30
0
11
338.26343602222221
21
-34.052659577777781
31
0
0
LINE
5
1016
100
AcDbEntity
8
0
100
AcDbLine
10
338.26343602222221
20
-34.052659577777781
30
0
11
342.47396579999997
21
-34.052659577777781
31
0
0
LINE
5
1017
100
AcDbEntity
8
0
100
AcDbLine
10
342.47396579999997
20
-34.052659577777781
30
0
11
342.47396579999997
21
-42.473719133333333
31
0
0
LINE
5
1018
100
AcDbEntity
8
0
100
AcDbLine
10
342.47396579999997
20
-42.473719133333333
30
0
11
338.26343602222221
21
-42.473719133333333
31
0
0
LINE
5
1019
100
AcDbEntity
8
0
100
AcDbLine
10
338.26343602222221
20
-42.473719133333333
30
0
11
338.26343602222221
21
-50.894778688888884
31
0
0
LINE
5
1020
100
AcDbEntity
8
0
100
AcDbLine
10
338.26343602222221
20
-50.894778688888884
30
0
11
342.47396579999997
21
-50.894778688888884
31
0
0
LINE
5
1021
100
AcDbEntity
8
0
100
AcDbLine
10
342.47396579999997
20
-50.894778688888884
30
0
11
342.47396579999997
21
-59.31583824444445
31
0
0
LINE
5
1022
100
AcDbEntity
8
0
100
AcDbLine
10
342.47396579999997
20
-59.31583824444445
30
0
11
338.26343602222221
21
-59.31583824444445
31
0
0
LINE
5
1023
100
AcDbEntity
8
0
100
AcDbLine
10
338.26343602222221
20
-59.31583824444445
30
0
11
338.26343602222221
21
-67.736897800000008
31
0
0
LINE
5
1024
100
AcDbEntity
8
0
100
AcDbLine
10
338.26343602222221
20
-67.736897800000008
30
0
11
342.47396579999997
21
-67.736897800000008
31
0
0
LINE
5
1025
100
AcDbEntity
8
0
100
AcDbLine
10
342.47396579999997
20
-67.736897800000008
30
0
11
342.47396579999997
21
-76.157957355555567
31
0
0
LINE
5
1026
100
AcDbEntity
8
0
100
AcDbLine
10
342.47396579999997
20
-76.157957355555567
30
0
11
338.26343602222221
21
-76.157957355555567
31
0
0
LINE
5
1027
100
AcDbEntity
8
0
100
AcDbLine
10
338.26343602222221
20
-76.157957355555567
30
0
11
338.26343602222221
21
-84.579016911111111
31
0
0
LINE
5
1028
100
AcDbEntity
8
0
100
AcDbLine
10
338.26343602222221
20
-84.579016911111111
30
0
11
342.47396579999997
21
-84.579016911111111
31
0
0
LINE
5
1029
100
AcDbEntity
8
0
100
AcDbLine
10
342.47396579999997
20
-84.579016911111111
30
0
11
342.47396579999997
21
-93.000076466666684
31
0
0
LINE
5
1030
100
AcDbEntity
8
0
100
AcDbLine
10
342.47396579999997
20
-93.000076466666684
30
0
11
338.26343602222221
21
-93.000076466666684
31
0
0
LINE
5
1031
100
AcDbEntity
8
0
100
AcDbLine
10
338.26343602222221
20
-93.000076466666684
30
0
11
338.26343602222221
21
-107.21061446666667
31
0
0
LINE
5
1032
100
AcDbEntity
8
0
100
AcDbLine
10
338.26343602222221
20
-107.21061446666667
30
0
11
342.47396579999997
21
-107.21061446666668
31
0
0
LINE
5
1033
100
AcDbEntity
8
0
100
AcDbLine
10
342.47396579999997
20
-107.21061446666668
30
0
11
342.47396579999997
21
-121.42115246666668
31
0
0
LINE
5
1034
100
AcDbEntity
8
0
100
AcDbLine
10
342.47396579999997
20
-121.42115246666668
30
0
11
331.94764135555567
21
-121.42115246666668
31
0
0
LINE
5
1035
100
AcDbEntity
8
0
100
AcDbLine
10
331.94764135555567
20
-121.42115246666668
30
0
11
331.94764135555556
21
-117.21062268888889
31
0
0
LINE
5
1036
100
AcDbEntity
8
0
100
AcDbLine
10
331.94764135555556
20
-117.21062268888889
30
0
11
321.42131691111109
21
-117.21062268888889
31
0
0
LINE
5
1037
100
AcDbEntity
8
0
100
AcDbLine
10
321.42131691111109
20
-117.21062268888889
30
0
11
321.42131691111109
21
-121.42115246666668
31
0
0
LINE
5
1038
100
AcDbEntity
8
0
100
AcDbLine
10
321.42131691111109
20
-121.42115246666668
30
0
11
313.00025735555556
21
-121.42115246666668
31
0
0
LINE
5
1039
100
AcDbEntity
8
0
100
AcDbLine
10
313.00025735555556
20
-121.42115246666668
30
0
11
313.00025735555556
21
-117.21062268888889
31
0
0
LINE
5
1040
100
AcDbEntity
8
0
100
AcDbLine
10
313.00025735555556
20
-117.21062268888889
30
0
11
304.57919780000003
21
-117.21062268888889
31
0
0
LINE
5
1041
100
AcDbEntity
8
0
100
AcDbLine
10
304.57919780000003
20
-117.21062268888889
30
0
11
304.57919780000003
21
-121.42115246666668
31
0
0
LINE
5
1042
100
AcDbEntity
8
0
100
AcDbLine
10
304.57919780000003
20
-121.42115246666668
30
0
11
296.15813824444444
21
-121.42115246666668
31
0
0
LINE
5
1043
100
AcDbEntity
8
0
100
AcDbLine
10
296.15813824444444
20
-121.42115246666668
30
0
11
296.15813824444444
21
-117.21062268888889
31
0
0
LINE
5
1044
100
AcDbEntity
8
0
100
AcDbLine
10
296.15813824444444
20
-117.21062268888889
30
0
11
287.73707868888886
21
-117.21062268888889
31
0
0
LINE
5
1045
100
AcDbEntity
8
0
100
AcDbLine
10
287.73707868888886
20
-117.21062268888889
30
0
11
287.73707868888886
21
-121.42115246666668
31
0
0
LINE
5
1046
100
AcDbEntity
8
0
100
AcDbLine
10
287.73707868888886
20
-121.42115246666668
30
0
11
279.31601913333333
21
-121.42115246666668
31
0
0
LINE
5
1047
100
AcDbEntity
8
0
100
AcDbLine
10
279.31601913333333
20
-121.42115246666668
30
0
11
279.31601913333333
21
-117.21062268888889
31
0
0
LINE
5
1048
100
AcDbEntity
8
0
100
AcDbLine
10
279.31601913333333
20
-117.21062268888889
30
0
11
270.8949595777778
21
-117.21062268888889
31
0
0
LINE
5
1049
100
AcDbEntity
8
0
100
AcDbLine
10
270.8949595777778
20
-117.21062268888889
30
0
11
270.8949595777778
21
-121.42115246666668
31
0
0
LINE
5
1050
100
AcDbEntity
8
0
100
AcDbLine
10
270.8949595777778
20
-121.42115246666668
30
0
11
262.47390002222221
21
-121.42115246666668
31
0
0
LINE
5
1051
100
AcDbEntity
8
0
100
AcDbLine
10
262.47390002222221
20
-121.42115246666668
30
0
11
262.47390002222221
21
-117.21062268888889
31
0
0
LINE
5
1052
100
AcDbEntity
8
0
100
AcDbLine
10
262.47390002222221
20
-117.21062268888889
30
0
11
254.05284046666668
21
-117.21062268888889
31
0
0
LINE
5
1053
100
AcDbEntity
8
0
100
AcDbLine
10
254.05284046666668
20
-117.21062268888889
30
0
11
254.05284046666668
21
-121.42115246666668
31
0
0
LINE
5
1054
100
AcDbEntity
8
0
100
AcDbLine
10
254.05284046666668
20
-121.42115246666668
30
0
11
245.63178091111112
21
-121.42115246666668
31
0
0
LINE
5
1055
100
AcDbEntity
8
0
100
AcDbLine
10
245.63178091111112
20
-121.42115246666668
30
0
11
245.63178091111112
21
-117.21062268888889
31
0
0
LINE
5
1056
100
AcDbEntity
8
0
100
AcDbLine
10
245.63178091111112
20
-117.21062268888889
30
0
11
237.21072135555556
21
-117.21062268888889
31
0
0
LINE
5
1057
100
AcDbEntity
8
0
100
AcDbLine
10
237.21072135555556
20
-117.21062268888889
30
0
11
237.21072135555556
21
-121.42115246666668
31
0
0
LINE
5
1058
100
AcDbEntity
8
0
100
AcDbLine
10
237.21072135555556
20
-121.42115246666668
30
0
11
228.78966180000003
21
-121.42115246666668
31
0
0
LINE
5
1059
100
AcDbEntity
8
0
100
AcDbLine
10
228.78966180000003
20
-121.42115246666668
30
0
11
228.78966179999998
21
-117.21062268888889
31
0
0
LINE
5
1060
100
AcDbEntity
8
0
100
AcDbLine
10
228.78966179999998
20
-117.21062268888889
30
0
11
220.36860224444445
21
-117.21062268888889
31
0
0
LINE
5
1061
100
AcDbEntity
8
0
100
AcDbLine
10
220.36860224444445
20
-117.21062268888889
30
0
11
220.36860224444445
21
-121.42115246666668
31
0
0
LINE
5
1062
100
AcDbEntity
8
0
100
AcDbLine
10
220.36860224444445
20
-121.42115246666668
30
0
11
211.94754268888889
21
-121.42115246666668
31
0
0
LINE
5
1063
100
AcDbEntity
8
0
100
AcDbLine
10
211.94754268888889
20
-121.42115246666668
30
0
11
211.94754268888889
21
-117.21062268888889
31
0
0
LINE
5
1064
100
AcDbEntity
8
0
100
AcDbLine
10
211.94754268888889
20
-117.21062268888889
30
0
11
203.52648313333333
21
-117.21062268888889
31
0
0
LINE
5
1065
100
AcDbEntity
8
0
100
AcDbLine
10
203.52648313333333
20
-117.21062268888889
30
0
11
203.52648313333333
21
-121.42115246666668
31
0
0
LINE
5
1066
100
AcDbEntity
8
0
100
AcDbLine
10
203.52648313333333
20
-121.42115246666668
30
0
11
195.1054235777778
21
-121.42115246666668
31
0
0
LINE
5
1067
100
AcDbEntity
8
0
100
AcDbLine
10
195.1054235777778
20
-121.42115246666668
30
0
11
195.1054235777778
21
-117.21062268888889
31
0
0
LINE
5
1068
100
AcDbEntity
8
0
100
AcDbLine
10
195.1054235777778
20
-117.21062268888889
30
0
11
184.57909913333333
21
-117.21062268888889
31
0
0
LINE
5
1069
100
AcDbEntity
8
0
100
AcDbLine
10
184.57909913333333
20
-117.21062268888889
30
0
11
184.57909913333333
21
-121.42115246666668
31
0
0
LINE
5
1070
100
AcDbEntity
8
0
100
AcDbLine
10
184.57909913333333
20
-121.42115246666668
30
0
11
174.05277468888892
21
-121.42115246666668
31
0
0
LINE
5
1071
100
AcDbEntity
8
0
100
AcDbLine
10
174.05277468888892
20
-121.42115246666668
30
0
11
174.05277468888892
21
-107.21061446666668
31
0
0
LINE
5
1072
100
AcDbEntity
8
0
100
AcDbLine
10
174.05277468888892
20
-107.21061446666668
30
0
11
178.26330446666668
21
-107.21061446666668
31
0
0
LINE
5
1073
100
AcDbEntity
8
0
100
AcDbLine
10
178.26330446666668
20
-107.21061446666668
30
0
11
178.26330446666668
21
-93.000076466666698
31
0
0
LINE
5
1074
100
AcDbEntity
8
0
100
AcDbLine
10
178.26330446666668
20
-93.000076466666698
30
0
11
174.05277468888892
21
-93.000076466666684
31
0
0
LINE
5
1075
100
AcDbEntity
8
0
100
AcDbLine
10
174.05277468888892
20
-93.000076466666684
30
0
11
174.05277468888892
21
-84.579016911111111
31
0
0
LINE
5
1076
100
AcDbEntity
8
0
100
AcDbLine
10
174.05277468888892
20
-84.579016911111111
30
0
11
178.26330446666668
21
-84.579016911111111
31
0
0
LINE
5
1077
100
AcDbEntity
8
0
100
AcDbLine
10
178.26330446666668
20
-84.579016911111111
30
0
11
178.26330446666668
21
-76.157957355555567
31
0
0
LINE
5
1078
100
AcDbEntity
8
0
100
AcDbLine
10
178.26330446666668
20
-76.157957355555567
30
0
11
174.05277468888892
21
-76.157957355555567
31
0
0
LINE
5
1079
100
AcDbEntity
8
0
100
AcDbLine
10
174.05277468888892
20
-76.157957355555567
30
0
11
174.05277468888892
21
-67.736897800000008
31
0
0
LINE
5
1080
100
AcDbEntity
8
0
100
AcDbLine
10
174.05277468888892
20
-67.736897800000008
30
0
11
178.26330446666668
21
-67.736897800000008
31
0
0
LINE
5
1081
100
AcDbEntity
8
0
100
AcDbLine
10
178.26330446666668
20
-67.736897800000008
30
0
11
178.26330446666668
21
-59.31583824444445
31
0
0
LINE
5
1082
100
AcDbEntity
8
0
100
AcDbLine
10
178.26330446666668
20
-59.31583824444445
30
0
11
174.05277468888892
21
-59.31583824444445
31
0
0
LINE
5
1083
100
AcDbEntity
8
0
100
AcDbLine
10
174.05277468888892
20
-59.31583824444445
30
0
11
174.05277468888892
21
-50.894778688888884
31
0
0
LINE
5
1084
100
AcDbEntity
8
0
100
AcDbLine
10
174.05277468888892
20
-50.894778688888884
30
0
11
178.26330446666668
21
-50.894778688888884
31
0
0
LINE
5
1085
100
AcDbEntity
8
0
100
AcDbLine
10
178.26330446666668
20
-50.894778688888884
30
0
11
178.26330446666668
21
-42.473719133333333
31
0
0
LINE
5
1086
100
AcDbEntity
8
0
100
AcDbLine
10
178.26330446666668
20
-42.473719133333333
30
0
11
174.05277468888892
21
-42.473719133333333
31
0
0
LINE
5
1087
100
AcDbEntity
8
0
100
AcDbLine
10
174.05277468888892
20
-42.473719133333333
30
0
11
174.05277468888892
21
-34.052659577777781
31
0
0
LINE
5
1088
100
AcDbEntity
8
0
100
AcDbLine
10
174.05277468888892
20
-34.052659577777781
30
0
11
178.26330446666668
21
-34.052659577777781
31
0
0
LINE
5
1089
100
AcDbEntity
8
0
100
AcDbLine
10
178.26330446666668
20
-34.052659577777781
30
0
11
178.26330446666668
21
-19.842121577777782
31
0
0
LINE
5
1090
100
AcDbEntity
8
0
100
AcDbLine
10
178.26330446666668
20
-19.842121577777782
30
0
11
174.05277468888892
21
-19.842121577777778
31
0
0
LINE
5
1091
100
AcDbEntity
8
0
100
AcDbLine
10
174.05277468888892
20
-19.842121577777778
30
0
11
174.05277468888892
21
-5.6315835777777776
31
0
0
LINE
5
1092
100
AcDbEntity
8
0
100
AcDbLine
10
346.68449557777785
20
-5.6315835777777776
30
0
11
353.0002902444445
21
-5.6315835777777776
31
0
0
LINE
5
1093
100
AcDbEntity
8
0
100
AcDbLine
10
353.0002902444445
20
-5.6315835777777776
30
0
11
353.0002902444445
21
-9.842113355555556
31
0
0
LINE
5
1094
100
AcDbEntity
8
0
100
AcDbLine
10
353.0002902444445
20
-9.842113355555556
30
0
11
363.52661468888891
21
-9.842113355555556
31
0
0
LINE
5
1095
100
AcDbEntity
8
0
100
AcDbLine
10
363.52661468888891
20
-9.842113355555556
30
0
11
363.52661468888891
21
-5.6315835777777776
31
0
0
LINE
5
1096
100
AcDbEntity
8
0
100
AcDbLine
10
363.52661468888891
20
-5.6315835777777776
30
0
11
371.9476742444445
21
-5.6315835777777776
31
0
0
LINE
5
1097
100
AcDbEntity
8
0
100
AcDbLine
10
371.9476742444445
20
-5.6315835777777776
30
0
11
371.9476742444445
21
-9.842113355555556
31
0
0
LINE
5
1098
100
AcDbEntity
8
0
100
AcDbLine
10
371.9476742444445
20
-9.842113355555556
30
0
11
380.36873380000003
21
-9.842113355555556
31
0
0
LINE
5
1099
100
AcDbEntity
8
0
100
AcDbLine
10
380.36873380000003
20
-9.842113355555556
30
0
11
380.36873380000003
21
-5.6315835777777776
31
0
0
LINE
5
1100
100
AcDbEntity
8
0
100
AcDbLine
10
380.36873380000003
20
-5.6315835777777776
30
0
11
388.78979335555556
21
-5.6315835777777776
31
0
0
LINE
5
1101
100
AcDbEntity
8
0
100
AcDbLine
10
388.78979335555556
20
-5.6315835777777776
30
0
11
388.78979335555556
21
-9.842113355555556
31
0
0
LINE
5
1102
100
AcDbEntity
8
0
100
AcDbLine
10
388.78979335555556
20
-9.842113355555556
30
0
11
397.21085291111109
21
-9.842113355555556
31
0
0
LINE
5
1103
100
AcDbEntity
8
0
100
AcDbLine
10
397.21085291111109
20
-9.842113355555556
30
0
11
397.21085291111109
21
-5.6315835777777776
31
0
0
LINE
5
1104
100
AcDbEntity
8
0
100
AcDbLine
10
397.21085291111109
20
-5.6315835777777776
30
0
11
405.63191246666668
21
-5.6315835777777776
31
0
0
LINE
5
1105
100
AcDbEntity
8
0
100
AcDbLine
10
405.63191246666668
20
-5.6315835777777776
30
0
11
405.63191246666668
21
-9.842113355555556
31
0
0
LINE
5
1106
100
AcDbEntity
8
0
100
AcDbLine
10
405.63191246666668
20
-9.842113355555556
30
0
11
414.05297202222221
21
-9.842113355555556
31
0
0
LINE
5
1107
100
AcDbEntity
8
0
100
AcDbLine
10
414.05297202222221
20
-9.842113355555556
30
0
11
414.05297202222232
21
-5.6315835777777776
31
0
0
LINE
5
1108
100
AcDbEntity
8
0
100
AcDbLine
10
414.05297202222232
20
-5.6315835777777776
30
0
11
422.47403157777785
21
-5.6315835777777776
31
0
0
LINE
5
1109
100
AcDbEntity
8
0
100
AcDbLine
10
422.47403157777785
20
-5.6315835777777776
30
0
11
422.47403157777785
21
-9.842113355555556
31
0
0
LINE
5
1110
100
AcDbEntity
8
0
100
AcDbLine
10
422.47403157777785
20
-9.842113355555556
30
0
11
430.89509113333344
21
-9.842113355555556
31
0
0
LINE
5
1111
100
AcDbEntity
8
0
100
AcDbLine
10
430.89509113333344
20
-9.842113355555556
30
0
11
430.89509113333344
21
-5.6315835777777776
31
0
0
LINE
5
1112
100
AcDbEntity
8
0
100
AcDbLine
10
430.89509113333344
20
-5.6315835777777776
30
0
11
439.31615068888897
21
-5.6315835777777776
31
0
0
LINE
5
1113
100
AcDbEntity
8
0
100
AcDbLine
10
439.31615068888897
20
-5.6315835777777776
30
0
11
439.31615068888897
21
-9.842113355555556
31
0
0
LINE
5
1114
100
AcDbEntity
8
0
100
AcDbLine
10
439.31615068888897
20
-9.842113355555556
30
0
11
447.7372102444445
21
-9.842113355555556
31
0
0
LINE
5
1115
100
AcDbEntity
8
0
100
AcDbLine
10
447.7372102444445
20
-9.842113355555556
30
0
11
447.7372102444445
21
-5.6315835777777776
31
0
0
LINE
5
1116
100
AcDbEntity
8
0
100
AcDbLine
10
447.7372102444445
20
-5.6315835777777776
30
0
11
456.15826980000008
21
-5.6315835777777776
31
0
0
LINE
5
1117
100
AcDbEntity
8
0
100
AcDbLine
10
456.15826980000008
20
-5.6315835777777776
30
0
11
456.15826980000008
21
-9.842113355555556
31
0
0
LINE
5
1118
100
AcDbEntity
8
0
100
AcDbLine
10
456.15826980000008
20
-9.842113355555556
30
0
11
464.57932935555561
21
-9.842113355555556
31
0
0
LINE
5
1119
100
AcDbEntity
8
0
100
AcDbLine
10
464.57932935555561
20
-9.842113355555556
30
0
11
464.57932935555561
21
-5.6315835777777776
31
0
0
LINE
5
1120
100
AcDbEntity
8
0
100
AcDbLine
10
464.57932935555561
20
-5.6315835777777776
30
0
11
473.00038891111114
21
-5.6315835777777776
31
0
0
LINE
5
1121
100
AcDbEntity
8
0
100
AcDbLine
10
473.00038891111114
20
-5.6315835777777776
30
0
11
473.00038891111114
21
-9.842113355555556
31
0
0
LINE
5
1122
100
AcDbEntity
8
0
100
AcDbLine
10
473.00038891111114
20
-9.842113355555556
30
0
11
481.42144846666673
21
-9.842113355555556
31
0
0
LINE
5
1123
100
AcDbEntity
8
0
100
AcDbLine
10
481.42144846666673
20
-9.842113355555556
30
0
11
481.42144846666673
21
-5.6315835777777776
31
0
0
LINE
5
1124
100
AcDbEntity
8
0
100
AcDbLine
10
481.42144846666673
20
-5.6315835777777776
30
0
11
489.84250802222226
21
-5.6315835777777776
31
0
0
LINE
5
1125
100
AcDbEntity
8
0
100
AcDbLine
10
489.84250802222226
20
-5.6315835777777776
30
0
11
489.84250802222226
21
-9.842113355555556
31
0
0
LINE
5
1126
100
AcDbEntity
8
0
100
AcDbLine
10
489.84250802222226
20
-9.842113355555556
30
0
11
500.36883246666667
21
-9.842113355555556
31
0
0
LINE
5
1127
100
AcDbEntity
8
0
100
AcDbLine
10
500.36883246666667
20
-9.842113355555556
30
0
11
500.36883246666667
21
-5.6315835777777776
31
0
0
LINE
5
1128
100
AcDbEntity
8
0
100
AcDbLine
10
500.36883246666667
20
-5.6315835777777776
30
0
11
506.68462713333338
21
-5.6315835777777776
31
0
0
LINE
5
1129
100
AcDbEntity
8
0
100
AcDbLine
10
506.68462713333338
20
-5.6315835777777776
30
0
11
506.68462713333338
21
-19.842121577777778
31
0
0
LINE
5
1130
100
AcDbEntity
8
0
100
AcDbLine
10
506.68462713333338
20
-19.842121577777778
30
0
11
510.89515691111114
21
-19.842121577777782
31
0
0
LINE
5
1131
100
AcDbEntity
8
0
100
AcDbLine
10
510.89515691111114
20
-19.842121577777782
30
0
11
510.89515691111114
21
-34.052659577777781
31
0
0
LINE
5
1132
100
AcDbEntity
8
0
100
AcDbLine
10
510.89515691111114
20
-34.052659577777781
30
0
11
506.68462713333338
21
-34.052659577777781
31
0
0
LINE
5
1133
100
AcDbEntity
8
0
100
AcDbLine
10
506.68462713333338
20
-34.052659577777781
30
0
11
506.68462713333338
21
-42.473719133333333
31
0
0
LINE
5
1134
100
AcDbEntity
8
0
100
AcDbLine
10
506.68462713333338
20
-42.473719133333333
30
0
11
510.89515691111114
21
-42.473719133333333
31
0
0
LINE
5
1135
100
AcDbEntity
8
0
100
AcDbLine
10
510.89515691111114
20
-42.473719133333333
30
0
11
510.89515691111114
21
-50.894778688888884
31
0
0
LINE
5
1136
100
AcDbEntity
8
0
100
AcDbLine
10
510.89515691111114
20
-50.894778688888884
30
0
11
506.68462713333338
21
-50.894778688888884
31
0
0
LINE
5
1137
100
AcDbEntity
8
0
100
AcDbLine
10
506.68462713333338
20
-50.894778688888884
30
0
11
506.68462713333338
21
-59.31583824444445
31
0
0
LINE
5
1138
100
AcDbEntity
8
0
100
AcDbLine
10
506.68462713333338
20
-59.31583824444445
30
0
11
510.89515691111114
21
-59.31583824444445
31
0
0
LINE
5
1139
100
AcDbEntity
8
0
100
AcDbLine
10
510.89515691111114
20
-59.31583824444445
30
0
11
510.89515691111114
21
-67.736897800000008
31
0
0
LINE
5
1140
100
AcDbEntity
8
0
100
AcDbLine
10
510.89515691111114
20
-67.736897800000008
30
0
11
506.68462713333338
21
-67.736897800000008
31
0
0
LINE
5
1141
100
AcDbEntity
8
0
100
AcDbLine
10
506.68462713333338
20
-67.736897800000008
30
0
11
506.68462713333338
21
-76.157957355555567
31
0
0
LINE
5
1142
100
AcDbEntity
8
0
100
AcDbLine
10
506.68462713333338
20
-76.157957355555567
30
0
11
510.89515691111114
21
-76.157957355555567
31
0
0
LINE
5
1143
100
AcDbEntity
8
0
100
AcDbLine
10
510.89515691111114
20
-76.157957355555567
30
0
11
510.89515691111114
21
-84.579016911111111
31
0
0
LINE
5
1144
100
AcDbEntity
8
0
100
AcDbLine
10
510.89515691111114
20
-84.579016911111111
30
0
11
506.68462713333338
21
-84.579016911111111
31
0
0
LINE
5
1145
100
AcDbEntity
8
0
100
AcDbLine
10
506.68462713333338
20
-84.579016911111111
30
0
11
506.68462713333338
21
-93.000076466666684
31
0
0
LINE
5
1146
100
AcDbEntity
8
0
100
AcDbLine
10
506.68462713333338
20
-93.000076466666684
30
0
11
510.89515691111114
21
-93.000076466666684
31
0
0
LINE
5
1147
100
AcDbEntity
8
0
100
AcDbLine
10
510.89515691111114
20
-93.000076466666684
30
0
11
510.89515691111114
21
-107.21061446666667
31
0
0
LINE
5
1148
100
AcDbEntity
8
0
100
AcDbLine
10
510.89515691111114
20
-107.21061446666667
30
0
11
506.68462713333338
21
-107.21061446666668
31
0
0
LINE
5
1149
100
AcDbEntity
8
0
100
AcDbLine
10
506.68462713333338
20
-107.21061446666668
30
0
11
506.68462713333338
21
-121.42115246666668
31
0
0
LINE
5
1150
100
AcDbEntity
8
0
100
AcDbLine
10
506.68462713333338
20
-121.42115246666668
30
0
11
500.36883246666667
21
-121.42115246666668
31
0
0
LINE
5
1151
100
AcDbEntity
8
0
100
AcDbLine
10
500.36883246666667
20
-121.42115246666668
30
0
11
500.36883246666667
21
-117.21062268888889
31
0
0
LINE
5
1152
100
AcDbEntity
8
0
100
AcDbLine
10
500.36883246666667
20
-117.21062268888889
30
0
11
489.84250802222226
21
-117.21062268888889
31
0
0
LINE
5
1153
100
AcDbEntity
8
0
100
AcDbLine
10
489.84250802222226
20
-117.21062268888889
30
0
11
489.84250802222226
21
-121.42115246666668
31
0
0
LINE
5
1154
100
AcDbEntity
8
0
100
AcDbLine
10
489.84250802222226
20
-121.42115246666668
30
0
11
481.42144846666673
21
-121.42115246666668
31
0
0
LINE
5
1155
100
AcDbEntity
8
0
100
AcDbLine
10
481.42144846666673
20
-121.42115246666668
30
0
11
481.42144846666673
21
-117.21062268888889
31
0
0
LINE
5
1156
100
AcDbEntity
8
0
100
AcDbLine
10
481.42144846666673
20
-117.21062268888889
30
0
11
473.00038891111114
21
-117.21062268888889
31
0
0
LINE
5
1157
100
AcDbEntity
8
0
100
AcDbLine
10
473.00038891111114
20
-117.21062268888889
30
0
11
473.00038891111114
21
-121.42115246666668
31
0
0
LINE
5
1158
100
AcDbEntity
8
0
100
AcDbLine
10
473.00038891111114
20
-121.42115246666668
30
0
11
464.57932935555561
21
-121.42115246666668
31
0
0
LINE
5
1159
100
AcDbEntity
8
0
100
AcDbLine
10
464.57932935555561
20
-121.42115246666668
30
0
11
464.57932935555561
21
-117.21062268888889
31
0
0
LINE
5
1160
100
AcDbEntity
8
0
100
AcDbLine
10
464.57932935555561
20
-117.21062268888889
30
0
11
456.15826980000008
21
-117.21062268888889
31
0
0
LINE
5
1161
100
AcDbEntity
8
0
100
AcDbLine
10
456.15826980000008
20
-117.21062268888889
30
0
11
456.15826980000008
21
-121.42115246666668
31
0
0
LINE
5
1162
100
AcDbEntity
8
0
100
AcDbLine
10
456.15826980000008
20
-121.42115246666668
30
0
11
447.7372102444445
21
-121.42115246666668
31
0
0
LINE
5
1163
100
AcDbEntity
8
0
100
AcDbLine
10
447.7372102444445
20
-121.42115246666668
30
0
11
447.7372102444445
21
-117.21062268888889
31
0
0
LINE
5
1164
100
AcDbEntity
8
0
100
AcDbLine
10
447.7372102444445
20
-117.21062268888889
30
0
11
439.31615068888897
21
-117.21062268888889
31
0
0
LINE
5
1165
100
AcDbEntity
8
0
100
AcDbLine
10
439.31615068888897
20
-117.21062268888889
30
0
11
439.31615068888897
21
-121.42115246666668
31
0
0
LINE
5
1166
100
AcDbEntity
8
0
100
AcDbLine
10
439.31615068888897
20
-121.42115246666668
30
0
11
430.89509113333344
21
-121.42115246666668
31
0
0
LINE
5
1167
100
AcDbEntity
8
0
100
AcDbLine
10
430.89509113333344
20
-121.42115246666668
30
0
11
430.89509113333344
21
-117.21062268888889
31
0
0
LINE
5
1168
100
AcDbEntity
8
0
100
AcDbLine
10
430.89509113333344
20
-117.21062268888889
30
0
11
422.47403157777785
21
-117.21062268888889
31
0
0
LINE
5
1169
100
AcDbEntity
8
0
100
AcDbLine
10
422.47403157777785
20
-117.21062268888889
30
0
11
422.47403157777785
21
-121.42115246666668
31
0
0
LINE
5
1170
100
AcDbEntity
8
0
100
AcDbLine
10
422.47403157777785
20
-121.42115246666668
30
0
11
414.05297202222232
21
-121.42115246666668
31
0
0
LINE
5
1171
100
AcDbEntity
8
0
100
AcDbLine
10
414.05297202222232
20
-121.42115246666668
30
0
11
414.05297202222232
21
-117.21062268888889
31
0
0
LINE
5
1172
100
AcDbEntity
8
0
100
AcDbLine
10
414.05297202222232
20
-117.21062268888889
30
0
11
405.63191246666679
21
-117.21062268888889
31
0
0
LINE
5
1173
100
AcDbEntity
8
0
100
AcDbLine
10
405.63191246666679
20
-117.21062268888889
30
0
11
405.63191246666668
21
-121.42115246666668
31
0
0
LINE
5
1174
100
AcDbEntity
8
0
100
AcDbLine
10
405.63191246666668
20
-121.42115246666668
30
0
11
397.21085291111109
21
-121.42115246666668
31
0
0
LINE
5
1175
100
AcDbEntity
8
0
100
AcDbLine
10
397.21085291111109
20
-121.42115246666668
30
0
11
397.21085291111109
21
-117.21062268888889
31
0
0
LINE
5
1176
100
AcDbEntity
8
0
100
AcDbLine
10
397.21085291111109
20
-117.21062268888889
30
0
11
388.78979335555556
21
-117.21062268888889
31
0
0
LINE
5
1177
100
AcDbEntity
8
0
100
AcDbLine
10
388.78979335555556
20
-117.21062268888889
30
0
11
388.78979335555556
21
-121.42115246666668
31
0
0
LINE
5
1178
100
AcDbEntity
8
0
100
AcDbLine
10
388.78979335555556
20
-121.42115246666668
30
0
11
380.36873380000003
21
-121.42115246666668
31
0
0
LINE
5
1179
100
AcDbEntity
8
0
100
AcDbLine
10
380.36873380000003
20
-121.42115246666668
30
0
11
380.36873380000003
21
-117.21062268888889
31
0
0
LINE
5
1180
100
AcDbEntity
8
0
100
AcDbLine
10
380.36873380000003
20
-117.21062268888889
30
0
11
371.9476742444445
21
-117.21062268888889
31
0
0
LINE
5
1181
100
AcDbEntity
8
0
100
AcDbLine
10
371.9476742444445
20
-117.21062268888889
30
0
11
371.9476742444445
21
-121.42115246666668
31
0
0
LINE
5
1182
100
AcDbEntity
8
0
100
AcDbLine
10
371.9476742444445
20
-121.42115246666668
30
0
11
363.52661468888891
21
-121.42115246666668
31
0
0
LINE
5
1183
100
AcDbEntity
8
0
100
AcDbLine
10
363.52661468888891
20
-121.42115246666668
30
0
11
363.52661468888891
21
-117.21062268888889
31
0
0
LINE
5
1184
100
AcDbEntity
8
0
100
AcDbLine
10
363.52661468888891
20
-117.21062268888889
30
0
11
353.0002902444445
21
-117.21062268888889
31
0
0
LINE
5
1185
100
AcDbEntity
8
0
100
AcDbLine
10
353.0002902444445
20
-117.21062268888889
30
0
11
353.0002902444445
21
-121.42115246666668
31
0
0
LINE
5
1186
100
AcDbEntity
8
0
100
AcDbLine
10
353.0002902444445
20
-121.42115246666668
30
0
11
346.68449557777785
21
-121.42115246666668
31
0
0
LINE
5
1187
100
AcDbEntity
8
0
100
AcDbLine
10
346.68449557777785
20
-121.42115246666668
30
0
11
346.68449557777785
21
-107.21061446666668
31
0
0
LINE
5
1188
100
AcDbEntity
8
0
100
AcDbLine
10
346.68449557777785
20
-107.21061446666668
30
0
11
342.47396579999997
21
-107.21061446666668
31
0
0
LINE
5
1189
100
AcDbEntity
8
0
100
AcDbLine
10
342.47396579999997
20
-107.21061446666668
30
0
11
342.47396579999997
21
-93.000076466666684
31
0
0
LINE
5
1190
100
AcDbEntity
8
0
100
AcDbLine
10
342.47396579999997
20
-93.000076466666684
30
0
11
346.68449557777785
21
-93.000076466666684
31
0
0
LINE
5
1191
100
AcDbEntity
8
0
100
AcDbLine
10
346.68449557777785
20
-93.000076466666684
30
0
11
346.68449557777785
21
-84.579016911111111
31
0
0
LINE
5
1192
100
AcDbEntity
8
0
100
AcDbLine
10
346.68449557777785
20
-84.579016911111111
30
0
11
342.47396579999997
21
-84.579016911111111
31
0
0
LINE
5
1193
100
AcDbEntity
8
0
100
AcDbLine
10
342.47396579999997
20
-84.579016911111111
30
0
11
342.47396579999997
21
-76.157957355555567
31
0
0
LINE
5
1194
100
AcDbEntity
8
0
100
AcDbLine
10
342.47396579999997
20
-76.157957355555567
30
0
11
346.68449557777785
21
-76.157957355555567
31
0
0
LINE
5
1195
100
AcDbEntity
8
0
100
AcDbLine
10
346.68449557777785
20
-76.157957355555567
30
0
11
346.68449557777785
21
-67.736897800000008
31
0
0
LINE
5
1196
100
AcDbEntity
8
0
100
AcDbLine
10
346.68449557777785
20
-67.736897800000008
30
0
11
342.47396579999997
21
-67.736897800000008
31
0
0
LINE
5
1197
100
AcDbEntity
8
0
100
AcDbLine
10
342.47396579999997
20
-67.736897800000008
30
0
11
342.47396579999997
21
-59.31583824444445
31
0
0
LINE
5
1198
100
AcDbEntity
8
0
100
AcDbLine
10
342.47396579999997
20
-59.31583824444445
30
0
11
346.68449557777785
21
-59.31583824444445
31
0
0
LINE
5
1199
100
AcDbEntity
8
0
100
AcDbLine
10
346.68449557777785
20
-59.31583824444445
30
0
11
346.68449557777785
21
-50.894778688888884
31
0
0
LINE
5
1200
100
AcDbEntity
8
0
100
AcDbLine
10
346.68449557777785
20
-50.894778688888884
30
0
11
342.47396579999997
21
-50.894778688888884
31
0
0
LINE
5
1201
100
AcDbEntity
8
0
100
AcDbLine
10
342.47396579999997
20
-50.894778688888884
30
0
11
342.47396579999997
21
-42.473719133333333
31
0
0
LINE
5
1202
100
AcDbEntity
8
0
100
AcDbLine
10
342.47396579999997
20
-42.473719133333333
30
0
11
346.68449557777785
21
-42.473719133333333
31
0
0
LINE
5
1203
100
AcDbEntity
8
0
100
AcDbLine
10
346.68449557777785
20
-42.473719133333333
30
0
11
346.68449557777785
21
-34.052659577777781
31
0
0
LINE
5
1204
100
AcDbEntity
8
0
100
AcDbLine
10
346.68449557777785
20
-34.052659577777781
30
0
11
342.47396579999997
21
-34.052659577777781
31
0
0
LINE
5
1205
100
AcDbEntity
8
0
100
AcDbLine
10
342.47396579999997
20
-34.052659577777781
30
0
11
342.47396579999997
21
-19.842121577777778
31
0
0
LINE
5
1206
100
AcDbEntity
8
0
100
AcDbLine
10
342.47396579999997
20
-19.842121577777778
30
0
11
346.68449557777785
21
-19.842121577777782
31
0
0
LINE
5
1207
100
AcDbEntity
8
0
100
AcDbLine
10
346.68449557777785
20
-19.842121577777782
30
0
11
346.68449557777785
21
-5.6315835777777776
31
0
0
LINE
5
1208
100
AcDbEntity
8
0
100
AcDbLine
10
346.68449557777785
20
-121.42115246666668
30
0
11
353.0002902444445
21
-121.42115246666668
31
0
0
LINE
5
1209
100
AcDbEntity
8
0
100
AcDbLine
10
353.0002902444445
20
-121.42115246666668
30
0
11
353.0002902444445
21
-125.63168224444446
31
0
0
LINE
5
1210
100
AcDbEntity
8
0
100
AcDbLine
10
353.0002902444445
20
-125.63168224444446
30
0
11
363.52661468888891
21
-125.63168224444446
31
0
0
LINE
5
1211
100
AcDbEntity
8
0
100
AcDbLine
10
363.52661468888891
20
-125.63168224444446
30
0
11
363.52661468888891
21
-121.42115246666668
31
0
0
LINE
5
1212
100
AcDbEntity
8
0
100
AcDbLine
10
363.52661468888891
20
-121.42115246666668
30
0
11
371.9476742444445
21
-121.42115246666668
31
0
0
LINE
5
1213
100
AcDbEntity
8
0
100
AcDbLine
10
371.9476742444445
20
-121.42115246666668
30
0
11
371.9476742444445
21
-125.63168224444446
31
0
0
LINE
5
1214
100
AcDbEntity
8
0
100
AcDbLine
10
371.9476742444445
20
-125.63168224444446
30
0
11
380.36873380000003
21
-125.63168224444446
31
0
0
LINE
5
1215
100
AcDbEntity
8
0
100
AcDbLine
10
380.36873380000003
20
-125.63168224444446
30
0
11
380.36873380000003
21
-121.42115246666668
31
0
0
LINE
5
1216
100
AcDbEntity
8
0
100
AcDbLine
10
380.36873380000003
20
-121.42115246666668
30
0
11
388.78979335555556
21
-121.42115246666668
31
0
0
LINE
5
1217
100
AcDbEntity
8
0
100
AcDbLine
10
388.78979335555556
20
-121.42115246666668
30
0
11
388.78979335555556
21
-125.63168224444446
31
0
0
LINE
5
1218
100
AcDbEntity
8
0
100
AcDbLine
10
388.78979335555556
20
-125.63168224444446
30
0
11
397.21085291111109
21
-125.63168224444446
31
0
0
LINE
5
1219
100
AcDbEntity
8
0
100
AcDbLine
10
397.21085291111109
20
-125.63168224444446
30
0
11
397.21085291111109
21
-121.42115246666668
31
0
0
LINE
5
1220
100
AcDbEntity
8
0
100
AcDbLine
10
397.21085291111109
20
-121.42115246666668
30
0
11
405.63191246666668
21
-121.42115246666668
31
0
0
LINE
5
1221
100
AcDbEntity
8
0
100
AcDbLine
10
405.63191246666668
20
-121.42115246666668
30
0
11
405.63191246666668
21
-125.63168224444446
31
0
0
LINE
5
1222
100
AcDbEntity
8
0
100
AcDbLine
10
405.63191246666668
20
-125.63168224444446
30
0
11
414.05297202222221
21
-125.63168224444446
31
0
0
LINE
5
1223
100
AcDbEntity
8
0
100
AcDbLine
10
414.05297202222221
20
-125.63168224444446
30
0
11
414.05297202222232
21
-121.42115246666668
31
0
0
LINE
5
1224
100
AcDbEntity
8
0
100
AcDbLine
10
414.05297202222232
20
-121.42115246666668
30
0
11
422.47403157777785
21
-121.42115246666668
31
0
0
LINE
5
1225
100
AcDbEntity
8
0
100
AcDbLine
10
422.47403157777785
20
-121.42115246666668
30
0
11
422.47403157777785
21
-125.63168224444446
31
0
0
LINE
5
1226
100
AcDbEntity
8
0
100
AcDbLine
10
422.47403157777785
20
-125.63168224444446
30
0
11
430.89509113333344
21
-125.63168224444446
31
0
0
LINE
5
1227
100
AcDbEntity
8
0
100
AcDbLine
10
430.89509113333344
20
-125.63168224444446
30
0
11
430.89509113333344
21
-121.42115246666668
31
0
0
LINE
5
1228
100
AcDbEntity
8
0
100
AcDbLine
10
430.89509113333344
20
-121.42115246666668
30
0
11
439.31615068888897
21
-121.42115246666668
31
0
0
LINE
5
1229
100
AcDbEntity
8
0
100
AcDbLine
10
439.31615068888897
20
-121.42115246666668
30
0
11
439.31615068888897
21
-125.63168224444446
31
0
0
LINE
5
1230
100
AcDbEntity
8
0
100
AcDbLine
10
439.31615068888897
20
-125.63168224444446
30
0
11
447.7372102444445
21
-125.63168224444446
31
0
0
LINE
5
1231
100
AcDbEntity
8
0
100
AcDbLine
10
447.7372102444445
20
-125.63168224444446
30
0
11
447.7372102444445
21
-121.42115246666668
31
0
0
LINE
5
1232
100
AcDbEntity
8
0
100
AcDbLine
10
447.7372102444445
20
-121.42115246666668
30
0
11
456.15826980000008
21
-121.42115246666668
31
0
0
LINE
5
1233
100
AcDbEntity
8
0
100
AcDbLine
10
456.15826980000008
20
-121.42115246666668
30
0
11
456.15826980000008
21
-125.63168224444446
31
0
0
LINE
5
1234
100
AcDbEntity
8
0
100
AcDbLine
10
456.15826980000008
20
-125.63168224444446
30
0
11
464.57932935555561
21
-125.63168224444446
31
0
0
LINE
5
1235
100
AcDbEntity
8
0
100
AcDbLine
10
464.57932935555561
20
-125.63168224444446
30
0
11
464.57932935555561
21
-121.42115246666668
31
0
0
LINE
5
1236
100
AcDbEntity
8
0
100
AcDbLine
10
464.57932935555561
20
-121.42115246666668
30
0
11
473.00038891111114
21
-121.42115246666668
31
0
0
LINE
5
1237
100
AcDbEntity
8
0
100
AcDbLine
10
473.00038891111114
20
-121.42115246666668
30
0
11
473.00038891111114
21
-125.63168224444446
31
0
0
LINE
5
1238
100
AcDbEntity
8
0
100
AcDbLine
10
473.00038891111114
20
-125.63168224444446
30
0
11
481.42144846666673
21
-125.63168224444446
31
0
0
LINE
5
1239
100
AcDbEntity
8
0
100
AcDbLine
10
481.42144846666673
20
-125.63168224444446
30
0
11
481.42144846666673
21
-121.42115246666668
31
0
0
LINE
5
1240
100
AcDbEntity
8
0
100
AcDbLine
10
481.42144846666673
20
-121.42115246666668
30
0
11
489.84250802222226
21
-121.42115246666668
31
0
0
LINE
5
1241
100
AcDbEntity
8
0
100
AcDbLine
10
489.84250802222226
20
-121.42115246666668
30
0
11
489.84250802222226
21
-125.63168224444446
31
0
0
LINE
5
1242
100
AcDbEntity
8
0
100
AcDbLine
10
489.84250802222226
20
-125.63168224444446
30
0
11
500.36883246666667
21
-125.63168224444446
31
0
0
LINE
5
1243
100
AcDbEntity
8
0
100
AcDbLine
10
500.36883246666667
20
-125.63168224444446
30
0
11
500.36883246666667
21
-121.42115246666668
31
0
0
LINE
5
1244
100
AcDbEntity
8
0
100
AcDbLine
10
500.36883246666667
20
-121.42115246666668
30
0
11
506.68462713333338
21
-121.42115246666668
31
0
0
LINE
5
1245
100
AcDbEntity
8
0
100
AcDbLine
10
506.68462713333338
20
-121.42115246666668
30
0
11
506.68462713333338
21
-135.63169046666667
31
0
0
LINE
5
1246
100
AcDbEntity
8
0
100
AcDbLine
10
506.68462713333338
20
-135.63169046666667
30
0
11
510.89515691111114
21
-135.63169046666667
31
0
0
LINE
5
1247
100
AcDbEntity
8
0
100
AcDbLine
10
510.89515691111114
20
-135.63169046666667
30
0
11
510.89515691111114
21
-149.84222846666668
31
0
0
LINE
5
1248
100
AcDbEntity
8
0
100
AcDbLine
10
510.89515691111114
20
-149.84222846666668
30
0
11
506.68462713333338
21
-149.84222846666668
31
0
0
LINE
5
1249
100
AcDbEntity
8
0
100
AcDbLine
10
506.68462713333338
20
-149.84222846666668
30
0
11
506.68462713333338
21
-158.26328802222224
31
0
0
LINE
5
1250
100
AcDbEntity
8
0
100
AcDbLine
10
506.68462713333338
20
-158.26328802222224
30
0
11
510.89515691111114
21
-158.26328802222224
31
0
0
LINE
5
1251
100
AcDbEntity
8
0
100
AcDbLine
10
510.89515691111114
20
-158.26328802222224
30
0
11
510.89515691111114
21
-166.68434757777777
31
0
0
LINE
5
1252
100
AcDbEntity
8
0
100
AcDbLine
10
510.89515691111114
20
-166.68434757777777
30
0
11
506.68462713333338
21
-166.68434757777777
31
0
0
LINE
5
1253
100
AcDbEntity
8
0
100
AcDbLine
10
506.68462713333338
20
-166.68434757777777
30
0
11
506.68462713333338
21
-175.10540713333336
31
0
0
LINE
5
1254
100
AcDbEntity
8
0
100
AcDbLine
10
506.68462713333338
20
-175.10540713333336
30
0
11
510.89515691111114
21
-175.10540713333336
31
0
0
LINE
5
1255
100
AcDbEntity
8
0
100
AcDbLine
10
510.89515691111114
20
-175.10540713333336
30
0
11
510.89515691111114
21
-183.52646668888892
31
0
0
LINE
5
1256
100
AcDbEntity
8
0
100
AcDbLine
10
510.89515691111114
20
-183.52646668888892
30
0
11
506.68462713333338
21
-183.52646668888892
31
0
0
LINE
5
1257
100
AcDbEntity
8
0
100
AcDbLine
10
506.68462713333338
20
-183.52646668888892
30
0
11
506.68462713333338
21
-191.94752624444445
31
0
0
LINE
5
1258
100
AcDbEntity
8
0
100
AcDbLine
10
506.68462713333338
20
-191.94752624444445
30
0
11
510.89515691111114
21
-191.94752624444445
31
0
0
LINE
5
1259
100
AcDbEntity
8
0
100
AcDbLine
10
510.89515691111114
20
-191.94752624444445
30
0
11
510.89515691111114
21
-200.36858580000001
31
0
0
LINE
5
1260
100
AcDbEntity
8
0
100
AcDbLine
10
510.89515691111114
20
-200.36858580000001
30
0
11
506.68462713333338
21
-200.36858580000001
31
0
0
LINE
5
1261
100
AcDbEntity
8
0
100
AcDbLine
10
506.68462713333338
20
-200.36858580000001
30
0
11
506.68462713333338
21
-208.78964535555556
31
0
0
LINE
5
1262
100
AcDbEntity
8
0
100
AcDbLine
10
506.68462713333338
20
-208.78964535555556
30
0
11
510.89515691111114
21
-208.78964535555556
31
0
0
LINE
5
1263
100
AcDbEntity
8
0
100
AcDbLine
10
510.89515691111114
20
-208.78964535555556
30
0
11
510.89515691111114
21
-223.00018335555561
31
0
0
LINE
5
1264
100
AcDbEntity
8
0
100
AcDbLine
10
510.89515691111114
20
-223.00018335555561
30
0
11
506.68462713333338
21
-223.00018335555561
31
0
0
LINE
5
1265
100
AcDbEntity
8
0
100
AcDbLine
10
506.68462713333338
20
-223.00018335555561
30
0
11
506.68462713333338
21
-237.21072135555559
31
0
0
LINE
5
1266
100
AcDbEntity
8
0
100
AcDbLine
10
506.68462713333338
20
-237.21072135555559
30
0
11
500.36883246666667
21
-237.21072135555559
31
0
0
LINE
5
1267
100
AcDbEntity
8
0
100
AcDbLine
10
500.36883246666667
20
-237.21072135555559
30
0
11
500.36883246666667
21
-233.00019157777783
31
0
0
LINE
5
1268
100
AcDbEntity
8
0
100
AcDbLine
10
500.36883246666667
20
-233.00019157777783
30
0
11
489.84250802222226
21
-233.0001915777778
31
0
0
LINE
5
1269
100
AcDbEntity
8
0
100
AcDbLine
10
489.84250802222226
20
-233.0001915777778
30
0
11
489.84250802222226
21
-237.21072135555556
31
0
0
LINE
5
1270
100
AcDbEntity
8
0
100
AcDbLine
10
489.84250802222226
20
-237.21072135555556
30
0
11
481.42144846666673
21
-237.21072135555559
31
0
0
LINE
5
1271
100
AcDbEntity
8
0
100
AcDbLine
10
481.42144846666673
20
-237.21072135555559
30
0
11
481.42144846666673
21
-233.00019157777783
31
0
0
LINE
5
1272
100
AcDbEntity
8
0
100
AcDbLine
10
481.42144846666673
20
-233.00019157777783
30
0
11
473.00038891111114
21
-233.0001915777778
31
0
0
LINE
5
1273
100
AcDbEntity
8
0
100
AcDbLine
10
473.00038891111114
20
-233.0001915777778
30
0
11
473.00038891111114
21
-237.21072135555556
31
0
0
LINE
5
1274
100
AcDbEntity
8
0
100
AcDbLine
10
473.00038891111114
20
-237.21072135555556
30
0
11
464.57932935555561
21
-237.21072135555559
31
0
0
LINE
5
1275
100
AcDbEntity
8
0
100
AcDbLine
10
464.57932935555561
20
-237.21072135555559
30
0
11
464.57932935555561
21
-233.00019157777783
31
0
0
LINE
5
1276
100
AcDbEntity
8
0
100
AcDbLine
10
464.57932935555561
20
-233.00019157777783
30
0
11
456.15826980000008
21
-233.0001915777778
31
0
0
LINE
5
1277
100
AcDbEntity
8
0
100
AcDbLine
10
456.15826980000008
20
-233.0001915777778
30
0
11
456.15826980000008
21
-237.21072135555556
31
0
0
LINE
5
1278
100
AcDbEntity
8
0
100
AcDbLine
10
456.15826980000008
20
-237.21072135555556
30
0
11
447.7372102444445
21
-237.21072135555559
31
0
0
LINE
5
1279
100
AcDbEntity
8
0
100
AcDbLine
10
447.7372102444445
20
-237.21072135555559
30
0
11
447.7372102444445
21
-233.00019157777783
31
0
0
LINE
5
1280
100
AcDbEntity
8
0
100
AcDbLine
10
447.7372102444445
20
-233.00019157777783
30
0
11
439.31615068888897
21
-233.0001915777778
31
0
0
LINE
5
1281
100
AcDbEntity
8
0
100
AcDbLine
10
439.31615068888897
20
-233.0001915777778
30
0
11
439.31615068888897
21
-237.21072135555556
31
0
0
LINE
5
1282
100
AcDbEntity
8
0
100
AcDbLine
10
439.31615068888897
20
-237.21072135555556
30
0
11
430.89509113333344
21
-237.21072135555559
31
0
0
LINE
5
1283
100
AcDbEntity
8
0
100
AcDbLine
10
430.89509113333344
20
-237.21072135555559
30
0
11
430.89509113333344
21
-233.00019157777783
31
0
0
LINE
5
1284
100
AcDbEntity
8
0
100
AcDbLine
10
430.89509113333344
20
-233.00019157777783
30
0
11
422.47403157777785
21
-233.0001915777778
31
0
0
LINE
5
1285
100
AcDbEntity
8
0
100
AcDbLine
10
422.47403157777785
20
-233.0001915777778
30
0
11
422.47403157777785
21
-237.21072135555556
31
0
0
LINE
5
1286
100
AcDbEntity
8
0
100
AcDbLine
10
422.47403157777785
20
-237.21072135555556
30
0
11
414.05297202222232
21
-237.21072135555559
31
0
0
LINE
5
1287
100
AcDbEntity
8
0
100
AcDbLine
10
414.05297202222232
20
-237.21072135555559
30
0
11
414.05297202222232
21
-233.00019157777783
31
0
0
LINE
5
1288
100
AcDbEntity
8
0
100
AcDbLine
10
414.05297202222232
20
-233.00019157777783
30
0
11
405.63191246666679
21
-233.0001915777778
31
0
0
LINE
5
1289
100
AcDbEntity
8
0
100
AcDbLine
10
405.63191246666679
20
-233.0001915777778
30
0
11
405.63191246666668
21
-237.21072135555556
31
0
0
LINE
5
1290
100
AcDbEntity
8
0
100
AcDbLine
10
405.63191246666668
20
-237.21072135555556
30
0
11
397.21085291111109
21
-237.21072135555559
31
0
0
LINE
5
1291
100
AcDbEntity
8
0
100
AcDbLine
10
397.21085291111109
20
-237.21072135555559
30
0
11
397.21085291111109
21
-233.00019157777783
31
0
0
LINE
5
1292
100
AcDbEntity
8
0
100
AcDbLine
10
397.21085291111109
20
-233.00019157777783
30
0
11
388.78979335555556
21
-233.0001915777778
31
0
0
LINE
5
1293
100
AcDbEntity
8
0
100
AcDbLine
10
388.78979335555556
20
-233.0001915777778
30
0
11
388.78979335555556
21
-237.21072135555556
31
0
0
LINE
5
1294
100
AcDbEntity
8
0
100
AcDbLine
10
388.78979335555556
20
-237.21072135555556
30
0
11
380.36873380000003
21
-237.21072135555559
31
0
0
LINE
5
1295
100
AcDbEntity
8
0
100
AcDbLine
10
380.36873380000003
20
-237.21072135555559
30
0
11
380.36873380000003
21
-233.00019157777783
31
0
0
LINE
5
1296
100
AcDbEntity
8
0
100
AcDbLine
10
380.36873380000003
20
-233.00019157777783
30
0
11
371.9476742444445
21
-233.0001915777778
31
0
0
LINE
5
1297
100
AcDbEntity
8
0
100
AcDbLine
10
371.9476742444445
20
-233.0001915777778
30
0
11
371.9476742444445
21
-237.21072135555556
31
0
0
LINE
5
1298
100
AcDbEntity
8
0
100
AcDbLine
10
371.9476742444445
20
-237.21072135555556
30
0
11
363.52661468888891
21
-237.21072135555559
31
0
0
LINE
5
1299
100
AcDbEntity
8
0
100
AcDbLine
10
363.52661468888891
20
-237.21072135555559
30
0
11
363.52661468888891
21
-233.00019157777783
31
0
0
LINE
5
1300
100
AcDbEntity
8
0
100
AcDbLine
10
363.52661468888891
20
-233.00019157777783
30
0
11
353.0002902444445
21
-233.0001915777778
31
0
0
LINE
5
1301
100
AcDbEntity
8
0
100
AcDbLine
10
353.0002902444445
20
-233.0001915777778
30
0
11
353.0002902444445
21
-237.21072135555556
31
0
0
LINE
5
1302
100
AcDbEntity
8
0
100
AcDbLine
10
353.0002902444445
20
-237.21072135555556
30
0
11
346.68449557777785
21
-237.21072135555559
31
0
0
LINE
5
1303
100
AcDbEntity
8
0
100
AcDbLine
10
346.68449557777785
20
-237.21072135555559
30
0
11
346.68449557777785
21
-223.00018335555561
31
0
0
LINE
5
1304
100
AcDbEntity
8
0
100
AcDbLine
10
346.68449557777785
20
-223.00018335555561
30
0
11
342.47396579999997
21
-223.00018335555561
31
0
0
LINE
5
1305
100
AcDbEntity
8
0
100
AcDbLine
10
342.47396579999997
20
-223.00018335555561
30
0
11
342.47396579999997
21
-208.78964535555556
31
0
0
LINE
5
1306
100
AcDbEntity
8
0
100
AcDbLine
10
342.47396579999997
20
-208.78964535555556
30
0
11
346.68449557777785
21
-208.78964535555556
31
0
0
LINE
5
1307
100
AcDbEntity
8
0
100
AcDbLine
10
346.68449557777785
20
-208.78964535555556
30
0
11
346.68449557777785
21
-200.36858580000001
31
0
0
LINE
5
1308
100
AcDbEntity
8
0
100
AcDbLine
10
346.68449557777785
20
-200.36858580000001
30
0
11
342.47396579999997
21
-200.36858580000001
31
0
0
LINE
5
1309
100
AcDbEntity
8
0
100
AcDbLine
10
342.47396579999997
20
-200.36858580000001
30
0
11
342.47396579999997
21
-191.94752624444445
31
0
0
LINE
5
1310
100
AcDbEntity
8
0
100
AcDbLine
10
342.47396579999997
20
-191.94752624444445
30
0
11
346.68449557777785
21
-191.94752624444445
31
0
0
LINE
5
1311
100
AcDbEntity
8
0
100
AcDbLine
10
346.68449557777785
20
-191.94752624444445
30
0
11
346.68449557777785
21
-183.52646668888892
31
0
0
LINE
5
1312
100
AcDbEntity
8
0
100
AcDbLine
10
346.68449557777785
20
-183.52646668888892
30
0
11
342.47396579999997
21
-183.52646668888892
31
0
0
LINE
5
1313
100
AcDbEntity
8
0
100
AcDbLine
10
342.47396579999997
20
-183.52646668888892
30
0
11
342.47396579999997
21
-175.10540713333336
31
0
0
LINE
5
1314
100
AcDbEntity
8
0
100
AcDbLine
10
342.47396579999997
20
-175.10540713333336
30
0
11
346.68449557777785
21
-175.10540713333336
31
0
0
LINE
5
1315
100
AcDbEntity
8
0
100
AcDbLine
10
346.68449557777785
20
-175.10540713333336
30
0
11
346.68449557777785
21
-166.68434757777777
31
0
0
LINE
5
1316
100
AcDbEntity
8
0
100
AcDbLine
10
346.68449557777785
20
-166.68434757777777
30
0
11
342.47396579999997
21
-166.68434757777777
31
0
0
LINE
5
1317
100
AcDbEntity
8
0
100
AcDbLine
10
342.47396579999997
20
-166.68434757777777
30
0
11
342.47396579999997
21
-158.26328802222224
31
0
0
LINE
5
1318
100
AcDbEntity
8
0
100
AcDbLine
10
342.47396579999997
20
-158.26328802222224
30
0
11
346.68449557777785
21
-158.26328802222224
31
0
0
LINE
5
1319
100
AcDbEntity
8
0
100
AcDbLine
10
346.68449557777785
20
-158.26328802222224
30
0
11
346.68449557777785
21
-149.84222846666668
31
0
0
LINE
5
1320
100
AcDbEntity
8
0
100
AcDbLine
10
346.68449557777785
20
-149.84222846666668
30
0
11
342.47396579999997
21
-149.84222846666668
31
0
0
LINE
5
1321
100
AcDbEntity
8
0
100
AcDbLine
10
342.47396579999997
20
-149.84222846666668
30
0
11
342.47396579999997
21
-135.63169046666667
31
0
0
LINE
5
1322
100
AcDbEntity
8
0
100
AcDbLine
10
342.47396579999997
20
-135.63169046666667
30
0
11
346.68449557777785
21
-135.63169046666667
31
0
0
LINE
5
1323
100
AcDbEntity
8
0
100
AcDbLine
10
346.68449557777785
20
-135.63169046666667
30
0
11
346.68449557777785
21
-121.42115246666668
31
0
0
LINE
5
1324
100
AcDbEntity
8
0
100
AcDbLine
10
9.842113355555556
20
-125.63168224444446
30
0
11
16.157908022222223
21
-125.63168224444446
31
0
0
LINE
5
1325
100
AcDbEntity
8
0
100
AcDbLine
10
16.157908022222223
20
-125.63168224444446
30
0
11
16.157908022222223
21
-121.42115246666668
31
0
0
LINE
5
1326
100
AcDbEntity
8
0
100
AcDbLine
10
16.157908022222223
20
-121.42115246666668
30
0
11
26.684232466666664
21
-121.42115246666668
31
0
0
LINE
5
1327
100
AcDbEntity
8
0
100
AcDbLine
10
26.684232466666664
20
-121.42115246666668
30
0
11
26.684232466666664
21
-125.63168224444446
31
0
0
LINE
5
1328
100
AcDbEntity
8
0
100
AcDbLine
10
26.684232466666664
20
-125.63168224444446
30
0
11
35.105292022222223
21
-125.63168224444446
31
0
0
LINE
5
1329
100
AcDbEntity
8
0
100
AcDbLine
10
35.105292022222223
20
-125.63168224444446
30
0
11
35.105292022222223
21
-121.42115246666668
31
0
0
LINE
5
1330
100
AcDbEntity
8
0
100
AcDbLine
10
35.105292022222223
20
-121.42115246666668
30
0
11
43.526351577777774
21
-121.42115246666668
31
0
0
LINE
5
1331
100
AcDbEntity
8
0
100
AcDbLine
10
43.526351577777774
20
-121.42115246666668
30
0
11
43.526351577777774
21
-125.63168224444446
31
0
0
LINE
5
1332
100
AcDbEntity
8
0
100
AcDbLine
10
43.526351577777774
20
-125.63168224444446
30
0
11
51.947411133333347
21
-125.63168224444446
31
0
0
LINE
5
1333
100
AcDbEntity
8
0
100
AcDbLine
10
51.947411133333347
20
-125.63168224444446
30
0
11
51.947411133333333
21
-121.42115246666668
31
0
0
LINE
5
1334
100
AcDbEntity
8
0
100
AcDbLine
10
51.947411133333333
20
-121.42115246666668
30
0
11
60.368470688888891
21
-121.42115246666668
31
0
0
LINE
5
1335
100
AcDbEntity
8
0
100
AcDbLine
10
60.368470688888891
20
-121.42115246666668
30
0
11
60.368470688888891
21
-125.63168224444446
31
0
0
LINE
5
1336
100
AcDbEntity
8
0
100
AcDbLine
10
60.368470688888891
20
-125.63168224444446
30
0
11
68.789530244444435
21
-125.63168224444446
31
0
0
LINE
5
1337
100
AcDbEntity
8
0
100
AcDbLine
10
68.789530244444435
20
-125.63168224444446
30
0
11
68.789530244444435
21
-121.42115246666668
31
0
0
LINE
5
1338
100
AcDbEntity
8
0
100
AcDbLine
10
68.789530244444435
20
-121.42115246666668
30
0
11
77.210589800000022
21
-121.42115246666668
31
0
0
LINE
5
1339
100
AcDbEntity
8
0
100
AcDbLine
10
77.210589800000022
20
-121.42115246666668
30
0
11
77.210589800000008
21
-125.63168224444446
31
0
0
LINE
5
1340
100
AcDbEntity
8
0
100
AcDbLine
10
77.210589800000008
20
-125.63168224444446
30
0
11
85.631649355555567
21
-125.63168224444446
31
0
0
LINE
5
1341
100
AcDbEntity
8
0
100
AcDbLine
10
85.631649355555567
20
-125.63168224444446
30
0
11
85.631649355555567
21
-121.42115246666668
31
0
0
LINE
5
1342
100
AcDbEntity
8
0
100
AcDbLine
10
85.631649355555567
20
-121.42115246666668
30
0
11
94.052708911111125
21
-121.42115246666668
31
0
0
LINE
5
1343
100
AcDbEntity
8
0
100
AcDbLine
10
94.052708911111125
20
-121.42115246666668
30
0
11
94.052708911111125
21
-125.63168224444446
31
0
0
LINE
5
1344
100
AcDbEntity
8
0
100
AcDbLine
10
94.052708911111125
20
-125.63168224444446
30
0
11
102.47376846666667
21
-125.63168224444446
31
0
0
LINE
5
1345
100
AcDbEntity
8
0
100
AcDbLine
10
102.47376846666667
20
-125.63168224444446
30
0
11
102.47376846666667
21
-121.42115246666668
31
0
0
LINE
5
1346
100
AcDbEntity
8
0
100
AcDbLine
10
102.47376846666667
20
-121.42115246666668
30
0
11
110.89482802222223
21
-121.42115246666668
31
0
0
LINE
5
1347
100
AcDbEntity
8
0
100
AcDbLine
10
110.89482802222223
20
-121.42115246666668
30
0
11
110.89482802222221
21
-125.63168224444446
31
0
0
LINE
5
1348
100
AcDbEntity
8
0
100
AcDbLine
10
110.89482802222221
20
-125.63168224444446
30
0
11
119.31588757777777
21
-125.63168224444446
31
0
0
LINE
5
1349
100
AcDbEntity
8
0
100
AcDbLine
10
119.31588757777777
20
-125.63168224444446
30
0
11
119.3158875777778
21
-121.42115246666668
31
0
0
LINE
5
1350
100
AcDbEntity
8
0
100
AcDbLine
10
119.3158875777778
20
-121.42115246666668
30
0
11
127.73694713333335
21
-121.42115246666668
31
0
0
LINE
5
1351
100
AcDbEntity
8
0
100
AcDbLine
10
127.73694713333335
20
-121.42115246666668
30
0
11
127.73694713333335
21
-125.63168224444446
31
0
0
LINE
5
1352
100
AcDbEntity
8
0
100
AcDbLine
10
127.73694713333335
20
-125.63168224444446
30
0
11
136.15800668888889
21
-125.63168224444446
31
0
0
LINE
5
1353
100
AcDbEntity
8
0
100
AcDbLine
10
136.15800668888889
20
-125.63168224444446
30
0
11
136.15800668888889
21
-121.42115246666668
31
0
0
LINE
5
1354
100
AcDbEntity
8
0
100
AcDbLine
10
136.15800668888889
20
-121.42115246666668
30
0
11
144.57906624444448
21
-121.42115246666668
31
0
0
LINE
5
1355
100
AcDbEntity
8
0
100
AcDbLine
10
144.57906624444448
20
-121.42115246666668
30
0
11
144.57906624444445
21
-125.63168224444446
31
0
0
LINE
5
1356
100
AcDbEntity
8
0
100
AcDbLine
10
144.57906624444445
20
-125.63168224444446
30
0
11
153.00012580000001
21
-125.63168224444446
31
0
0
LINE
5
1357
100
AcDbEntity
8
0
100
AcDbLine
10
153.00012580000001
20
-125.63168224444446
30
0
11
153.00012580000003
21
-121.42115246666668
31
0
0
LINE
5
1358
100
AcDbEntity
8
0
100
AcDbLine
10
153.00012580000003
20
-121.42115246666668
30
0
11
163.52645024444445
21
-121.42115246666668
31
0
0
LINE
5
1359
100
AcDbEntity
8
0
100
AcDbLine
10
163.52645024444445
20
-121.42115246666668
30
0
11
163.52645024444445
21
-125.63168224444446
31
0
0
LINE
5
1360
100
AcDbEntity
8
0
100
AcDbLine
10
163.52645024444445
20
-125.63168224444446
30
0
11
169.84224491111115
21
-125.63168224444446
31
0
0
LINE
5
1361
100
AcDbEntity
8
0
100
AcDbLine
10
169.84224491111115
20
-125.63168224444446
30
0
11
169.84224491111115
21
-131.9474769111111
31
0
0
LINE
5
1362
100
AcDbEntity
8
0
100
AcDbLine
10
169.84224491111115
20
-131.9474769111111
30
0
11
174.05277468888892
21
-131.9474769111111
31
0
0
LINE
5
1363
100
AcDbEntity
8
0
100
AcDbLine
10
174.05277468888892
20
-131.9474769111111
30
0
11
174.05277468888892
21
-142.47380135555557
31
0
0
LINE
5
1364
100
AcDbEntity
8
0
100
AcDbLine
10
174.05277468888892
20
-142.47380135555557
30
0
11
169.84224491111115
21
-142.47380135555557
31
0
0
LINE
5
1365
100
AcDbEntity
8
0
100
AcDbLine
10
169.84224491111115
20
-142.47380135555557
30
0
11
169.84224491111115
21
-150.8948609111111
31
0
0
LINE
5
1366
100
AcDbEntity
8
0
100
AcDbLine
10
169.84224491111115
20
-150.8948609111111
30
0
11
174.05277468888892
21
-150.89486091111112
31
0
0
LINE
5
1367
100
AcDbEntity
8
0
100
AcDbLine
10
174.05277468888892
20
-150.89486091111112
30
0
11
174.05277468888892
21
-159.31592046666668
31
0
0
LINE
5
1368
100
AcDbEntity
8
0
100
AcDbLine
10
174.05277468888892
20
-159.31592046666668
30
0
11
169.84224491111115
21
-159.31592046666668
31
0
0
LINE
5
1369
100
AcDbEntity
8
0
100
AcDbLine
10
169.84224491111115
20
-159.31592046666668
30
0
11
169.84224491111115
21
-167.73698002222221
31
0
0
LINE
5
1370
100
AcDbEntity
8
0
100
AcDbLine
10
169.84224491111115
20
-167.73698002222221
30
0
11
174.05277468888892
21
-167.73698002222221
31
0
0
LINE
5
1371
100
AcDbEntity
8
0
100
AcDbLine
10
174.05277468888892
20
-167.73698002222221
30
0
11
174.05277468888892
21
-176.1580395777778
31
0
0
LINE
5
1372
100
AcDbEntity
8
0
100
AcDbLine
10
174.05277468888892
20
-176.1580395777778
30
0
11
169.84224491111115
21
-176.1580395777778
31
0
0
LINE
5
1373
100
AcDbEntity
8
0
100
AcDbLine
10
169.84224491111115
20
-176.1580395777778
30
0
11
169.84224491111115
21
-184.57909913333336
31
0
0
LINE
5
1374
100
AcDbEntity
8
0
100
AcDbLine
10
169.84224491111115
20
-184.57909913333336
30
0
11
174.05277468888892
21
-184.57909913333336
31
0
0
LINE
5
1375
100
AcDbEntity
8
0
100
AcDbLine
10
174.05277468888892
20
-184.57909913333336
30
0
11
174.05277468888892
21
-193.00015868888889
31
0
0
LINE
5
1376
100
AcDbEntity
8
0
100
AcDbLine
10
174.05277468888892
20
-193.00015868888889
30
0
11
169.84224491111115
21
-193.00015868888889
31
0
0
LINE
5
1377
100
AcDbEntity
8
0
100
AcDbLine
10
169.84224491111115
20
-193.00015868888889
30
0
11
169.84224491111115
21
-201.42121824444445
31
0
0
LINE
5
1378
100
AcDbEntity
8
0
100
AcDbLine
10
169.84224491111115
20
-201.42121824444445
30
0
11
174.05277468888892
21
-201.42121824444445
31
0
0
LINE
5
1379
100
AcDbEntity
8
0
100
AcDbLine
10
174.05277468888892
20
-201.42121824444445
30
0
11
174.05277468888892
21
-209.84227780000001
31
0
0
LINE
5
1380
100
AcDbEntity
8
0
100
AcDbLine
10
174.05277468888892
20
-209.84227780000001
30
0
11
169.84224491111115
21
-209.84227780000003
31
0
0
LINE
5
1381
100
AcDbEntity
8
0
100
AcDbLine
10
169.84224491111115
20
-209.84227780000003
30
0
11
169.84224491111115
21
-218.26333735555556
31
0
0
LINE
5
1382
100
AcDbEntity
8
0
100
AcDbLine
10
169.84224491111115
20
-218.26333735555556
30
0
11
174.05277468888892
21
-218.26333735555556
31
0
0
LINE
5
1383
100
AcDbEntity
8
0
100
AcDbLine
10
174.05277468888892
20
-218.26333735555556
30
0
11
174.05277468888892
21
-226.68439691111109
31
0
0
LINE
5
1384
100
AcDbEntity
8
0
100
AcDbLine
10
174.05277468888892
20
-226.68439691111109
30
0
11
169.84224491111115
21
-226.68439691111109
31
0
0
LINE
5
1385
100
AcDbEntity
8
0
100
AcDbLine
10
169.84224491111115
20
-226.68439691111109
30
0
11
169.84224491111115
21
-235.10545646666671
31
0
0
LINE
5
1386
100
AcDbEntity
8
0
100
AcDbLine
10
169.84224491111115
20
-235.10545646666671
30
0
11
174.05277468888892
21
-235.10545646666671
31
0
0
LINE
5
1387
100
AcDbEntity
8
0
100
AcDbLine
10
174.05277468888892
20
-235.10545646666671
30
0
11
174.05277468888892
21
-243.52651602222224
31
0
0
LINE
5
1388
100
AcDbEntity
8
0
100
AcDbLine
10
174.05277468888892
20
-243.52651602222224
30
0
11
169.84224491111115
21
-243.52651602222224
31
0
0
LINE
5
1389
100
AcDbEntity
8
0
100
AcDbLine
10
169.84224491111115
20
-243.52651602222224
30
0
11
169.84224491111115
21
-251.94757557777777
31
0
0
LINE
5
1390
100
AcDbEntity
8
0
100
AcDbLine
10
169.84224491111115
20
-251.94757557777777
30
0
11
174.05277468888892
21
-251.94757557777777
31
0
0
LINE
5
1391
100
AcDbEntity
8
0
100
AcDbLine
10
174.05277468888892
20
-251.94757557777777
30
0
11
174.05277468888892
21
-260.36863513333338
31
0
0
LINE
5
1392
100
AcDbEntity
8
0
100
AcDbLine
10
174.05277468888892
20
-260.36863513333338
30
0
11
169.84224491111115
21
-260.36863513333338
31
0
0
LINE
5
1393
100
AcDbEntity
8
0
100
AcDbLine
10
169.84224491111115
20
-260.36863513333338
30
0
11
169.84224491111115
21
-268.78969468888891
31
0
0
LINE
5
1394
100
AcDbEntity
8
0
100
AcDbLine
10
169.84224491111115
20
-268.78969468888891
30
0
11
174.05277468888892
21
-268.78969468888891
31
0
0
LINE
5
1395
100
AcDbEntity
8
0
100
AcDbLine
10
174.05277468888892
20
-268.78969468888891
30
0
11
174.05277468888892
21
-279.31601913333333
31
0
0
LINE
5
1396
100
AcDbEntity
8
0
100
AcDbLine
10
174.05277468888892
20
-279.31601913333333
30
0
11
169.84224491111115
21
-279.31601913333333
31
0
0
LINE
5
1397
100
AcDbEntity
8
0
100
AcDbLine
10
169.84224491111115
20
-279.31601913333333
30
0
11
169.84224491111115
21
-285.63181380000003
31
0
0
LINE
5
1398
100
AcDbEntity
8
0
100
AcDbLine
10
169.84224491111115
20
-285.63181380000003
30
0
11
163.52645024444445
21
-285.63181380000003
31
0
0
LINE
5
1399
100
AcDbEntity
8
0
100
AcDbLine
10
163.52645024444445
20
-285.63181380000003
30
0
11
163.52645024444445
21
-289.8423435777778
31
0
0
LINE
5
1400
100
AcDbEntity
8
0
100
AcDbLine
10
163.52645024444445
20
-289.8423435777778
30
0
11
153.00012580000003
21
-289.8423435777778
31
0
0
LINE
5
1401
100
AcDbEntity
8
0
100
AcDbLine
10
153.00012580000003
20
-289.8423435777778
30
0
11
153.00012580000003
21
-285.63181380000003
31
0
0
LINE
5
1402
100
AcDbEntity
8
0
100
AcDbLine
10
153.00012580000003
20
-285.63181380000003
30
0
11
144.57906624444448
21
-285.63181380000003
31
0
0
LINE
5
1403
100
AcDbEntity
8
0
100
AcDbLine
10
144.57906624444448
20
-285.63181380000003
30
0
11
144.57906624444445
21
-289.8423435777778
31
0
0
LINE
5
1404
100
AcDbEntity
8
0
100
AcDbLine
10
144.57906624444445
20
-289.8423435777778
30
0
11
136.15800668888889
21
-289.8423435777778
31
0
0
LINE
5
1405
100
AcDbEntity
8
0
100
AcDbLine
10
136.15800668888889
20
-289.8423435777778
30
0
11
136.15800668888889
21
-285.63181380000003
31
0
0
LINE
5
1406
100
AcDbEntity
8
0
100
AcDbLine
10
136.15800668888889
20
-285.63181380000003
30
0
11
127.73694713333335
21
-285.63181380000003
31
0
0
LINE
5
1407
100
AcDbEntity
8
0
100
AcDbLine
10
127.73694713333335
20
-285.63181380000003
30
0
11
127.73694713333335
21
-289.8423435777778
31
0
0
LINE
5
1408
100
AcDbEntity
8
0
100
AcDbLine
10
127.73694713333335
20
-289.8423435777778
30
0
11
119.3158875777778
21
-289.8423435777778
31
0
0
LINE
5
1409
100
AcDbEntity
8
0
100
AcDbLine
10
119.3158875777778
20
-289.8423435777778
30
0
11
119.3158875777778
21
-285.63181380000003
31
0
0
LINE
5
1410
100
AcDbEntity
8
0
100
AcDbLine
10
119.3158875777778
20
-285.63181380000003
30
0
11
110.89482802222223
21
-285.63181380000003
31
0
0
LINE
5
1411
100
AcDbEntity
8
0
100
AcDbLine
10
110.89482802222223
20
-285.63181380000003
30
0
11
110.89482802222221
21
-289.8423435777778
31
0
0
LINE
5
1412
100
AcDbEntity
8
0
100
AcDbLine
10
110.89482802222221
20
-289.8423435777778
30
0
11
102.47376846666667
21
-289.8423435777778
31
0
0
LINE
5
1413
100
AcDbEntity
8
0
100
AcDbLine
10
102.47376846666667
20
-289.8423435777778
30
0
11
102.47376846666667
21
-285.63181380000003
31
0
0
LINE
5
1414
100
AcDbEntity
8
0
100
AcDbLine
10
102.47376846666667
20
-285.63181380000003
30
0
11
94.052708911111125
21
-285.63181380000003
31
0
0
LINE
5
1415
100
AcDbEntity
8
0
100
AcDbLine
10
94.052708911111125
20
-285.63181380000003
30
0
11
94.052708911111125
21
-289.8423435777778
31
0
0
LINE
5
1416
100
AcDbEntity
8
0
100
AcDbLine
10
94.052708911111125
20
-289.8423435777778
30
0
11
85.631649355555567
21
-289.8423435777778
31
0
0
LINE
5
1417
100
AcDbEntity
8
0
100
AcDbLine
10
85.631649355555567
20
-289.8423435777778
30
0
11
85.631649355555567
21
-285.63181380000003
31
0
0
LINE
5
1418
100
AcDbEntity
8
0
100
AcDbLine
10
85.631649355555567
20
-285.63181380000003
30
0
11
77.210589800000022
21
-285.63181380000003
31
0
0
LINE
5
1419
100
AcDbEntity
8
0
100
AcDbLine
10
77.210589800000022
20
-285.63181380000003
30
0
11
77.210589800000008
21
-289.8423435777778
31
0
0
LINE
5
1420
100
AcDbEntity
8
0
100
AcDbLine
10
77.210589800000008
20
-289.8423435777778
30
0
11
68.78953024444445
21
-289.8423435777778
31
0
0
LINE
5
1421
100
AcDbEntity
8
0
100
AcDbLine
10
68.78953024444445
20
-289.8423435777778
30
0
11
68.789530244444435
21
-285.63181380000003
31
0
0
LINE
5
1422
100
AcDbEntity
8
0
100
AcDbLine
10
68.789530244444435
20
-285.63181380000003
30
0
11
60.368470688888891
21
-285.63181380000003
31
0
0
LINE
5
1423
100
AcDbEntity
8
0
100
AcDbLine
10
60.368470688888891
20
-285.63181380000003
30
0
11
60.368470688888891
21
-289.8423435777778
31
0
0
LINE
5
1424
100
AcDbEntity
8
0
100
AcDbLine
10
60.368470688888891
20
-289.8423435777778
30
0
11
51.947411133333347
21
-289.8423435777778
31
0
0
LINE
5
1425
100
AcDbEntity
8
0
100
AcDbLine
10
51.947411133333347
20
-289.8423435777778
30
0
11
51.947411133333333
21
-285.63181380000003
31
0
0
LINE
5
1426
100
AcDbEntity
8
0
100
AcDbLine
10
51.947411133333333
20
-285.63181380000003
30
0
11
43.526351577777774
21
-285.63181380000003
31
0
0
LINE
5
1427
100
AcDbEntity
8
0
100
AcDbLine
10
43.526351577777774
20
-285.63181380000003
30
0
11
43.526351577777774
21
-289.8423435777778
31
0
0
LINE
5
1428
100
AcDbEntity
8
0
100
AcDbLine
10
43.526351577777774
20
-289.8423435777778
30
0
11
35.105292022222223
21
-289.8423435777778
31
0
0
LINE
5
1429
100
AcDbEntity
8
0
100
AcDbLine
10
35.105292022222223
20
-289.8423435777778
30
0
11
35.105292022222223
21
-285.63181380000003
31
0
0
LINE
5
1430
100
AcDbEntity
8
0
100
AcDbLine
10
35.105292022222223
20
-285.63181380000003
30
0
11
26.684232466666664
21
-285.63181380000003
31
0
0
LINE
5
1431
100
AcDbEntity
8
0
100
AcDbLine
10
26.684232466666664
20
-285.63181380000003
30
0
11
26.684232466666664
21
-289.8423435777778
31
0
0
LINE
5
1432
100
AcDbEntity
8
0
100
AcDbLine
10
26.684232466666664
20
-289.8423435777778
30
0
11
16.157908022222223
21
-289.8423435777778
31
0
0
LINE
5
1433
100
AcDbEntity
8
0
100
AcDbLine
10
16.157908022222223
20
-289.8423435777778
30
0
11
16.157908022222223
21
-285.63181380000003
31
0
0
LINE
5
1434
100
AcDbEntity
8
0
100
AcDbLine
10
16.157908022222223
20
-285.63181380000003
30
0
11
9.842113355555556
21
-285.63181380000003
31
0
0
LINE
5
1435
100
AcDbEntity
8
0
100
AcDbLine
10
9.842113355555556
20
-285.63181380000003
30
0
11
9.842113355555556
21
-279.31601913333333
31
0
0
LINE
5
1436
100
AcDbEntity
8
0
100
AcDbLine
10
9.842113355555556
20
-279.31601913333333
30
0
11
5.6315835777777776
21
-279.31601913333333
31
0
0
LINE
5
1437
100
AcDbEntity
8
0
100
AcDbLine
10
5.6315835777777776
20
-279.31601913333333
30
0
11
5.6315835777777776
21
-268.78969468888891
31
0
0
LINE
5
1438
100
AcDbEntity
8
0
100
AcDbLine
10
5.6315835777777776
20
-268.78969468888891
30
0
11
9.842113355555556
21
-268.78969468888891
31
0
0
LINE
5
1439
100
AcDbEntity
8
0
100
AcDbLine
10
9.842113355555556
20
-268.78969468888891
30
0
11
9.842113355555556
21
-260.36863513333338
31
0
0
LINE
5
1440
100
AcDbEntity
8
0
100
AcDbLine
10
9.842113355555556
20
-260.36863513333338
30
0
11
5.6315835777777776
21
-260.36863513333338
31
0
0
LINE
5
1441
100
AcDbEntity
8
0
100
AcDbLine
10
5.6315835777777776
20
-260.36863513333338
30
0
11
5.6315835777777776
21
-251.94757557777777
31
0
0
LINE
5
1442
100
AcDbEntity
8
0
100
AcDbLine
10
5.6315835777777776
20
-251.94757557777777
30
0
11
9.842113355555556
21
-251.94757557777777
31
0
0
LINE
5
1443
100
AcDbEntity
8
0
100
AcDbLine
10
9.842113355555556
20
-251.94757557777777
30
0
11
9.842113355555556
21
-243.52651602222224
31
0
0
LINE
5
1444
100
AcDbEntity
8
0
100
AcDbLine
10
9.842113355555556
20
-243.52651602222224
30
0
11
5.6315835777777776
21
-243.52651602222224
31
0
0
LINE
5
1445
100
AcDbEntity
8
0
100
AcDbLine
10
5.6315835777777776
20
-243.52651602222224
30
0
11
5.6315835777777776
21
-235.10545646666671
31
0
0
LINE
5
1446
100
AcDbEntity
8
0
100
AcDbLine
10
5.6315835777777776
20
-235.10545646666671
30
0
11
9.842113355555556
21
-235.10545646666671
31
0
0
LINE
5
1447
100
AcDbEntity
8
0
100
AcDbLine
10
9.842113355555556
20
-235.10545646666671
30
0
11
9.842113355555556
21
-226.68439691111109
31
0
0
LINE
5
1448
100
AcDbEntity
8
0
100
AcDbLine
10
9.842113355555556
20
-226.68439691111109
30
0
11
5.6315835777777776
21
-226.68439691111109
31
0
0
LINE
5
1449
100
AcDbEntity
8
0
100
AcDbLine
10
5.6315835777777776
20
-226.68439691111109
30
0
11
5.6315835777777776
21
-218.26333735555556
31
0
0
LINE
5
1450
100
AcDbEntity
8
0
100
AcDbLine
10
5.6315835777777776
20
-218.26333735555556
30
0
11
9.842113355555556
21
-218.26333735555556
31
0
0
LINE
5
1451
100
AcDbEntity
8
0
100
AcDbLine
10
9.842113355555556
20
-218.26333735555556
30
0
11
9.842113355555556
21
-209.84227780000003
31
0
0
LINE
5
1452
100
AcDbEntity
8
0
100
AcDbLine
10
9.842113355555556
20
-209.84227780000003
30
0
11
5.6315835777777776
21
-209.84227780000003
31
0
0
LINE
5
1453
100
AcDbEntity
8
0
100
AcDbLine
10
5.6315835777777776
20
-209.84227780000003
30
0
11
5.6315835777777776
21
-201.42121824444447
31
0
0
LINE
5
1454
100
AcDbEntity
8
0
100
AcDbLine
10
5.6315835777777776
20
-201.42121824444447
30
0
11
9.842113355555556
21
-201.42121824444445
31
0
0
LINE
5
1455
100
AcDbEntity
8
0
100
AcDbLine
10
9.842113355555556
20
-201.42121824444445
30
0
11
9.842113355555556
21
-193.00015868888889
31
0
0
LINE
5
1456
100
AcDbEntity
8
0
100
AcDbLine
10
9.842113355555556
20
-193.00015868888889
30
0
11
5.6315835777777776
21
-193.00015868888889
31
0
0
LINE
5
1457
100
AcDbEntity
8
0
100
AcDbLine
10
5.6315835777777776
20
-193.00015868888889
30
0
11
5.6315835777777776
21
-184.57909913333336
31
0
0
LINE
5
1458
100
AcDbEntity
8
0
100
AcDbLine
10
5.6315835777777776
20
-184.57909913333336
30
0
11
9.842113355555556
21
-184.57909913333336
31
0
0
LINE
5
1459
100
AcDbEntity
8
0
100
AcDbLine
10
9.842113355555556
20
-184.57909913333336
30
0
11
9.842113355555556
21
-176.1580395777778
31
0
0
LINE
5
1460
100
AcDbEntity
8
0
100
AcDbLine
10
9.842113355555556
20
-176.1580395777778
30
0
11
5.6315835777777776
21
-176.1580395777778
31
0
0
LINE
5
1461
100
AcDbEntity
8
0
100
AcDbLine
10
5.6315835777777776
20
-176.1580395777778
30
0
11
5.6315835777777776
21
-167.73698002222221
31
0
0
LINE
5
1462
100
AcDbEntity
8
0
100
AcDbLine
10
5.6315835777777776
20
-167.73698002222221
30
0
11
9.842113355555556
21
-167.73698002222221
31
0
0
LINE
5
1463
100
AcDbEntity
8
0
100
AcDbLine
10
9.842113355555556
20
-167.73698002222221
30
0
11
9.842113355555556
21
-159.31592046666668
31
0
0
LINE
5
1464
100
AcDbEntity
8
0
100
AcDbLine
10
9.842113355555556
20
-159.31592046666668
30
0
11
5.6315835777777776
21
-159.31592046666668
31
0
0
LINE
5
1465
100
AcDbEntity
8
0
100
AcDbLine
10
5.6315835777777776
20
-159.31592046666668
30
0
11
5.6315835777777776
21
-150.89486091111112
31
0
0
LINE
5
1466
100
AcDbEntity
8
0
100
AcDbLine
10
5.6315835777777776
20
-150.89486091111112
30
0
11
9.842113355555556
21
-150.89486091111112
31
0
0
LINE
5
1467
100
AcDbEntity
8
0
100
AcDbLine
10
9.842113355555556
20
-150.89486091111112
30
0
11
9.842113355555556
21
-142.47380135555557
31
0
0
LINE
5
1468
100
AcDbEntity
8
0
100
AcDbLine
10
9.842113355555556
20
-142.47380135555557
30
0
11
5.6315835777777776
21
-142.47380135555557
31
0
0
LINE
5
1469
100
AcDbEntity
8
0
100
AcDbLine
10
5.6315835777777776
20
-142.47380135555557
30
0
11
5.6315835777777776
21
-131.9474769111111
31
0
0
LINE
5
1470
100
AcDbEntity
8
0
100
AcDbLine
10
5.6315835777777776
20
-131.9474769111111
30
0
11
9.842113355555556
21
-131.9474769111111
31
0
0
LINE
5
1471
100
AcDbEntity
8
0
100
AcDbLine
10
9.842113355555556
20
-131.9474769111111
30
0
11
9.842113355555556
21
-125.63168224444446
31
0
0
LINE
5
1472
100
AcDbEntity
8
0
100
AcDbLine
10
178.26330446666668
20
-125.63168224444446
30
0
11
184.57909913333336
21
-125.63168224444446
31
0
0
LINE
5
1473
100
AcDbEntity
8
0
100
AcDbLine
10
184.57909913333336
20
-125.63168224444446
30
0
11
184.57909913333333
21
-121.42115246666668
31
0
0
LINE
5
1474
100
AcDbEntity
8
0
100
AcDbLine
10
184.57909913333333
20
-121.42115246666668
30
0
11
195.1054235777778
21
-121.42115246666668
31
0
0
LINE
5
1475
100
AcDbEntity
8
0
100
AcDbLine
10
195.1054235777778
20
-121.42115246666668
30
0
11
195.1054235777778
21
-125.63168224444446
31
0
0
LINE
5
1476
100
AcDbEntity
8
0
100
AcDbLine
10
195.1054235777778
20
-125.63168224444446
30
0
11
203.52648313333333
21
-125.63168224444446
31
0
0
LINE
5
1477
100
AcDbEntity
8
0
100
AcDbLine
10
203.52648313333333
20
-125.63168224444446
30
0
11
203.52648313333333
21
-121.42115246666668
31
0
0
LINE
5
1478
100
AcDbEntity
8
0
100
AcDbLine
10
203.52648313333333
20
-121.42115246666668
30
0
11
211.94754268888889
21
-121.42115246666668
31
0
0
LINE
5
1479
100
AcDbEntity
8
0
100
AcDbLine
10
211.94754268888889
20
-121.42115246666668
30
0
11
211.94754268888889
21
-125.63168224444446
31
0
0
LINE
5
1480
100
AcDbEntity
8
0
100
AcDbLine
10
211.94754268888889
20
-125.63168224444446
30
0
11
220.36860224444445
21
-125.63168224444446
31
0
0
LINE
5
1481
100
AcDbEntity
8
0
100
AcDbLine
10
220.36860224444445
20
-125.63168224444446
30
0
11
220.36860224444445
21
-121.42115246666668
31
0
0
LINE
5
1482
100
AcDbEntity
8
0
100
AcDbLine
10
220.36860224444445
20
-121.42115246666668
30
0
11
228.78966180000003
21
-121.42115246666668
31
0
0
LINE
5
1483
100
AcDbEntity
8
0
100
AcDbLine
10
228.78966180000003
20
-121.42115246666668
30
0
11
228.78966179999998
21
-125.63168224444446
31
0
0
LINE
5
1484
100
AcDbEntity
8
0
100
AcDbLine
10
228.78966179999998
20
-125.63168224444446
30
0
11
237.21072135555551
21
-125.63168224444446
31
0
0
LINE
5
1485
100
AcDbEntity
8
0
100
AcDbLine
10
237.21072135555551
20
-125.63168224444446
30
0
11
237.21072135555556
21
-121.42115246666668
31
0
0
LINE
5
1486
100
AcDbEntity
8
0
100
AcDbLine
10
237.21072135555556
20
-121.42115246666668
30
0
11
245.63178091111112
21
-121.42115246666668
31
0
0
LINE
5
1487
100
AcDbEntity
8
0
100
AcDbLine
10
245.63178091111112
20
-121.42115246666668
30
0
11
245.63178091111112
21
-125.63168224444446
31
0
0
LINE
5
1488
100
AcDbEntity
8
0
100
AcDbLine
10
245.63178091111112
20
-125.63168224444446
30
0
11
254.05284046666668
21
-125.63168224444446
31
0
0
LINE
5
1489
100
AcDbEntity
8
0
100
AcDbLine
10
254.05284046666668
20
-125.63168224444446
30
0
11
254.05284046666668
21
-121.42115246666668
31
0
0
LINE
5
1490
100
AcDbEntity
8
0
100
AcDbLine
10
254.05284046666668
20
-121.42115246666668
30
0
11
262.47390002222221
21
-121.42115246666668
31
0
0
LINE
5
1491
100
AcDbEntity
8
0
100
AcDbLine
10
262.47390002222221
20
-121.42115246666668
30
0
11
262.47390002222221
21
-125.63168224444446
31
0
0
LINE
5
1492
100
AcDbEntity
8
0
100
AcDbLine
10
262.47390002222221
20
-125.63168224444446
30
0
11
270.8949595777778
21
-125.63168224444446
31
0
0
LINE
5
1493
100
AcDbEntity
8
0
100
AcDbLine
10
270.8949595777778
20
-125.63168224444446
30
0
11
270.8949595777778
21
-121.42115246666668
31
0
0
LINE
5
1494
100
AcDbEntity
8
0
100
AcDbLine
10
270.8949595777778
20
-121.42115246666668
30
0
11
279.31601913333333
21
-121.42115246666668
31
0
0
LINE
5
1495
100
AcDbEntity
8
0
100
AcDbLine
10
279.31601913333333
20
-121.42115246666668
30
0
11
279.31601913333333
21
-125.63168224444446
31
0
0
LINE
5
1496
100
AcDbEntity
8
0
100
AcDbLine
10
279.31601913333333
20
-125.63168224444446
30
0
11
287.73707868888886
21
-125.63168224444446
31
0
0
LINE
5
1497
100
AcDbEntity
8
0
100
AcDbLine
10
287.73707868888886
20
-125.63168224444446
30
0
11
287.73707868888886
21
-121.42115246666668
31
0
0
LINE
5
1498
100
AcDbEntity
8
0
100
AcDbLine
10
287.73707868888886
20
-121.42115246666668
30
0
11
296.15813824444444
21
-121.42115246666668
31
0
0
LINE
5
1499
100
AcDbEntity
8
0
100
AcDbLine
10
296.15813824444444
20
-121.42115246666668
30
0
11
296.15813824444444
21
-125.63168224444446
31
0
0
LINE
5
1500
100
AcDbEntity
8
0
100
AcDbLine
10
296.15813824444444
20
-125.63168224444446
30
0
11
304.57919780000003
21
-125.63168224444446
31
0
0
LINE
5
1501
100
AcDbEntity
8
0
100
AcDbLine
10
304.57919780000003
20
-125.63168224444446
30
0
11
304.57919780000003
21
-121.42115246666668
31
0
0
LINE
5
1502
100
AcDbEntity
8
0
100
AcDbLine
10
304.57919780000003
20
-121.42115246666668
30
0
11
313.00025735555556
21
-121.42115246666668
31
0
0
LINE
5
1503
100
AcDbEntity
8
0
100
AcDbLine
10
313.00025735555556
20
-121.42115246666668
30
0
11
313.00025735555556
21
-125.63168224444446
31
0
0
LINE
5
1504
100
AcDbEntity
8
0
100
AcDbLine
10
313.00025735555556
20
-125.63168224444446
30
0
11
321.42131691111109
21
-125.63168224444446
31
0
0
LINE
5
1505
100
AcDbEntity
8
0
100
AcDbLine
10
321.42131691111109
20
-125.63168224444446
30
0
11
321.42131691111109
21
-121.42115246666668
31
0
0
LINE
5
1506
100
AcDbEntity
8
0
100
AcDbLine
10
321.42131691111109
20
-121.42115246666668
30
0
11
331.94764135555567
21
-121.42115246666668
31
0
0
LINE
5
1507
100
AcDbEntity
8
0
100
AcDbLine
10
331.94764135555567
20
-121.42115246666668
30
0
11
331.94764135555556
21
-125.63168224444446
31
0
0
LINE
5
1508
100
AcDbEntity
8
0
100
AcDbLine
10
331.94764135555556
20
-125.63168224444446
30
0
11
338.26343602222221
21
-125.63168224444446
31
0
0
LINE
5
1509
100
AcDbEntity
8
0
100
AcDbLine
10
338.26343602222221
20
-125.63168224444446
30
0
11
338.26343602222221
21
-131.9474769111111
31
0
0
LINE
5
1510
100
AcDbEntity
8
0
100
AcDbLine
10
338.26343602222221
20
-131.9474769111111
30
0
11
342.47396579999997
21
-131.9474769111111
31
0
0
LINE
5
1511
100
AcDbEntity
8
0
100
AcDbLine
10
342.47396579999997
20
-131.9474769111111
30
0
11
342.47396579999997
21
-142.47380135555557
31
0
0
LINE
5
1512
100
AcDbEntity
8
0
100
AcDbLine
10
342.47396579999997
20
-142.47380135555557
30
0
11
338.26343602222221
21
-142.47380135555557
31
0
0
LINE
5
1513
100
AcDbEntity
8
0
100
AcDbLine
10
338.26343602222221
20
-142.47380135555557
30
0
11
338.26343602222221
21
-150.8948609111111
31
0
0
LINE
5
1514
100
AcDbEntity
8
0
100
AcDbLine
10
338.26343602222221
20
-150.8948609111111
30
0
11
342.47396579999997
21
-150.89486091111112
31
0
0
LINE
5
1515
100
AcDbEntity
8
0
100
AcDbLine
10
342.47396579999997
20
-150.89486091111112
30
0
11
342.47396579999997
21
-159.31592046666668
31
0
0
LINE
5
1516
100
AcDbEntity
8
0
100
AcDbLine
10
342.47396579999997
20
-159.31592046666668
30
0
11
338.26343602222221
21
-159.31592046666668
31
0
0
LINE
5
1517
100
AcDbEntity
8
0
100
AcDbLine
10
338.26343602222221
20
-159.31592046666668
30
0
11
338.26343602222221
21
-167.73698002222221
31
0
0
LINE
5
1518
100
AcDbEntity
8
0
100
AcDbLine
10
338.26343602222221
20
-167.73698002222221
30
0
11
342.47396579999997
21
-167.73698002222221
31
0
0
LINE
5
1519
100
AcDbEntity
8
0
100
AcDbLine
10
342.47396579999997
20
-167.73698002222221
30
0
11
342.47396579999997
21
-176.1580395777778
31
0
0
LINE
5
1520
100
AcDbEntity
8
0
100
AcDbLine
10
342.47396579999997
20
-176.1580395777778
30
0
11
338.26343602222221
21
-176.1580395777778
31
0
0
LINE
5
1521
100
AcDbEntity
8
0
100
AcDbLine
10
338.26343602222221
20
-176.1580395777778
30
0
11
338.26343602222221
21
-184.57909913333336
31
0
0
LINE
5
1522
100
AcDbEntity
8
0
100
AcDbLine
10
338.26343602222221
20
-184.57909913333336
30
0
11
342.47396579999997
21
-184.57909913333336
31
0
0
LINE
5
1523
100
AcDbEntity
8
0
100
AcDbLine
10
342.47396579999997
20
-184.57909913333336
30
0
11
342.47396579999997
21
-193.00015868888889
31
0
0
LINE
5
1524
100
AcDbEntity
8
0
100
AcDbLine
10
342.47396579999997
20
-193.00015868888889
30
0
11
338.26343602222221
21
-193.00015868888889
31
0
0
LINE
5
1525
100
AcDbEntity
8
0
100
AcDbLine
10
338.26343602222221
20
-193.00015868888889
30
0
11
338.26343602222221
21
-201.42121824444445
31
0
0
LINE
5
1526
100
AcDbEntity
8
0
100
AcDbLine
10
338.26343602222221
20
-201.42121824444445
30
0
11
342.47396579999997
21
-201.42121824444445
31
0
0
LINE
5
1527
100
AcDbEntity
8
0
100
AcDbLine
10
342.47396579999997
20
-201.42121824444445
30
0
11
342.47396579999997
21
-209.84227780000001
31
0
0
LINE
5
1528
100
AcDbEntity
8
0
100
AcDbLine
10
342.47396579999997
20
-209.84227780000001
30
0
11
338.26343602222221
21
-209.84227780000003
31
0
0
LINE
5
1529
100
AcDbEntity
8
0
100
AcDbLine
10
338.26343602222221
20
-209.84227780000003
30
0
11
338.26343602222221
21
-218.26333735555556
31
0
0
LINE
5
1530
100
AcDbEntity
8
0
100
AcDbLine
10
338.26343602222221
20
-218.26333735555556
30
0
11
342.47396579999997
21
-218.26333735555556
31
0
0
LINE
5
1531
100
AcDbEntity
8
0
100
AcDbLine
10
342.47396579999997
20
-218.26333735555556
30
0
11
342.47396579999997
21
-226.68439691111109
31
0
0
LINE
5
1532
100
AcDbEntity
8
0
100
AcDbLine
10
342.47396579999997
20
-226.68439691111109
30
0
11
338.26343602222221
21
-226.68439691111109
31
0
0
LINE
5
1533
100
AcDbEntity
8
0
100
AcDbLine
10
338.26343602222221
20
-226.68439691111109
30
0
11
338.26343602222221
21
-235.10545646666671
31
0
0
LINE
5
1534
100
AcDbEntity
8
0
100
AcDbLine
10
338.26343602222221
20
-235.10545646666671
30
0
11
342.47396579999997
21
-235.10545646666671
31
0
0
LINE
5
1535
100
AcDbEntity
8
0
100
AcDbLine
10
342.47396579999997
20
-235.10545646666671
30
0
11
342.47396579999997
21
-243.52651602222224
31
0
0
LINE
5
1536
100
AcDbEntity
8
0
100
AcDbLine
10
342.47396579999997
20
-243.52651602222224
30
0
11
338.26343602222221
21
-243.52651602222224
31
0
0
LINE
5
1537
100
AcDbEntity
8
0
100
AcDbLine
10
338.26343602222221
20
-243.52651602222224
30
0
11
338.26343602222221
21
-251.94757557777777
31
0
0
LINE
5
1538
100
AcDbEntity
8
0
100
AcDbLine
10
338.26343602222221
20
-251.94757557777777
30
0
11
342.47396579999997
21
-251.94757557777777
31
0
0
LINE
5
1539
100
AcDbEntity
8
0
100
AcDbLine
10
342.47396579999997
20
-251.94757557777777
30
0
11
342.47396579999997
21
-260.36863513333338
31
0
0
LINE
5
1540
100
AcDbEntity
8
0
100
AcDbLine
10
342.47396579999997
20
-260.36863513333338
30
0
11
338.26343602222221
21
-260.36863513333338
31
0
0
LINE
5
1541
100
AcDbEntity
8
0
100
AcDbLine
10
338.26343602222221
20
-260.36863513333338
30
0
11
338.26343602222221
21
-268.78969468888891
31
0
0
LINE
5
1542
100
AcDbEntity
8
0
100
AcDbLine
10
338.26343602222221
20
-268.78969468888891
30
0
11
342.47396579999997
21
-268.78969468888891
31
0
0
LINE
5
1543
100
AcDbEntity
8
0
100
AcDbLine
10
342.47396579999997
20
-268.78969468888891
30
0
11
342.47396579999997
21
-279.31601913333333
31
0
0
LINE
5
1544
100
AcDbEntity
8
0
100
AcDbLine
10
342.47396579999997
20
-279.31601913333333
30
0
11
338.26343602222221
21
-279.31601913333333
31
0
0
LINE
5
1545
100
AcDbEntity
8
0
100
AcDbLine
10
338.26343602222221
20
-279.31601913333333
30
0
11
338.26343602222221
21
-285.63181380000003
31
0
0
LINE
5
1546
100
AcDbEntity
8
0
100
AcDbLine
10
338.26343602222221
20
-285.63181380000003
30
0
11
331.94764135555556
21
-285.63181380000003
31
0
0
LINE
5
1547
100
AcDbEntity
8
0
100
AcDbLine
10
331.94764135555556
20
-285.63181380000003
30
0
11
331.94764135555556
21
-289.8423435777778
31
0
0
LINE
5
1548
100
AcDbEntity
8
0
100
AcDbLine
10
331.94764135555556
20
-289.8423435777778
30
0
11
321.42131691111109
21
-289.8423435777778
31
0
0
LINE
5
1549
100
AcDbEntity
8
0
100
AcDbLine
10
321.42131691111109
20
-289.8423435777778
30
0
11
321.42131691111109
21
-285.63181380000003
31
0
0
LINE
5
1550
100
AcDbEntity
8
0
100
AcDbLine
10
321.42131691111109
20
-285.63181380000003
30
0
11
313.00025735555556
21
-285.63181380000003
31
0
0
LINE
5
1551
100
AcDbEntity
8
0
100
AcDbLine
10
313.00025735555556
20
-285.63181380000003
30
0
11
313.00025735555556
21
-289.8423435777778
31
0
0
LINE
5
1552
100
AcDbEntity
8
0
100
AcDbLine
10
313.00025735555556
20
-289.8423435777778
30
0
11
304.57919780000003
21
-289.8423435777778
31
0
0
LINE
5
1553
100
AcDbEntity
8
0
100
AcDbLine
10
304.57919780000003
20
-289.8423435777778
30
0
11
304.57919780000003
21
-285.63181380000003
31
0
0
LINE
5
1554
100
AcDbEntity
8
0
100
AcDbLine
10
304.57919780000003
20
-285.63181380000003
30
0
11
296.15813824444444
21
-285.63181380000003
31
0
0
LINE
5
1555
100
AcDbEntity
8
0
100
AcDbLine
10
296.15813824444444
20
-285.63181380000003
30
0
11
296.15813824444444
21
-289.8423435777778
31
0
0
LINE
5
1556
100
AcDbEntity
8
0
100
AcDbLine
10
296.15813824444444
20
-289.8423435777778
30
0
11
287.73707868888886
21
-289.8423435777778
31
0
0
LINE
5
1557
100
AcDbEntity
8
0
100
AcDbLine
10
287.73707868888886
20
-289.8423435777778
30
0
11
287.73707868888886
21
-285.63181380000003
31
0
0
LINE
5
1558
100
AcDbEntity
8
0
100
AcDbLine
10
287.73707868888886
20
-285.63181380000003
30
0
11
279.31601913333333
21
-285.63181380000003
31
0
0
LINE
5
1559
100
AcDbEntity
8
0
100
AcDbLine
10
279.31601913333333
20
-285.63181380000003
30
0
11
279.31601913333333
21
-289.8423435777778
31
0
0
LINE
5
1560
100
AcDbEntity
8
0
100
AcDbLine
10
279.31601913333333
20
-289.8423435777778
30
0
11
270.8949595777778
21
-289.8423435777778
31
0
0
LINE
5
1561
100
AcDbEntity
8
0
100
AcDbLine
10
270.8949595777778
20
-289.8423435777778
30
0
11
270.8949595777778
21
-285.63181380000003
31
0
0
LINE
5
1562
100
AcDbEntity
8
0
100
AcDbLine
10
270.8949595777778
20
-285.63181380000003
30
0
11
262.47390002222221
21
-285.63181380000003
31
0
0
LINE
5
1563
100
AcDbEntity
8
0
100
AcDbLine
10
262.47390002222221
20
-285.63181380000003
30
0
11
262.47390002222221
21
-289.8423435777778
31
0
0
LINE
5
1564
100
AcDbEntity
8
0
100
AcDbLine
10
262.47390002222221
20
-289.8423435777778
30
0
11
254.05284046666668
21
-289.8423435777778
31
0
0
LINE
5
1565
100
AcDbEntity
8
0
100
AcDbLine
10
254.05284046666668
20
-289.8423435777778
30
0
11
254.05284046666668
21
-285.63181380000003
31
0
0
LINE
5
1566
100
AcDbEntity
8
0
100
AcDbLine
10
254.05284046666668
20
-285.63181380000003
30
0
11
245.63178091111112
21
-285.63181380000003
31
0
0
LINE
5
1567
100
AcDbEntity
8
0
100
AcDbLine
10
245.63178091111112
20
-285.63181380000003
30
0
11
245.63178091111112
21
-289.8423435777778
31
0
0
LINE
5
1568
100
AcDbEntity
8
0
100
AcDbLine
10
245.63178091111112
20
-289.8423435777778
30
0
11
237.21072135555556
21
-289.8423435777778
31
0
0
LINE
5
1569
100
AcDbEntity
8
0
100
AcDbLine
10
237.21072135555556
20
-289.8423435777778
30
0
11
237.21072135555556
21
-285.63181380000003
31
0
0
LINE
5
1570
100
AcDbEntity
8
0
100
AcDbLine
10
237.21072135555556
20
-285.63181380000003
30
0
11
228.78966180000003
21
-285.63181380000003
31
0
0
LINE
5
1571
100
AcDbEntity
8
0
100
AcDbLine
10
228.78966180000003
20
-285.63181380000003
30
0
11
228.78966179999998
21
-289.8423435777778
31
0
0
LINE
5
1572
100
AcDbEntity
8
0
100
AcDbLine
10
228.78966179999998
20
-289.8423435777778
30
0
11
220.36860224444445
21
-289.8423435777778
31
0
0
LINE
5
1573
100
AcDbEntity
8
0
100
AcDbLine
10
220.36860224444445
20
-289.8423435777778
30
0
11
220.36860224444445
21
-285.63181380000003
31
0
0
LINE
5
1574
100
AcDbEntity
8
0
100
AcDbLine
10
220.36860224444445
20
-285.63181380000003
30
0
11
211.94754268888889
21
-285.63181380000003
31
0
0
LINE
5
1575
100
AcDbEntity
8
0
100
AcDbLine
10
211.94754268888889
20
-285.63181380000003
30
0
11
211.94754268888889
21
-289.8423435777778
31
0
0
LINE
5
1576
100
AcDbEntity
8
0
100
AcDbLine
10
211.94754268888889
20
-289.8423435777778
30
0
11
203.52648313333333
21
-289.8423435777778
31
0
0
LINE
5
1577
100
AcDbEntity
8
0
100
AcDbLine
10
203.52648313333333
20
-289.8423435777778
30
0
11
203.52648313333333
21
-285.63181380000003
31
0
0
LINE
5
1578
100
AcDbEntity
8
0
100
AcDbLine
10
203.52648313333333
20
-285.63181380000003
30
0
11
195.1054235777778
21
-285.63181380000003
31
0
0
LINE
5
1579
100
AcDbEntity
8
0
100
AcDbLine
10
195.1054235777778
20
-285.63181380000003
30
0
11
195.1054235777778
21
-289.8423435777778
31
0
0
LINE
5
1580
100
AcDbEntity
8
0
100
AcDbLine
10
195.1054235777778
20
-289.8423435777778
30
0
11
184.57909913333333
21
-289.8423435777778
31
0
0
LINE
5
1581
100
AcDbEntity
8
0
100
AcDbLine
10
184.57909913333333
20
-289.8423435777778
30
0
11
184.57909913333333
21
-285.63181380000003
31
0
0
LINE
5
1582
100
AcDbEntity
8
0
100
AcDbLine
10
184.57909913333333
20
-285.63181380000003
30
0
11
178.26330446666663
21
-285.63181380000003
31
0
0
LINE
5
1583
100
AcDbEntity
8
0
100
AcDbLine
10
178.26330446666663
20
-285.63181380000003
30
0
11
178.26330446666668
21
-279.31601913333333
31
0
0
LINE
5
1584
100
AcDbEntity
8
0
100
AcDbLine
10
178.26330446666668
20
-279.31601913333333
30
0
11
174.05277468888892
21
-279.31601913333333
31
0
0
LINE
5
1585
100
AcDbEntity
8
0
100
AcDbLine
10
174.05277468888892
20
-279.31601913333333
30
0
11
174.05277468888892
21
-268.78969468888891
31
0
0
LINE
5
1586
100
AcDbEntity
8
0
100
AcDbLine
10
174.05277468888892
20
-268.78969468888891
30
0
11
178.26330446666668
21
-268.78969468888891
31
0
0
LINE
5
1587
100
AcDbEntity
8
0
100
AcDbLine
10
178.26330446666668
20
-268.78969468888891
30
0
11
178.26330446666668
21
-260.36863513333338
31
0
0
LINE
5
1588
100
AcDbEntity
8
0
100
AcDbLine
10
178.26330446666668
20
-260.36863513333338
30
0
11
174.05277468888892
21
-260.36863513333338
31
0
0
LINE
5
1589
100
AcDbEntity
8
0
100
AcDbLine
10
174.05277468888892
20
-260.36863513333338
30
0
11
174.05277468888892
21
-251.94757557777777
31
0
0
LINE
5
1590
100
AcDbEntity
8
0
100
AcDbLine
10
174.05277468888892
20
-251.94757557777777
30
0
11
178.26330446666668
21
-251.94757557777777
31
0
0
LINE
5
1591
100
AcDbEntity
8
0
100
AcDbLine
10
178.26330446666668
20
-251.94757557777777
30
0
11
178.26330446666668
21
-243.52651602222224
31
0
0
LINE
5
1592
100
AcDbEntity
8
0
100
AcDbLine
10
178.26330446666668
20
-243.52651602222224
30
0
11
174.05277468888892
21
-243.52651602222224
31
0
0
LINE
5
1593
100
AcDbEntity
8
0
100
AcDbLine
10
174.05277468888892
20
-243.52651602222224
30
0
11
174.05277468888892
21
-235.10545646666671
31
0
0
LINE
5
1594
100
AcDbEntity
8
0
100
AcDbLine
10
174.05277468888892
20
-235.10545646666671
30
0
11
178.26330446666668
21
-235.10545646666671
31
0
0
LINE
5
1595
100
AcDbEntity
8
0
100
AcDbLine
10
178.26330446666668
20
-235.10545646666671
30
0
11
178.26330446666668
21
-226.68439691111109
31
0
0
LINE
5
1596
100
AcDbEntity
8
0
100
AcDbLine
10
178.26330446666668
20
-226.68439691111109
30
0
11
174.05277468888892
21
-226.68439691111109
31
0
0
LINE
5
1597
100
AcDbEntity
8
0
100
AcDbLine
10
174.05277468888892
20
-226.68439691111109
30
0
11
174.05277468888892
21
-218.26333735555556
31
0
0
LINE
5
1598
100
AcDbEntity
8
0
100
AcDbLine
10
174.05277468888892
20
-218.26333735555556
30
0
11
178.26330446666668
21
-218.26333735555556
31
0
0
LINE
5
1599
100
AcDbEntity
8
0
100
AcDbLine
10
178.26330446666668
20
-218.26333735555556
30
0
11
178.26330446666668
21
-209.84227780000003
31
0
0
LINE
5
1600
100
AcDbEntity
8
0
100
AcDbLine
10
178.26330446666668
20
-209.84227780000003
30
0
11
174.05277468888892
21
-209.84227780000001
31
0
0
LINE
5
1601
100
AcDbEntity
8
0
100
AcDbLine
10
174.05277468888892
20
-209.84227780000001
30
0
11
174.05277468888892
21
-201.42121824444445
31
0
0
LINE
5
1602
100
AcDbEntity
8
0
100
AcDbLine
10
174.05277468888892
20
-201.42121824444445
30
0
11
178.26330446666668
21
-201.42121824444445
31
0
0
LINE
5
1603
100
AcDbEntity
8
0
100
AcDbLine
10
178.26330446666668
20
-201.42121824444445
30
0
11
178.26330446666668
21
-193.00015868888889
31
0
0
LINE
5
1604
100
AcDbEntity
8
0
100
AcDbLine
10
178.26330446666668
20
-193.00015868888889
30
0
11
174.05277468888892
21
-193.00015868888889
31
0
0
LINE
5
1605
100
AcDbEntity
8
0
100
AcDbLine
10
174.05277468888892
20
-193.00015868888889
30
0
11
174.05277468888892
21
-184.57909913333336
31
0
0
LINE
5
1606
100
AcDbEntity
8
0
100
AcDbLine
10
174.05277468888892
20
-184.57909913333336
30
0
11
178.26330446666668
21
-184.57909913333336
31
0
0
LINE
5
1607
100
AcDbEntity
8
0
100
AcDbLine
10
178.26330446666668
20
-184.57909913333336
30
0
11
178.26330446666668
21
-176.1580395777778
31
0
0
LINE
5
1608
100
AcDbEntity
8
0
100
AcDbLine
10
178.26330446666668
20
-176.1580395777778
30
0
11
174.05277468888892
21
-176.1580395777778
31
0
0
LINE
5
1609
100
AcDbEntity
8
0
100
AcDbLine
10
174.05277468888892
20
-176.1580395777778
30
0
11
174.05277468888892
21
-167.73698002222221
31
0
0
LINE
5
1610
100
AcDbEntity
8
0
100
AcDbLine
10
174.05277468888892
20
-167.73698002222221
30
0
11
178.26330446666668
21
-167.73698002222221
31
0
0
LINE
5
1611
100
AcDbEntity
8
0
100
AcDbLine
10
178.26330446666668
20
-167.73698002222221
30
0
11
178.26330446666668
21
-159.31592046666668
31
0
0
LINE
5
1612
100
AcDbEntity
8
0
100
AcDbLine
10
178.26330446666668
20
-159.31592046666668
30
0
11
174.05277468888892
21
-159.31592046666668
31
0
0
LINE
5
1613
100
AcDbEntity
8
0
100
AcDbLine
10
174.05277468888892
20
-159.31592046666668
30
0
11
174.05277468888892
21
-150.89486091111112
31
0
0
LINE
5
1614
100
AcDbEntity
8
0
100
AcDbLine
10
174.05277468888892
20
-150.89486091111112
30
0
11
178.26330446666668
21
-150.89486091111112
31
0
0
LINE
5
1615
100
AcDbEntity
8
0
100
AcDbLine
10
178.26330446666668
20
-150.89486091111112
30
0
11
178.26330446666668
21
-142.47380135555557
31
0
0
LINE
5
1616
100
AcDbEntity
8
0
100
AcDbLine
10
178.26330446666668
20
-142.47380135555557
30
0
11
174.05277468888892
21
-142.47380135555557
31
0
0
LINE
5
1617
100
AcDbEntity
8
0
100
AcDbLine
10
174.05277468888892
20
-142.47380135555557
30
0
11
174.05277468888892
21
-131.9474769111111
31
0
0
LINE
5
1618
100
AcDbEntity
8
0
100
AcDbLine
10
174.05277468888892
20
-131.9474769111111
30
0
11
178.26330446666668
21
-131.9474769111111
31
0
0
LINE
5
1619
100
AcDbEntity
8
0
100
AcDbLine
10
178.26330446666668
20
-131.9474769111111
30
0
11
178.26330446666668
21
-125.63168224444446
31
0
0
LINE
5
1620
100
AcDbEntity
8
0
100
AcDbLine
10
342.47396579999997
20
-100.10534546666669
30
0
11
510.89515691111114
21
-100.10534546666668
31
0
0
LINE
5
1621
100
AcDbEntity
8
0
100
AcDbLine
10
426.68456135555562
20
-100.10534546666669
30
0
11
426.68456135555562
21
-70.105345466666691
31
0
0
CIRCLE
5
1622
100
AcDbEntity
8
0
100
AcDbCircle
10
426.68456135555562
20
-70.105345466666691
30
0
40
14.000000000000002
0
CIRCLE
5
1623
100
AcDbEntity
8
0
100
AcDbCircle
10
451.68453748091122
20
-70.070795044839997
30
0
40
2.500000000000008
0
CIRCLE
5
1624
100
AcDbEntity
8
0
100
AcDbCircle
10
401.68458534338208
20
-70.070713245441411
30
0
40
2.5000000000000133
0
LINE
5
1625
100
AcDbEntity
8
0
100
AcDbLine
10
451.68453748091122
20
-70.070795044839997
30
0
11
426.68456135555562
21
-70.105345466666691
31
0
0
LINE
5
1626
100
AcDbEntity
8
0
100
AcDbLine
10
451.68456135555562
20
-60
30
0
11
426.68456135555562
21
-60
31
0
0
LINE
5
1627
100
AcDbEntity
8
0
100
AcDbLine
10
426.68456135555562
20
-70.105345466666691
30
0
11
401.68458534338208
21
-70.070713245441411
31
0
0
LINE
5
1628
100
AcDbEntity
8
0
100
AcDbLine
10
426.68456135555562
20
-70.105345466666691
30
0
11
426.68070855963884
21
-40.105345714067298
31
0
0
CIRCLE
5
1629
100
AcDbEntity
8
0
100
AcDbCircle
10
426.68070855963884
20
-40.105345714067298
30
0
40
5.9999999999999885
0
LINE
5
1630
100
AcDbEntity
8
0
100
AcDbLine
10
9.842113355555556
20
-285.63181380000003
30
0
11
169.84224491111115
21
-125.63168224444446
31
0
0
LINE
5
1631
100
AcDbEntity
8
0
100
AcDbLine
10
89.842179133333332
20
-205.63174802222224
30
0
11
89.84217913333336
21
-289.8423435777778
31
0
0
LINE
5
1632
100
AcDbEntity
8
0
100
AcDbLine
10
89.842179133333332
20
-205.63174802222224
30
0
11
89.84217913333336
21
-121.42115246666668
31
0
0
LINE
5
1633
100
AcDbEntity
8
0
100
AcDbLine
10
125.59217913333342
20
-241.38174802222227
30
0
11
54.092179133333346
21
-241.38174802222224
31
0
0
LINE
5
1634
100
AcDbEntity
8
0
100
AcDbLine
10
54.092179133333346
20
-241.38174802222224
30
0
11
54.092179133333332
21
-169.8817480222223
31
0
0
LINE
5
1635
100
AcDbEntity
8
0
100
AcDbLine
10
54.092179133333332
20
-169.8817480222223
30
0
11
125.59217913333336
21
-169.88174802222227
31
0
0
LINE
5
1636
100
AcDbEntity
8
0
100
AcDbLine
10
125.59217913333336
20
-169.88174802222227
30
0
11
125.59217913333342
21
-241.38174802222227
31
0
0
LINE
5
1637
100
AcDbEntity
8
0
100
AcDbLine
10
125.59217913333342
20
-241.38174802222227
30
0
11
54.092179133333332
21
-169.8817480222223
31
0
0
LINE
5
1638
100
AcDbEntity
8
0
100
AcDbLine
10
54.092179133333346
20
-241.38174802222224
30
0
11
125.59217913333336
21
-169.88174802222227
31
0
0
CIRCLE
5
1639
100
AcDbEntity
8
0
100
AcDbCircle
10
54.092179133333332
20
-169.8817480222223
30
0
40
2.0000000000000022
0
CIRCLE
5
1640
100
AcDbEntity
8
0
100
AcDbCircle
10
125.59217913333336
20
-169.88174802222227
30
0
40
1.9999999999999929
0
CIRCLE
5
1641
100
AcDbEntity
8
0
100
AcDbCircle
10
54.092179133333346
20
-241.38174802222224
30
0
40
2.0000000000000018
0
CIRCLE
5
1642
100
AcDbEntity
8
0
100
AcDbCircle
10
125.59217913333342
20
-241.38174802222227
30
0
40
1.999999999999996
0
LWPOLYLINE
5
1643
100
AcDbEntity
8
0
100
AcDbPolyline
90
6
70
1
43
0.0
10
60.499664294642145
20
-172.54186683393414
10
64.651449508851044
20
-174.17266190111832
10
65.315032159407679
20
-178.5836109012719
10
61.826829595755441
20
-181.36376483424129
10
57.675044381546542
20
-179.73296976705717
10
57.011461730989893
20
-175.32202076690362
0
LINE
5
1644
100
AcDbEntity
8
0
100
AcDbLine
10
54.092179133333332
20
-169.8817480222223
30
0
11
61.163246945198829
21
-176.95281583408774
31
0
0
LWPOLYLINE
5
1645
100
AcDbEntity
8
0
100
AcDbPolyline
90
6
70
1
43
0.0
10
74.234782842184373
20
-174.17266190111832
10
74.898365492741007
20
-178.5836109012719
10
71.41016292908877
20
-181.36376483424129
10
67.25837771487987
20
-179.73296976705717
10
66.594795064323222
20
-175.32202076690362
10
70.082997627975473
20
-172.54186683393414
0
LWPOLYLINE
5
1646
100
AcDbEntity
8
0
100
AcDbPolyline
90
6
70
1
43
0.0
10
83.818116175517702
20
-174.17266190111832
10
84.481698826074336
20
-178.5836109012719
10
80.993496262422099
20
-181.36376483424129
10
76.841711048213213
20
-179.73296976705717
10
76.178128397656565
20
-175.32202076690362
10
79.666330961308816
20
-172.54186683393414
0
LWPOLYLINE
5
1647
100
AcDbEntity
8
0
100
AcDbPolyline
90
6
70
1
43
0.0
10
93.401449508851044
20
-174.17266190111832
10
94.065032159407679
20
-178.5836109012719
10
90.576829595755441
20
-181.36376483424129
10
86.425044381546542
20
-179.73296976705717
10
85.761461730989893
20
-175.32202076690362
10
89.249664294642145
20
-172.54186683393414
0
LWPOLYLINE
5
1648
100
AcDbEntity
8
0
100
AcDbPolyline
90
6
70
1
43
0.0
10
102.98478284218439
20
-174.17266190111832
10
103.64836549274102
20
-178.5836109012719
10
100.16016292908878
20
-181.36376483424129
10
96.008377714879884
20
-179.73296976705717
10
95.344795064323222
20
-175.32202076690362
10
98.832997627975487
20
-172.54186683393414
0
LWPOLYLINE
5
1649
100
AcDbEntity
8
0
100
AcDbPolyline
90
6
70
1
43
0.0
10
112.56811617551773
20
-174.17266190111832
10
113.23169882607434
20
-178.5836109012719
10
109.74349626242213
20
-181.36376483424129
10
105.5917110482132
20
-179.73296976705717
10
104.92812839765655
20
-175.32202076690362
10
108.4163309613088
20
-172.54186683393414
0
LWPOLYLINE
5
1650
100
AcDbEntity
8
0
100
AcDbPolyline
90
6
70
1
43
0.0
10
122.15144950885104
20
-174.17266190111832
10
122.81503215940768
20
-178.5836109012719
10
119.32682959575544
20
-181.36376483424129
10
115.17504438154654
20
-179.73296976705717
10
114.51146173098989
20
-175.32202076690362
10
117.99966429464214
20
-172.54186683393414
0
LWPOLYLINE
5
1651
100
AcDbEntity
8
0
100
AcDbPolyline
90
6
70
1
43
0.0
10
64.651449508851044
20
-183.75599523445163
10
65.315032159407679
20
-188.16694423460521
10
61.826829595755441
20
-190.94709816757461
10
57.675044381546542
20
-189.31630310039051
10
57.011461730989893
20
-184.90535410023693
10
60.499664294642145
20
-182.12520016726745
0
LWPOLYLINE
5
1652
100
AcDbEntity
8
0
100
AcDbPolyline
90
6
70
1
43
0.0
10
74.234782842184373
20
-183.75599523445163
10
74.898365492741007
20
-188.16694423460521
10
71.41016292908877
20
-190.94709816757461
10
67.25837771487987
20
-189.31630310039051
10
66.594795064323222
20
-184.90535410023693
10
70.082997627975473
20
-182.12520016726745
0
LWPOLYLINE
5
1653
100
AcDbEntity
8
0
100
AcDbPolyline
90
6
70
1
43
0.0
10
83.818116175517702
20
-183.75599523445163
10
84.481698826074336
20
-188.16694423460521
10
80.993496262422099
20
-190.94709816757461
10
76.841711048213213
20
-189.31630310039051
10
76.178128397656565
20
-184.90535410023693
10
79.666330961308816
20
-182.12520016726745
0
LWPOLYLINE
5
1654
100
AcDbEntity
8
0
100
AcDbPolyline
90
6
70
1
43
0.0
10
93.401449508851044
20
-183.75599523445163
10
94.065032159407679
20
-188.16694423460521
10
90.576829595755441
20
-190.94709816757461
10
86.425044381546542
20
-189.31630310039051
10
85.761461730989893
20
-184.90535410023693
10
89.249664294642145
20
-182.12520016726745
0
LWPOLYLINE
5
1655
100
AcDbEntity
8
0
100
AcDbPolyline
90
6
70
1
43
0.0
10
102.98478284218439
20
-183.75599523445163
10
103.64836549274102
20
-188.16694423460521
10
100.16016292908878
20
-190.94709816757461
10
96.008377714879884
20
-189.31630310039051
10
95.344795064323222
20
-184.90535410023693
10
98.832997627975487
20
-182.12520016726745
0
LWPOLYLINE
5
1656
100
AcDbEntity
8
0
100
AcDbPolyline
90
6
70
1
43
0.0
10
112.56811617551773
20
-183.75599523445163
10
113.23169882607434
20
-188.16694423460521
10
109.74349626242213
20
-190.94709816757461
10
105.5917110482132
20
-189.31630310039051
10
104.92812839765655
20
-184.90535410023693
10
108.4163309613088
20
-182.12520016726745
0
LWPOLYLINE
5
1657
100
AcDbEntity
8
0
100
AcDbPolyline
90
6
70
1
43
0.0
10
122.15144950885104
20
-183.75599523445163
10
122.81503215940768
20
-188.16694423460521
10
119.32682959575544
20
-190.94709816757461
10
115.17504438154654
20
-189.31630310039051
10
114.51146173098989
20
-184.90535410023693
10
117.99966429464214
20
-182.12520016726745
0
LWPOLYLINE
5
1658
100
AcDbEntity
8
0
100
AcDbPolyline
90
6
70
1
43
0.0
10
64.651449508851044
20
-193.339328567785
10
65.315032159407679
20
-197.75027756793858
10
61.826829595755441
20
-200.53043150090798
10
57.675044381546542
20
-198.89963643372386
10
57.011461730989893
20
-194.48868743357028
10
60.499664294642145
20
-191.70853350060082
0
LWPOLYLINE
5
1659
100
AcDbEntity
8
0
100
AcDbPolyline
90
6
70
1
43
0.0
10
74.234782842184373
20
-193.339328567785
10
74.898365492741007
20
-197.75027756793858
10
71.41016292908877
20
-200.53043150090798
10
67.25837771487987
20
-198.89963643372386
10
66.594795064323222
20
-194.48868743357028
10
70.082997627975473
20
-191.70853350060082
0
LWPOLYLINE
5
1660
100
AcDbEntity
8
0
100
AcDbPolyline
90
6
70
1
43
0.0
10
83.818116175517702
20
-193.339328567785
10
84.481698826074336
20
-197.75027756793858
10
80.993496262422099
20
-200.53043150090798
10
76.841711048213213
20
-198.89963643372386
10
76.178128397656565
20
-194.48868743357028
10
79.666330961308816
20
-191.70853350060082
0
LWPOLYLINE
5
1661
100
AcDbEntity
8
0
100
AcDbPolyline
90
6
70
1
43
0.0
10
93.401449508851044
20
-193.339328567785
10
94.065032159407679
20
-197.75027756793858
10
90.576829595755441
20
-200.53043150090798
10
86.425044381546542
20
-198.89963643372386
10
85.761461730989893
20
-194.48868743357028
10
89.249664294642145
20
-191.70853350060082
0
LWPOLYLINE
5
1662
100
AcDbEntity
8
0
100
AcDbPolyline
90
6
70
1
43
0.0
10
102.98478284218439
20
-193.339328567785
10
103.64836549274102
20
-197.75027756793858
10
100.16016292908878
20
-200.53043150090798
10
96.008377714879884
20
-198.89963643372386
10
95.344795064323222
20
-194.48868743357028
10
98.832997627975487
20
-191.70853350060082
0
LWPOLYLINE
5
1663
100
AcDbEntity
8
0
100
AcDbPolyline
90
6
70
1
43
0.0
10
112.56811617551773
20
-193.339328567785
10
113.23169882607434
20
-197.75027756793858
10
109.74349626242213
20
-200.53043150090798
10
105.5917110482132
20
-198.89963643372386
10
104.92812839765655
20
-194.48868743357028
10
108.4163309613088
20
-191.70853350060082
0
LWPOLYLINE
5
1664
100
AcDbEntity
8
0
100
AcDbPolyline
90
6
70
1
43
0.0
10
122.15144950885104
20
-193.339328567785
10
122.81503215940768
20
-197.75027756793858
10
119.32682959575544
20
-200.53043150090798
10
115.17504438154654
20
-198.89963643372386
10
114.51146173098989
20
-194.48868743357028
10
117.99966429464214
20
-191.70853350060082
0
LWPOLYLINE
5
1665
100
AcDbEntity
8
0
100
AcDbPolyline
90
6
70
1
43
0.0
10
64.651449508851044
20
-202.92266190111832
10
65.315032159407679
20
-207.3336109012719
10
61.826829595755441
20
-210.11376483424129
10
57.675044381546542
20
-208.48296976705717
10
57.011461730989893
20
-204.07202076690362
10
60.499664294642145
20
-201.29186683393414
0
LWPOLYLINE
5
1666
100
AcDbEntity
8
0
100
AcDbPolyline
90
6
70
1
43
0.0
10
74.234782842184373
20
-202.92266190111832
10
74.898365492741007
20
-207.3336109012719
10
71.41016292908877
20
-210.11376483424129
10
67.25837771487987
20
-208.48296976705717
10
66.594795064323222
20
-204.07202076690362
10
70.082997627975473
20
-201.29186683393414
0
LWPOLYLINE
5
1667
100
AcDbEntity
8
0
100
AcDbPolyline
90
6
70
1
43
0.0
10
83.818116175517702
20
-202.92266190111832
10
84.481698826074336
20
-207.3336109012719
10
80.993496262422099
20
-210.11376483424129
10
76.841711048213213
20
-208.48296976705717
10
76.178128397656565
20
-204.07202076690362
10
79.666330961308816
20
-201.29186683393414
0
LWPOLYLINE
5
1668
100
AcDbEntity
8
0
100
AcDbPolyline
90
6
70
1
43
0.0
10
93.401449508851044
20
-202.92266190111832
10
94.065032159407679
20
-207.3336109012719
10
90.576829595755441
20
-210.11376483424129
10
86.425044381546542
20
-208.48296976705717
10
85.761461730989893
20
-204.07202076690362
10
89.249664294642145
20
-201.29186683393414
0
LWPOLYLINE
5
1669
100
AcDbEntity
8
0
100
AcDbPolyline
90
6
70
1
43
0.0
10
102.98478284218439
20
-202.92266190111832
10
103.64836549274102
20
-207.3336109012719
10
100.16016292908878
20
-210.11376483424129
10
96.008377714879884
20
-208.48296976705717
10
95.344795064323222
20
-204.07202076690362
10
98.832997627975487
20
-201.29186683393414
0
LWPOLYLINE
5
1670
100
AcDbEntity
8
0
100
AcDbPolyline
90
6
70
1
43
0.0
10
112.56811617551773
20
-202.92266190111832
10
113.23169882607434
20
-207.3336109012719
10
109.74349626242213
20
-210.11376483424129
10
105.5917110482132
20
-208.48296976705717
10
104.92812839765655
20
-204.07202076690362
10
108.4163309613088
20
-201.29186683393414
0
LWPOLYLINE
5
1671
100
AcDbEntity
8
0
100
AcDbPolyline
90
6
70
1
43
0.0
10
122.15144950885104
20
-202.92266190111832
10
122.81503215940768
20
-207.3336109012719
10
119.32682959575544
20
-210.11376483424129
10
115.17504438154654
20
-208.48296976705717
10
114.51146173098989
20
-204.07202076690362
10
117.99966429464214
20
-201.29186683393414
0
LWPOLYLINE
5
1672
100
AcDbEntity
8
0
100
AcDbPolyline
90
6
70
1
43
0.0
10
64.651449508851044
20
-212.50599523445163
10
65.315032159407679
20
-216.91694423460521
10
61.826829595755441
20
-219.69709816757461
10
57.675044381546542
20
-218.06630310039051
10
57.011461730989893
20
-213.65535410023693
10
60.499664294642145
20
-210.87520016726745
0
LWPOLYLINE
5
1673
100
AcDbEntity
8
0
100
AcDbPolyline
90
6
70
1
43
0.0
10
74.234782842184373
20
-212.50599523445163
10
74.898365492741007
20
-216.91694423460521
10
71.41016292908877
20
-219.69709816757461
10
67.25837771487987
20
-218.06630310039051
10
66.594795064323222
20
-213.65535410023693
10
70.082997627975473
20
-210.87520016726745
0
LWPOLYLINE
5
1674
100
AcDbEntity
8
0
100
AcDbPolyline
90
6
70
1
43
0.0
10
83.818116175517702
20
-212.50599523445163
10
84.481698826074336
20
-216.91694423460521
10
80.993496262422099
20
-219.69709816757461
10
76.841711048213213
20
-218.06630310039051
10
76.178128397656565
20
-213.65535410023693
10
79.666330961308816
20
-210.87520016726745
0
LWPOLYLINE
5
1675
100
AcDbEntity
8
0
100
AcDbPolyline
90
6
70
1
43
0.0
10
93.401449508851044
20
-212.50599523445163
10
94.065032159407679
20
-216.91694423460521
10
90.576829595755441
20
-219.69709816757461
10
86.425044381546542
20
-218.06630310039051
10
85.761461730989893
20
-213.65535410023693
10
89.249664294642145
20
-210.87520016726745
0
LWPOLYLINE
5
1676
100
AcDbEntity
8
0
100
AcDbPolyline
90
6
70
1
43
0.0
10
102.98478284218439
20
-212.50599523445163
10
103.64836549274102
20
-216.91694423460521
10
100.16016292908878
20
-219.69709816757461
10
96.008377714879884
20
-218.06630310039051
10
95.344795064323222
20
-213.65535410023693
10
98.832997627975487
20
-210.87520016726745
0
LWPOLYLINE
5
1677
100
AcDbEntity
8
0
100
AcDbPolyline
90
6
70
1
43
0.0
10
112.56811617551773
20
-212.50599523445163
10
113.23169882607434
20
-216.91694423460521
10
109.74349626242213
20
-219.69709816757461
10
105.5917110482132
20
-218.06630310039051
10
104.92812839765655
20
-213.65535410023693
10
108.4163309613088
20
-210.87520016726745
0
LWPOLYLINE
5
1678
100
AcDbEntity
8
0
100
AcDbPolyline
90
6
70
1
43
0.0
10
122.15144950885104
20
-212.50599523445163
10
122.81503215940768
20
-216.91694423460521
10
119.32682959575544
20
-219.69709816757461
10
115.17504438154654
20
-218.06630310039051
10
114.51146173098989
20
-213.65535410023693
10
117.99966429464214
20
-210.87520016726745
0
LWPOLYLINE
5
1679
100
AcDbEntity
8
0
100
AcDbPolyline
90
6
70
1
43
0.0
10
64.651449508851044
20
-222.089328567785
10
65.315032159407679
20
-226.50027756793858
10
61.826829595755441
20
-229.28043150090798
10
57.675044381546542
20
-227.64963643372386
10
57.011461730989893
20
-223.23868743357028
10
60.499664294642145
20
-220.45853350060082
0
LWPOLYLINE
5
1680
100
AcDbEntity
8
0
100
AcDbPolyline
90
6
70
1
43
0.0
10
74.234782842184373
20
-222.089328567785
10
74.898365492741007
20
-226.50027756793858
10
71.41016292908877
20
-229.28043150090798
10
67.25837771487987
20
-227.64963643372386
10
66.594795064323222
20
-223.23868743357028
10
70.082997627975473
20
-220.45853350060082
0
LWPOLYLINE
5
1681
100
AcDbEntity
8
0
100
AcDbPolyline
90
6
70
1
43
0.0
10
83.818116175517702
20
-222.089328567785
10
84.481698826074336
20
-226.50027756793858
10
80.993496262422099
20
-229.28043150090798
10
76.841711048213213
20
-227.64963643372386
10
76.178128397656565
20
-223.23868743357028
10
79.666330961308816
20
-220.45853350060082
0
LWPOLYLINE
5
1682
100
AcDbEntity
8
0
100
AcDbPolyline
90
6
70
1
43
0.0
10
93.401449508851044
20
-222.089328567785
10
94.065032159407679
20
-226.50027756793858
10
90.576829595755441
20
-229.28043150090798
10
86.425044381546542
20
-227.64963643372386
10
85.761461730989893
20
-223.23868743357028
10
89.249664294642145
20
-220.45853350060082
0
LWPOLYLINE
5
1683
100
AcDbEntity
8
0
100
AcDbPolyline
90
6
70
1
43
0.0
10
102.98478284218439
20
-222.089328567785
10
103.64836549274102
20
-226.50027756793858
10
100.16016292908878
20
-229.28043150090798
10
96.008377714879884
20
-227.64963643372386
10
95.344795064323222
20
-223.23868743357028
10
98.832997627975487
20
-220.45853350060082
0
LWPOLYLINE
5
1684
100
AcDbEntity
8
0
100
AcDbPolyline
90
6
70
1
43
0.0
10
112.56811617551773
20
-222.089328567785
10
113.23169882607434
20
-226.50027756793858
10
109.74349626242213
20
-229.28043150090798
10
105.5917110482132
20
-227.64963643372386
10
104.92812839765655
20
-223.23868743357028
10
108.4163309613088
20
-220.45853350060082
0
LWPOLYLINE
5
1685
100
AcDbEntity
8
0
100
AcDbPolyline
90
6
70
1
43
0.0
10
122.15144950885104
20
-222.089328567785
10
122.81503215940768
20
-226.50027756793858
10
119.32682959575544
20
-229.28043150090798
10
115.17504438154654
20
-227.64963643372386
10
114.51146173098989
20
-223.23868743357028
10
117.99966429464214
20
-220.45853350060082
0
LWPOLYLINE
5
1686
100
AcDbEntity
8
0
100
AcDbPolyline
90
6
70
1
43
0.0
10
64.651449508851044
20
-231.67266190111832
10
65.315032159407679
20
-236.0836109012719
10
61.826829595755441
20
-238.86376483424129
10
57.675044381546542
20
-237.23296976705717
10
57.011461730989893
20
-232.82202076690362
10
60.499664294642145
20
-230.04186683393414
0
LWPOLYLINE
5
1687
100
AcDbEntity
8
0
100
AcDbPolyline
90
6
70
1
43
0.0
10
74.234782842184373
20
-231.67266190111832
10
74.898365492741007
20
-236.0836109012719
10
71.41016292908877
20
-238.86376483424129
10
67.25837771487987
20
-237.23296976705717
10
66.594795064323222
20
-232.82202076690362
10
70.082997627975473
20
-230.04186683393414
0
LWPOLYLINE
5
1688
100
AcDbEntity
8
0
100
AcDbPolyline
90
6
70
1
43
0.0
10
83.818116175517702
20
-231.67266190111832
10
84.481698826074336
20
-236.0836109012719
10
80.993496262422099
20
-238.86376483424129
10
76.841711048213213
20
-237.23296976705717
10
76.178128397656565
20
-232.82202076690362
10
79.666330961308816
20
-230.04186683393414
0
LWPOLYLINE
5
1689
100
AcDbEntity
8
0
100
AcDbPolyline
90
6
70
1
43
0.0
10
93.401449508851044
20
-231.67266190111832
10
94.065032159407679
20
-236.0836109012719
10
90.576829595755441
20
-238.86376483424129
10
86.425044381546542
20
-237.23296976705717
10
85.761461730989893
20
-232.82202076690362
10
89.249664294642145
20
-230.04186683393414
0
LWPOLYLINE
5
1690
100
AcDbEntity
8
0
100
AcDbPolyline
90
6
70
1
43
0.0
10
102.98478284218439
20
-231.67266190111832
10
103.64836549274102
20
-236.0836109012719
10
100.16016292908878
20
-238.86376483424129
10
96.008377714879884
20
-237.23296976705717
10
95.344795064323222
20
-232.82202076690362
10
98.832997627975487
20
-230.04186683393414
0
LWPOLYLINE
5
1691
100
AcDbEntity
8
0
100
AcDbPolyline
90
6
70
1
43
0.0
10
112.56811617551773
20
-231.67266190111832
10
113.23169882607434
20
-236.0836109012719
10
109.74349626242213
20
-238.86376483424129
10
105.5917110482132
20
-237.23296976705717
10
104.92812839765655
20
-232.82202076690362
10
108.4163309613088
20
-230.04186683393414
0
LWPOLYLINE
5
1692
100
AcDbEntity
8
0
100
AcDbPolyline
90
6
70
1
43
0.0
10
122.15144950885104
20
-231.67266190111832
10
122.81503215940768
20
-236.0836109012719
10
119.32682959575544
20
-238.86376483424129
10
115.17504438154654
20
-237.23296976705717
10
114.51146173098989
20
-232.82202076690362
10
117.99966429464214
20
-230.04186683393414
0
LINE
5
1693
100
AcDbEntity
8
0
100
AcDbLine
10
178.26330446666663
20
-285.63181380000003
30
0
11
338.26343602222221
21
-125.63168224444446
31
0
0
LINE
5
1694
100
AcDbEntity
8
0
100
AcDbLine
10
338.26343602222221
20
-285.63181380000003
30
0
11
178.26330446666668
21
-125.63168224444446
31
0
0
LINE
5
1695
100
AcDbEntity
8
0
100
AcDbLine
10
257.83744535947483
20
-203.09442687407358
30
0
11
258.26337024444445
21
-289.8423435777778
31
0
0
LINE
5
1696
100
AcDbEntity
8
0
100
AcDbLine
10
257.83744535947483
20
-203.09442687407358
30
0
11
258.26337024444445
21
-121.42115246666668
31
0
0
LWPOLYLINE
5
1697
100
AcDbEntity
8
0
100
AcDbPolyline
90
6
70
1
43
0.0
10
272.12975899341097
20
-207.45206519943835
10
268.64155642975868
20
-210.23221913240775
10
264.48977121554981
20
-208.60142406522363
10
263.82618856499317
20
-204.19047506507007
10
267.31439112864541
20
-201.41032113210059
10
271.46617634285428
20
-203.04111619928477
0
LWPOLYLINE
5
1698
100
AcDbEntity
8
0
100
AcDbPolyline
90
6
70
1
43
0.0
10
267.31439112864541
20
-191.82698779876731
10
271.46617634285428
20
-193.45778286595149
10
272.12975899341097
20
-197.86873186610504
10
268.64155642975868
20
-200.64888579907443
10
264.48977121554981
20
-199.01809073189031
10
263.82618856499317
20
-194.60714173173676
0
LINE
5
1699
100
AcDbEntity
8
0
100
AcDbLine
10
222.57357263400326
20
-170.00020232038878
30
0
11
229.64464044586879
21
-177.07127013225426
31
0
0
LWPOLYLINE
5
1700
100
AcDbEntity
8
0
100
AcDbPolyline
90
6
70
1
43
0.0
10
278.22488976309205
20
-210.23221913240775
10
274.07310454888312
20
-208.60142406522363
10
273.40952189832649
20
-204.19047506507007
10
276.89772446197873
20
-201.41032113210059
10
281.04950967618765
20
-203.04111619928477
10
281.71309232674423
20
-207.45206519943835
0
LWPOLYLINE
5
1701
100
AcDbEntity
8
0
100
AcDbPolyline
90
6
70
1
43
0.0
10
254.2428552316598
20
-213.77380839840339
10
257.7310577953121
20
-210.99365446543391
10
261.88284300952097
20
-212.62444953261809
10
262.54642566007766
20
-217.03539853277167
10
259.05822309642537
20
-219.81555246574106
10
254.90643788221649
20
-218.18475739855697
0
LWPOLYLINE
5
1702
100
AcDbEntity
8
0
100
AcDbPolyline
90
6
70
1
43
0.0
10
244.65952189832649
20
-175.4404750650701
10
248.14772446197875
20
-172.66032113210062
10
252.29950967618765
20
-174.2911161992848
10
252.96309232674429
20
-178.70206519943838
10
249.47488976309205
20
-181.48221913240778
10
245.32310454888315
20
-179.85142406522368
0
LWPOLYLINE
5
1703
100
AcDbEntity
8
0
100
AcDbPolyline
90
6
70
1
43
0.0
10
286.48105779531204
20
-220.57698779876728
10
290.63284300952097
20
-222.20778286595146
10
291.2964256600776
20
-226.61873186610504
10
287.80822309642537
20
-229.39888579907443
10
283.65643788221644
20
-227.76809073189031
10
282.99285523165975
20
-223.35714173173673
0
LWPOLYLINE
5
1704
100
AcDbEntity
8
0
100
AcDbPolyline
90
6
70
1
43
0.0
10
286.48105779531204
20
-230.16032113210059
10
290.63284300952097
20
-231.79111619928477
10
291.2964256600776
20
-236.20206519943835
10
287.80822309642537
20
-238.98221913240775
10
283.65643788221644
20
-237.35142406522363
10
282.99285523165975
20
-232.94047506507007
0
LWPOLYLINE
5
1705
100
AcDbEntity
8
0
100
AcDbPolyline
90
6
70
1
43
0.0
10
281.04950967618765
20
-231.79111619928477
10
281.71309232674423
20
-236.20206519943835
10
278.22488976309205
20
-238.98221913240775
10
274.07310454888312
20
-237.35142406522363
10
273.40952189832649
20
-232.94047506507007
10
276.89772446197873
20
-230.16032113210059
0
LWPOLYLINE
5
1706
100
AcDbEntity
8
0
100
AcDbPolyline
90
6
70
1
43
0.0
10
257.7310577953121
20
-220.57698779876728
10
261.88284300952097
20
-222.20778286595146
10
262.54642566007766
20
-226.61873186610504
10
259.05822309642537
20
-229.39888579907443
10
254.90643788221649
20
-227.76809073189031
10
254.2428552316598
20
-223.35714173173673
0
LWPOLYLINE
5
1707
100
AcDbEntity
8
0
100
AcDbPolyline
90
6
70
1
43
0.0
10
248.14772446197875
20
-220.57698779876728
10
252.29950967618765
20
-222.20778286595146
10
252.96309232674429
20
-226.61873186610504
10
249.47488976309205
20
-229.39888579907443
10
245.32310454888315
20
-227.76809073189031
10
244.65952189832649
20
-223.35714173173673
0
LWPOLYLINE
5
1708
100
AcDbEntity
8
0
100
AcDbPolyline
90
6
70
1
43
0.0
10
273.40952189832649
20
-213.77380839840339
10
276.89772446197873
20
-210.99365446543391
10
281.04950967618765
20
-212.62444953261809
10
281.71309232674423
20
-217.03539853277167
10
278.22488976309205
20
-219.81555246574106
10
274.07310454888312
20
-218.18475739855697
0
LWPOLYLINE
5
1709
100
AcDbEntity
8
0
100
AcDbPolyline
90
6
70
1
43
0.0
10
263.82618856499317
20
-175.4404750650701
10
267.31439112864541
20
-172.66032113210062
10
271.46617634285428
20
-174.2911161992848
10
272.12975899341097
20
-178.70206519943838
10
268.64155642975868
20
-181.48221913240778
10
264.48977121554981
20
-179.85142406522368
0
LWPOLYLINE
5
1710
100
AcDbEntity
8
0
100
AcDbPolyline
90
6
70
1
43
0.0
10
257.7310577953121
20
-172.66032113210062
10
261.88284300952097
20
-174.2911161992848
10
262.54642566007766
20
-178.70206519943838
10
259.05822309642537
20
-181.48221913240778
10
254.90643788221649
20
-179.85142406522368
10
254.2428552316598
20
-175.4404750650701
0
CIRCLE
5
1711
100
AcDbEntity
8
0
100
AcDbCircle
10
222.57357263400326
20
-170.00020232038878
30
0
40
2.0000000000000022
0
LWPOLYLINE
5
1712
100
AcDbEntity
8
0
100
AcDbPolyline
90
6
70
1
43
0.0
10
235.73977121554981
20
-179.85142406522368
10
235.07618856499317
20
-175.4404750650701
10
238.56439112864541
20
-172.66032113210062
10
242.71617634285431
20
-174.2911161992848
10
243.37975899341097
20
-178.70206519943838
10
239.89155642975871
20
-181.48221913240778
0
LWPOLYLINE
5
1713
100
AcDbEntity
8
0
100
AcDbPolyline
90
6
70
1
43
0.0
10
252.96309232674429
20
-217.03539853277167
10
249.47488976309205
20
-219.81555246574106
10
245.32310454888315
20
-218.18475739855697
10
244.65952189832649
20
-213.77380839840339
10
248.14772446197875
20
-210.99365446543391
10
252.29950967618765
20
-212.62444953261809
0
CIRCLE
5
1714
100
AcDbEntity
8
0
100
AcDbCircle
10
294.07357263400331
20
-241.50020232038872
30
0
40
1.999999999999996
0
LWPOLYLINE
5
1715
100
AcDbEntity
8
0
100
AcDbPolyline
90
6
70
1
43
0.0
10
263.82618856499317
20
-223.35714173173673
10
267.31439112864541
20
-220.57698779876728
10
271.46617634285428
20
-222.20778286595146
10
272.12975899341097
20
-226.61873186610504
10
268.64155642975868
20
-229.39888579907443
10
264.48977121554981
20
-227.76809073189031
0
LWPOLYLINE
5
1716
100
AcDbEntity
8
0
100
AcDbPolyline
90
6
70
1
43
0.0
10
274.07310454888312
20
-179.85142406522368
10
273.40952189832649
20
-175.4404750650701
10
276.89772446197873
20
-172.66032113210062
10
281.04950967618765
20
-174.2911161992848
10
281.71309232674423
20
-178.70206519943838
10
278.22488976309205
20
-181.48221913240778
0
LWPOLYLINE
5
1717
100
AcDbEntity
8
0
100
AcDbPolyline
90
6
70
1
43
0.0
10
264.48977121554981
20
-218.18475739855697
10
263.82618856499317
20
-213.77380839840339
10
267.31439112864541
20
-210.99365446543391
10
271.46617634285428
20
-212.62444953261809
10
272.12975899341097
20
-217.03539853277167
10
268.64155642975868
20
-219.81555246574106
0
LWPOLYLINE
5
1718
100
AcDbEntity
8
0
100
AcDbPolyline
90
6
70
1
43
0.0
10
273.40952189832649
20
-223.35714173173673
10
276.89772446197873
20
-220.57698779876728
10
281.04950967618765
20
-222.20778286595146
10
281.71309232674423
20
-226.61873186610504
10
278.22488976309205
20
-229.39888579907443
10
274.07310454888312
20
-227.76809073189031
0
LWPOLYLINE
5
1719
100
AcDbEntity
8
0
100
AcDbPolyline
90
6
70
1
43
0.0
10
273.40952189832649
20
-194.60714173173676
10
276.89772446197873
20
-191.82698779876731
10
281.04950967618765
20
-193.45778286595149
10
281.71309232674423
20
-197.86873186610504
10
278.22488976309205
20
-200.64888579907443
10
274.07310454888312
20
-199.01809073189031
0
LWPOLYLINE
5
1720
100
AcDbEntity
8
0
100
AcDbPolyline
90
6
70
1
43
0.0
10
254.90643788221649
20
-237.35142406522363
10
254.2428552316598
20
-232.94047506507007
10
257.7310577953121
20
-230.16032113210059
10
261.88284300952097
20
-231.79111619928477
10
262.54642566007766
20
-236.20206519943835
10
259.05822309642537
20
-238.98221913240775
0
LWPOLYLINE
5
1721
100
AcDbEntity
8
0
100
AcDbPolyline
90
6
70
1
43
0.0
10
239.89155642975871
20
-191.06555246574112
10
235.73977121554981
20
-189.434757398557
10
235.07618856499317
20
-185.02380839840342
10
238.56439112864541
20
-182.24365446543396
10
242.71617634285431
20
-183.87444953261814
10
243.37975899341097
20
-188.28539853277169
0
LWPOLYLINE
5
1722
100
AcDbEntity
8
0
100
AcDbPolyline
90
6
70
1
43
0.0
10
248.14772446197875
20
-230.16032113210059
10
252.29950967618765
20
-231.79111619928477
10
252.96309232674429
20
-236.20206519943835
10
249.47488976309205
20
-238.98221913240775
10
245.32310454888315
20
-237.35142406522363
10
244.65952189832649
20
-232.94047506507007
0
LWPOLYLINE
5
1723
100
AcDbEntity
8
0
100
AcDbPolyline
90
6
70
1
43
0.0
10
267.31439112864541
20
-182.24365446543396
10
271.46617634285428
20
-183.87444953261814
10
272.12975899341097
20
-188.28539853277169
10
268.64155642975868
20
-191.06555246574112
10
264.48977121554981
20
-189.434757398557
10
263.82618856499317
20
-185.02380839840342
0
LWPOLYLINE
5
1724
100
AcDbEntity
8
0
100
AcDbPolyline
90
6
70
1
43
0.0
10
248.14772446197875
20
-182.24365446543396
10
252.29950967618765
20
-183.87444953261814
10
252.96309232674429
20
-188.28539853277169
10
249.47488976309205
20
-191.06555246574112
10
245.32310454888315
20
-189.434757398557
10
244.65952189832649
20
-185.02380839840342
0
LWPOLYLINE
5
1725
100
AcDbEntity
8
0
100
AcDbPolyline
90
6
70
1
43
0.0
10
263.82618856499317
20
-232.94047506507007
10
267.31439112864541
20
-230.16032113210059
10
271.46617634285428
20
-231.79111619928477
10
272.12975899341097
20
-236.20206519943835
10
268.64155642975868
20
-238.98221913240775
10
264.48977121554981
20
-237.35142406522363
0
LWPOLYLINE
5
1726
100
AcDbEntity
8
0
100
AcDbPolyline
90
6
70
1
43
0.0
10
257.7310577953121
20
-182.24365446543396
10
261.88284300952097
20
-183.87444953261814
10
262.54642566007766
20
-188.28539853277169
10
259.05822309642537
20
-191.06555246574112
10
254.90643788221649
20
-189.434757398557
10
254.2428552316598
20
-185.02380839840342
0
LWPOLYLINE
5
1727
100
AcDbEntity
8
0
100
AcDbPolyline
90
6
70
1
43
0.0
10
235.07618856499317
20
-194.60714173173676
10
238.56439112864541
20
-191.82698779876731
10
242.71617634285431
20
-193.45778286595149
10
243.37975899341097
20
-197.86873186610504
10
239.89155642975871
20
-200.64888579907443
10
235.73977121554981
20
-199.01809073189031
0
LWPOLYLINE
5
1728
100
AcDbEntity
8
0
100
AcDbPolyline
90
6
70
1
43
0.0
10
274.07310454888312
20
-189.434757398557
10
273.40952189832649
20
-185.02380839840342
10
276.89772446197873
20
-182.24365446543396
10
281.04950967618765
20
-183.87444953261814
10
281.71309232674423
20
-188.28539853277169
10
278.22488976309205
20
-191.06555246574112
0
LWPOLYLINE
5
1729
100
AcDbEntity
8
0
100
AcDbPolyline
90
6
70
1
43
0.0
10
225.4928552316598
20
-194.60714173173676
10
228.9810577953121
20
-191.82698779876731
10
233.13284300952097
20
-193.45778286595149
10
233.79642566007763
20
-197.86873186610504
10
230.30822309642537
20
-200.64888579907443
10
226.15643788221649
20
-199.01809073189031
0
LWPOLYLINE
5
1730
100
AcDbEntity
8
0
100
AcDbPolyline
90
6
70
1
43
0.0
10
226.15643788221649
20
-189.434757398557
10
225.4928552316598
20
-185.02380839840342
10
228.9810577953121
20
-182.24365446543396
10
233.13284300952097
20
-183.87444953261814
10
233.79642566007763
20
-188.28539853277169
10
230.30822309642537
20
-191.06555246574112
0
LWPOLYLINE
5
1731
100
AcDbEntity
8
0
100
AcDbPolyline
90
6
70
1
43
0.0
10
244.65952189832649
20
-194.60714173173676
10
248.14772446197875
20
-191.82698779876731
10
252.29950967618765
20
-193.45778286595149
10
252.96309232674429
20
-197.86873186610504
10
249.47488976309205
20
-200.64888579907443
10
245.32310454888315
20
-199.01809073189031
0
LWPOLYLINE
5
1732
100
AcDbEntity
8
0
100
AcDbPolyline
90
6
70
1
43
0.0
10
235.07618856499317
20
-204.19047506507007
10
238.56439112864541
20
-201.41032113210059
10
242.71617634285431
20
-203.04111619928477
10
243.37975899341097
20
-207.45206519943835
10
239.89155642975871
20
-210.23221913240775
10
235.73977121554981
20
-208.60142406522363
0
LWPOLYLINE
5
1733
100
AcDbEntity
8
0
100
AcDbPolyline
90
6
70
1
43
0.0
10
233.79642566007763
20
-178.70206519943838
10
230.30822309642537
20
-181.48221913240778
10
226.15643788221649
20
-179.85142406522368
10
225.4928552316598
20
-175.4404750650701
10
228.9810577953121
20
-172.66032113210062
10
233.13284300952097
20
-174.2911161992848
0
LWPOLYLINE
5
1734
100
AcDbEntity
8
0
100
AcDbPolyline
90
6
70
1
43
0.0
10
225.4928552316598
20
-204.19047506507007
10
228.9810577953121
20
-201.41032113210059
10
233.13284300952097
20
-203.04111619928477
10
233.79642566007763
20
-207.45206519943835
10
230.30822309642537
20
-210.23221913240775
10
226.15643788221649
20
-208.60142406522363
0
LWPOLYLINE
5
1735
100
AcDbEntity
8
0
100
AcDbPolyline
90
6
70
1
43
0.0
10
254.90643788221649
20
-208.60142406522363
10
254.2428552316598
20
-204.19047506507007
10
257.7310577953121
20
-201.41032113210059
10
261.88284300952097
20
-203.04111619928477
10
262.54642566007766
20
-207.45206519943835
10
259.05822309642537
20
-210.23221913240775
0
LWPOLYLINE
5
1736
100
AcDbEntity
8
0
100
AcDbPolyline
90
6
70
1
43
0.0
10
252.29950967618765
20
-203.04111619928477
10
252.96309232674429
20
-207.45206519943835
10
249.47488976309205
20
-210.23221913240775
10
245.32310454888315
20
-208.60142406522363
10
244.65952189832649
20
-204.19047506507007
10
248.14772446197875
20
-201.41032113210059
0
LWPOLYLINE
5
1737
100
AcDbEntity
8
0
100
AcDbPolyline
90
6
70
1
43
0.0
10
259.05822309642537
20
-200.64888579907443
10
254.90643788221649
20
-199.01809073189031
10
254.2428552316598
20
-194.60714173173676
10
257.7310577953121
20
-191.82698779876731
10
261.88284300952097
20
-193.45778286595149
10
262.54642566007766
20
-197.86873186610504
0
LWPOLYLINE
5
1738
100
AcDbEntity
8
0
100
AcDbPolyline
90
6
70
1
43
0.0
10
235.73977121554981
20
-227.76809073189031
10
235.07618856499317
20
-223.35714173173673
10
238.56439112864541
20
-220.57698779876728
10
242.71617634285431
20
-222.20778286595146
10
243.37975899341097
20
-226.61873186610504
10
239.89155642975871
20
-229.39888579907443
0
LWPOLYLINE
5
1739
100
AcDbEntity
8
0
100
AcDbPolyline
90
6
70
1
43
0.0
10
230.30822309642537
20
-229.39888579907443
10
226.15643788221649
20
-227.76809073189031
10
225.4928552316598
20
-223.35714173173673
10
228.9810577953121
20
-220.57698779876728
10
233.13284300952097
20
-222.20778286595146
10
233.79642566007763
20
-226.61873186610504
0
LWPOLYLINE
5
1740
100
AcDbEntity
8
0
100
AcDbPolyline
90
6
70
1
43
0.0
10
242.71617634285431
20
-212.62444953261809
10
243.37975899341097
20
-217.03539853277167
10
239.89155642975871
20
-219.81555246574106
10
235.73977121554981
20
-218.18475739855697
10
235.07618856499317
20
-213.77380839840339
10
238.56439112864541
20
-210.99365446543391
0
LWPOLYLINE
5
1741
100
AcDbEntity
8
0
100
AcDbPolyline
90
6
70
1
43
0.0
10
233.13284300952097
20
-231.79111619928477
10
233.79642566007763
20
-236.20206519943835
10
230.30822309642537
20
-238.98221913240775
10
226.15643788221649
20
-237.35142406522363
10
225.4928552316598
20
-232.94047506507007
10
228.9810577953121
20
-230.16032113210059
0
LWPOLYLINE
5
1742
100
AcDbEntity
8
0
100
AcDbPolyline
90
6
70
1
43
0.0
10
238.56439112864541
20
-230.16032113210059
10
242.71617634285431
20
-231.79111619928477
10
243.37975899341097
20
-236.20206519943835
10
239.89155642975871
20
-238.98221913240775
10
235.73977121554981
20
-237.35142406522363
10
235.07618856499317
20
-232.94047506507007
0
LWPOLYLINE
5
1743
100
AcDbEntity
8
0
100
AcDbPolyline
90
6
70
1
43
0.0
10
226.15643788221649
20
-218.18475739855697
10
225.4928552316598
20
-213.77380839840339
10
228.9810577953121
20
-210.99365446543391
10
233.13284300952097
20
-212.62444953261809
10
233.79642566007763
20
-217.03539853277167
10
230.30822309642537
20
-219.81555246574106
0
CIRCLE
5
1744
100
AcDbEntity
8
0
100
AcDbCircle
10
222.57357263400326
20
-241.50020232038869
30
0
40
2.0000000000000018
0
CIRCLE
5
1745
100
AcDbEntity
8
0
100
AcDbCircle
10
294.07357263400331
20
-170.00020232038875
30
0
40
1.9999999999999929
0
LWPOLYLINE
5
1746
100
AcDbEntity
8
0
100
AcDbPolyline
90
6
70
1
43
0.0
10
283.65643788221644
20
-199.01809073189031
10
282.99285523165975
20
-194.60714173173676
10
286.48105779531204
20
-191.82698779876731
10
290.63284300952097
20
-193.45778286595149
10
291.2964256600776
20
-197.86873186610504
10
287.80822309642537
20
-200.64888579907443
0
LWPOLYLINE
5
1747
100
AcDbEntity
8
0
100
AcDbPolyline
90
6
70
1
43
0.0
10
282.99285523165975
20
-204.19047506507007
10
286.48105779531204
20
-201.41032113210059
10
290.63284300952097
20
-203.04111619928477
10
291.2964256600776
20
-207.45206519943835
10
287.80822309642537
20
-210.23221913240775
10
283.65643788221644
20
-208.60142406522363
0
LINE
5
1748
100
AcDbEntity
8
0
100
AcDbLine
10
294.07357263400331
20
-170.00020232038875
30
0
11
294.07357263400331
21
-241.50020232038872
31
0
0
LWPOLYLINE
5
1749
100
AcDbEntity
8
0
100
AcDbPolyline
90
6
70
1
43
0.0
10
290.63284300952097
20
-183.87444953261814
10
291.2964256600776
20
-188.28539853277169
10
287.80822309642537
20
-191.06555246574112
10
283.65643788221644
20
-189.434757398557
10
282.99285523165975
20
-185.02380839840342
10
286.48105779531204
20
-182.24365446543396
0
LINE
5
1750
100
AcDbEntity
8
0
100
AcDbLine
10
222.57357263400326
20
-170.00020232038878
30
0
11
294.07357263400331
21
-170.00020232038875
31
0
0
LWPOLYLINE
5
1751
100
AcDbEntity
8
0
100
AcDbPolyline
90
6
70
1
43
0.0
10
291.2964256600776
20
-178.70206519943838
10
287.80822309642537
20
-181.48221913240778
10
283.65643788221644
20
-179.85142406522368
10
282.99285523165975
20
-175.4404750650701
10
286.48105779531204
20
-172.66032113210062
10
290.63284300952097
20
-174.2911161992848
0
LINE
5
1752
100
AcDbEntity
8
0
100
AcDbLine
10
222.57357263400326
20
-241.50020232038869
30
0
11
222.57357263400326
21
-170.00020232038878
31
0
0
LWPOLYLINE
5
1753
100
AcDbEntity
8
0
100
AcDbPolyline
90
6
70
1
43
0.0
10
290.63284300952097
20
-212.62444953261809
10
291.2964256600776
20
-217.03539853277167
10
287.80822309642537
20
-219.81555246574106
10
283.65643788221644
20
-218.18475739855697
10
282.99285523165975
20
-213.77380839840339
10
286.48105779531204
20
-210.99365446543391
0
LINE
5
1754
100
AcDbEntity
8
0
100
AcDbLine
10
294.07357263400331
20
-241.50020232038872
30
0
11
222.57357263400326
21
-241.50020232038869
31
0
0
LINE
5
1755
100
AcDbEntity
8
0
100
AcDbLine
10
222.57357263400326
20
-241.50020232038869
30
0
11
294.07357263400331
21
-170.00020232038875
31
0
0
LINE
5
1756
100
AcDbEntity
8
0
100
AcDbLine
10
294.07357263400331
20
-241.50020232038872
30
0
11
222.57357263400326
21
-170.00020232038878
31
0
0
LINE
5
1757
100
AcDbEntity
8
0
100
AcDbLine
10
346.68449557777785
20
-223.00018335555561
30
0
11
506.68462713333338
21
-223.00018335555561
31
0
0
LINE
5
1758
100
AcDbEntity
8
0
100
AcDbLine
10
426.68456135555562
20
-223.00018335555561
30
0
11
426.68456135555562
21
-217.00000323355198
31
0
0
CIRCLE
5
1759
100
AcDbEntity
8
0
100
AcDbCircle
10
426.68456135555562
20
-217.00000323355198
30
0
40
6.2499999999999725
0
LINE
5
1760
100
AcDbEntity
8
0
100
AcDbLine
10
178.26330446666668
20
-125.63168224444446
30
0
11
195.9409739963304
21
-143.30935177410814
31
0
0
LINE
5
1761
100
AcDbEntity
8
0
100
AcDbLine
10
338.26343602222221
20
-125.63168224444446
30
0
11
320.58576649255855
21
-143.30935177410817
31
0
0
LINE
5
1762
100
AcDbEntity
8
0
100
AcDbLine
10
338.26343602222221
20
-285.63181380000003
30
0
11
320.58576649255855
21
-267.95414427033631
31
0
0
LINE
5
1763
100
AcDbEntity
8
0
100
AcDbLine
10
178.26330446666663
20
-285.63181380000003
30
0
11
195.94097399633031
21
-267.95414427033631
31
0
0
CIRCLE
5
1764
100
AcDbEntity
8
0
100
AcDbCircle
10
195.94097399633031
20
-267.95414427033631
30
0
40
5
0
CIRCLE
5
1765
100
AcDbEntity
8
0
100
AcDbCircle
10
320.58576649255855
20
-267.95414427033631
30
0
40
5
0
CIRCLE
5
1766
100
AcDbEntity
8
0
100
AcDbCircle
10
195.9409739963304
20
-143.30935177410814
30
0
40
4.9999999999999902
0
CIRCLE
5
1767
100
AcDbEntity
8
0
100
AcDbCircle
10
320.58576649255855
20
-143.30935177410817
30
0
40
5.0000000000000018
0
LINE
5
1768
100
AcDbEntity
8
0
100
AcDbLine
10
9.842113355555556
20
-285.63181380000003
30
0
11
27.519782885219243
21
-267.95414427033631
31
0
0
LINE
5
1769
100
AcDbEntity
8
0
100
AcDbLine
10
169.84224491111115
20
-125.63168224444446
30
0
11
152.16457538144743
21
-143.30935177410817
31
0
0
CIRCLE
5
1770
100
AcDbEntity
8
0
100
AcDbCircle
10
152.16457538144743
20
-143.30935177410817
30
0
40
4.9999999999999973
0
CIRCLE
5
1771
100
AcDbEntity
8
0
100
AcDbCircle
10
27.519782885219243
20
-267.95414427033631
30
0
40
5.0000000000000044
0
LINE
5
1772
100
AcDbEntity
8
0
100
AcDbLine
10
169.84224491111115
20
-285.63181380000003
30
0
11
89.842179133333332
21
-205.63174802222224
31
0
0
LINE
5
1773
100
AcDbEntity
8
0
100
AcDbLine
10
169.84224491111115
20
-285.63181380000003
30
0
11
152.16457538144741
21
-267.95414427033637
31
0
0
CIRCLE
5
1774
100
AcDbEntity
8
0
100
AcDbCircle
10
152.16457538144741
20
-267.95414427033637
30
0
40
5
0
LINE
5
1775
100
AcDbEntity
8
0
100
AcDbLine
10
9.842113355555556
20
-125.63168224444446
30
0
11
89.842179133333332
21
-205.63174802222224
31
0
0
LINE
5
1776
100
AcDbEntity
8
0
100
AcDbLine
10
9.842113355555556
20
-125.63168224444446
30
0
11
27.519782885219243
21
-143.30935177410817
31
0
0
CIRCLE
5
1777
100
AcDbEntity
8
0
100
AcDbCircle
10
27.519782885219243
20
-143.30935177410817
30
0
40
5
0
ENDSEC
0
SECTION
2
OBJECTS
0
DICTIONARY
5
C
100
AcDbDictionary
3
ACAD_GROUP
350
D
3
ACAD_MLINESTYLE
350
17
0
DICTIONARY
5
D
100
AcDbDictionary
0
DICTIONARY
5
1A
330
C
100
AcDbDictionary
0
DICTIONARY
5
17
100
AcDbDictionary
0
ENDSEC
0
EOF
