ISO-10303-21;
HEADER;
/*Generated by software containing ST-Developer
 * from STEP Tools, Inc. (www.steptools.com) 
 */
/*OPTION: using custom renumber hook */
/*description */
/*implementation_level */
FILE_DESCRIPTION(('STEP AP242 Edition 2','STEP AP242 Edition 2''CAx-IF Rec.Pracs.---Representation and Presentation of Product Manufa
cturing Information (PMI)---4.0---2014-10-13','STEP AP242 Edition 2''CAx-IF Rec.Pracs.---Representation and Presentation of Product Manufa
cturing Information (PMI)---4.0---2014-10-13''CAx-IF Rec.Pracs.---3D Tessellated Geometry---0.4---2014-09-14','STEP AP242 Edition 2''CAx-IF Rec.Pracs.---Representation and Presentation of Product Manufa
cturing Information (PMI)---4.0---2014-10-13''CAx-IF Rec.Pracs.---3D Tessellated Geometry---0.4---2014-09-14''2;1','STEP AP242 Edition 2''CAx-IF Rec.Pracs.---Representation and Presentation of Product Manufa
cturing Information (PMI)---4.0---2014-10-13''CAx-IF Rec.Pracs.---3D Tessellated Geometry---0.4---2014-09-14''2;1''CAx-IF Rec.Pracs.---User Defined Attributes---1.5---2016-08-15'),'2;1');
/*name */
/*time_stamp */
/*author */
/*organization */
/*preprocessor_version */
/*originating_system */
/*authorisation */
FILE_NAME('/vol/tmp/translate-6778224615838455815/Part Studio 1 - Part 1.step','2026-03-09T01:11:34',(''),(''),'ST-DEVELOPER v20','ONSHAPE BY PTC INC, 1.211','  ');
FILE_SCHEMA(('AP242_MANAGED_MODEL_BASED_3D_ENGINEERING_MIM_LF { 1 0 10303 442 3 1 4 }'));
ENDSEC;
DATA;
#10=SHAPE_REPRESENTATION_RELATIONSHIP('','',#353,#11);
#11=ADVANCED_BREP_SHAPE_REPRESENTATION('',(#351),#597);
#12=ELLIPSE('',#385,0.00288675134594813,0.0025);
#13=ELLIPSE('',#386,0.00288675134594813,0.0025);
#14=ELLIPSE('',#388,0.00353553390593274,0.0025);
#15=ELLIPSE('',#389,0.00353553390593274,0.0025);
#16=ELLIPSE('',#391,0.00353553390593274,0.0025);
#17=ELLIPSE('',#393,0.00353553390593274,0.0025);
#18=LINE('',#521,#40);
#19=LINE('',#524,#41);
#20=LINE('',#526,#42);
#21=LINE('',#528,#43);
#22=LINE('',#532,#44);
#23=LINE('',#534,#45);
#24=LINE('',#536,#46);
#25=LINE('',#538,#47);
#26=LINE('',#540,#48);
#27=LINE('',#542,#49);
#28=LINE('',#544,#50);
#29=LINE('',#546,#51);
#30=LINE('',#550,#52);
#31=LINE('',#552,#53);
#32=LINE('',#553,#54);
#33=LINE('',#555,#55);
#34=LINE('',#559,#56);
#35=LINE('',#573,#57);
#36=LINE('',#576,#58);
#37=LINE('',#578,#59);
#38=LINE('',#580,#60);
#39=LINE('',#584,#61);
#40=VECTOR('',#422,1.);
#41=VECTOR('',#423,1.);
#42=VECTOR('',#424,1.);
#43=VECTOR('',#425,1.);
#44=VECTOR('',#430,1.);
#45=VECTOR('',#431,1.);
#46=VECTOR('',#432,1.);
#47=VECTOR('',#433,1.);
#48=VECTOR('',#434,1.);
#49=VECTOR('',#437,1.);
#50=VECTOR('',#438,1.);
#51=VECTOR('',#439,1.);
#52=VECTOR('',#444,1.);
#53=VECTOR('',#445,1.);
#54=VECTOR('',#446,1.);
#55=VECTOR('',#447,1.);
#56=VECTOR('',#452,1.);
#57=VECTOR('',#473,1.);
#58=VECTOR('',#474,1.);
#59=VECTOR('',#475,1.);
#60=VECTOR('',#476,1.);
#61=VECTOR('',#481,1.);
#62=PLANE('',#358);
#63=PLANE('',#362);
#64=PLANE('',#366);
#65=PLANE('',#367);
#66=PLANE('',#369);
#67=PLANE('',#370);
#68=PLANE('',#372);
#69=PLANE('',#376);
#70=PLANE('',#379);
#71=PLANE('',#382);
#72=PLANE('',#383);
#73=PLANE('',#384);
#74=PLANE('',#395);
#75=ORIENTED_EDGE('',*,*,#155,.T.);
#76=ORIENTED_EDGE('',*,*,#156,.F.);
#77=ORIENTED_EDGE('',*,*,#155,.F.);
#78=ORIENTED_EDGE('',*,*,#157,.T.);
#79=ORIENTED_EDGE('',*,*,#158,.F.);
#80=ORIENTED_EDGE('',*,*,#157,.F.);
#81=ORIENTED_EDGE('',*,*,#159,.F.);
#82=ORIENTED_EDGE('',*,*,#160,.T.);
#83=ORIENTED_EDGE('',*,*,#161,.F.);
#84=ORIENTED_EDGE('',*,*,#162,.F.);
#85=ORIENTED_EDGE('',*,*,#163,.T.);
#86=ORIENTED_EDGE('',*,*,#164,.T.);
#87=ORIENTED_EDGE('',*,*,#165,.F.);
#88=ORIENTED_EDGE('',*,*,#166,.T.);
#89=ORIENTED_EDGE('',*,*,#167,.T.);
#90=ORIENTED_EDGE('',*,*,#168,.F.);
#91=ORIENTED_EDGE('',*,*,#169,.T.);
#92=ORIENTED_EDGE('',*,*,#170,.T.);
#93=ORIENTED_EDGE('',*,*,#162,.T.);
#94=ORIENTED_EDGE('',*,*,#168,.T.);
#95=ORIENTED_EDGE('',*,*,#171,.T.);
#96=ORIENTED_EDGE('',*,*,#172,.F.);
#97=ORIENTED_EDGE('',*,*,#173,.F.);
#98=ORIENTED_EDGE('',*,*,#174,.F.);
#99=ORIENTED_EDGE('',*,*,#172,.T.);
#100=ORIENTED_EDGE('',*,*,#175,.T.);
#101=ORIENTED_EDGE('',*,*,#176,.F.);
#102=ORIENTED_EDGE('',*,*,#164,.F.);
#103=ORIENTED_EDGE('',*,*,#177,.T.);
#104=ORIENTED_EDGE('',*,*,#178,.T.);
#105=ORIENTED_EDGE('',*,*,#156,.T.);
#106=ORIENTED_EDGE('',*,*,#158,.T.);
#107=ORIENTED_EDGE('',*,*,#179,.T.);
#108=ORIENTED_EDGE('',*,*,#176,.T.);
#109=ORIENTED_EDGE('',*,*,#180,.T.);
#110=ORIENTED_EDGE('',*,*,#166,.F.);
#111=ORIENTED_EDGE('',*,*,#161,.T.);
#112=ORIENTED_EDGE('',*,*,#181,.F.);
#113=ORIENTED_EDGE('',*,*,#165,.T.);
#114=ORIENTED_EDGE('',*,*,#159,.T.);
#115=ORIENTED_EDGE('',*,*,#181,.T.);
#116=ORIENTED_EDGE('',*,*,#182,.F.);
#117=ORIENTED_EDGE('',*,*,#174,.T.);
#118=ORIENTED_EDGE('',*,*,#160,.F.);
#119=ORIENTED_EDGE('',*,*,#182,.T.);
#120=ORIENTED_EDGE('',*,*,#183,.T.);
#121=ORIENTED_EDGE('',*,*,#179,.F.);
#122=ORIENTED_EDGE('',*,*,#183,.F.);
#123=ORIENTED_EDGE('',*,*,#184,.T.);
#124=ORIENTED_EDGE('',*,*,#185,.T.);
#125=ORIENTED_EDGE('',*,*,#186,.T.);
#126=ORIENTED_EDGE('',*,*,#187,.T.);
#127=ORIENTED_EDGE('',*,*,#178,.F.);
#128=ORIENTED_EDGE('',*,*,#188,.T.);
#129=ORIENTED_EDGE('',*,*,#189,.T.);
#130=ORIENTED_EDGE('',*,*,#190,.T.);
#131=ORIENTED_EDGE('',*,*,#169,.F.);
#132=ORIENTED_EDGE('',*,*,#173,.T.);
#133=ORIENTED_EDGE('',*,*,#191,.F.);
#134=ORIENTED_EDGE('',*,*,#184,.F.);
#135=ORIENTED_EDGE('',*,*,#192,.F.);
#136=ORIENTED_EDGE('',*,*,#170,.F.);
#137=ORIENTED_EDGE('',*,*,#190,.F.);
#138=ORIENTED_EDGE('',*,*,#192,.T.);
#139=ORIENTED_EDGE('',*,*,#187,.F.);
#140=ORIENTED_EDGE('',*,*,#193,.F.);
#141=ORIENTED_EDGE('',*,*,#163,.F.);
#142=ORIENTED_EDGE('',*,*,#191,.T.);
#143=ORIENTED_EDGE('',*,*,#189,.F.);
#144=ORIENTED_EDGE('',*,*,#194,.F.);
#145=ORIENTED_EDGE('',*,*,#185,.F.);
#146=ORIENTED_EDGE('',*,*,#193,.T.);
#147=ORIENTED_EDGE('',*,*,#186,.F.);
#148=ORIENTED_EDGE('',*,*,#194,.T.);
#149=ORIENTED_EDGE('',*,*,#188,.F.);
#150=ORIENTED_EDGE('',*,*,#177,.F.);
#151=ORIENTED_EDGE('',*,*,#167,.F.);
#152=ORIENTED_EDGE('',*,*,#180,.F.);
#153=ORIENTED_EDGE('',*,*,#175,.F.);
#154=ORIENTED_EDGE('',*,*,#171,.F.);
#155=EDGE_CURVE('',#195,#195,#225,.T.);
#156=EDGE_CURVE('',#196,#196,#226,.T.);
#157=EDGE_CURVE('',#197,#197,#227,.T.);
#158=EDGE_CURVE('',#198,#198,#228,.T.);
#159=EDGE_CURVE('',#199,#199,#229,.T.);
#160=EDGE_CURVE('',#200,#200,#230,.T.);
#161=EDGE_CURVE('',#201,#202,#18,.T.);
#162=EDGE_CURVE('',#203,#201,#19,.T.);
#163=EDGE_CURVE('',#203,#204,#20,.T.);
#164=EDGE_CURVE('',#204,#202,#21,.T.);
#165=EDGE_CURVE('',#205,#205,#231,.T.);
#166=EDGE_CURVE('',#201,#206,#22,.T.);
#167=EDGE_CURVE('',#206,#207,#23,.F.);
#168=EDGE_CURVE('',#208,#207,#24,.T.);
#169=EDGE_CURVE('',#208,#209,#25,.T.);
#170=EDGE_CURVE('',#209,#203,#26,.F.);
#171=EDGE_CURVE('',#207,#210,#27,.T.);
#172=EDGE_CURVE('',#211,#210,#28,.T.);
#173=EDGE_CURVE('',#208,#211,#29,.T.);
#174=EDGE_CURVE('',#212,#212,#232,.T.);
#175=EDGE_CURVE('',#210,#213,#30,.F.);
#176=EDGE_CURVE('',#202,#213,#31,.T.);
#177=EDGE_CURVE('',#204,#214,#32,.T.);
#178=EDGE_CURVE('',#214,#211,#33,.T.);
#179=EDGE_CURVE('',#215,#215,#233,.T.);
#180=EDGE_CURVE('',#213,#206,#34,.T.);
#181=EDGE_CURVE('',#216,#216,#234,.T.);
#182=EDGE_CURVE('',#217,#217,#235,.T.);
#183=EDGE_CURVE('',#218,#218,#236,.T.);
#184=EDGE_CURVE('',#219,#220,#35,.T.);
#185=EDGE_CURVE('',#220,#221,#36,.T.);
#186=EDGE_CURVE('',#221,#222,#37,.F.);
#187=EDGE_CURVE('',#222,#219,#38,.F.);
#188=EDGE_CURVE('',#214,#223,#12,.T.);
#189=EDGE_CURVE('',#223,#224,#39,.F.);
#190=EDGE_CURVE('',#224,#209,#13,.T.);
#191=EDGE_CURVE('',#220,#224,#14,.T.);
#192=EDGE_CURVE('',#203,#219,#15,.T.);
#193=EDGE_CURVE('',#204,#222,#16,.T.);
#194=EDGE_CURVE('',#221,#223,#17,.T.);
#195=VERTEX_POINT('',#505);
#196=VERTEX_POINT('',#507);
#197=VERTEX_POINT('',#511);
#198=VERTEX_POINT('',#513);
#199=VERTEX_POINT('',#517);
#200=VERTEX_POINT('',#519);
#201=VERTEX_POINT('',#522);
#202=VERTEX_POINT('',#523);
#203=VERTEX_POINT('',#525);
#204=VERTEX_POINT('',#527);
#205=VERTEX_POINT('',#531);
#206=VERTEX_POINT('',#533);
#207=VERTEX_POINT('',#535);
#208=VERTEX_POINT('',#537);
#209=VERTEX_POINT('',#539);
#210=VERTEX_POINT('',#543);
#211=VERTEX_POINT('',#545);
#212=VERTEX_POINT('',#549);
#213=VERTEX_POINT('',#551);
#214=VERTEX_POINT('',#554);
#215=VERTEX_POINT('',#558);
#216=VERTEX_POINT('',#562);
#217=VERTEX_POINT('',#566);
#218=VERTEX_POINT('',#570);
#219=VERTEX_POINT('',#574);
#220=VERTEX_POINT('',#575);
#221=VERTEX_POINT('',#577);
#222=VERTEX_POINT('',#579);
#223=VERTEX_POINT('',#583);
#224=VERTEX_POINT('',#585);
#225=CIRCLE('',#356,0.003075);
#226=CIRCLE('',#357,0.003075);
#227=CIRCLE('',#360,0.003075);
#228=CIRCLE('',#361,0.003075);
#229=CIRCLE('',#364,0.004);
#230=CIRCLE('',#365,0.004);
#231=CIRCLE('',#368,0.005075);
#232=CIRCLE('',#371,0.005075);
#233=CIRCLE('',#373,0.003075);
#234=CIRCLE('',#375,0.005075);
#235=CIRCLE('',#378,0.005075);
#236=CIRCLE('',#381,0.003075);
#237=EDGE_LOOP('',(#75));
#238=EDGE_LOOP('',(#76));
#239=EDGE_LOOP('',(#77));
#240=EDGE_LOOP('',(#78));
#241=EDGE_LOOP('',(#79));
#242=EDGE_LOOP('',(#80));
#243=EDGE_LOOP('',(#81));
#244=EDGE_LOOP('',(#82));
#245=EDGE_LOOP('',(#83,#84,#85,#86));
#246=EDGE_LOOP('',(#87));
#247=EDGE_LOOP('',(#88,#89,#90,#91,#92,#93));
#248=EDGE_LOOP('',(#94,#95,#96,#97));
#249=EDGE_LOOP('',(#98));
#250=EDGE_LOOP('',(#99,#100,#101,#102,#103,#104));
#251=EDGE_LOOP('',(#105));
#252=EDGE_LOOP('',(#106));
#253=EDGE_LOOP('',(#107));
#254=EDGE_LOOP('',(#108,#109,#110,#111));
#255=EDGE_LOOP('',(#112));
#256=EDGE_LOOP('',(#113));
#257=EDGE_LOOP('',(#114));
#258=EDGE_LOOP('',(#115));
#259=EDGE_LOOP('',(#116));
#260=EDGE_LOOP('',(#117));
#261=EDGE_LOOP('',(#118));
#262=EDGE_LOOP('',(#119));
#263=EDGE_LOOP('',(#120));
#264=EDGE_LOOP('',(#121));
#265=EDGE_LOOP('',(#122));
#266=EDGE_LOOP('',(#123,#124,#125,#126));
#267=EDGE_LOOP('',(#127,#128,#129,#130,#131,#132));
#268=EDGE_LOOP('',(#133,#134,#135,#136,#137));
#269=EDGE_LOOP('',(#138,#139,#140,#141));
#270=EDGE_LOOP('',(#142,#143,#144,#145));
#271=EDGE_LOOP('',(#146,#147,#148,#149,#150));
#272=EDGE_LOOP('',(#151,#152,#153,#154));
#273=FACE_BOUND('',#237,.T.);
#274=FACE_BOUND('',#238,.T.);
#275=FACE_BOUND('',#239,.T.);
#276=FACE_BOUND('',#240,.T.);
#277=FACE_BOUND('',#241,.T.);
#278=FACE_BOUND('',#242,.T.);
#279=FACE_BOUND('',#243,.T.);
#280=FACE_BOUND('',#244,.T.);
#281=FACE_BOUND('',#245,.T.);
#282=FACE_BOUND('',#246,.T.);
#283=FACE_BOUND('',#247,.T.);
#284=FACE_BOUND('',#248,.T.);
#285=FACE_BOUND('',#249,.T.);
#286=FACE_BOUND('',#250,.T.);
#287=FACE_BOUND('',#251,.T.);
#288=FACE_BOUND('',#252,.T.);
#289=FACE_BOUND('',#253,.T.);
#290=FACE_BOUND('',#254,.T.);
#291=FACE_BOUND('',#255,.T.);
#292=FACE_BOUND('',#256,.T.);
#293=FACE_BOUND('',#257,.T.);
#294=FACE_BOUND('',#258,.T.);
#295=FACE_BOUND('',#259,.T.);
#296=FACE_BOUND('',#260,.T.);
#297=FACE_BOUND('',#261,.T.);
#298=FACE_BOUND('',#262,.T.);
#299=FACE_BOUND('',#263,.T.);
#300=FACE_BOUND('',#264,.T.);
#301=FACE_BOUND('',#265,.T.);
#302=FACE_BOUND('',#266,.T.);
#303=FACE_BOUND('',#267,.T.);
#304=FACE_BOUND('',#268,.T.);
#305=FACE_BOUND('',#269,.T.);
#306=FACE_BOUND('',#270,.T.);
#307=FACE_BOUND('',#271,.T.);
#308=FACE_BOUND('',#272,.T.);
#309=CYLINDRICAL_SURFACE('',#355,0.003075);
#310=CYLINDRICAL_SURFACE('',#359,0.003075);
#311=CYLINDRICAL_SURFACE('',#363,0.004);
#312=CYLINDRICAL_SURFACE('',#374,0.005075);
#313=CYLINDRICAL_SURFACE('',#377,0.005075);
#314=CYLINDRICAL_SURFACE('',#380,0.003075);
#315=CYLINDRICAL_SURFACE('',#387,0.0025);
#316=CYLINDRICAL_SURFACE('',#390,0.0025);
#317=CYLINDRICAL_SURFACE('',#392,0.0025);
#318=CYLINDRICAL_SURFACE('',#394,0.0025);
#319=ADVANCED_FACE('',(#273,#274),#309,.F.);
#320=ADVANCED_FACE('',(#275),#62,.F.);
#321=ADVANCED_FACE('',(#276,#277),#310,.F.);
#322=ADVANCED_FACE('',(#278),#63,.F.);
#323=ADVANCED_FACE('',(#279,#280),#311,.F.);
#324=ADVANCED_FACE('',(#281),#64,.T.);
#325=ADVANCED_FACE('',(#282,#283),#65,.F.);
#326=ADVANCED_FACE('',(#284),#66,.F.);
#327=ADVANCED_FACE('',(#285,#286),#67,.T.);
#328=ADVANCED_FACE('',(#287,#288,#289,#290),#68,.F.);
#329=ADVANCED_FACE('',(#291,#292),#312,.F.);
#330=ADVANCED_FACE('',(#293,#294),#69,.T.);
#331=ADVANCED_FACE('',(#295,#296),#313,.F.);
#332=ADVANCED_FACE('',(#297,#298),#70,.T.);
#333=ADVANCED_FACE('',(#299,#300),#314,.F.);
#334=ADVANCED_FACE('',(#301),#71,.F.);
#335=ADVANCED_FACE('',(#302),#72,.T.);
#336=ADVANCED_FACE('',(#303),#73,.T.);
#337=ADVANCED_FACE('',(#304),#315,.T.);
#338=ADVANCED_FACE('',(#305),#316,.T.);
#339=ADVANCED_FACE('',(#306),#317,.T.);
#340=ADVANCED_FACE('',(#307),#318,.T.);
#341=ADVANCED_FACE('',(#308),#74,.F.);
#342=CLOSED_SHELL('',(#319,#320,#321,#322,#323,#324,#325,#326,#327,#328,#329,#330,#331,#332,#333,#334,#335,#336,#337,#338,#339,#340,#341));
#343=STYLED_ITEM('',(#344),#351);
#344=PRESENTATION_STYLE_ASSIGNMENT((#345));
#345=SURFACE_STYLE_USAGE(.BOTH.,#346);
#346=SURFACE_SIDE_STYLE('',(#347));
#347=SURFACE_STYLE_FILL_AREA(#348);
#348=FILL_AREA_STYLE('',(#349));
#349=FILL_AREA_STYLE_COLOUR('',#350);
#350=COLOUR_RGB('',0.615686274509804,0.811764705882353,0.929411764705882);
#351=MANIFOLD_SOLID_BREP('Part 1',#342);
#352=SHAPE_DEFINITION_REPRESENTATION(#602,#353);
#353=SHAPE_REPRESENTATION('Part 1',(#354),#597);
#354=AXIS2_PLACEMENT_3D('',#502,#396,#397);
#355=AXIS2_PLACEMENT_3D('',#503,#398,#399);
#356=AXIS2_PLACEMENT_3D('',#504,#400,#401);
#357=AXIS2_PLACEMENT_3D('',#506,#402,#403);
#358=AXIS2_PLACEMENT_3D('',#508,#404,#405);
#359=AXIS2_PLACEMENT_3D('',#509,#406,#407);
#360=AXIS2_PLACEMENT_3D('',#510,#408,#409);
#361=AXIS2_PLACEMENT_3D('',#512,#410,#411);
#362=AXIS2_PLACEMENT_3D('',#514,#412,#413);
#363=AXIS2_PLACEMENT_3D('',#515,#414,#415);
#364=AXIS2_PLACEMENT_3D('',#516,#416,#417);
#365=AXIS2_PLACEMENT_3D('',#518,#418,#419);
#366=AXIS2_PLACEMENT_3D('',#520,#420,#421);
#367=AXIS2_PLACEMENT_3D('',#529,#426,#427);
#368=AXIS2_PLACEMENT_3D('',#530,#428,#429);
#369=AXIS2_PLACEMENT_3D('',#541,#435,#436);
#370=AXIS2_PLACEMENT_3D('',#547,#440,#441);
#371=AXIS2_PLACEMENT_3D('',#548,#442,#443);
#372=AXIS2_PLACEMENT_3D('',#556,#448,#449);
#373=AXIS2_PLACEMENT_3D('',#557,#450,#451);
#374=AXIS2_PLACEMENT_3D('',#560,#453,#454);
#375=AXIS2_PLACEMENT_3D('',#561,#455,#456);
#376=AXIS2_PLACEMENT_3D('',#563,#457,#458);
#377=AXIS2_PLACEMENT_3D('',#564,#459,#460);
#378=AXIS2_PLACEMENT_3D('',#565,#461,#462);
#379=AXIS2_PLACEMENT_3D('',#567,#463,#464);
#380=AXIS2_PLACEMENT_3D('',#568,#465,#466);
#381=AXIS2_PLACEMENT_3D('',#569,#467,#468);
#382=AXIS2_PLACEMENT_3D('',#571,#469,#470);
#383=AXIS2_PLACEMENT_3D('',#572,#471,#472);
#384=AXIS2_PLACEMENT_3D('',#581,#477,#478);
#385=AXIS2_PLACEMENT_3D('',#582,#479,#480);
#386=AXIS2_PLACEMENT_3D('',#586,#482,#483);
#387=AXIS2_PLACEMENT_3D('',#587,#484,#485);
#388=AXIS2_PLACEMENT_3D('',#588,#486,#487);
#389=AXIS2_PLACEMENT_3D('',#589,#488,#489);
#390=AXIS2_PLACEMENT_3D('',#590,#490,#491);
#391=AXIS2_PLACEMENT_3D('',#591,#492,#493);
#392=AXIS2_PLACEMENT_3D('',#592,#494,#495);
#393=AXIS2_PLACEMENT_3D('',#593,#496,#497);
#394=AXIS2_PLACEMENT_3D('',#594,#498,#499);
#395=AXIS2_PLACEMENT_3D('',#595,#500,#501);
#396=DIRECTION('',(0.,0.,1.));
#397=DIRECTION('',(1.,0.,0.));
#398=DIRECTION('',(0.,0.,-1.));
#399=DIRECTION('',(-1.,0.,0.));
#400=DIRECTION('',(0.,0.,1.));
#401=DIRECTION('',(1.,0.,0.));
#402=DIRECTION('',(0.,0.,1.));
#403=DIRECTION('',(1.,0.,0.));
#404=DIRECTION('',(0.,0.,1.));
#405=DIRECTION('',(1.,0.,0.));
#406=DIRECTION('',(0.,0.,-1.));
#407=DIRECTION('',(-1.,0.,0.));
#408=DIRECTION('',(0.,0.,1.));
#409=DIRECTION('',(1.,0.,0.));
#410=DIRECTION('',(0.,0.,1.));
#411=DIRECTION('',(1.,0.,0.));
#412=DIRECTION('',(0.,0.,1.));
#413=DIRECTION('',(1.,0.,0.));
#414=DIRECTION('',(1.,0.,0.));
#415=DIRECTION('',(0.,0.,-1.));
#416=DIRECTION('',(1.,6.15150168786102E-17,0.));
#417=DIRECTION('',(-6.15150168786102E-17,1.,0.));
#418=DIRECTION('',(1.,0.,0.));
#419=DIRECTION('',(0.,0.,-1.));
#420=DIRECTION('',(0.,1.,0.));
#421=DIRECTION('',(0.,0.,1.));
#422=DIRECTION('',(1.,0.,0.));
#423=DIRECTION('',(0.,0.,-1.));
#424=DIRECTION('',(1.,0.,0.));
#425=DIRECTION('',(0.,0.,-1.));
#426=DIRECTION('',(1.,6.15150168786102E-17,0.));
#427=DIRECTION('',(-6.15150168786102E-17,1.,0.));
#428=DIRECTION('',(-1.,-6.15150168786102E-17,0.));
#429=DIRECTION('',(6.15150168786102E-17,-1.,0.));
#430=DIRECTION('',(6.15150168786102E-17,-1.,0.));
#431=DIRECTION('',(-2.5997369504188E-17,0.422618261740699,-0.90630778703665));
#432=DIRECTION('',(0.,0.,-1.));
#433=DIRECTION('',(-3.07575084393051E-17,0.5,0.866025403784439));
#434=DIRECTION('',(6.15150168786102E-17,-1.,0.));
#435=DIRECTION('',(0.,1.,0.));
#436=DIRECTION('',(0.,0.,1.));
#437=DIRECTION('',(1.,0.,0.));
#438=DIRECTION('',(0.,0.,-1.));
#439=DIRECTION('',(1.,0.,0.));
#440=DIRECTION('',(1.,0.,0.));
#441=DIRECTION('',(0.,0.,-1.));
#442=DIRECTION('',(1.,0.,0.));
#443=DIRECTION('',(0.,0.,-1.));
#444=DIRECTION('',(0.,-0.422618261740699,0.90630778703665));
#445=DIRECTION('',(0.,-1.,0.));
#446=DIRECTION('',(0.,-1.,0.));
#447=DIRECTION('',(0.,-0.5,-0.866025403784439));
#448=DIRECTION('',(0.,0.,1.));
#449=DIRECTION('',(1.,0.,0.));
#450=DIRECTION('',(0.,0.,1.));
#451=DIRECTION('',(1.,0.,0.));
#452=DIRECTION('',(-1.,0.,0.));
#453=DIRECTION('',(-1.,-6.15150168786102E-17,0.));
#454=DIRECTION('',(6.15150168786102E-17,-1.,0.));
#455=DIRECTION('',(-1.,-6.15150168786102E-17,0.));
#456=DIRECTION('',(6.15150168786102E-17,-1.,0.));
#457=DIRECTION('',(-1.,-6.15150168786102E-17,0.));
#458=DIRECTION('',(6.15150168786102E-17,-1.,0.));
#459=DIRECTION('',(1.,0.,0.));
#460=DIRECTION('',(0.,0.,-1.));
#461=DIRECTION('',(1.,0.,0.));
#462=DIRECTION('',(0.,0.,-1.));
#463=DIRECTION('',(1.,0.,0.));
#464=DIRECTION('',(0.,1.,0.));
#465=DIRECTION('',(0.,0.,-1.));
#466=DIRECTION('',(-1.,0.,0.));
#467=DIRECTION('',(0.,0.,1.));
#468=DIRECTION('',(1.,0.,0.));
#469=DIRECTION('',(0.,0.,1.));
#470=DIRECTION('',(1.,0.,0.));
#471=DIRECTION('',(0.,0.,1.));
#472=DIRECTION('',(1.,0.,0.));
#473=DIRECTION('',(6.15150168786102E-17,-1.,0.));
#474=DIRECTION('',(1.,0.,0.));
#475=DIRECTION('',(0.,-1.,0.));
#476=DIRECTION('',(1.,0.,0.));
#477=DIRECTION('',(0.,-0.866025403784439,0.5));
#478=DIRECTION('',(-1.,0.,0.));
#479=DIRECTION('',(0.,-0.866025403784439,0.5));
#480=DIRECTION('',(0.,-0.5,-0.866025403784439));
#481=DIRECTION('',(1.,0.,0.));
#482=DIRECTION('',(0.,-0.866025403784439,0.5));
#483=DIRECTION('',(-1.2303003375722E-16,0.5,0.866025403784439));
#484=DIRECTION('',(-6.15150168786102E-17,1.,0.));
#485=DIRECTION('',(-1.,-6.15150168786102E-17,0.));
#486=DIRECTION('',(0.707106781186548,-0.707106781186548,0.));
#487=DIRECTION('',(0.707106781186548,0.707106781186548,0.));
#488=DIRECTION('',(0.707106781186548,0.707106781186548,0.));
#489=DIRECTION('',(0.707106781186548,-0.707106781186548,0.));
#490=DIRECTION('',(1.,0.,0.));
#491=DIRECTION('',(0.,0.,-1.));
#492=DIRECTION('',(0.707106781186548,-0.707106781186548,0.));
#493=DIRECTION('',(0.707106781186548,0.707106781186548,0.));
#494=DIRECTION('',(1.,0.,0.));
#495=DIRECTION('',(0.,0.,-1.));
#496=DIRECTION('',(0.707106781186548,0.707106781186548,0.));
#497=DIRECTION('',(0.707106781186548,-0.707106781186548,0.));
#498=DIRECTION('',(0.,-1.,0.));
#499=DIRECTION('',(0.,0.,-1.));
#500=DIRECTION('',(0.,0.90630778703665,0.422618261740699));
#501=DIRECTION('',(1.,0.,0.));
#502=CARTESIAN_POINT('',(0.,0.,0.));
#503=CARTESIAN_POINT('',(0.0124176491290331,-0.0264478951692581,0.002));
#504=CARTESIAN_POINT('',(0.0124176491290331,-0.0264478951692581,0.002));
#505=CARTESIAN_POINT('',(0.0154926491290331,-0.0264478951692581,0.002));
#506=CARTESIAN_POINT('',(0.0124176491290331,-0.0264478951692581,0.));
#507=CARTESIAN_POINT('',(0.0154926491290331,-0.0264478951692581,0.));
#508=CARTESIAN_POINT('',(0.0124176491290331,-0.0316978951692581,0.002));
#509=CARTESIAN_POINT('',(0.0124176491290331,-0.0124478951692581,0.002));
#510=CARTESIAN_POINT('',(0.0124176491290331,-0.0124478951692581,0.002));
#511=CARTESIAN_POINT('',(0.0154926491290331,-0.0124478951692581,0.002));
#512=CARTESIAN_POINT('',(0.0124176491290331,-0.0124478951692581,0.));
#513=CARTESIAN_POINT('',(0.0154926491290331,-0.0124478951692581,0.));
#514=CARTESIAN_POINT('',(0.0124176491290331,-0.0176978951692581,0.002));
#515=CARTESIAN_POINT('',(-0.076,0.0215521048307419,0.007));
#516=CARTESIAN_POINT('',(0.00731764912903308,0.0215521048307419,0.007));
#517=CARTESIAN_POINT('',(0.00731764912903308,0.0255521048307419,0.007));
#518=CARTESIAN_POINT('',(0.0175176491290331,0.0215521048307419,0.007));
#519=CARTESIAN_POINT('',(0.0175176491290331,0.0215521048307419,0.003));
#520=CARTESIAN_POINT('',(0.0124176491290331,0.0315521048307419,0.014));
#521=CARTESIAN_POINT('',(0.0124176491290331,0.0315521048307419,0.));
#522=CARTESIAN_POINT('',(0.00431764912903309,0.0315521048307419,0.));
#523=CARTESIAN_POINT('',(0.0205176491290331,0.0315521048307419,0.));
#524=CARTESIAN_POINT('',(0.00431764912903309,0.0315521048307419,0.014));
#525=CARTESIAN_POINT('',(0.00431764912903309,0.0315521048307419,0.0215));
#526=CARTESIAN_POINT('',(0.0124176491290331,0.0315521048307419,0.0215));
#527=CARTESIAN_POINT('',(0.0205176491290331,0.0315521048307419,0.0215));
#528=CARTESIAN_POINT('',(0.0205176491290331,0.0315521048307419,0.014));
#529=CARTESIAN_POINT('',(0.00431764912903309,-0.00369789516925811,0.014));
#530=CARTESIAN_POINT('',(0.00431764912903309,0.0215521048307419,0.007));
#531=CARTESIAN_POINT('',(0.00431764912903309,0.0164771048307419,0.007));
#532=CARTESIAN_POINT('',(0.00431764912903309,-0.00369789516925811,0.));
#533=CARTESIAN_POINT('',(0.00431764912903309,-0.0339478951692581,0.));
#534=CARTESIAN_POINT('',(0.00431764912903309,-0.0389478951692581,0.0107225346025478));
#535=CARTESIAN_POINT('',(0.00431764912903309,-0.0389478951692581,0.0107225346025478));
#536=CARTESIAN_POINT('',(0.00431764912903309,-0.0389478951692581,0.014));
#537=CARTESIAN_POINT('',(0.00431764912903309,-0.0389478951692581,0.014));
#538=CARTESIAN_POINT('',(0.00431764912903309,-0.0331743924773619,0.024));
#539=CARTESIAN_POINT('',(0.00431764912903309,-0.034617768150336,0.0215));
#540=CARTESIAN_POINT('',(0.00431764912903309,0.0315521048307419,0.0215));
#541=CARTESIAN_POINT('',(0.0124176491290331,-0.0389478951692581,0.014));
#542=CARTESIAN_POINT('',(0.0124176491290331,-0.0389478951692581,0.0107225346025478));
#543=CARTESIAN_POINT('',(0.0205176491290331,-0.0389478951692581,0.0107225346025478));
#544=CARTESIAN_POINT('',(0.0205176491290331,-0.0389478951692581,0.014));
#545=CARTESIAN_POINT('',(0.0205176491290331,-0.0389478951692581,0.014));
#546=CARTESIAN_POINT('',(0.0124176491290331,-0.0389478951692581,0.014));
#547=CARTESIAN_POINT('',(0.0205176491290331,-0.00369789516925811,0.014));
#548=CARTESIAN_POINT('',(0.0205176491290331,0.0215521048307419,0.007));
#549=CARTESIAN_POINT('',(0.0205176491290331,0.0215521048307419,0.001925));
#550=CARTESIAN_POINT('',(0.0205176491290331,-0.0339073688675998,-8.69089343687665E-05));
#551=CARTESIAN_POINT('',(0.0205176491290331,-0.0339478951692581,0.));
#552=CARTESIAN_POINT('',(0.0205176491290331,-0.00369789516925811,0.));
#553=CARTESIAN_POINT('',(0.0205176491290331,-0.00369789516925811,0.0215));
#554=CARTESIAN_POINT('',(0.0205176491290331,-0.034617768150336,0.0215));
#555=CARTESIAN_POINT('',(0.0205176491290331,-0.025805268150336,0.0367636977417007));
#556=CARTESIAN_POINT('',(0.0124176491290331,-0.00369789516925811,0.));
#557=CARTESIAN_POINT('',(0.0124176491290331,0.00155210483074189,0.));
#558=CARTESIAN_POINT('',(0.0154926491290331,0.00155210483074189,0.));
#559=CARTESIAN_POINT('',(0.0124176491290331,-0.0339478951692581,0.));
#560=CARTESIAN_POINT('',(0.00731764912903309,0.0215521048307419,0.007));
#561=CARTESIAN_POINT('',(0.00731764912903309,0.0215521048307419,0.007));
#562=CARTESIAN_POINT('',(0.00731764912903309,0.0164771048307419,0.007));
#563=CARTESIAN_POINT('',(0.00731764912903309,-0.00369789516925811,0.007));
#564=CARTESIAN_POINT('',(0.0175176491290331,0.0215521048307419,0.007));
#565=CARTESIAN_POINT('',(0.0175176491290331,0.0215521048307419,0.007));
#566=CARTESIAN_POINT('',(0.0175176491290331,0.0215521048307419,0.001925));
#567=CARTESIAN_POINT('',(0.0175176491290331,-0.00369789516925811,0.007));
#568=CARTESIAN_POINT('',(0.0124176491290331,0.00155210483074189,0.002));
#569=CARTESIAN_POINT('',(0.0124176491290331,0.00155210483074189,0.002));
#570=CARTESIAN_POINT('',(0.0154926491290331,0.00155210483074189,0.002));
#571=CARTESIAN_POINT('',(0.0124176491290331,-0.00369789516925811,0.002));
#572=CARTESIAN_POINT('',(0.0124176491290331,-0.00369789516925811,0.024));
#573=CARTESIAN_POINT('',(0.00681764912903309,-0.0331743924773619,0.024));
#574=CARTESIAN_POINT('',(0.00681764912903309,0.0290521048307419,0.024));
#575=CARTESIAN_POINT('',(0.00681764912903309,-0.0317310168043878,0.024));
#576=CARTESIAN_POINT('',(0.0124176491290331,-0.0317310168043878,0.024));
#577=CARTESIAN_POINT('',(0.0180176491290331,-0.0317310168043878,0.024));
#578=CARTESIAN_POINT('',(0.0180176491290331,-0.00369789516925811,0.024));
#579=CARTESIAN_POINT('',(0.0180176491290331,0.0290521048307419,0.024));
#580=CARTESIAN_POINT('',(0.0124176491290331,0.0290521048307419,0.024));
#581=CARTESIAN_POINT('',(0.0124176491290331,-0.0331743924773619,0.024));
#582=CARTESIAN_POINT('',(0.0180176491290331,-0.034617768150336,0.0215));
#583=CARTESIAN_POINT('',(0.0201827126384943,-0.0338960803138489,0.02275));
#584=CARTESIAN_POINT('',(0.0124176491290331,-0.0338960803138489,0.02275));
#585=CARTESIAN_POINT('',(0.00465258561957187,-0.0338960803138489,0.02275));
#586=CARTESIAN_POINT('',(0.00681764912903309,-0.034617768150336,0.0215));
#587=CARTESIAN_POINT('',(0.00681764912903309,-0.00369789516925811,0.0215));
#588=CARTESIAN_POINT('',(0.00681764912903309,-0.0317310168043878,0.0215));
#589=CARTESIAN_POINT('',(0.00681764912903309,0.0290521048307419,0.0215));
#590=CARTESIAN_POINT('',(0.0124176491290331,0.0290521048307419,0.0215));
#591=CARTESIAN_POINT('',(0.0180176491290331,0.0290521048307419,0.0215));
#592=CARTESIAN_POINT('',(0.0124176491290331,-0.0317310168043878,0.0215));
#593=CARTESIAN_POINT('',(0.0180176491290331,-0.0317310168043878,0.0215));
#594=CARTESIAN_POINT('',(0.0180176491290331,-0.00369789516925811,0.0215));
#595=CARTESIAN_POINT('',(0.0124176491290331,-0.0389478951692581,0.0107225346025478));
#596=MECHANICAL_DESIGN_GEOMETRIC_PRESENTATION_REPRESENTATION('',(#343),#597);
#597=(
GEOMETRIC_REPRESENTATION_CONTEXT(3)
GLOBAL_UNCERTAINTY_ASSIGNED_CONTEXT((#598))
GLOBAL_UNIT_ASSIGNED_CONTEXT((#601,#600,#599))
REPRESENTATION_CONTEXT('Part 1','TOP_LEVEL_ASSEMBLY_PART')
);
#598=UNCERTAINTY_MEASURE_WITH_UNIT(LENGTH_MEASURE(1.E-08),#601,'DISTANCE_ACCURACY_VALUE','Maximum Tolerance applied to model');
#599=(
NAMED_UNIT(*)
SI_UNIT($,.STERADIAN.)
SOLID_ANGLE_UNIT()
);
#600=(
NAMED_UNIT(*)
PLANE_ANGLE_UNIT()
SI_UNIT($,.RADIAN.)
);
#601=(
LENGTH_UNIT()
NAMED_UNIT(*)
SI_UNIT($,.METRE.)
);
#602=PRODUCT_DEFINITION_SHAPE('','',#603);
#603=PRODUCT_DEFINITION('','',#605,#604);
#604=PRODUCT_DEFINITION_CONTEXT('',#611,'design');
#605=PRODUCT_DEFINITION_FORMATION_WITH_SPECIFIED_SOURCE('','',#607,.NOT_KNOWN.);
#606=PRODUCT_RELATED_PRODUCT_CATEGORY('','',(#607));
#607=PRODUCT('Part 1','Part 1','Part 1',(#609));
#608=PRODUCT_CATEGORY('','');
#609=PRODUCT_CONTEXT('',#611,'mechanical');
#610=APPLICATION_PROTOCOL_DEFINITION('international standard','ap242_managed_model_based_3d_engineering',2020,#611);
#611=APPLICATION_CONTEXT('managed model based 3d engineering');
ENDSEC;
END-ISO-10303-21;
