ISO-10303-21;
HEADER;
/* Generated by software containing ST-Developer
 * from STEP Tools, Inc. (www.steptools.com) 
 */

FILE_DESCRIPTION(
/* description */ (''),
/* implementation_level */ '2;1');

FILE_NAME(
/* name */ 'C:\\Users\\Admin\\Desktop\\Nueva carpeta\\base.stp',
/* time_stamp */ '2017-04-18T23:15:03+02:00',
/* author */ ('Admin'),
/* organization */ (''),
/* preprocessor_version */ 'ST-DEVELOPER v16.1',
/* originating_system */ 'Autodesk Inventor 2016',
/* authorisation */ '');

FILE_SCHEMA (('AUTOMOTIVE_DESIGN { 1 0 10303 214 3 1 1 }'));
ENDSEC;

DATA;
#10=MECHANICAL_DESIGN_GEOMETRIC_PRESENTATION_REPRESENTATION('',(#13),#351);
#11=SHAPE_REPRESENTATION_RELATIONSHIP('SRR','None',#360,#12);
#12=ADVANCED_BREP_SHAPE_REPRESENTATION('',(#14),#350);
#13=STYLED_ITEM('',(#369),#14);
#14=MANIFOLD_SOLID_BREP('Solid1',#221);
#15=FACE_OUTER_BOUND('',#27,.T.);
#16=FACE_OUTER_BOUND('',#28,.T.);
#17=FACE_OUTER_BOUND('',#29,.T.);
#18=FACE_OUTER_BOUND('',#30,.T.);
#19=FACE_OUTER_BOUND('',#31,.T.);
#20=FACE_OUTER_BOUND('',#32,.T.);
#21=FACE_OUTER_BOUND('',#33,.T.);
#22=FACE_OUTER_BOUND('',#34,.T.);
#23=FACE_OUTER_BOUND('',#35,.T.);
#24=FACE_OUTER_BOUND('',#36,.T.);
#25=FACE_OUTER_BOUND('',#37,.T.);
#26=FACE_OUTER_BOUND('',#38,.T.);
#27=EDGE_LOOP('',(#141,#142,#143,#144));
#28=EDGE_LOOP('',(#145,#146,#147,#148,#149));
#29=EDGE_LOOP('',(#150,#151,#152,#153,#154,#155,#156,#157));
#30=EDGE_LOOP('',(#158,#159,#160,#161));
#31=EDGE_LOOP('',(#162,#163,#164,#165,#166));
#32=EDGE_LOOP('',(#167,#168,#169,#170,#171,#172));
#33=EDGE_LOOP('',(#173,#174,#175,#176));
#34=EDGE_LOOP('',(#177,#178,#179,#180));
#35=EDGE_LOOP('',(#181,#182,#183,#184));
#36=EDGE_LOOP('',(#185,#186,#187,#188));
#37=EDGE_LOOP('',(#189,#190,#191,#192));
#38=EDGE_LOOP('',(#193,#194,#195,#196));
#39=LINE('',#293,#67);
#40=LINE('',#295,#68);
#41=LINE('',#297,#69);
#42=LINE('',#298,#70);
#43=LINE('',#301,#71);
#44=LINE('',#303,#72);
#45=LINE('',#305,#73);
#46=LINE('',#306,#74);
#47=LINE('',#309,#75);
#48=LINE('',#311,#76);
#49=LINE('',#313,#77);
#50=LINE('',#315,#78);
#51=LINE('',#317,#79);
#52=LINE('',#318,#80);
#53=LINE('',#321,#81);
#54=LINE('',#323,#82);
#55=LINE('',#324,#83);
#56=LINE('',#327,#84);
#57=LINE('',#329,#85);
#58=LINE('',#330,#86);
#59=LINE('',#332,#87);
#60=LINE('',#333,#88);
#61=LINE('',#335,#89);
#62=LINE('',#338,#90);
#63=LINE('',#340,#91);
#64=LINE('',#341,#92);
#65=LINE('',#343,#93);
#66=LINE('',#345,#94);
#67=VECTOR('',#239,212.132034355964);
#68=VECTOR('',#240,10.);
#69=VECTOR('',#241,212.132034355964);
#70=VECTOR('',#242,10.);
#71=VECTOR('',#245,250.);
#72=VECTOR('',#246,160.);
#73=VECTOR('',#247,400.);
#74=VECTOR('',#248,10.);
#75=VECTOR('',#251,240.);
#76=VECTOR('',#252,280.);
#77=VECTOR('',#253,240.);
#78=VECTOR('',#254,10.);
#79=VECTOR('',#255,250.);
#80=VECTOR('',#256,300.);
#81=VECTOR('',#259,212.132034355964);
#82=VECTOR('',#260,212.132034355964);
#83=VECTOR('',#261,9.99999999999996);
#84=VECTOR('',#264,10.);
#85=VECTOR('',#265,400.);
#86=VECTOR('',#266,160.);
#87=VECTOR('',#269,300.);
#88=VECTOR('',#270,280.);
#89=VECTOR('',#273,300.);
#90=VECTOR('',#276,150.);
#91=VECTOR('',#277,280.);
#92=VECTOR('',#278,150.);
#93=VECTOR('',#281,390.);
#94=VECTOR('',#284,390.);
#95=VERTEX_POINT('',#291);
#96=VERTEX_POINT('',#292);
#97=VERTEX_POINT('',#294);
#98=VERTEX_POINT('',#296);
#99=VERTEX_POINT('',#300);
#100=VERTEX_POINT('',#302);
#101=VERTEX_POINT('',#304);
#102=VERTEX_POINT('',#308);
#103=VERTEX_POINT('',#310);
#104=VERTEX_POINT('',#312);
#105=VERTEX_POINT('',#314);
#106=VERTEX_POINT('',#316);
#107=VERTEX_POINT('',#320);
#108=VERTEX_POINT('',#322);
#109=VERTEX_POINT('',#326);
#110=VERTEX_POINT('',#328);
#111=VERTEX_POINT('',#337);
#112=VERTEX_POINT('',#339);
#113=EDGE_CURVE('',#95,#96,#39,.T.);
#114=EDGE_CURVE('',#96,#97,#40,.T.);
#115=EDGE_CURVE('',#97,#98,#41,.T.);
#116=EDGE_CURVE('',#98,#95,#42,.T.);
#117=EDGE_CURVE('',#99,#95,#43,.T.);
#118=EDGE_CURVE('',#100,#99,#44,.T.);
#119=EDGE_CURVE('',#101,#100,#45,.T.);
#120=EDGE_CURVE('',#101,#96,#46,.T.);
#121=EDGE_CURVE('',#98,#102,#47,.T.);
#122=EDGE_CURVE('',#102,#103,#48,.T.);
#123=EDGE_CURVE('',#103,#104,#49,.T.);
#124=EDGE_CURVE('',#105,#104,#50,.T.);
#125=EDGE_CURVE('',#105,#106,#51,.T.);
#126=EDGE_CURVE('',#106,#99,#52,.T.);
#127=EDGE_CURVE('',#107,#105,#53,.T.);
#128=EDGE_CURVE('',#104,#108,#54,.T.);
#129=EDGE_CURVE('',#108,#107,#55,.T.);
#130=EDGE_CURVE('',#107,#109,#56,.T.);
#131=EDGE_CURVE('',#110,#109,#57,.T.);
#132=EDGE_CURVE('',#110,#106,#58,.T.);
#133=EDGE_CURVE('',#109,#101,#59,.T.);
#134=EDGE_CURVE('',#97,#108,#60,.T.);
#135=EDGE_CURVE('',#100,#110,#61,.T.);
#136=EDGE_CURVE('',#111,#102,#62,.T.);
#137=EDGE_CURVE('',#112,#111,#63,.T.);
#138=EDGE_CURVE('',#103,#112,#64,.T.);
#139=EDGE_CURVE('',#108,#112,#65,.T.);
#140=EDGE_CURVE('',#111,#97,#66,.T.);
#141=ORIENTED_EDGE('',*,*,#113,.T.);
#142=ORIENTED_EDGE('',*,*,#114,.T.);
#143=ORIENTED_EDGE('',*,*,#115,.T.);
#144=ORIENTED_EDGE('',*,*,#116,.T.);
#145=ORIENTED_EDGE('',*,*,#113,.F.);
#146=ORIENTED_EDGE('',*,*,#117,.F.);
#147=ORIENTED_EDGE('',*,*,#118,.F.);
#148=ORIENTED_EDGE('',*,*,#119,.F.);
#149=ORIENTED_EDGE('',*,*,#120,.T.);
#150=ORIENTED_EDGE('',*,*,#116,.F.);
#151=ORIENTED_EDGE('',*,*,#121,.T.);
#152=ORIENTED_EDGE('',*,*,#122,.T.);
#153=ORIENTED_EDGE('',*,*,#123,.T.);
#154=ORIENTED_EDGE('',*,*,#124,.F.);
#155=ORIENTED_EDGE('',*,*,#125,.T.);
#156=ORIENTED_EDGE('',*,*,#126,.T.);
#157=ORIENTED_EDGE('',*,*,#117,.T.);
#158=ORIENTED_EDGE('',*,*,#127,.T.);
#159=ORIENTED_EDGE('',*,*,#124,.T.);
#160=ORIENTED_EDGE('',*,*,#128,.T.);
#161=ORIENTED_EDGE('',*,*,#129,.T.);
#162=ORIENTED_EDGE('',*,*,#127,.F.);
#163=ORIENTED_EDGE('',*,*,#130,.T.);
#164=ORIENTED_EDGE('',*,*,#131,.F.);
#165=ORIENTED_EDGE('',*,*,#132,.T.);
#166=ORIENTED_EDGE('',*,*,#125,.F.);
#167=ORIENTED_EDGE('',*,*,#114,.F.);
#168=ORIENTED_EDGE('',*,*,#120,.F.);
#169=ORIENTED_EDGE('',*,*,#133,.F.);
#170=ORIENTED_EDGE('',*,*,#130,.F.);
#171=ORIENTED_EDGE('',*,*,#129,.F.);
#172=ORIENTED_EDGE('',*,*,#134,.F.);
#173=ORIENTED_EDGE('',*,*,#133,.T.);
#174=ORIENTED_EDGE('',*,*,#119,.T.);
#175=ORIENTED_EDGE('',*,*,#135,.T.);
#176=ORIENTED_EDGE('',*,*,#131,.T.);
#177=ORIENTED_EDGE('',*,*,#136,.F.);
#178=ORIENTED_EDGE('',*,*,#137,.F.);
#179=ORIENTED_EDGE('',*,*,#138,.F.);
#180=ORIENTED_EDGE('',*,*,#122,.F.);
#181=ORIENTED_EDGE('',*,*,#128,.F.);
#182=ORIENTED_EDGE('',*,*,#123,.F.);
#183=ORIENTED_EDGE('',*,*,#138,.T.);
#184=ORIENTED_EDGE('',*,*,#139,.F.);
#185=ORIENTED_EDGE('',*,*,#115,.F.);
#186=ORIENTED_EDGE('',*,*,#140,.F.);
#187=ORIENTED_EDGE('',*,*,#136,.T.);
#188=ORIENTED_EDGE('',*,*,#121,.F.);
#189=ORIENTED_EDGE('',*,*,#134,.T.);
#190=ORIENTED_EDGE('',*,*,#139,.T.);
#191=ORIENTED_EDGE('',*,*,#137,.T.);
#192=ORIENTED_EDGE('',*,*,#140,.T.);
#193=ORIENTED_EDGE('',*,*,#135,.F.);
#194=ORIENTED_EDGE('',*,*,#118,.T.);
#195=ORIENTED_EDGE('',*,*,#126,.F.);
#196=ORIENTED_EDGE('',*,*,#132,.F.);
#197=PLANE('',#223);
#198=PLANE('',#224);
#199=PLANE('',#225);
#200=PLANE('',#226);
#201=PLANE('',#227);
#202=PLANE('',#228);
#203=PLANE('',#229);
#204=PLANE('',#230);
#205=PLANE('',#231);
#206=PLANE('',#232);
#207=PLANE('',#233);
#208=PLANE('',#234);
#209=ADVANCED_FACE('',(#15),#197,.T.);
#210=ADVANCED_FACE('',(#16),#198,.T.);
#211=ADVANCED_FACE('',(#17),#199,.T.);
#212=ADVANCED_FACE('',(#18),#200,.T.);
#213=ADVANCED_FACE('',(#19),#201,.T.);
#214=ADVANCED_FACE('',(#20),#202,.F.);
#215=ADVANCED_FACE('',(#21),#203,.F.);
#216=ADVANCED_FACE('',(#22),#204,.T.);
#217=ADVANCED_FACE('',(#23),#205,.T.);
#218=ADVANCED_FACE('',(#24),#206,.T.);
#219=ADVANCED_FACE('',(#25),#207,.T.);
#220=ADVANCED_FACE('',(#26),#208,.T.);
#221=CLOSED_SHELL('',(#209,#210,#211,#212,#213,#214,#215,#216,#217,#218,
#219,#220));
#222=AXIS2_PLACEMENT_3D('placement',#289,#235,#236);
#223=AXIS2_PLACEMENT_3D('',#290,#237,#238);
#224=AXIS2_PLACEMENT_3D('',#299,#243,#244);
#225=AXIS2_PLACEMENT_3D('',#307,#249,#250);
#226=AXIS2_PLACEMENT_3D('',#319,#257,#258);
#227=AXIS2_PLACEMENT_3D('',#325,#262,#263);
#228=AXIS2_PLACEMENT_3D('',#331,#267,#268);
#229=AXIS2_PLACEMENT_3D('',#334,#271,#272);
#230=AXIS2_PLACEMENT_3D('',#336,#274,#275);
#231=AXIS2_PLACEMENT_3D('',#342,#279,#280);
#232=AXIS2_PLACEMENT_3D('',#344,#282,#283);
#233=AXIS2_PLACEMENT_3D('',#346,#285,#286);
#234=AXIS2_PLACEMENT_3D('',#347,#287,#288);
#235=DIRECTION('axis',(0.,0.,1.));
#236=DIRECTION('refdir',(1.,0.,0.));
#237=DIRECTION('center_axis',(0.707106781186548,0.707106781186548,0.));
#238=DIRECTION('ref_axis',(0.,0.,-1.));
#239=DIRECTION('',(0.707106781186548,-0.707106781186548,0.));
#240=DIRECTION('',(0.,0.,-1.));
#241=DIRECTION('',(-0.707106781186548,0.707106781186548,9.19078512400258E-17));
#242=DIRECTION('',(0.,0.,1.));
#243=DIRECTION('center_axis',(0.,0.,1.));
#244=DIRECTION('ref_axis',(1.,0.,0.));
#245=DIRECTION('',(1.,0.,-1.29977329712213E-16));
#246=DIRECTION('',(0.,1.,0.));
#247=DIRECTION('',(-1.,0.,0.));
#248=DIRECTION('',(0.,1.,0.));
#249=DIRECTION('center_axis',(0.,1.,0.));
#250=DIRECTION('ref_axis',(0.,0.,1.));
#251=DIRECTION('',(-1.,0.,1.29977329712213E-16));
#252=DIRECTION('',(0.,0.,-1.));
#253=DIRECTION('',(1.,0.,-8.66515531414756E-17));
#254=DIRECTION('',(0.,0.,1.));
#255=DIRECTION('',(-1.,0.,-8.66515531414756E-17));
#256=DIRECTION('',(0.,0.,1.));
#257=DIRECTION('center_axis',(0.707106781186548,0.707106781186548,0.));
#258=DIRECTION('ref_axis',(0.,0.,-1.));
#259=DIRECTION('',(-0.707106781186548,0.707106781186548,0.));
#260=DIRECTION('',(0.707106781186548,-0.707106781186548,-6.12719008266839E-17));
#261=DIRECTION('',(0.,0.,-1.));
#262=DIRECTION('center_axis',(0.,0.,-1.));
#263=DIRECTION('ref_axis',(-1.,0.,0.));
#264=DIRECTION('',(0.,-1.,0.));
#265=DIRECTION('',(1.,0.,0.));
#266=DIRECTION('',(0.,1.,0.));
#267=DIRECTION('center_axis',(-1.,0.,0.));
#268=DIRECTION('ref_axis',(0.,0.,1.));
#269=DIRECTION('',(0.,0.,1.));
#270=DIRECTION('',(0.,0.,-1.));
#271=DIRECTION('center_axis',(0.,1.,0.));
#272=DIRECTION('ref_axis',(0.,0.,1.));
#273=DIRECTION('',(2.368475785867E-16,0.,-1.));
#274=DIRECTION('center_axis',(1.,0.,0.));
#275=DIRECTION('ref_axis',(0.,0.,-1.));
#276=DIRECTION('',(0.,1.,0.));
#277=DIRECTION('',(0.,0.,1.));
#278=DIRECTION('',(0.,-1.,0.));
#279=DIRECTION('center_axis',(8.66515531414756E-17,0.,1.));
#280=DIRECTION('ref_axis',(1.,0.,0.));
#281=DIRECTION('',(-1.,0.,8.66515531414756E-17));
#282=DIRECTION('center_axis',(-1.29977329712213E-16,0.,-1.));
#283=DIRECTION('ref_axis',(-1.,0.,1.77635683940025E-16));
#284=DIRECTION('',(1.,0.,-1.29977329712213E-16));
#285=DIRECTION('center_axis',(0.,1.,0.));
#286=DIRECTION('ref_axis',(0.,0.,1.));
#287=DIRECTION('center_axis',(-1.,0.,-2.368475785867E-16));
#288=DIRECTION('ref_axis',(0.,0.,1.));
#289=CARTESIAN_POINT('',(0.,0.,0.));
#290=CARTESIAN_POINT('Origin',(-85.,85.,-225.));
#291=CARTESIAN_POINT('',(-160.,160.,2.07963727539542E-14));
#292=CARTESIAN_POINT('',(-10.,10.,0.));
#293=CARTESIAN_POINT('',(-145.,145.,0.));
#294=CARTESIAN_POINT('',(-10.,10.,-9.99999999999999));
#295=CARTESIAN_POINT('',(-10.,10.,-225.));
#296=CARTESIAN_POINT('',(-160.,160.,-9.99999999999998));
#297=CARTESIAN_POINT('',(-45.,45.,-10.));
#298=CARTESIAN_POINT('',(-160.,160.,-225.));
#299=CARTESIAN_POINT('Origin',(-410.,0.,0.));
#300=CARTESIAN_POINT('',(-410.,160.,5.32907051820075E-14));
#301=CARTESIAN_POINT('',(-410.,160.,5.32907051820075E-14));
#302=CARTESIAN_POINT('',(-410.,0.,0.));
#303=CARTESIAN_POINT('',(-410.,0.,0.));
#304=CARTESIAN_POINT('',(-10.,0.,0.));
#305=CARTESIAN_POINT('',(0.,0.,0.));
#306=CARTESIAN_POINT('',(-10.,0.,0.));
#307=CARTESIAN_POINT('Origin',(-405.,160.,-150.));
#308=CARTESIAN_POINT('',(-400.,160.,-9.99999999999995));
#309=CARTESIAN_POINT('',(0.,160.,-10.));
#310=CARTESIAN_POINT('',(-400.,160.,-290.));
#311=CARTESIAN_POINT('',(-400.,160.,5.32907051820075E-14));
#312=CARTESIAN_POINT('',(-160.,160.,-290.));
#313=CARTESIAN_POINT('',(-410.,160.,-290.));
#314=CARTESIAN_POINT('',(-160.,160.,-300.));
#315=CARTESIAN_POINT('',(-160.,160.,-225.));
#316=CARTESIAN_POINT('',(-410.,160.,-300.));
#317=CARTESIAN_POINT('',(0.,160.,-300.));
#318=CARTESIAN_POINT('',(-410.,160.,-300.));
#319=CARTESIAN_POINT('Origin',(-85.,85.,-225.));
#320=CARTESIAN_POINT('',(-10.,10.,-300.));
#321=CARTESIAN_POINT('',(-42.5,42.5,-300.));
#322=CARTESIAN_POINT('',(-10.,10.,-290.));
#323=CARTESIAN_POINT('',(-147.5,147.5,-290.));
#324=CARTESIAN_POINT('',(-10.,10.,-225.));
#325=CARTESIAN_POINT('Origin',(0.,0.,-300.));
#326=CARTESIAN_POINT('',(-10.,0.,-300.));
#327=CARTESIAN_POINT('',(-10.,0.,-300.));
#328=CARTESIAN_POINT('',(-410.,0.,-300.));
#329=CARTESIAN_POINT('',(-410.,0.,-300.));
#330=CARTESIAN_POINT('',(-410.,0.,-300.));
#331=CARTESIAN_POINT('Origin',(-10.,0.,-300.));
#332=CARTESIAN_POINT('',(-10.,0.,-225.));
#333=CARTESIAN_POINT('',(-10.,10.,-225.));
#334=CARTESIAN_POINT('Origin',(-205.,0.,-150.));
#335=CARTESIAN_POINT('',(-410.,0.,0.));
#336=CARTESIAN_POINT('Origin',(-400.,10.,5.32907051820075E-14));
#337=CARTESIAN_POINT('',(-400.,10.,-9.99999999999995));
#338=CARTESIAN_POINT('',(-400.,10.,-9.99999999999995));
#339=CARTESIAN_POINT('',(-400.,10.,-290.));
#340=CARTESIAN_POINT('',(-400.,10.,-75.));
#341=CARTESIAN_POINT('',(-400.,10.,-290.));
#342=CARTESIAN_POINT('Origin',(-410.,10.,-290.));
#343=CARTESIAN_POINT('',(-307.5,10.,-290.));
#344=CARTESIAN_POINT('Origin',(0.,10.,-10.));
#345=CARTESIAN_POINT('',(-102.5,10.,-9.99999999999998));
#346=CARTESIAN_POINT('Origin',(-205.,10.,-150.));
#347=CARTESIAN_POINT('Origin',(-410.,0.,-300.));
#348=UNCERTAINTY_MEASURE_WITH_UNIT(LENGTH_MEASURE(0.01),#352,
'DISTANCE_ACCURACY_VALUE',
'Maximum model space distance between geometric entities at asserted c
onnectivities');
#349=UNCERTAINTY_MEASURE_WITH_UNIT(LENGTH_MEASURE(1.E-6),#352,
'DISTANCE_ACCURACY_VALUE',
'Maximum model space distance between geometric entities at asserted c
onnectivities');
#350=(
GEOMETRIC_REPRESENTATION_CONTEXT(3)
GLOBAL_UNCERTAINTY_ASSIGNED_CONTEXT((#348))
GLOBAL_UNIT_ASSIGNED_CONTEXT((#352,#355,#353))
REPRESENTATION_CONTEXT('','3D')
);
#351=(
GEOMETRIC_REPRESENTATION_CONTEXT(3)
GLOBAL_UNCERTAINTY_ASSIGNED_CONTEXT((#349))
GLOBAL_UNIT_ASSIGNED_CONTEXT((#352,#355,#353))
REPRESENTATION_CONTEXT('','3D')
);
#352=(
LENGTH_UNIT()
NAMED_UNIT(*)
SI_UNIT(.MILLI.,.METRE.)
);
#353=(
NAMED_UNIT(*)
SI_UNIT($,.STERADIAN.)
SOLID_ANGLE_UNIT()
);
#354=DIMENSIONAL_EXPONENTS(0.,0.,0.,0.,0.,0.,0.);
#355=(
CONVERSION_BASED_UNIT('degree',#357)
NAMED_UNIT(#354)
PLANE_ANGLE_UNIT()
);
#356=(
NAMED_UNIT(*)
PLANE_ANGLE_UNIT()
SI_UNIT($,.RADIAN.)
);
#357=PLANE_ANGLE_MEASURE_WITH_UNIT(PLANE_ANGLE_MEASURE(0.01745329252),#356);
#358=SHAPE_DEFINITION_REPRESENTATION(#359,#360);
#359=PRODUCT_DEFINITION_SHAPE('',$,#362);
#360=SHAPE_REPRESENTATION('',(#222),#350);
#361=PRODUCT_DEFINITION_CONTEXT('part definition',#366,'design');
#362=PRODUCT_DEFINITION('base','base',#363,#361);
#363=PRODUCT_DEFINITION_FORMATION('',$,#368);
#364=PRODUCT_RELATED_PRODUCT_CATEGORY('base','base',(#368));
#365=APPLICATION_PROTOCOL_DEFINITION('international standard',
'automotive_design',2009,#366);
#366=APPLICATION_CONTEXT(
'Core Data for Automotive Mechanical Design Process');
#367=PRODUCT_CONTEXT('part definition',#366,'mechanical');
#368=PRODUCT('base','base',$,(#367));
#369=PRESENTATION_STYLE_ASSIGNMENT((#370));
#370=SURFACE_STYLE_USAGE(.BOTH.,#371);
#371=SURFACE_SIDE_STYLE('',(#372));
#372=SURFACE_STYLE_FILL_AREA(#373);
#373=FILL_AREA_STYLE('',(#374));
#374=FILL_AREA_STYLE_COLOUR('',#375);
#375=COLOUR_RGB('',0.749019607843137,0.749019607843137,0.749019607843137);
ENDSEC;
END-ISO-10303-21;
