ISO-10303-21;
HEADER;
/* Generated by software containing ST-Developer
 * from STEP Tools, Inc. (www.steptools.com) 
 */

FILE_DESCRIPTION(
/* description */ (''),
/* implementation_level */ '2;1');

FILE_NAME(
/* name */ 'C:\\Users\\Admin\\Desktop\\3dparts\\central axis cover 1-4.
stp',
/* time_stamp */ '2017-03-31T17:54:55+02:00',
/* author */ ('Admin'),
/* organization */ (''),
/* preprocessor_version */ 'ST-DEVELOPER v16.1',
/* originating_system */ 'Autodesk Inventor 2016',
/* authorisation */ '');

FILE_SCHEMA (('AUTOMOTIVE_DESIGN { 1 0 10303 214 3 1 1 }'));
ENDSEC;

DATA;
#10=MECHANICAL_DESIGN_GEOMETRIC_PRESENTATION_REPRESENTATION('',(#13),#493);
#11=SHAPE_REPRESENTATION_RELATIONSHIP('SRR','None',#502,#12);
#12=ADVANCED_BREP_SHAPE_REPRESENTATION('',(#14),#492);
#13=STYLED_ITEM('',(#511),#14);
#14=MANIFOLD_SOLID_BREP('Solid1',#271);
#15=FACE_BOUND('',#43,.T.);
#16=FACE_BOUND('',#50,.T.);
#17=FACE_BOUND('',#52,.T.);
#18=PLANE('',#294);
#19=PLANE('',#313);
#20=FACE_OUTER_BOUND('',#35,.T.);
#21=FACE_OUTER_BOUND('',#36,.T.);
#22=FACE_OUTER_BOUND('',#37,.T.);
#23=FACE_OUTER_BOUND('',#38,.T.);
#24=FACE_OUTER_BOUND('',#39,.T.);
#25=FACE_OUTER_BOUND('',#40,.T.);
#26=FACE_OUTER_BOUND('',#41,.T.);
#27=FACE_OUTER_BOUND('',#42,.T.);
#28=FACE_OUTER_BOUND('',#44,.T.);
#29=FACE_OUTER_BOUND('',#45,.T.);
#30=FACE_OUTER_BOUND('',#46,.T.);
#31=FACE_OUTER_BOUND('',#47,.T.);
#32=FACE_OUTER_BOUND('',#48,.T.);
#33=FACE_OUTER_BOUND('',#49,.T.);
#34=FACE_OUTER_BOUND('',#51,.T.);
#35=EDGE_LOOP('',(#167,#168,#169,#170));
#36=EDGE_LOOP('',(#171,#172,#173,#174));
#37=EDGE_LOOP('',(#175,#176,#177,#178));
#38=EDGE_LOOP('',(#179,#180,#181,#182));
#39=EDGE_LOOP('',(#183,#184,#185,#186));
#40=EDGE_LOOP('',(#187,#188,#189,#190));
#41=EDGE_LOOP('',(#191,#192,#193,#194));
#42=EDGE_LOOP('',(#195));
#43=EDGE_LOOP('',(#196,#197,#198,#199,#200,#201,#202,#203,#204,#205,#206,
#207));
#44=EDGE_LOOP('',(#208,#209,#210,#211));
#45=EDGE_LOOP('',(#212,#213,#214,#215));
#46=EDGE_LOOP('',(#216,#217,#218,#219));
#47=EDGE_LOOP('',(#220,#221,#222,#223));
#48=EDGE_LOOP('',(#224,#225,#226,#227));
#49=EDGE_LOOP('',(#228));
#50=EDGE_LOOP('',(#229));
#51=EDGE_LOOP('',(#230));
#52=EDGE_LOOP('',(#231,#232,#233,#234,#235,#236,#237,#238,#239,#240,#241,
#242));
#53=CIRCLE('',#274,30.);
#54=CIRCLE('',#275,30.);
#55=CIRCLE('',#277,30.);
#56=CIRCLE('',#278,30.);
#57=CIRCLE('',#280,30.);
#58=CIRCLE('',#281,30.);
#59=CIRCLE('',#283,30.);
#60=CIRCLE('',#284,30.);
#61=CIRCLE('',#286,30.);
#62=CIRCLE('',#287,30.);
#63=CIRCLE('',#289,30.);
#64=CIRCLE('',#290,30.);
#65=CIRCLE('',#292,5.2);
#66=CIRCLE('',#293,5.2);
#67=CIRCLE('',#295,39.95);
#68=CIRCLE('',#296,5.2);
#69=CIRCLE('',#297,5.2);
#70=CIRCLE('',#298,5.2);
#71=CIRCLE('',#299,5.2);
#72=CIRCLE('',#300,5.2);
#73=CIRCLE('',#302,5.2);
#74=CIRCLE('',#304,5.2);
#75=CIRCLE('',#306,5.2);
#76=CIRCLE('',#308,5.2);
#77=CIRCLE('',#310,5.2);
#78=CIRCLE('',#312,39.95);
#79=LINE('',#414,#91);
#80=LINE('',#418,#92);
#81=LINE('',#423,#93);
#82=LINE('',#427,#94);
#83=LINE('',#432,#95);
#84=LINE('',#436,#96);
#85=LINE('',#441,#97);
#86=LINE('',#445,#98);
#87=LINE('',#450,#99);
#88=LINE('',#454,#100);
#89=LINE('',#459,#101);
#90=LINE('',#463,#102);
#91=VECTOR('',#318,150.);
#92=VECTOR('',#321,150.);
#93=VECTOR('',#326,150.);
#94=VECTOR('',#329,150.);
#95=VECTOR('',#334,150.);
#96=VECTOR('',#337,150.);
#97=VECTOR('',#342,150.);
#98=VECTOR('',#345,150.);
#99=VECTOR('',#350,150.);
#100=VECTOR('',#353,150.);
#101=VECTOR('',#358,150.);
#102=VECTOR('',#361,150.);
#103=VERTEX_POINT('',#412);
#104=VERTEX_POINT('',#413);
#105=VERTEX_POINT('',#415);
#106=VERTEX_POINT('',#417);
#107=VERTEX_POINT('',#421);
#108=VERTEX_POINT('',#422);
#109=VERTEX_POINT('',#424);
#110=VERTEX_POINT('',#426);
#111=VERTEX_POINT('',#430);
#112=VERTEX_POINT('',#431);
#113=VERTEX_POINT('',#433);
#114=VERTEX_POINT('',#435);
#115=VERTEX_POINT('',#439);
#116=VERTEX_POINT('',#440);
#117=VERTEX_POINT('',#442);
#118=VERTEX_POINT('',#444);
#119=VERTEX_POINT('',#448);
#120=VERTEX_POINT('',#449);
#121=VERTEX_POINT('',#451);
#122=VERTEX_POINT('',#453);
#123=VERTEX_POINT('',#457);
#124=VERTEX_POINT('',#458);
#125=VERTEX_POINT('',#460);
#126=VERTEX_POINT('',#462);
#127=VERTEX_POINT('',#469);
#128=VERTEX_POINT('',#487);
#129=EDGE_CURVE('',#103,#104,#79,.T.);
#130=EDGE_CURVE('',#105,#103,#53,.T.);
#131=EDGE_CURVE('',#106,#105,#80,.T.);
#132=EDGE_CURVE('',#104,#106,#54,.T.);
#133=EDGE_CURVE('',#107,#108,#81,.T.);
#134=EDGE_CURVE('',#109,#107,#55,.T.);
#135=EDGE_CURVE('',#110,#109,#82,.T.);
#136=EDGE_CURVE('',#108,#110,#56,.T.);
#137=EDGE_CURVE('',#111,#112,#83,.T.);
#138=EDGE_CURVE('',#113,#111,#57,.T.);
#139=EDGE_CURVE('',#114,#113,#84,.T.);
#140=EDGE_CURVE('',#112,#114,#58,.T.);
#141=EDGE_CURVE('',#115,#116,#85,.T.);
#142=EDGE_CURVE('',#117,#115,#59,.T.);
#143=EDGE_CURVE('',#118,#117,#86,.T.);
#144=EDGE_CURVE('',#116,#118,#60,.T.);
#145=EDGE_CURVE('',#119,#120,#87,.T.);
#146=EDGE_CURVE('',#121,#119,#61,.T.);
#147=EDGE_CURVE('',#122,#121,#88,.T.);
#148=EDGE_CURVE('',#120,#122,#62,.T.);
#149=EDGE_CURVE('',#123,#124,#89,.T.);
#150=EDGE_CURVE('',#125,#123,#63,.T.);
#151=EDGE_CURVE('',#126,#125,#90,.T.);
#152=EDGE_CURVE('',#124,#126,#64,.T.);
#153=EDGE_CURVE('',#119,#124,#65,.T.);
#154=EDGE_CURVE('',#123,#120,#66,.T.);
#155=EDGE_CURVE('',#127,#127,#67,.T.);
#156=EDGE_CURVE('',#126,#116,#68,.T.);
#157=EDGE_CURVE('',#118,#108,#69,.T.);
#158=EDGE_CURVE('',#110,#105,#70,.T.);
#159=EDGE_CURVE('',#103,#113,#71,.T.);
#160=EDGE_CURVE('',#111,#121,#72,.T.);
#161=EDGE_CURVE('',#122,#112,#73,.T.);
#162=EDGE_CURVE('',#115,#125,#74,.T.);
#163=EDGE_CURVE('',#107,#117,#75,.T.);
#164=EDGE_CURVE('',#114,#104,#76,.T.);
#165=EDGE_CURVE('',#106,#109,#77,.T.);
#166=EDGE_CURVE('',#128,#128,#78,.T.);
#167=ORIENTED_EDGE('',*,*,#129,.F.);
#168=ORIENTED_EDGE('',*,*,#130,.F.);
#169=ORIENTED_EDGE('',*,*,#131,.F.);
#170=ORIENTED_EDGE('',*,*,#132,.F.);
#171=ORIENTED_EDGE('',*,*,#133,.F.);
#172=ORIENTED_EDGE('',*,*,#134,.F.);
#173=ORIENTED_EDGE('',*,*,#135,.F.);
#174=ORIENTED_EDGE('',*,*,#136,.F.);
#175=ORIENTED_EDGE('',*,*,#137,.F.);
#176=ORIENTED_EDGE('',*,*,#138,.F.);
#177=ORIENTED_EDGE('',*,*,#139,.F.);
#178=ORIENTED_EDGE('',*,*,#140,.F.);
#179=ORIENTED_EDGE('',*,*,#141,.F.);
#180=ORIENTED_EDGE('',*,*,#142,.F.);
#181=ORIENTED_EDGE('',*,*,#143,.F.);
#182=ORIENTED_EDGE('',*,*,#144,.F.);
#183=ORIENTED_EDGE('',*,*,#145,.F.);
#184=ORIENTED_EDGE('',*,*,#146,.F.);
#185=ORIENTED_EDGE('',*,*,#147,.F.);
#186=ORIENTED_EDGE('',*,*,#148,.F.);
#187=ORIENTED_EDGE('',*,*,#149,.F.);
#188=ORIENTED_EDGE('',*,*,#150,.F.);
#189=ORIENTED_EDGE('',*,*,#151,.F.);
#190=ORIENTED_EDGE('',*,*,#152,.F.);
#191=ORIENTED_EDGE('',*,*,#149,.T.);
#192=ORIENTED_EDGE('',*,*,#153,.F.);
#193=ORIENTED_EDGE('',*,*,#145,.T.);
#194=ORIENTED_EDGE('',*,*,#154,.F.);
#195=ORIENTED_EDGE('',*,*,#155,.T.);
#196=ORIENTED_EDGE('',*,*,#152,.T.);
#197=ORIENTED_EDGE('',*,*,#156,.T.);
#198=ORIENTED_EDGE('',*,*,#144,.T.);
#199=ORIENTED_EDGE('',*,*,#157,.T.);
#200=ORIENTED_EDGE('',*,*,#136,.T.);
#201=ORIENTED_EDGE('',*,*,#158,.T.);
#202=ORIENTED_EDGE('',*,*,#130,.T.);
#203=ORIENTED_EDGE('',*,*,#159,.T.);
#204=ORIENTED_EDGE('',*,*,#138,.T.);
#205=ORIENTED_EDGE('',*,*,#160,.T.);
#206=ORIENTED_EDGE('',*,*,#146,.T.);
#207=ORIENTED_EDGE('',*,*,#153,.T.);
#208=ORIENTED_EDGE('',*,*,#147,.T.);
#209=ORIENTED_EDGE('',*,*,#160,.F.);
#210=ORIENTED_EDGE('',*,*,#137,.T.);
#211=ORIENTED_EDGE('',*,*,#161,.F.);
#212=ORIENTED_EDGE('',*,*,#151,.T.);
#213=ORIENTED_EDGE('',*,*,#162,.F.);
#214=ORIENTED_EDGE('',*,*,#141,.T.);
#215=ORIENTED_EDGE('',*,*,#156,.F.);
#216=ORIENTED_EDGE('',*,*,#143,.T.);
#217=ORIENTED_EDGE('',*,*,#163,.F.);
#218=ORIENTED_EDGE('',*,*,#133,.T.);
#219=ORIENTED_EDGE('',*,*,#157,.F.);
#220=ORIENTED_EDGE('',*,*,#139,.T.);
#221=ORIENTED_EDGE('',*,*,#159,.F.);
#222=ORIENTED_EDGE('',*,*,#129,.T.);
#223=ORIENTED_EDGE('',*,*,#164,.F.);
#224=ORIENTED_EDGE('',*,*,#135,.T.);
#225=ORIENTED_EDGE('',*,*,#165,.F.);
#226=ORIENTED_EDGE('',*,*,#131,.T.);
#227=ORIENTED_EDGE('',*,*,#158,.F.);
#228=ORIENTED_EDGE('',*,*,#155,.F.);
#229=ORIENTED_EDGE('',*,*,#166,.F.);
#230=ORIENTED_EDGE('',*,*,#166,.T.);
#231=ORIENTED_EDGE('',*,*,#150,.T.);
#232=ORIENTED_EDGE('',*,*,#154,.T.);
#233=ORIENTED_EDGE('',*,*,#148,.T.);
#234=ORIENTED_EDGE('',*,*,#161,.T.);
#235=ORIENTED_EDGE('',*,*,#140,.T.);
#236=ORIENTED_EDGE('',*,*,#164,.T.);
#237=ORIENTED_EDGE('',*,*,#132,.T.);
#238=ORIENTED_EDGE('',*,*,#165,.T.);
#239=ORIENTED_EDGE('',*,*,#134,.T.);
#240=ORIENTED_EDGE('',*,*,#163,.T.);
#241=ORIENTED_EDGE('',*,*,#142,.T.);
#242=ORIENTED_EDGE('',*,*,#162,.T.);
#243=CYLINDRICAL_SURFACE('',#273,30.);
#244=CYLINDRICAL_SURFACE('',#276,30.);
#245=CYLINDRICAL_SURFACE('',#279,30.);
#246=CYLINDRICAL_SURFACE('',#282,30.);
#247=CYLINDRICAL_SURFACE('',#285,30.);
#248=CYLINDRICAL_SURFACE('',#288,30.);
#249=CYLINDRICAL_SURFACE('',#291,5.2);
#250=CYLINDRICAL_SURFACE('',#301,5.2);
#251=CYLINDRICAL_SURFACE('',#303,5.2);
#252=CYLINDRICAL_SURFACE('',#305,5.2);
#253=CYLINDRICAL_SURFACE('',#307,5.2);
#254=CYLINDRICAL_SURFACE('',#309,5.2);
#255=CYLINDRICAL_SURFACE('',#311,39.95);
#256=ADVANCED_FACE('',(#20),#243,.F.);
#257=ADVANCED_FACE('',(#21),#244,.F.);
#258=ADVANCED_FACE('',(#22),#245,.F.);
#259=ADVANCED_FACE('',(#23),#246,.F.);
#260=ADVANCED_FACE('',(#24),#247,.F.);
#261=ADVANCED_FACE('',(#25),#248,.F.);
#262=ADVANCED_FACE('',(#26),#249,.F.);
#263=ADVANCED_FACE('',(#27,#15),#18,.T.);
#264=ADVANCED_FACE('',(#28),#250,.F.);
#265=ADVANCED_FACE('',(#29),#251,.F.);
#266=ADVANCED_FACE('',(#30),#252,.F.);
#267=ADVANCED_FACE('',(#31),#253,.F.);
#268=ADVANCED_FACE('',(#32),#254,.F.);
#269=ADVANCED_FACE('',(#33,#16),#255,.T.);
#270=ADVANCED_FACE('',(#34,#17),#19,.F.);
#271=CLOSED_SHELL('',(#256,#257,#258,#259,#260,#261,#262,#263,#264,#265,
#266,#267,#268,#269,#270));
#272=AXIS2_PLACEMENT_3D('placement',#410,#314,#315);
#273=AXIS2_PLACEMENT_3D('',#411,#316,#317);
#274=AXIS2_PLACEMENT_3D('',#416,#319,#320);
#275=AXIS2_PLACEMENT_3D('',#419,#322,#323);
#276=AXIS2_PLACEMENT_3D('',#420,#324,#325);
#277=AXIS2_PLACEMENT_3D('',#425,#327,#328);
#278=AXIS2_PLACEMENT_3D('',#428,#330,#331);
#279=AXIS2_PLACEMENT_3D('',#429,#332,#333);
#280=AXIS2_PLACEMENT_3D('',#434,#335,#336);
#281=AXIS2_PLACEMENT_3D('',#437,#338,#339);
#282=AXIS2_PLACEMENT_3D('',#438,#340,#341);
#283=AXIS2_PLACEMENT_3D('',#443,#343,#344);
#284=AXIS2_PLACEMENT_3D('',#446,#346,#347);
#285=AXIS2_PLACEMENT_3D('',#447,#348,#349);
#286=AXIS2_PLACEMENT_3D('',#452,#351,#352);
#287=AXIS2_PLACEMENT_3D('',#455,#354,#355);
#288=AXIS2_PLACEMENT_3D('',#456,#356,#357);
#289=AXIS2_PLACEMENT_3D('',#461,#359,#360);
#290=AXIS2_PLACEMENT_3D('',#464,#362,#363);
#291=AXIS2_PLACEMENT_3D('',#465,#364,#365);
#292=AXIS2_PLACEMENT_3D('',#466,#366,#367);
#293=AXIS2_PLACEMENT_3D('',#467,#368,#369);
#294=AXIS2_PLACEMENT_3D('',#468,#370,#371);
#295=AXIS2_PLACEMENT_3D('',#470,#372,#373);
#296=AXIS2_PLACEMENT_3D('',#471,#374,#375);
#297=AXIS2_PLACEMENT_3D('',#472,#376,#377);
#298=AXIS2_PLACEMENT_3D('',#473,#378,#379);
#299=AXIS2_PLACEMENT_3D('',#474,#380,#381);
#300=AXIS2_PLACEMENT_3D('',#475,#382,#383);
#301=AXIS2_PLACEMENT_3D('',#476,#384,#385);
#302=AXIS2_PLACEMENT_3D('',#477,#386,#387);
#303=AXIS2_PLACEMENT_3D('',#478,#388,#389);
#304=AXIS2_PLACEMENT_3D('',#479,#390,#391);
#305=AXIS2_PLACEMENT_3D('',#480,#392,#393);
#306=AXIS2_PLACEMENT_3D('',#481,#394,#395);
#307=AXIS2_PLACEMENT_3D('',#482,#396,#397);
#308=AXIS2_PLACEMENT_3D('',#483,#398,#399);
#309=AXIS2_PLACEMENT_3D('',#484,#400,#401);
#310=AXIS2_PLACEMENT_3D('',#485,#402,#403);
#311=AXIS2_PLACEMENT_3D('',#486,#404,#405);
#312=AXIS2_PLACEMENT_3D('',#488,#406,#407);
#313=AXIS2_PLACEMENT_3D('',#489,#408,#409);
#314=DIRECTION('axis',(0.,0.,1.));
#315=DIRECTION('refdir',(1.,0.,0.));
#316=DIRECTION('center_axis',(0.,1.,0.));
#317=DIRECTION('ref_axis',(1.,0.,0.));
#318=DIRECTION('',(0.,-1.,0.));
#319=DIRECTION('center_axis',(0.,-1.,0.));
#320=DIRECTION('ref_axis',(1.,0.,0.));
#321=DIRECTION('',(0.,1.,0.));
#322=DIRECTION('center_axis',(0.,1.,0.));
#323=DIRECTION('ref_axis',(1.,0.,0.));
#324=DIRECTION('center_axis',(0.,1.,0.));
#325=DIRECTION('ref_axis',(1.,0.,0.));
#326=DIRECTION('',(0.,1.,0.));
#327=DIRECTION('center_axis',(0.,1.,0.));
#328=DIRECTION('ref_axis',(1.,0.,0.));
#329=DIRECTION('',(0.,-1.,0.));
#330=DIRECTION('center_axis',(0.,-1.,0.));
#331=DIRECTION('ref_axis',(1.,0.,0.));
#332=DIRECTION('center_axis',(0.,1.,0.));
#333=DIRECTION('ref_axis',(1.,0.,0.));
#334=DIRECTION('',(0.,-1.,0.));
#335=DIRECTION('center_axis',(0.,-1.,0.));
#336=DIRECTION('ref_axis',(1.,0.,0.));
#337=DIRECTION('',(0.,1.,0.));
#338=DIRECTION('center_axis',(0.,1.,0.));
#339=DIRECTION('ref_axis',(1.,0.,0.));
#340=DIRECTION('center_axis',(0.,1.,0.));
#341=DIRECTION('ref_axis',(1.,0.,0.));
#342=DIRECTION('',(0.,1.,0.));
#343=DIRECTION('center_axis',(0.,1.,0.));
#344=DIRECTION('ref_axis',(1.,0.,0.));
#345=DIRECTION('',(0.,-1.,0.));
#346=DIRECTION('center_axis',(0.,-1.,0.));
#347=DIRECTION('ref_axis',(1.,0.,0.));
#348=DIRECTION('center_axis',(0.,1.,0.));
#349=DIRECTION('ref_axis',(1.,0.,0.));
#350=DIRECTION('',(0.,-1.,0.));
#351=DIRECTION('center_axis',(0.,-1.,0.));
#352=DIRECTION('ref_axis',(1.,0.,0.));
#353=DIRECTION('',(0.,1.,0.));
#354=DIRECTION('center_axis',(0.,1.,0.));
#355=DIRECTION('ref_axis',(1.,0.,0.));
#356=DIRECTION('center_axis',(0.,1.,0.));
#357=DIRECTION('ref_axis',(1.,0.,0.));
#358=DIRECTION('',(0.,1.,0.));
#359=DIRECTION('center_axis',(0.,1.,0.));
#360=DIRECTION('ref_axis',(1.,0.,0.));
#361=DIRECTION('',(0.,-1.,0.));
#362=DIRECTION('center_axis',(0.,-1.,0.));
#363=DIRECTION('ref_axis',(1.,0.,0.));
#364=DIRECTION('center_axis',(0.,1.,0.));
#365=DIRECTION('ref_axis',(1.,0.,0.));
#366=DIRECTION('center_axis',(0.,-1.,0.));
#367=DIRECTION('ref_axis',(1.,0.,0.));
#368=DIRECTION('center_axis',(0.,1.,0.));
#369=DIRECTION('ref_axis',(1.,0.,0.));
#370=DIRECTION('center_axis',(0.,1.,0.));
#371=DIRECTION('ref_axis',(0.,0.,1.));
#372=DIRECTION('center_axis',(0.,1.,0.));
#373=DIRECTION('ref_axis',(1.,0.,0.));
#374=DIRECTION('center_axis',(0.,-1.,0.));
#375=DIRECTION('ref_axis',(1.,0.,0.));
#376=DIRECTION('center_axis',(0.,-1.,0.));
#377=DIRECTION('ref_axis',(1.,0.,0.));
#378=DIRECTION('center_axis',(0.,-1.,0.));
#379=DIRECTION('ref_axis',(1.,0.,0.));
#380=DIRECTION('center_axis',(0.,-1.,0.));
#381=DIRECTION('ref_axis',(1.,0.,0.));
#382=DIRECTION('center_axis',(0.,-1.,0.));
#383=DIRECTION('ref_axis',(1.,0.,0.));
#384=DIRECTION('center_axis',(0.,1.,0.));
#385=DIRECTION('ref_axis',(1.,0.,0.));
#386=DIRECTION('center_axis',(0.,1.,0.));
#387=DIRECTION('ref_axis',(1.,0.,0.));
#388=DIRECTION('center_axis',(0.,1.,0.));
#389=DIRECTION('ref_axis',(1.,0.,0.));
#390=DIRECTION('center_axis',(0.,1.,0.));
#391=DIRECTION('ref_axis',(1.,0.,0.));
#392=DIRECTION('center_axis',(0.,1.,0.));
#393=DIRECTION('ref_axis',(1.,0.,0.));
#394=DIRECTION('center_axis',(0.,1.,0.));
#395=DIRECTION('ref_axis',(1.,0.,0.));
#396=DIRECTION('center_axis',(0.,1.,0.));
#397=DIRECTION('ref_axis',(1.,0.,0.));
#398=DIRECTION('center_axis',(0.,1.,0.));
#399=DIRECTION('ref_axis',(1.,0.,0.));
#400=DIRECTION('center_axis',(0.,1.,0.));
#401=DIRECTION('ref_axis',(1.,0.,0.));
#402=DIRECTION('center_axis',(0.,1.,0.));
#403=DIRECTION('ref_axis',(1.,0.,0.));
#404=DIRECTION('center_axis',(0.,1.,0.));
#405=DIRECTION('ref_axis',(1.,0.,0.));
#406=DIRECTION('center_axis',(0.,-1.,0.));
#407=DIRECTION('ref_axis',(1.,0.,0.));
#408=DIRECTION('center_axis',(0.,1.,0.));
#409=DIRECTION('ref_axis',(0.,0.,1.));
#410=CARTESIAN_POINT('',(0.,0.,0.));
#411=CARTESIAN_POINT('Origin',(0.,0.,0.));
#412=CARTESIAN_POINT('',(22.9793788982829,150.,-19.2859572085274));
#413=CARTESIAN_POINT('',(22.9793788982829,0.,-19.2859572085274));
#414=CARTESIAN_POINT('',(22.9793788982829,0.,-19.2859572085274));
#415=CARTESIAN_POINT('',(5.02336456839104,150.,-29.576440090265));
#416=CARTESIAN_POINT('Origin',(0.,150.,0.));
#417=CARTESIAN_POINT('',(5.02336456839104,0.,-29.576440090265));
#418=CARTESIAN_POINT('',(5.02336456839104,0.,-29.576440090265));
#419=CARTESIAN_POINT('Origin',(0.,0.,0.));
#420=CARTESIAN_POINT('Origin',(0.,0.,0.));
#421=CARTESIAN_POINT('',(-23.1022661874825,0.,-19.1385813738298));
#422=CARTESIAN_POINT('',(-23.1022661874825,150.,-19.1385813738298));
#423=CARTESIAN_POINT('',(-23.1022661874825,0.,-19.1385813738298));
#424=CARTESIAN_POINT('',(-5.21243942974289,0.,-29.5437044933648));
#425=CARTESIAN_POINT('Origin',(0.,0.,0.));
#426=CARTESIAN_POINT('',(-5.21243942974289,150.,-29.5437044933648));
#427=CARTESIAN_POINT('',(-5.21243942974289,0.,-29.5437044933648));
#428=CARTESIAN_POINT('Origin',(0.,150.,0.));
#429=CARTESIAN_POINT('Origin',(0.,0.,0.));
#430=CARTESIAN_POINT('',(28.1918183280258,150.,10.2577472848374));
#431=CARTESIAN_POINT('',(28.1918183280258,0.,10.2577472848374));
#432=CARTESIAN_POINT('',(28.1918183280258,0.,10.2577472848374));
#433=CARTESIAN_POINT('',(28.1256307558735,150.,-10.4378587164352));
#434=CARTESIAN_POINT('Origin',(0.,150.,0.));
#435=CARTESIAN_POINT('',(28.1256307558735,0.,-10.4378587164352));
#436=CARTESIAN_POINT('',(28.1256307558735,0.,-10.4378587164352));
#437=CARTESIAN_POINT('Origin',(0.,0.,0.));
#438=CARTESIAN_POINT('Origin',(0.,0.,0.));
#439=CARTESIAN_POINT('',(-28.1256307558735,0.,10.4378587164352));
#440=CARTESIAN_POINT('',(-28.1256307558735,150.,10.4378587164352));
#441=CARTESIAN_POINT('',(-28.1256307558735,0.,10.4378587164352));
#442=CARTESIAN_POINT('',(-28.1918183280258,0.,-10.2577472848374));
#443=CARTESIAN_POINT('Origin',(0.,0.,0.));
#444=CARTESIAN_POINT('',(-28.1918183280258,150.,-10.2577472848374));
#445=CARTESIAN_POINT('',(-28.1918183280258,0.,-10.2577472848374));
#446=CARTESIAN_POINT('Origin',(0.,150.,0.));
#447=CARTESIAN_POINT('Origin',(0.,0.,0.));
#448=CARTESIAN_POINT('',(5.2124394297429,150.,29.5437044933648));
#449=CARTESIAN_POINT('',(5.2124394297429,0.,29.5437044933648));
#450=CARTESIAN_POINT('',(5.2124394297429,0.,29.5437044933648));
#451=CARTESIAN_POINT('',(23.1022661874825,150.,19.1385813738298));
#452=CARTESIAN_POINT('Origin',(0.,150.,0.));
#453=CARTESIAN_POINT('',(23.1022661874825,0.,19.1385813738298));
#454=CARTESIAN_POINT('',(23.1022661874825,0.,19.1385813738298));
#455=CARTESIAN_POINT('Origin',(0.,0.,0.));
#456=CARTESIAN_POINT('Origin',(0.,0.,0.));
#457=CARTESIAN_POINT('',(-5.02336456839103,0.,29.576440090265));
#458=CARTESIAN_POINT('',(-5.02336456839103,150.,29.576440090265));
#459=CARTESIAN_POINT('',(-5.02336456839103,0.,29.576440090265));
#460=CARTESIAN_POINT('',(-22.9793788982829,0.,19.2859572085274));
#461=CARTESIAN_POINT('Origin',(0.,0.,0.));
#462=CARTESIAN_POINT('',(-22.9793788982829,150.,19.2859572085274));
#463=CARTESIAN_POINT('',(-22.9793788982829,0.,19.2859572085274));
#464=CARTESIAN_POINT('Origin',(0.,150.,0.));
#465=CARTESIAN_POINT('Origin',(0.0915944366213901,0.,28.6398535341782));
#466=CARTESIAN_POINT('Origin',(0.0915944366213901,150.,28.6398535341782));
#467=CARTESIAN_POINT('Origin',(0.0915944366213901,0.,28.6398535341782));
#468=CARTESIAN_POINT('Origin',(1.88985538395018E-15,150.,7.41075026867021E-16));
#469=CARTESIAN_POINT('',(-39.95,150.,4.89246396259368E-15));
#470=CARTESIAN_POINT('Origin',(0.,150.,0.));
#471=CARTESIAN_POINT('Origin',(-24.7570435029532,150.,14.3992498760486));
#472=CARTESIAN_POINT('Origin',(-24.8486379395745,150.,-14.2406036581297));
#473=CARTESIAN_POINT('Origin',(-0.0915944366213787,150.,-28.6398535341782));
#474=CARTESIAN_POINT('Origin',(24.7570435029532,150.,-14.3992498760485));
#475=CARTESIAN_POINT('Origin',(24.8486379395746,150.,14.2406036581297));
#476=CARTESIAN_POINT('Origin',(24.8486379395746,0.,14.2406036581297));
#477=CARTESIAN_POINT('Origin',(24.8486379395746,0.,14.2406036581297));
#478=CARTESIAN_POINT('Origin',(-24.7570435029532,0.,14.3992498760486));
#479=CARTESIAN_POINT('Origin',(-24.7570435029532,0.,14.3992498760486));
#480=CARTESIAN_POINT('Origin',(-24.8486379395745,0.,-14.2406036581297));
#481=CARTESIAN_POINT('Origin',(-24.8486379395745,0.,-14.2406036581297));
#482=CARTESIAN_POINT('Origin',(24.7570435029532,0.,-14.3992498760485));
#483=CARTESIAN_POINT('Origin',(24.7570435029532,0.,-14.3992498760485));
#484=CARTESIAN_POINT('Origin',(-0.0915944366213787,0.,-28.6398535341782));
#485=CARTESIAN_POINT('Origin',(-0.0915944366213787,0.,-28.6398535341782));
#486=CARTESIAN_POINT('Origin',(0.,0.,0.));
#487=CARTESIAN_POINT('',(-39.95,0.,4.89246396259368E-15));
#488=CARTESIAN_POINT('Origin',(0.,0.,0.));
#489=CARTESIAN_POINT('Origin',(1.88985538395018E-15,0.,7.41075026867021E-16));
#490=UNCERTAINTY_MEASURE_WITH_UNIT(LENGTH_MEASURE(0.01),#494,
'DISTANCE_ACCURACY_VALUE',
'Maximum model space distance between geometric entities at asserted c
onnectivities');
#491=UNCERTAINTY_MEASURE_WITH_UNIT(LENGTH_MEASURE(1.E-6),#494,
'DISTANCE_ACCURACY_VALUE',
'Maximum model space distance between geometric entities at asserted c
onnectivities');
#492=(
GEOMETRIC_REPRESENTATION_CONTEXT(3)
GLOBAL_UNCERTAINTY_ASSIGNED_CONTEXT((#490))
GLOBAL_UNIT_ASSIGNED_CONTEXT((#494,#497,#495))
REPRESENTATION_CONTEXT('','3D')
);
#493=(
GEOMETRIC_REPRESENTATION_CONTEXT(3)
GLOBAL_UNCERTAINTY_ASSIGNED_CONTEXT((#491))
GLOBAL_UNIT_ASSIGNED_CONTEXT((#494,#497,#495))
REPRESENTATION_CONTEXT('','3D')
);
#494=(
LENGTH_UNIT()
NAMED_UNIT(*)
SI_UNIT(.MILLI.,.METRE.)
);
#495=(
NAMED_UNIT(*)
SI_UNIT($,.STERADIAN.)
SOLID_ANGLE_UNIT()
);
#496=DIMENSIONAL_EXPONENTS(0.,0.,0.,0.,0.,0.,0.);
#497=(
CONVERSION_BASED_UNIT('degree',#499)
NAMED_UNIT(#496)
PLANE_ANGLE_UNIT()
);
#498=(
NAMED_UNIT(*)
PLANE_ANGLE_UNIT()
SI_UNIT($,.RADIAN.)
);
#499=PLANE_ANGLE_MEASURE_WITH_UNIT(PLANE_ANGLE_MEASURE(0.01745329252),#498);
#500=SHAPE_DEFINITION_REPRESENTATION(#501,#502);
#501=PRODUCT_DEFINITION_SHAPE('',$,#504);
#502=SHAPE_REPRESENTATION('',(#272),#492);
#503=PRODUCT_DEFINITION_CONTEXT('part definition',#508,'design');
#504=PRODUCT_DEFINITION('segmentos eje central','segmentos eje central',
#505,#503);
#505=PRODUCT_DEFINITION_FORMATION('',$,#510);
#506=PRODUCT_RELATED_PRODUCT_CATEGORY('segmentos eje central',
'segmentos eje central',(#510));
#507=APPLICATION_PROTOCOL_DEFINITION('international standard',
'automotive_design',2009,#508);
#508=APPLICATION_CONTEXT(
'Core Data for Automotive Mechanical Design Process');
#509=PRODUCT_CONTEXT('part definition',#508,'mechanical');
#510=PRODUCT('segmentos eje central','segmentos eje central',$,(#509));
#511=PRESENTATION_STYLE_ASSIGNMENT((#512));
#512=SURFACE_STYLE_USAGE(.BOTH.,#513);
#513=SURFACE_SIDE_STYLE('',(#514));
#514=SURFACE_STYLE_FILL_AREA(#515);
#515=FILL_AREA_STYLE('',(#516));
#516=FILL_AREA_STYLE_COLOUR('',#517);
#517=COLOUR_RGB('',0.749019607843137,0.749019607843137,0.749019607843137);
ENDSEC;
END-ISO-10303-21;
