ISO-10303-21;
HEADER;
FILE_DESCRIPTION (( 'STEP AP214' ),
    '1' );
FILE_NAME ('jaw_blocker.STEP',
    '2025-12-26T11:06:05',
    ( '' ),
    ( '' ),
    'SwSTEP 2.0',
    'SolidWorks 2020',
    '' );
FILE_SCHEMA (( 'AUTOMOTIVE_DESIGN' ));
ENDSEC;

DATA;
#1 = CARTESIAN_POINT ( 'NONE',  ( 47.70314767112375165, 24.48982777932886634, 3.200000000000000178 ) ) ;
#2 = DIRECTION ( 'NONE',  ( -0.000000000000000000, 0.000000000000000000, 1.000000000000000000 ) ) ;
#3 = LINE ( 'NONE', #67, #29 ) ;
#4 = PRESENTATION_LAYER_ASSIGNMENT (  '', '', ( #56 ) ) ;
#5 = ORIENTED_EDGE ( 'NONE', *, *, #395, .T. ) ;
#6 = CARTESIAN_POINT ( 'NONE',  ( 51.20314767112374454, 22.93982777932887274, 3.200000000000000178 ) ) ;
#7 = VERTEX_POINT ( 'NONE', #108 ) ;
#8 = DIRECTION ( 'NONE',  ( -0.000000000000000000, 0.000000000000000000, 1.000000000000000000 ) ) ;
#9 = PRODUCT_DEFINITION ( 'UNKNOWN', '', #246, #232 ) ;
#10 = ORIENTED_EDGE ( 'NONE', *, *, #229, .F. ) ;
#11 = DIRECTION ( 'NONE',  ( 1.000000000000000000, 0.000000000000000000, 0.000000000000000000 ) ) ;
#12 = AXIS2_PLACEMENT_3D ( 'NONE', #137, #134, #320 ) ;
#13 = VERTEX_POINT ( 'NONE', #82 ) ;
#14 = DIRECTION ( 'NONE',  ( 0.000000000000000000, -1.000000000000000000, 0.000000000000000000 ) ) ;
#15 = ORIENTED_EDGE ( 'NONE', *, *, #178, .T. ) ;
#16 = EDGE_CURVE ( 'NONE', #7, #13, #265, .T. ) ;
#17 = APPLICATION_PROTOCOL_DEFINITION ( 'draft international standard', 'automotive_design', 1998, #351 ) ;
#18 = VERTEX_POINT ( 'NONE', #74 ) ;
#19 =( NAMED_UNIT ( * ) PLANE_ANGLE_UNIT ( ) SI_UNIT ( $, .RADIAN. ) );
#20 = VERTEX_POINT ( 'NONE', #203 ) ;
#21 = STYLED_ITEM ( 'NONE', ( #238 ), #390 ) ;
#22 =( NAMED_UNIT ( * ) SI_UNIT ( $, .STERADIAN. ) SOLID_ANGLE_UNIT ( ) );
#23 = ORIENTED_EDGE ( 'NONE', *, *, #330, .T. ) ;
#24 = LINE ( 'NONE', #392, #389 ) ;
#25 = ADVANCED_FACE ( 'NONE', ( #49 ), #388, .F. ) ;
#26 = FACE_OUTER_BOUND ( 'NONE', #315, .T. ) ;
#27 =( LENGTH_UNIT ( ) NAMED_UNIT ( * ) SI_UNIT ( .MILLI., .METRE. ) );
#28 = AXIS2_PLACEMENT_3D ( 'NONE', #262, #51, #172 ) ;
#29 = VECTOR ( 'NONE', #352, 1000.000000000000000 ) ;
#30 = DIRECTION ( 'NONE',  ( 1.000000000000000000, 0.000000000000000000, 0.000000000000000000 ) ) ;
#31 = EDGE_CURVE ( 'NONE', #169, #18, #297, .T. ) ;
#32 = ORIENTED_EDGE ( 'NONE', *, *, #229, .T. ) ;
#33 = DIRECTION ( 'NONE',  ( -1.734723475976808475E-15, 1.000000000000000000, 0.000000000000000000 ) ) ;
#34 = EDGE_CURVE ( 'NONE', #20, #328, #142, .T. ) ;
#35 = DIRECTION ( 'NONE',  ( -0.000000000000000000, 0.000000000000000000, 1.000000000000000000 ) ) ;
#36 = ORIENTED_EDGE ( 'NONE', *, *, #84, .T. ) ;
#37 =( GEOMETRIC_REPRESENTATION_CONTEXT ( 3 ) GLOBAL_UNCERTAINTY_ASSIGNED_CONTEXT ( ( #226 ) ) GLOBAL_UNIT_ASSIGNED_CONTEXT ( ( #123, #146, #209 ) ) REPRESENTATION_CONTEXT ( 'NONE', 'WORKASPACE' ) );
#38 = DIRECTION ( 'NONE',  ( -0.000000000000000000, -0.000000000000000000, -1.000000000000000000 ) ) ;
#39 = ORIENTED_EDGE ( 'NONE', *, *, #279, .T. ) ;
#40 = EDGE_CURVE ( 'NONE', #163, #301, #261, .T. ) ;
#41 = CARTESIAN_POINT ( 'NONE',  ( 37.20314767112377297, 11.46991388966449676, -8.269913889664403328 ) ) ;
#42 = ORIENTED_EDGE ( 'NONE', *, *, #395, .F. ) ;
#43 = CARTESIAN_POINT ( 'NONE',  ( 39.10314767112374312, 24.48982777932886989, 3.200000000000000178 ) ) ;
#44 = ORIENTED_EDGE ( 'NONE', *, *, #314, .T. ) ;
#45 = CARTESIAN_POINT ( 'NONE',  ( 46.10314767112375023, 24.48982777932886634, 3.200000000000000178 ) ) ;
#46 = AXIS2_PLACEMENT_3D ( 'NONE', #186, #35, #30 ) ;
#47 = AXIS2_PLACEMENT_3D ( 'NONE', #218, #8, #252 ) ;
#48 = ORIENTED_EDGE ( 'NONE', *, *, #292, .F. ) ;
#49 = FACE_OUTER_BOUND ( 'NONE', #376, .T. ) ;
#50 = DIRECTION ( 'NONE',  ( 1.000000000000000000, 0.000000000000000000, 0.000000000000000000 ) ) ;
#51 = DIRECTION ( 'NONE',  ( -0.000000000000000000, -0.000000000000000000, -1.000000000000000000 ) ) ;
#52 = AXIS2_PLACEMENT_3D ( 'NONE', #287, #164, #227 ) ;
#53 = ADVANCED_FACE ( 'NONE', ( #165 ), #83, .T. ) ;
#54 = LINE ( 'NONE', #302, #133 ) ;
#55 = CARTESIAN_POINT ( 'NONE',  ( 51.20314767112374454, 22.93982777932887274, 3.200000000000000178 ) ) ;
#56 = STYLED_ITEM ( 'NONE', ( #179 ), #60 ) ;
#57 = CIRCLE ( 'NONE', #12, 1.599999999999997202 ) ;
#58 = DIRECTION ( 'NONE',  ( 1.000000000000000000, 0.000000000000000000, 0.000000000000000000 ) ) ;
#59 = ORIENTED_EDGE ( 'NONE', *, *, #156, .T. ) ;
#60 = MANIFOLD_SOLID_BREP ( 'Chamfer1', #204 ) ;
#61 = EDGE_CURVE ( 'NONE', #68, #213, #305, .T. ) ;
#62 = LINE ( 'NONE', #188, #380 ) ;
#63 = ORIENTED_EDGE ( 'NONE', *, *, #330, .F. ) ;
#64 = DIRECTION ( 'NONE',  ( 1.000000000000000000, 0.000000000000000000, 0.000000000000000000 ) ) ;
#65 = VERTEX_POINT ( 'NONE', #306 ) ;
#66 =( BOUNDED_CURVE ( )  B_SPLINE_CURVE ( 3, ( #230, #348, #375, #99 ),
 .UNSPECIFIED., .F., .F. ) 
 B_SPLINE_CURVE_WITH_KNOTS ( ( 4, 4 ),
 ( 6.032529644843448224, 6.533840969515724240 ),
 .UNSPECIFIED. ) 
 CURVE ( )  GEOMETRIC_REPRESENTATION_ITEM ( )  RATIONAL_B_SPLINE_CURVE ( ( 1.000000000000000000, 0.9791666666666654084, 0.9791666666666654084, 1.000000000000000000 ) ) 
 REPRESENTATION_ITEM ( '' )  );
#67 = CARTESIAN_POINT ( 'NONE',  ( 51.20314767112374454, 11.46991388966446657, -8.269913889664437079 ) ) ;
#68 = VERTEX_POINT ( 'NONE', #87 ) ;
#69 = AXIS2_PLACEMENT_3D ( 'NONE', #331, #362, #280 ) ;
#70 = CARTESIAN_POINT ( 'NONE',  ( 47.30628497446404879, 22.93982777932887274, 3.200000000000000178 ) ) ;
#71 = VECTOR ( 'NONE', #127, 1000.000000000000000 ) ;
#72 = ORIENTED_EDGE ( 'NONE', *, *, #308, .F. ) ;
#73 = PLANE ( 'NONE',  #309 ) ;
#74 = CARTESIAN_POINT ( 'NONE',  ( 37.20314767112373744, 33.23982777932886279, 0.000000000000000000 ) ) ;
#75 = CARTESIAN_POINT ( 'NONE',  ( 46.10314767112375023, 24.48982777932886634, 3.200000000000000178 ) ) ;
#76 = CARTESIAN_POINT ( 'NONE',  ( -0.000000000000000000, 19.73982777932886634, 0.000000000000000000 ) ) ;
#77 = DIRECTION ( 'NONE',  ( -0.000000000000000000, -0.000000000000000000, -1.000000000000000000 ) ) ;
#78 = EDGE_CURVE ( 'NONE', #225, #184, #151, .T. ) ;
#79 = AXIS2_PLACEMENT_3D ( 'NONE', #175, #385, #383 ) ;
#80 = ORIENTED_EDGE ( 'NONE', *, *, #371, .F. ) ;
#81 = SURFACE_STYLE_USAGE ( .BOTH. , #112 ) ;
#82 = CARTESIAN_POINT ( 'NONE',  ( 51.20314767112374454, 19.73982777932886634, 0.000000000000000000 ) ) ;
#83 = PLANE ( 'NONE',  #79 ) ;
#84 = EDGE_CURVE ( 'NONE', #370, #163, #298, .T. ) ;
#85 = CARTESIAN_POINT ( 'NONE',  ( 40.56804547651618975, 22.87280650273312688, 3.132978723404257426 ) ) ;
#86 = VECTOR ( 'NONE', #195, 1000.000000000000000 ) ;
#87 = CARTESIAN_POINT ( 'NONE',  ( 46.10314767112375023, 24.48982777932886634, 0.000000000000000000 ) ) ;
#88 = VECTOR ( 'NONE', #38, 1000.000000000000000 ) ;
#89 = DIRECTION ( 'NONE',  ( 1.000000000000000000, 0.000000000000000000, 0.000000000000000000 ) ) ;
#90 = CYLINDRICAL_SURFACE ( 'NONE', #325, 1.599999999999997202 ) ;
#91 = APPLICATION_PROTOCOL_DEFINITION ( 'draft international standard', 'automotive_design', 1998, #307 ) ;
#92 = ORIENTED_EDGE ( 'NONE', *, *, #178, .F. ) ;
#93 = ADVANCED_FACE ( 'NONE', ( #26 ), #333, .T. ) ;
#94 = SURFACE_STYLE_USAGE ( .BOTH. , #148 ) ;
#95 = ORIENTED_EDGE ( 'NONE', *, *, #221, .F. ) ;
#96 = CIRCLE ( 'NONE', #272, 1.599999999999997202 ) ;
#97 = LINE ( 'NONE', #55, #104 ) ;
#98 = ORIENTED_EDGE ( 'NONE', *, *, #350, .T. ) ;
#99 = CARTESIAN_POINT ( 'NONE',  ( 48.10001036778344741, 22.93982777932887274, 3.200000000000000178 ) ) ;
#100 = ADVANCED_FACE ( 'NONE', ( #150 ), #176, .T. ) ;
#101 = ORIENTED_EDGE ( 'NONE', *, *, #34, .F. ) ;
#102 = CARTESIAN_POINT ( 'NONE',  ( 51.20314767112374454, 33.23982777932886279, 3.200000000000000178 ) ) ;
#103 = ORIENTED_EDGE ( 'NONE', *, *, #239, .F. ) ;
#104 = VECTOR ( 'NONE', #121, 1000.000000000000000 ) ;
#105 = FACE_OUTER_BOUND ( 'NONE', #347, .T. ) ;
#106 = EDGE_LOOP ( 'NONE', ( #42, #15, #23, #342 ) ) ;
#107 = CARTESIAN_POINT ( 'NONE',  ( 40.70314767112374454, 24.48982777932886989, 0.000000000000000000 ) ) ;
#108 = CARTESIAN_POINT ( 'NONE',  ( 37.20314767112374454, 19.73982777932886634, 0.000000000000000000 ) ) ;
#109 = EDGE_CURVE ( 'NONE', #374, #349, #54, .T. ) ;
#110 = LINE ( 'NONE', #102, #71 ) ;
#111 = FILL_AREA_STYLE ('',( #196 ) ) ;
#112 = SURFACE_SIDE_STYLE ('',( #240 ) ) ;
#113 = CARTESIAN_POINT ( 'NONE',  ( 37.20314767112373744, 33.23982777932886279, 3.200000000000000178 ) ) ;
#114 =( NAMED_UNIT ( * ) SI_UNIT ( $, .STERADIAN. ) SOLID_ANGLE_UNIT ( ) );
#115 = EDGE_CURVE ( 'NONE', #20, #169, #341, .T. ) ;
#116 = VERTEX_POINT ( 'NONE', #119 ) ;
#117 = FACE_BOUND ( 'NONE', #210, .T. ) ;
#118 = FILL_AREA_STYLE_COLOUR ( '', #396 ) ;
#119 = CARTESIAN_POINT ( 'NONE',  ( 51.20314767112374454, 33.23982777932886279, 0.000000000000000000 ) ) ;
#120 =( NAMED_UNIT ( * ) PLANE_ANGLE_UNIT ( ) SI_UNIT ( $, .RADIAN. ) );
#121 = DIRECTION ( 'NONE',  ( 1.000000000000000000, 0.000000000000000000, 0.000000000000000000 ) ) ;
#122 = AXIS2_PLACEMENT_3D ( 'NONE', #294, #367, #89 ) ;
#123 =( LENGTH_UNIT ( ) NAMED_UNIT ( * ) SI_UNIT ( .MILLI., .METRE. ) );
#124 = DIRECTION ( 'NONE',  ( 1.000000000000000000, 0.000000000000000000, -0.000000000000000000 ) ) ;
#125 = ORIENTED_EDGE ( 'NONE', *, *, #398, .T. ) ;
#126 = CIRCLE ( 'NONE', #299, 1.599999999999997202 ) ;
#127 = DIRECTION ( 'NONE',  ( -0.000000000000000000, -0.000000000000000000, -1.000000000000000000 ) ) ;
#128 = EDGE_LOOP ( 'NONE', ( #329, #130 ) ) ;
#129 = DIRECTION ( 'NONE',  ( -0.000000000000000000, -0.7071067811865484609, 0.7071067811865465735 ) ) ;
#130 = ORIENTED_EDGE ( 'NONE', *, *, #255, .T. ) ;
#131 = DIRECTION ( 'NONE',  ( -1.226634733346698719E-15, 0.7071067811865465735, 0.7071067811865484609 ) ) ;
#132 = ORIENTED_EDGE ( 'NONE', *, *, #314, .F. ) ;
#133 = VECTOR ( 'NONE', #64, 1000.000000000000000 ) ;
#134 = DIRECTION ( 'NONE',  ( -0.000000000000000000, 0.000000000000000000, 1.000000000000000000 ) ) ;
#135 = ADVANCED_FACE ( 'NONE', ( #278 ), #303, .F. ) ;
#136 = ORIENTED_EDGE ( 'NONE', *, *, #221, .T. ) ;
#137 = CARTESIAN_POINT ( 'NONE',  ( 40.70314767112374454, 24.48982777932886989, 3.200000000000000178 ) ) ;
#138 = EDGE_LOOP ( 'NONE', ( #201, #32, #324, #286 ) ) ;
#139 = UNCERTAINTY_MEASURE_WITH_UNIT (LENGTH_MEASURE( 1.000000000000000082E-05 ), #27, 'distance_accuracy_value', 'NONE');
#140 = FILL_AREA_STYLE ('',( #118 ) ) ;
#141 = ORIENTED_EDGE ( 'NONE', *, *, #78, .F. ) ;
#142 = LINE ( 'NONE', #359, #181 ) ;
#143 = DIRECTION ( 'NONE',  ( -0.000000000000000000, 0.000000000000000000, 1.000000000000000000 ) ) ;
#144 = ORIENTED_EDGE ( 'NONE', *, *, #244, .F. ) ;
#145 = CARTESIAN_POINT ( 'NONE',  ( 40.83824986573129223, 22.87280650273312688, 3.132978723404257426 ) ) ;
#146 =( NAMED_UNIT ( * ) PLANE_ANGLE_UNIT ( ) SI_UNIT ( $, .RADIAN. ) );
#147 = VECTOR ( 'NONE', #50, 1000.000000000000000 ) ;
#148 = SURFACE_SIDE_STYLE ('',( #211 ) ) ;
#149 = ADVANCED_FACE ( 'NONE', ( #365 ), #90, .F. ) ;
#150 = FACE_OUTER_BOUND ( 'NONE', #154, .T. ) ;
#151 = CIRCLE ( 'NONE', #245, 1.599999999999997202 ) ;
#152 = VECTOR ( 'NONE', #207, 1000.000000000000000 ) ;
#153 = CARTESIAN_POINT ( 'NONE',  ( 0.000000000000000000, 0.000000000000000000, 0.000000000000000000 ) ) ;
#154 = EDGE_LOOP ( 'NONE', ( #191, #258, #319, #378 ) ) ;
#155 = CARTESIAN_POINT ( 'NONE',  ( 37.20314767112373744, 33.23982777932886279, 3.200000000000000178 ) ) ;
#156 = EDGE_CURVE ( 'NONE', #116, #13, #62, .T. ) ;
#157 = ORIENTED_EDGE ( 'NONE', *, *, #31, .F. ) ;
#158 = CARTESIAN_POINT ( 'NONE',  ( 51.20314767112374454, 0.000000000000000000, 3.200000000000000178 ) ) ;
#159 = ORIENTED_EDGE ( 'NONE', *, *, #84, .F. ) ;
#160 = LINE ( 'NONE', #41, #259 ) ;
#161 = ORIENTED_EDGE ( 'NONE', *, *, #183, .F. ) ;
#162 = CARTESIAN_POINT ( 'NONE',  ( 42.30314767112373886, 24.48982777932886989, 0.000000000000000000 ) ) ;
#163 = VERTEX_POINT ( 'NONE', #393 ) ;
#164 = DIRECTION ( 'NONE',  ( -1.000000000000000000, -1.734723475976808672E-15, 0.000000000000000000 ) ) ;
#165 = FACE_OUTER_BOUND ( 'NONE', #344, .T. ) ;
#166 = AXIS2_PLACEMENT_3D ( 'NONE', #216, #205, #311 ) ;
#167 = DIRECTION ( 'NONE',  ( -1.000000000000000000, 0.000000000000000000, -0.000000000000000000 ) ) ;
#168 = AXIS2_PLACEMENT_3D ( 'NONE', #282, #291, #224 ) ;
#169 = VERTEX_POINT ( 'NONE', #155 ) ;
#170 = ORIENTED_EDGE ( 'NONE', *, *, #34, .T. ) ;
#171 =( LENGTH_UNIT ( ) NAMED_UNIT ( * ) SI_UNIT ( .MILLI., .METRE. ) );
#172 = DIRECTION ( 'NONE',  ( -1.000000000000000000, 0.000000000000000000, 0.000000000000000000 ) ) ;
#173 = VECTOR ( 'NONE', #33, 1000.000000000000000 ) ;
#174 = VECTOR ( 'NONE', #77, 1000.000000000000000 ) ;
#175 = CARTESIAN_POINT ( 'NONE',  ( 0.000000000000000000, 33.23982777932886279, 3.200000000000000178 ) ) ;
#176 = PLANE ( 'NONE',  #346 ) ;
#177 = DIRECTION ( 'NONE',  ( -1.734723475976808475E-15, 1.000000000000000000, 0.000000000000000000 ) ) ;
#178 = EDGE_CURVE ( 'NONE', #65, #225, #373, .T. ) ;
#179 = PRESENTATION_STYLE_ASSIGNMENT (( #94 ) ) ;
#180 = PRODUCT ( 'jaw_blocker', 'jaw_blocker', '', ( #277 ) ) ;
#181 = VECTOR ( 'NONE', #267, 1000.000000000000000 ) ;
#182 = MECHANICAL_DESIGN_GEOMETRIC_PRESENTATION_REPRESENTATION (  '', ( #21 ), #241 ) ;
#183 = EDGE_CURVE ( 'NONE', #370, #184, #97, .T. ) ;
#184 = VERTEX_POINT ( 'NONE', #70 ) ;
#185 = VECTOR ( 'NONE', #14, 1000.000000000000000 ) ;
#186 = CARTESIAN_POINT ( 'NONE',  ( 0.000000000000000000, 0.000000000000000000, 3.200000000000000178 ) ) ;
#187 = ORIENTED_EDGE ( 'NONE', *, *, #249, .T. ) ;
#188 = CARTESIAN_POINT ( 'NONE',  ( 51.20314767112374454, 0.000000000000000000, 0.000000000000000000 ) ) ;
#189 = DIRECTION ( 'NONE',  ( -0.000000000000000000, 0.000000000000000000, 1.000000000000000000 ) ) ;
#190 = LINE ( 'NONE', #158, #185 ) ;
#191 = ORIENTED_EDGE ( 'NONE', *, *, #239, .T. ) ;
#192 = EDGE_CURVE ( 'NONE', #169, #312, #316, .T. ) ;
#193 = CARTESIAN_POINT ( 'NONE',  ( 40.70314767112374454, 24.48982777932886989, 0.000000000000000000 ) ) ;
#194 = CARTESIAN_POINT ( 'NONE',  ( 42.30314767112373886, 24.48982777932886989, 3.200000000000000178 ) ) ;
#195 = DIRECTION ( 'NONE',  ( 1.000000000000000000, 0.000000000000000000, 0.000000000000000000 ) ) ;
#196 = FILL_AREA_STYLE_COLOUR ( '', #233 ) ;
#197 = CARTESIAN_POINT ( 'NONE',  ( 39.10314767112374312, 24.48982777932886989, 3.200000000000000178 ) ) ;
#198 =( GEOMETRIC_REPRESENTATION_CONTEXT ( 3 ) GLOBAL_UNCERTAINTY_ASSIGNED_CONTEXT ( ( #139 ) ) GLOBAL_UNIT_ASSIGNED_CONTEXT ( ( #27, #120, #22 ) ) REPRESENTATION_CONTEXT ( 'NONE', 'WORKASPACE' ) );
#199 = ORIENTED_EDGE ( 'NONE', *, *, #268, .T. ) ;
#200 = LINE ( 'NONE', #202, #369 ) ;
#201 = ORIENTED_EDGE ( 'NONE', *, *, #398, .F. ) ;
#202 = CARTESIAN_POINT ( 'NONE',  ( 37.20314767112379428, 6.453717364533037060E-14, 0.000000000000000000 ) ) ;
#203 = CARTESIAN_POINT ( 'NONE',  ( 37.20314767112375165, 22.93982777932887274, 3.200000000000000178 ) ) ;
#204 = CLOSED_SHELL ( 'NONE', ( #149, #25, #323, #100, #135, #53, #215, #93, #366, #206 ) ) ;
#205 = DIRECTION ( 'NONE',  ( -0.000000000000000000, 0.000000000000000000, 1.000000000000000000 ) ) ;
#206 = ADVANCED_FACE ( 'NONE', ( #105 ), #73, .T. ) ;
#207 = DIRECTION ( 'NONE',  ( -0.000000000000000000, -0.000000000000000000, -1.000000000000000000 ) ) ;
#208 = DIRECTION ( 'NONE',  ( -0.000000000000000000, -0.000000000000000000, -1.000000000000000000 ) ) ;
#209 =( NAMED_UNIT ( * ) SI_UNIT ( $, .STERADIAN. ) SOLID_ANGLE_UNIT ( ) );
#210 = EDGE_LOOP ( 'NONE', ( #199, #39 ) ) ;
#211 = SURFACE_STYLE_FILL_AREA ( #111 ) ;
#212 = VECTOR ( 'NONE', #237, 1000.000000000000000 ) ;
#213 = VERTEX_POINT ( 'NONE', #322 ) ;
#214 = CIRCLE ( 'NONE', #47, 1.599999999999997202 ) ;
#215 = ADVANCED_FACE ( 'NONE', ( #257 ), #260, .F. ) ;
#216 = CARTESIAN_POINT ( 'NONE',  ( 40.70314767112374454, 24.48982777932886989, 3.200000000000000178 ) ) ;
#217 = EDGE_LOOP ( 'NONE', ( #125, #98, #59, #284 ) ) ;
#218 = CARTESIAN_POINT ( 'NONE',  ( 40.70314767112374454, 24.48982777932886989, 3.200000000000000178 ) ) ;
#219 = ORIENTED_EDGE ( 'NONE', *, *, #358, .F. ) ;
#220 = DIRECTION ( 'NONE',  ( -0.000000000000000000, 0.000000000000000000, 1.000000000000000000 ) ) ;
#221 = EDGE_CURVE ( 'NONE', #184, #374, #66, .T. ) ;
#222 = ORIENTED_EDGE ( 'NONE', *, *, #279, .F. ) ;
#223 = CIRCLE ( 'NONE', #276, 1.599999999999997202 ) ;
#224 = DIRECTION ( 'NONE',  ( -1.000000000000000000, 0.000000000000000000, 0.000000000000000000 ) ) ;
#225 = VERTEX_POINT ( 'NONE', #75 ) ;
#226 = UNCERTAINTY_MEASURE_WITH_UNIT (LENGTH_MEASURE( 1.000000000000000082E-05 ), #123, 'distance_accuracy_value', 'NONE');
#227 = DIRECTION ( 'NONE',  ( 1.734723475976808672E-15, -1.000000000000000000, 0.000000000000000000 ) ) ;
#228 = ORIENTED_EDGE ( 'NONE', *, *, #40, .T. ) ;
#229 = EDGE_CURVE ( 'NONE', #7, #20, #160, .T. ) ;
#230 = CARTESIAN_POINT ( 'NONE',  ( 47.30628497446404879, 22.93982777932887274, 3.200000000000000178 ) ) ;
#231 = ORIENTED_EDGE ( 'NONE', *, *, #78, .T. ) ;
#232 = PRODUCT_DEFINITION_CONTEXT ( 'detailed design', #307, 'design' ) ;
#233 = COLOUR_RGB ( '',0.7921568627450980005, 0.8196078431372548767, 0.9333333333333333481 ) ;
#234 = FACE_BOUND ( 'NONE', #128, .T. ) ;
#235 = DIRECTION ( 'NONE',  ( -0.000000000000000000, -0.000000000000000000, -1.000000000000000000 ) ) ;
#236 = DIRECTION ( 'NONE',  ( 1.000000000000000000, 0.000000000000000000, 0.000000000000000000 ) ) ;
#237 = DIRECTION ( 'NONE',  ( -0.000000000000000000, -0.000000000000000000, -1.000000000000000000 ) ) ;
#238 = PRESENTATION_STYLE_ASSIGNMENT (( #81 ) ) ;
#239 = EDGE_CURVE ( 'NONE', #312, #349, #190, .T. ) ;
#240 = SURFACE_STYLE_FILL_AREA ( #140 ) ;
#241 =( GEOMETRIC_REPRESENTATION_CONTEXT ( 3 ) GLOBAL_UNCERTAINTY_ASSIGNED_CONTEXT ( ( #386 ) ) GLOBAL_UNIT_ASSIGNED_CONTEXT ( ( #171, #19, #114 ) ) REPRESENTATION_CONTEXT ( 'NONE', 'WORKASPACE' ) );
#242 = CARTESIAN_POINT ( 'NONE',  ( 40.70314767112374454, 24.48982777932886989, 3.200000000000000178 ) ) ;
#243 = DIRECTION ( 'NONE',  ( -0.000000000000000000, 0.000000000000000000, -1.000000000000000000 ) ) ;
#244 = EDGE_CURVE ( 'NONE', #349, #13, #3, .T. ) ;
#245 = AXIS2_PLACEMENT_3D ( 'NONE', #273, #271, #269 ) ;
#246 = PRODUCT_DEFINITION_FORMATION_WITH_SPECIFIED_SOURCE ( 'ANY', '', #180, .NOT_KNOWN. ) ;
#247 = CARTESIAN_POINT ( 'NONE',  ( 51.20314767112374454, 0.000000000000000000, 3.200000000000000178 ) ) ;
#248 = ORIENTED_EDGE ( 'NONE', *, *, #109, .F. ) ;
#249 = EDGE_CURVE ( 'NONE', #312, #116, #110, .T. ) ;
#250 = VECTOR ( 'NONE', #235, 1000.000000000000000 ) ;
#251 = ORIENTED_EDGE ( 'NONE', *, *, #115, .F. ) ;
#252 = DIRECTION ( 'NONE',  ( 1.000000000000000000, 0.000000000000000000, 0.000000000000000000 ) ) ;
#253 = ORIENTED_EDGE ( 'NONE', *, *, #192, .F. ) ;
#254 = DIRECTION ( 'NONE',  ( 1.000000000000000000, 0.000000000000000000, 0.000000000000000000 ) ) ;
#255 = EDGE_CURVE ( 'NONE', #213, #68, #96, .T. ) ;
#256 = EDGE_LOOP ( 'NONE', ( #381, #5, #290, #63, #231, #136 ) ) ;
#257 = FACE_OUTER_BOUND ( 'NONE', #106, .T. ) ;
#258 = ORIENTED_EDGE ( 'NONE', *, *, #244, .T. ) ;
#259 = VECTOR ( 'NONE', #131, 1000.000000000000000 ) ;
#260 = CYLINDRICAL_SURFACE ( 'NONE', #168, 1.599999999999997202 ) ;
#261 = LINE ( 'NONE', #194, #212 ) ;
#262 = CARTESIAN_POINT ( 'NONE',  ( 40.70314767112374454, 24.48982777932886989, 3.200000000000000178 ) ) ;
#263 = PRODUCT_RELATED_PRODUCT_CATEGORY ( 'part', '', ( #180 ) ) ;
#264 = CARTESIAN_POINT ( 'NONE',  ( 49.30314767112374597, 24.48982777932886634, 3.200000000000000178 ) ) ;
#265 = LINE ( 'NONE', #76, #147 ) ;
#266 = CARTESIAN_POINT ( 'NONE',  ( 40.30628497446405589, 22.93982777932887274, 3.200000000000000178 ) ) ;
#267 = DIRECTION ( 'NONE',  ( 1.000000000000000000, 0.000000000000000000, 0.000000000000000000 ) ) ;
#268 = EDGE_CURVE ( 'NONE', #391, #301, #126, .T. ) ;
#269 = DIRECTION ( 'NONE',  ( 1.000000000000000000, 0.000000000000000000, 0.000000000000000000 ) ) ;
#270 = FACE_OUTER_BOUND ( 'NONE', #217, .T. ) ;
#271 = DIRECTION ( 'NONE',  ( -0.000000000000000000, 0.000000000000000000, 1.000000000000000000 ) ) ;
#272 = AXIS2_PLACEMENT_3D ( 'NONE', #327, #379, #354 ) ;
#273 = CARTESIAN_POINT ( 'NONE',  ( 47.70314767112375165, 24.48982777932886634, 3.200000000000000178 ) ) ;
#274 = PRODUCT_DEFINITION_SHAPE ( 'NONE', 'NONE',  #9 ) ;
#275 = SHAPE_DEFINITION_REPRESENTATION ( #274, #390 ) ;
#276 = AXIS2_PLACEMENT_3D ( 'NONE', #364, #143, #300 ) ;
#277 = PRODUCT_CONTEXT ( 'NONE', #351, 'mechanical' ) ;
#278 = FACE_OUTER_BOUND ( 'NONE', #281, .T. ) ;
#279 = EDGE_CURVE ( 'NONE', #301, #391, #400, .T. ) ;
#280 = DIRECTION ( 'NONE',  ( 1.000000000000000000, 0.000000000000000000, 0.000000000000000000 ) ) ;
#281 = EDGE_LOOP ( 'NONE', ( #310, #355, #44, #222 ) ) ;
#282 = CARTESIAN_POINT ( 'NONE',  ( 47.70314767112375165, 24.48982777932886634, 3.200000000000000178 ) ) ;
#283 = AXIS2_PLACEMENT_3D ( 'NONE', #153, #336, #58 ) ;
#284 = ORIENTED_EDGE ( 'NONE', *, *, #16, .F. ) ;
#285 = FACE_OUTER_BOUND ( 'NONE', #138, .T. ) ;
#286 = ORIENTED_EDGE ( 'NONE', *, *, #31, .T. ) ;
#287 = CARTESIAN_POINT ( 'NONE',  ( 37.20314767112379428, 6.453717364533037060E-14, 3.200000000000000178 ) ) ;
#288 = ORIENTED_EDGE ( 'NONE', *, *, #109, .T. ) ;
#289 = LINE ( 'NONE', #45, #174 ) ;
#290 = ORIENTED_EDGE ( 'NONE', *, *, #61, .F. ) ;
#291 = DIRECTION ( 'NONE',  ( -0.000000000000000000, -0.000000000000000000, -1.000000000000000000 ) ) ;
#292 = EDGE_CURVE ( 'NONE', #340, #328, #214, .T. ) ;
#293 = ORIENTED_EDGE ( 'NONE', *, *, #183, .T. ) ;
#294 = CARTESIAN_POINT ( 'NONE',  ( 0.000000000000000000, 0.000000000000000000, 0.000000000000000000 ) ) ;
#295 = ORIENTED_EDGE ( 'NONE', *, *, #358, .T. ) ;
#296 = CARTESIAN_POINT ( 'NONE',  ( 39.10314767112374312, 24.48982777932886989, 0.000000000000000000 ) ) ;
#297 = LINE ( 'NONE', #113, #250 ) ;
#298 = CIRCLE ( 'NONE', #166, 1.599999999999997202 ) ;
#299 = AXIS2_PLACEMENT_3D ( 'NONE', #193, #189, #11 ) ;
#300 = DIRECTION ( 'NONE',  ( 1.000000000000000000, 0.000000000000000000, 0.000000000000000000 ) ) ;
#301 = VERTEX_POINT ( 'NONE', #162 ) ;
#302 = CARTESIAN_POINT ( 'NONE',  ( 51.20314767112374454, 22.93982777932887274, 3.200000000000000178 ) ) ;
#303 = CYLINDRICAL_SURFACE ( 'NONE', #399, 1.599999999999997202 ) ;
#304 =( BOUNDED_CURVE ( )  B_SPLINE_CURVE ( 3, ( #266, #85, #145, #334 ),
 .UNSPECIFIED., .F., .T. ) 
 B_SPLINE_CURVE_WITH_KNOTS ( ( 4, 4 ),
 ( 6.032529644843457106, 6.533840969515715358 ),
 .UNSPECIFIED. ) 
 CURVE ( )  GEOMETRIC_REPRESENTATION_ITEM ( )  RATIONAL_B_SPLINE_CURVE ( ( 1.000000000000000000, 0.9791666666666669627, 0.9791666666666669627, 1.000000000000000000 ) ) 
 REPRESENTATION_ITEM ( '' )  );
#305 = CIRCLE ( 'NONE', #69, 1.599999999999997202 ) ;
#306 = CARTESIAN_POINT ( 'NONE',  ( 49.30314767112374597, 24.48982777932886634, 3.200000000000000178 ) ) ;
#307 = APPLICATION_CONTEXT ( 'automotive_design' ) ;
#308 = EDGE_CURVE ( 'NONE', #163, #340, #57, .T. ) ;
#309 = AXIS2_PLACEMENT_3D ( 'NONE', #377, #129, #167 ) ;
#310 = ORIENTED_EDGE ( 'NONE', *, *, #40, .F. ) ;
#311 = DIRECTION ( 'NONE',  ( 1.000000000000000000, 0.000000000000000000, 0.000000000000000000 ) ) ;
#312 = VERTEX_POINT ( 'NONE', #345 ) ;
#313 = CARTESIAN_POINT ( 'NONE',  ( 47.70314767112375165, 24.48982777932886634, 3.200000000000000178 ) ) ;
#314 = EDGE_CURVE ( 'NONE', #340, #391, #343, .T. ) ;
#315 = EDGE_LOOP ( 'NONE', ( #251, #170, #48, #72, #159, #293, #141, #92, #80, #288, #103, #253 ) ) ;
#316 = LINE ( 'NONE', #318, #86 ) ;
#317 = ORIENTED_EDGE ( 'NONE', *, *, #350, .F. ) ;
#318 = CARTESIAN_POINT ( 'NONE',  ( 0.000000000000000000, 33.23982777932886279, 3.200000000000000178 ) ) ;
#319 = ORIENTED_EDGE ( 'NONE', *, *, #156, .F. ) ;
#320 = DIRECTION ( 'NONE',  ( 1.000000000000000000, 0.000000000000000000, 0.000000000000000000 ) ) ;
#321 = ORIENTED_EDGE ( 'NONE', *, *, #292, .T. ) ;
#322 = CARTESIAN_POINT ( 'NONE',  ( 49.30314767112374597, 24.48982777932886634, 0.000000000000000000 ) ) ;
#323 = ADVANCED_FACE ( 'NONE', ( #285 ), #382, .T. ) ;
#324 = ORIENTED_EDGE ( 'NONE', *, *, #115, .T. ) ;
#325 = AXIS2_PLACEMENT_3D ( 'NONE', #1, #208, #368 ) ;
#326 = AXIS2_PLACEMENT_3D ( 'NONE', #107, #220, #254 ) ;
#327 = CARTESIAN_POINT ( 'NONE',  ( 47.70314767112375165, 24.48982777932886634, 0.000000000000000000 ) ) ;
#328 = VERTEX_POINT ( 'NONE', #384 ) ;
#329 = ORIENTED_EDGE ( 'NONE', *, *, #61, .T. ) ;
#330 = EDGE_CURVE ( 'NONE', #225, #68, #289, .T. ) ;
#331 = CARTESIAN_POINT ( 'NONE',  ( 47.70314767112375165, 24.48982777932886634, 0.000000000000000000 ) ) ;
#332 = PLANE ( 'NONE',  #122 ) ;
#333 = PLANE ( 'NONE',  #46 ) ;
#334 = CARTESIAN_POINT ( 'NONE',  ( 41.10001036778342609, 22.93982777932887274, 3.200000000000000178 ) ) ;
#335 = DIRECTION ( 'NONE',  ( 0.000000000000000000, -1.000000000000000000, 0.000000000000000000 ) ) ;
#336 = DIRECTION ( 'NONE',  ( 0.000000000000000000, 0.000000000000000000, 1.000000000000000000 ) ) ;
#337 = ORIENTED_EDGE ( 'NONE', *, *, #192, .T. ) ;
#338 = DIRECTION ( 'NONE',  ( -1.000000000000000000, 0.000000000000000000, 0.000000000000000000 ) ) ;
#339 = MECHANICAL_DESIGN_GEOMETRIC_PRESENTATION_REPRESENTATION (  '', ( #56 ), #37 ) ;
#340 = VERTEX_POINT ( 'NONE', #197 ) ;
#341 = LINE ( 'NONE', #394, #173 ) ;
#342 = ORIENTED_EDGE ( 'NONE', *, *, #255, .F. ) ;
#343 = LINE ( 'NONE', #43, #88 ) ;
#344 = EDGE_LOOP ( 'NONE', ( #317, #157, #337, #187 ) ) ;
#345 = CARTESIAN_POINT ( 'NONE',  ( 51.20314767112374454, 33.23982777932886279, 3.200000000000000178 ) ) ;
#346 = AXIS2_PLACEMENT_3D ( 'NONE', #247, #124, #243 ) ;
#347 = EDGE_LOOP ( 'NONE', ( #10, #353, #144, #248, #95, #161, #219, #101 ) ) ;
#348 = CARTESIAN_POINT ( 'NONE',  ( 47.56804547651618265, 22.87280650273311977, 3.132978723404251653 ) ) ;
#349 = VERTEX_POINT ( 'NONE', #6 ) ;
#350 = EDGE_CURVE ( 'NONE', #18, #116, #24, .T. ) ;
#351 = APPLICATION_CONTEXT ( 'automotive_design' ) ;
#352 = DIRECTION ( 'NONE',  ( 0.000000000000000000, -0.7071067811865465735, -0.7071067811865484609 ) ) ;
#353 = ORIENTED_EDGE ( 'NONE', *, *, #16, .T. ) ;
#354 = DIRECTION ( 'NONE',  ( 1.000000000000000000, 0.000000000000000000, 0.000000000000000000 ) ) ;
#355 = ORIENTED_EDGE ( 'NONE', *, *, #308, .T. ) ;
#356 = PRESENTATION_LAYER_ASSIGNMENT (  '', '', ( #21 ) ) ;
#357 = CARTESIAN_POINT ( 'NONE',  ( 41.10001036778342609, 22.93982777932887274, 3.200000000000000178 ) ) ;
#358 = EDGE_CURVE ( 'NONE', #328, #370, #304, .T. ) ;
#359 = CARTESIAN_POINT ( 'NONE',  ( 51.20314767112374454, 22.93982777932887274, 3.200000000000000178 ) ) ;
#360 = LINE ( 'NONE', #264, #152 ) ;
#361 = ORIENTED_EDGE ( 'NONE', *, *, #268, .F. ) ;
#362 = DIRECTION ( 'NONE',  ( -0.000000000000000000, 0.000000000000000000, 1.000000000000000000 ) ) ;
#363 = AXIS2_PLACEMENT_3D ( 'NONE', #313, #2, #372 ) ;
#364 = CARTESIAN_POINT ( 'NONE',  ( 47.70314767112375165, 24.48982777932886634, 3.200000000000000178 ) ) ;
#365 = FACE_OUTER_BOUND ( 'NONE', #256, .T. ) ;
#366 = ADVANCED_FACE ( 'NONE', ( #270, #117, #234 ), #332, .F. ) ;
#367 = DIRECTION ( 'NONE',  ( -0.000000000000000000, 0.000000000000000000, 1.000000000000000000 ) ) ;
#368 = DIRECTION ( 'NONE',  ( -1.000000000000000000, 0.000000000000000000, 0.000000000000000000 ) ) ;
#369 = VECTOR ( 'NONE', #177, 1000.000000000000000 ) ;
#370 = VERTEX_POINT ( 'NONE', #357 ) ;
#371 = EDGE_CURVE ( 'NONE', #374, #65, #223, .T. ) ;
#372 = DIRECTION ( 'NONE',  ( 1.000000000000000000, 0.000000000000000000, 0.000000000000000000 ) ) ;
#373 = CIRCLE ( 'NONE', #363, 1.599999999999997202 ) ;
#374 = VERTEX_POINT ( 'NONE', #387 ) ;
#375 = CARTESIAN_POINT ( 'NONE',  ( 47.83824986573130644, 22.87280650273312332, 3.132978723404252097 ) ) ;
#376 = EDGE_LOOP ( 'NONE', ( #36, #228, #361, #132, #321, #295 ) ) ;
#377 = CARTESIAN_POINT ( 'NONE',  ( 0.000000000000000000, 22.93982777932887274, 3.200000000000000178 ) ) ;
#378 = ORIENTED_EDGE ( 'NONE', *, *, #249, .F. ) ;
#379 = DIRECTION ( 'NONE',  ( -0.000000000000000000, 0.000000000000000000, 1.000000000000000000 ) ) ;
#380 = VECTOR ( 'NONE', #335, 1000.000000000000000 ) ;
#381 = ORIENTED_EDGE ( 'NONE', *, *, #371, .T. ) ;
#382 = PLANE ( 'NONE',  #52 ) ;
#383 = DIRECTION ( 'NONE',  ( 0.000000000000000000, -0.000000000000000000, 1.000000000000000000 ) ) ;
#384 = CARTESIAN_POINT ( 'NONE',  ( 40.30628497446405589, 22.93982777932887274, 3.200000000000000178 ) ) ;
#385 = DIRECTION ( 'NONE',  ( 0.000000000000000000, 1.000000000000000000, 0.000000000000000000 ) ) ;
#386 = UNCERTAINTY_MEASURE_WITH_UNIT (LENGTH_MEASURE( 1.000000000000000082E-05 ), #171, 'distance_accuracy_value', 'NONE');
#387 = CARTESIAN_POINT ( 'NONE',  ( 48.10001036778344741, 22.93982777932887274, 3.200000000000000178 ) ) ;
#388 = CYLINDRICAL_SURFACE ( 'NONE', #28, 1.599999999999997202 ) ;
#389 = VECTOR ( 'NONE', #236, 1000.000000000000000 ) ;
#390 = ADVANCED_BREP_SHAPE_REPRESENTATION ( 'jaw_blocker', ( #60, #283 ), #198 ) ;
#391 = VERTEX_POINT ( 'NONE', #296 ) ;
#392 = CARTESIAN_POINT ( 'NONE',  ( -0.000000000000000000, 33.23982777932886279, 0.000000000000000000 ) ) ;
#393 = CARTESIAN_POINT ( 'NONE',  ( 42.30314767112373886, 24.48982777932886989, 3.200000000000000178 ) ) ;
#394 = CARTESIAN_POINT ( 'NONE',  ( 37.20314767112379428, 6.453717364533037060E-14, 3.200000000000000178 ) ) ;
#395 = EDGE_CURVE ( 'NONE', #65, #213, #360, .T. ) ;
#396 = COLOUR_RGB ( '',0.7921568627450980005, 0.8196078431372548767, 0.9333333333333333481 ) ;
#397 = DIRECTION ( 'NONE',  ( -0.000000000000000000, -0.000000000000000000, -1.000000000000000000 ) ) ;
#398 = EDGE_CURVE ( 'NONE', #7, #18, #200, .T. ) ;
#399 = AXIS2_PLACEMENT_3D ( 'NONE', #242, #397, #338 ) ;
#400 = CIRCLE ( 'NONE', #326, 1.599999999999997202 ) ;
ENDSEC;
END-ISO-10303-21;
