999
FreeCAD v1.1 20260325 (Git shallow)
  0
SECTION
  2
HEADER
  9
$ACADVER
  1
AC1014
  9
$ACADMAINTVER
 70
     9
  9
$DWGCODEPAGE
  3
ANSI_1252
  9
$TEXTSTYLE
  7
STANDARD
  9
$DIMSTYLE
  2
STANDARD
  9
$DIMTXSTY
  7
STANDARD
  9
$CMLSTYLE
  2
STANDARD
  9
$LUNITS
 70
2
  9
$INSUNITS
 70
4
  9
$PEXTMAX
 10
50
 20
50
 30
50
  9
$PEXTMIN
 10
0
 20
0
 30
0
  9
$HANDSEED
  5
FFFF
  0
ENDSEC
  0
SECTION
  2
CLASSES
  0
CLASS
  1
ACDBDICTIONARYWDFLT
  2
AcDbDictionaryWithDefault
  3
ObjectDBX Classes
 90
        0
280
     0
281
     0
  0
CLASS
  1
XRECORD
  2
AcDbXrecord
  3
ObjectDBX Classes
 90
        0
280
     0
281
     0
  0
CLASS
  1
LWPOLYLINE
  2
AcDbPolyline
  3
ObjectDBX Classes
 90
        0
280
     0
281
     1
  0
ENDSEC
  0
SECTION
  2
TABLES
  0
TABLE
  2
VPORT
  5
20
330
0
100
AcDbSymbolTable
 70
     1
  0
VPORT
  5
21
330
20
100
AcDbSymbolTableRecord
100
AcDbViewportTableRecord
  2
*ACTIVE
 70
     0
  0
ENDTAB
  0
TABLE
  2
LTYPE
  5
22
330
0
100
AcDbSymbolTable
 70
     1
  0
LTYPE
  5
23
330
21
100
AcDbSymbolTableRecord
100
AcDbLinetypeTableRecord
  2
BYBLOCK
 70
     0
  3

 72
    65
 73
     0
 40
0.0
  0
LTYPE
  5
24
330
21
100
AcDbSymbolTableRecord
100
AcDbLinetypeTableRecord
  2
BYLAYER
 70
     0
  3

 72
    65
 73
     0
 40
0.0
  0
LTYPE
  5
25
330
21
100
AcDbSymbolTableRecord
100
AcDbLinetypeTableRecord
  2
CONTINUOUS
 70
     0
  3
Solid line
 72
    65
 73
     0
 40
0.0
  0
ENDTAB
  0
TABLE
  2
LAYER
  5
1195
330
0
100
AcDbSymbolTable
 70
13
  0
LAYER
  5
1196
330
1195
100
AcDbSymbolTableRecord
100
AcDbLayerTableRecord
  2
0
 70
   0
 62
   7
  6
CONTINUOUS
  0
LAYER
  5
1197
330
1195
100
AcDbSymbolTableRecord
100
AcDbLayerTableRecord
  2
none
 70
    0
 62
    7
  6
CONTINUOUS
  0
LAYER
  5
1198
330
1195
100
AcDbSymbolTableRecord
100
AcDbLayerTableRecord
  2
ShapeString008
 70
    0
 62
    7
  6
CONTINUOUS
  0
LAYER
  5
1199
330
1195
100
AcDbSymbolTableRecord
100
AcDbLayerTableRecord
  2
Sketch001
 70
    0
 62
    7
  6
CONTINUOUS
  0
LAYER
  5
119A
330
1195
100
AcDbSymbolTableRecord
100
AcDbLayerTableRecord
  2
ShapeString005
 70
    0
 62
    7
  6
CONTINUOUS
  0
LAYER
  5
119B
330
1195
100
AcDbSymbolTableRecord
100
AcDbLayerTableRecord
  2
ShapeString
 70
    0
 62
    7
  6
CONTINUOUS
  0
LAYER
  5
119C
330
1195
100
AcDbSymbolTableRecord
100
AcDbLayerTableRecord
  2
ShapeString001
 70
    0
 62
    7
  6
CONTINUOUS
  0
LAYER
  5
119D
330
1195
100
AcDbSymbolTableRecord
100
AcDbLayerTableRecord
  2
ShapeString002
 70
    0
 62
    7
  6
CONTINUOUS
  0
LAYER
  5
119E
330
1195
100
AcDbSymbolTableRecord
100
AcDbLayerTableRecord
  2
ShapeString003
 70
    0
 62
    7
  6
CONTINUOUS
  0
LAYER
  5
119F
330
1195
100
AcDbSymbolTableRecord
100
AcDbLayerTableRecord
  2
ShapeString004
 70
    0
 62
    7
  6
CONTINUOUS
  0
LAYER
  5
11A0
330
1195
100
AcDbSymbolTableRecord
100
AcDbLayerTableRecord
  2
ShapeString006
 70
    0
 62
    7
  6
CONTINUOUS
  0
LAYER
  5
11A1
330
1195
100
AcDbSymbolTableRecord
100
AcDbLayerTableRecord
  2
ShapeString007
 70
    0
 62
    7
  6
CONTINUOUS
  0
LAYER
  5
11A2
330
1195
100
AcDbSymbolTableRecord
100
AcDbLayerTableRecord
  2
laser_sketch001
 70
    0
 62
    7
  6
CONTINUOUS
  0
ENDTAB
  0
TABLE
  2
STYLE
  5
70
330
0
100
AcDbSymbolTable
 70
     2
  0
STYLE
  5
71
330
70
100
AcDbSymbolTableRecord
100
AcDbTextStyleTableRecord
  2
STANDARD
 70
     0
 40
0.0
 41
1.0
 50
0.0
 71
     0
 42
2.5
  3
arial.ttf
  4

  0
STYLE
  5
72
330
70
100
AcDbSymbolTableRecord
100
AcDbTextStyleTableRecord
  2
ANNOTATIVE
 70
     0
 40
0.0
 41
1.0
 50
0.0
 71
     0
 42
2.5
  3
arial.ttf
  4

  0
ENDTAB
  0
TABLE
  2
VIEW
  5
73
330
0
100
AcDbSymbolTable
 70
     0
  0
ENDTAB
  0
TABLE
  2
UCS
  5
74
330
0
100
AcDbSymbolTable
 70
     0
  0
ENDTAB
  0
TABLE
  2
APPID
  5
75
330
0
100
AcDbSymbolTable
 70
     2
  0
APPID
  5
76
330
75
100
AcDbSymbolTableRecord
100
AcDbRegAppTableRecord
  2
ACAD
 70
     0
  0
APPID
  5
77
330
75
100
AcDbSymbolTableRecord
100
AcDbRegAppTableRecord
  2
ACADANNOTATIVE
 70
     0
  0
ENDTAB
  0
TABLE
  2
DIMSTYLE
  5
78
330
0
100
AcDbSymbolTable
 70
     2
  0
DIMSTYLE
105
79
330
78
100
AcDbSymbolTableRecord
100
AcDbDimStyleTableRecord
  2
STANDARD
 70
     0
  3

  4

  5

  6

  7

 40
0.0
 41
2.5
 42
0.625
 43
3.75
 44
1.25
 45
0.0
 46
0.0
 47
0.0
 48
0.0
140
2.5
141
2.5
142
0.0
143
0.03937007874016
144
1.0
145
0.0
146
1.0
147
0.625
 71
     0
 72
     0
 73
     0
 74
     0
 75
     0
 76
     0
 77
     1
 78
     8
170
     0
171
     3
172
     1
173
     0
174
     0
175
     0
176
     0
177
     0
178
     0
270
     2
271
     2
272
     2
273
     2
274
     3
340
71
275
     0
280
     0
281
     0
282
     0
283
     0
284
     8
285
     0
286
     0
287
     3
288
     0
  0
ENDTAB
  0
TABLE
  2
BLOCK_RECORD
  5
A01
330
0
100
AcDbSymbolTable
  70
5
  0
BLOCK_RECORD
  5
A02
330
A01
100
AcDbSymbolTableRecord
100
AcDbBlockTableRecord
  2
*MODEL_SPACE
  0
BLOCK_RECORD
  5
A03
330
A01
100
AcDbSymbolTableRecord
100
AcDbBlockTableRecord
  2
*PAPER_SPACE
  0
ENDTAB
  0
ENDSEC
  0
SECTION
  2
BLOCKS
  0
BLOCK
  5
A04
330
A02
100
AcDbEntity
  8
0
100
AcDbBlockBegin
  2
*MODEL_SPACE
 70
   0
 10
0
 20
0
 30
0
  3
*MODEL_SPACE
  1
 
  0
ENDBLK
  5
A05
330
A02
100
AcDbEntity
  8
0
100
AcDbBlockEnd
  0
BLOCK
  5
A06
330
A03
100
AcDbEntity
 67
1
  8
0
100
AcDbBlockBegin
  2
*PAPER_SPACE
 70
   0
 10
0
 20
0
 30
0
  3
*PAPER_SPACE
  1
 
  0
ENDBLK
  5
A07
330
A03
100
AcDbEntity
 67
    1
  8
0
100
AcDbBlockEnd
  0
ENDSEC
  0
SECTION
  2
ENTITIES
  0
LWPOLYLINE
  5
A08
330
A02
100
AcDbEntity
100
AcDbPolyline
  8
ShapeString008
 90
2
 70
0
 43
0
 10
60.883272159
 20
79.920849673
 10
60.724213744
 20
78.755612745
  0
LWPOLYLINE
  5
A09
330
A02
100
AcDbEntity
100
AcDbPolyline
  8
ShapeString008
 90
2
 70
0
 43
0
 10
60.724213744
 20
78.755612745
 10
60.295292175
 20
77.945002042
  0
LWPOLYLINE
  5
A0A
330
A02
100
AcDbEntity
100
AcDbPolyline
  8
ShapeString008
 90
2
 70
0
 43
0
 10
60.295292175
 20
77.945002042
 10
59.663398793
 20
77.469869281
  0
LWPOLYLINE
  5
A0B
330
A02
100
AcDbEntity
100
AcDbPolyline
  8
ShapeString008
 90
2
 70
0
 43
0
 10
59.663398793
 20
77.469869281
 10
58.899509904
 20
77.314640523
  0
LWPOLYLINE
  5
A0C
330
A02
100
AcDbEntity
100
AcDbPolyline
  8
ShapeString008
 90
2
 70
0
 43
0
 10
58.899509904
 20
77.314640523
 10
58.058772567
 20
77.489017565
  0
LWPOLYLINE
  5
A0D
330
A02
100
AcDbEntity
100
AcDbPolyline
  8
ShapeString008
 90
2
 70
0
 43
0
 10
58.058772567
 20
77.489017565
 10
57.465175754
 20
77.993000408
  0
LWPOLYLINE
  5
A0E
330
A02
100
AcDbEntity
100
AcDbPolyline
  8
ShapeString008
 90
2
 70
0
 43
0
 10
57.465175754
 20
77.993000408
 10
57.114889806
 20
78.795951797
  0
LWPOLYLINE
  5
A0F
330
A02
100
AcDbEntity
100
AcDbPolyline
  8
ShapeString008
 90
2
 70
0
 43
0
 10
57.114889806
 20
78.795951797
 10
57.000000100
 20
79.863149510
  0
LWPOLYLINE
  5
A10
330
A02
100
AcDbEntity
100
AcDbPolyline
  8
ShapeString008
 90
2
 70
0
 43
0
 10
57.000000100
 20
79.863149510
 10
57.157016031
 20
81.020471814
  0
LWPOLYLINE
  5
A11
330
A02
100
AcDbEntity
100
AcDbPolyline
  8
ShapeString008
 90
2
 70
0
 43
0
 10
57.157016031
 20
81.020471814
 10
57.583895116
 20
81.831082516
  0
LWPOLYLINE
  5
A12
330
A02
100
AcDbEntity
100
AcDbPolyline
  8
ShapeString008
 90
2
 70
0
 43
0
 10
57.583895116
 20
81.831082516
 10
58.214001325
 20
82.306470588
  0
LWPOLYLINE
  5
A13
330
A02
100
AcDbEntity
100
AcDbPolyline
  8
ShapeString008
 90
2
 70
0
 43
0
 10
58.214001325
 20
82.306470588
 10
58.976103041
 20
82.461699346
  0
LWPOLYLINE
  5
A14
330
A02
100
AcDbEntity
100
AcDbPolyline
  8
ShapeString008
 90
2
 70
0
 43
0
 10
58.976103041
 20
82.461699346
 10
59.816585067
 20
82.285279820
  0
LWPOLYLINE
  5
A15
330
A02
100
AcDbEntity
100
AcDbPolyline
  8
ShapeString008
 90
2
 70
0
 43
0
 10
59.816585067
 20
82.285279820
 10
60.412224365
 20
81.781296977
  0
LWPOLYLINE
  5
A16
330
A02
100
AcDbEntity
100
AcDbPolyline
  8
ShapeString008
 90
2
 70
0
 43
0
 10
60.412224365
 20
81.781296977
 10
60.766339969
 20
80.982175245
  0
LWPOLYLINE
  5
A17
330
A02
100
AcDbEntity
100
AcDbPolyline
  8
ShapeString008
 90
2
 70
0
 43
0
 10
60.766339969
 20
80.982175245
 10
60.883272159
 20
79.920849673
  0
LWPOLYLINE
  5
A18
330
A02
100
AcDbEntity
100
AcDbPolyline
  8
ShapeString008
 90
2
 70
0
 43
0
 10
60.174785639
 20
79.870808824
 10
60.107638989
 20
80.678100490
  0
LWPOLYLINE
  5
A19
330
A02
100
AcDbEntity
100
AcDbPolyline
  8
ShapeString008
 90
2
 70
0
 43
0
 10
60.107638989
 20
80.678100490
 10
59.891391031
 20
81.308972631
  0
LWPOLYLINE
  5
A1A
330
A02
100
AcDbEntity
100
AcDbPolyline
  8
ShapeString008
 90
2
 70
0
 43
0
 10
59.891391031
 20
81.308972631
 10
59.506382861
 20
81.719511846
  0
LWPOLYLINE
  5
A1B
330
A02
100
AcDbEntity
100
AcDbPolyline
  8
ShapeString008
 90
2
 70
0
 43
0
 10
59.506382861
 20
81.719511846
 10
58.937806473
 20
81.865294118
  0
LWPOLYLINE
  5
A1C
330
A02
100
AcDbEntity
100
AcDbPolyline
  8
ShapeString008
 90
2
 70
0
 43
0
 10
58.937806473
 20
81.865294118
 10
58.384293401
 20
81.709810049
  0
LWPOLYLINE
  5
A1D
330
A02
100
AcDbEntity
100
AcDbPolyline
  8
ShapeString008
 90
2
 70
0
 43
0
 10
58.384293401
 20
81.709810049
 10
58.003370198
 20
81.288037173
  0
LWPOLYLINE
  5
A1E
330
A02
100
AcDbEntity
100
AcDbPolyline
  8
ShapeString008
 90
2
 70
0
 43
0
 10
58.003370198
 20
81.288037173
 10
57.781250100
 20
80.662781863
  0
LWPOLYLINE
  5
A1F
330
A02
100
AcDbEntity
100
AcDbPolyline
  8
ShapeString008
 90
2
 70
0
 43
0
 10
57.781250100
 20
80.662781863
 10
57.708486620
 20
79.901446078
  0
LWPOLYLINE
  5
A20
330
A02
100
AcDbEntity
100
AcDbPolyline
  8
ShapeString008
 90
2
 70
0
 43
0
 10
57.708486620
 20
79.901446078
 10
57.777420443
 20
79.090069444
  0
LWPOLYLINE
  5
A21
330
A02
100
AcDbEntity
100
AcDbPolyline
  8
ShapeString008
 90
2
 70
0
 43
0
 10
57.777420443
 20
79.090069444
 10
57.993668401
 20
78.461239788
  0
LWPOLYLINE
  5
A22
330
A02
100
AcDbEntity
100
AcDbPolyline
  8
ShapeString008
 90
2
 70
0
 43
0
 10
57.993668401
 20
78.461239788
 10
58.374846914
 20
78.052743056
  0
LWPOLYLINE
  5
A23
330
A02
100
AcDbEntity
100
AcDbPolyline
  8
ShapeString008
 90
2
 70
0
 43
0
 10
58.374846914
 20
78.052743056
 10
58.937806473
 20
77.906960784
  0
LWPOLYLINE
  5
A24
330
A02
100
AcDbEntity
100
AcDbPolyline
  8
ShapeString008
 90
2
 70
0
 43
0
 10
58.937806473
 20
77.906960784
 10
59.493106718
 20
78.062189542
  0
LWPOLYLINE
  5
A25
330
A02
100
AcDbEntity
100
AcDbPolyline
  8
ShapeString008
 90
2
 70
0
 43
0
 10
59.493106718
 20
78.062189542
 10
59.877859577
 20
78.484217729
  0
LWPOLYLINE
  5
A26
330
A02
100
AcDbEntity
100
AcDbPolyline
  8
ShapeString008
 90
2
 70
0
 43
0
 10
59.877859577
 20
78.484217729
 10
60.102022159
 20
79.107430556
  0
LWPOLYLINE
  5
A27
330
A02
100
AcDbEntity
100
AcDbPolyline
  8
ShapeString008
 90
2
 70
0
 43
0
 10
60.102022159
 20
79.107430556
 10
60.174785639
 20
79.870808824
  0
LINE
  5
A28
330
A02
100
AcDbEntity
  8
ShapeString008
100
AcDbLine
 10
64.702971914
 20
81.795849673
 30
0.000000000
 11
62.577512355
 21
81.795849673
 31
0.000000000
  0
LINE
  5
A29
330
A02
100
AcDbEntity
  8
ShapeString008
100
AcDbLine
 10
62.577512355
 20
81.795849673
 30
0.000000000
 11
62.577512355
 21
80.174117647
 31
0.000000000
  0
LINE
  5
A2A
330
A02
100
AcDbEntity
  8
ShapeString008
100
AcDbLine
 10
62.577512355
 20
80.174117647
 30
0.000000000
 11
64.591911865
 21
80.174117647
 31
0.000000000
  0
LINE
  5
A2B
330
A02
100
AcDbEntity
  8
ShapeString008
100
AcDbLine
 10
64.591911865
 20
80.174117647
 30
0.000000000
 11
64.591911865
 21
79.602222222
 31
0.000000000
  0
LINE
  5
A2C
330
A02
100
AcDbEntity
  8
ShapeString008
100
AcDbLine
 10
64.591911865
 20
79.602222222
 30
0.000000000
 11
62.577512355
 21
79.602222222
 31
0.000000000
  0
LINE
  5
A2D
330
A02
100
AcDbEntity
  8
ShapeString008
100
AcDbLine
 10
62.577512355
 20
79.602222222
 30
0.000000000
 11
62.577512355
 21
77.380000000
 31
0.000000000
  0
LINE
  5
A2E
330
A02
100
AcDbEntity
  8
ShapeString008
100
AcDbLine
 10
62.577512355
 20
77.380000000
 30
0.000000000
 11
61.880514806
 21
77.380000000
 31
0.000000000
  0
LINE
  5
A2F
330
A02
100
AcDbEntity
  8
ShapeString008
100
AcDbLine
 10
61.880514806
 20
77.380000000
 30
0.000000000
 11
61.880514806
 21
82.380000000
 31
0.000000000
  0
LINE
  5
A30
330
A02
100
AcDbEntity
  8
ShapeString008
100
AcDbLine
 10
61.880514806
 20
82.380000000
 30
0.000000000
 11
64.702971914
 21
82.380000000
 31
0.000000000
  0
LINE
  5
A31
330
A02
100
AcDbEntity
  8
ShapeString008
100
AcDbLine
 10
64.702971914
 20
82.380000000
 30
0.000000000
 11
64.702971914
 21
81.795849673
 31
0.000000000
  0
LINE
  5
A32
330
A02
100
AcDbEntity
  8
ShapeString008
100
AcDbLine
 10
69.016697404
 20
81.795849673
 30
0.000000000
 11
66.891237845
 21
81.795849673
 31
0.000000000
  0
LINE
  5
A33
330
A02
100
AcDbEntity
  8
ShapeString008
100
AcDbLine
 10
66.891237845
 20
81.795849673
 30
0.000000000
 11
66.891237845
 21
80.174117647
 31
0.000000000
  0
LINE
  5
A34
330
A02
100
AcDbEntity
  8
ShapeString008
100
AcDbLine
 10
66.891237845
 20
80.174117647
 30
0.000000000
 11
68.905637355
 21
80.174117647
 31
0.000000000
  0
LINE
  5
A35
330
A02
100
AcDbEntity
  8
ShapeString008
100
AcDbLine
 10
68.905637355
 20
80.174117647
 30
0.000000000
 11
68.905637355
 21
79.602222222
 31
0.000000000
  0
LINE
  5
A36
330
A02
100
AcDbEntity
  8
ShapeString008
100
AcDbLine
 10
68.905637355
 20
79.602222222
 30
0.000000000
 11
66.891237845
 21
79.602222222
 31
0.000000000
  0
LINE
  5
A37
330
A02
100
AcDbEntity
  8
ShapeString008
100
AcDbLine
 10
66.891237845
 20
79.602222222
 30
0.000000000
 11
66.891237845
 21
77.380000000
 31
0.000000000
  0
LINE
  5
A38
330
A02
100
AcDbEntity
  8
ShapeString008
100
AcDbLine
 10
66.891237845
 20
77.380000000
 30
0.000000000
 11
66.194240296
 21
77.380000000
 31
0.000000000
  0
LINE
  5
A39
330
A02
100
AcDbEntity
  8
ShapeString008
100
AcDbLine
 10
66.194240296
 20
77.380000000
 30
0.000000000
 11
66.194240296
 21
82.380000000
 31
0.000000000
  0
LINE
  5
A3A
330
A02
100
AcDbEntity
  8
ShapeString008
100
AcDbLine
 10
66.194240296
 20
82.380000000
 30
0.000000000
 11
69.016697404
 21
82.380000000
 31
0.000000000
  0
LINE
  5
A3B
330
A02
100
AcDbEntity
  8
ShapeString008
100
AcDbLine
 10
69.016697404
 20
82.380000000
 30
0.000000000
 11
69.016697404
 21
81.795849673
 31
0.000000000
  0
CIRCLE
  5
A3C
330
A02
100
AcDbEntity
  8
Sketch001
100
AcDbCircle
 10
97.800000000
 20
100.800000000
 30
0.000000000
 40
5.000000000
  0
LINE
  5
A3D
330
A02
100
AcDbEntity
  8
Sketch001
100
AcDbLine
 10
9.292515526
 20
97.925000000
 30
0.000000000
 11
54.392515526
 21
97.925000000
 31
0.000000000
  0
LINE
  5
A3E
330
A02
100
AcDbEntity
  8
Sketch001
100
AcDbLine
 10
54.392515526
 20
97.925000000
 30
0.000000000
 11
54.392515526
 21
124.425000000
 31
0.000000000
  0
LINE
  5
A3F
330
A02
100
AcDbEntity
  8
Sketch001
100
AcDbLine
 10
54.392515526
 20
124.425000000
 30
0.000000000
 11
9.292515526
 21
124.425000000
 31
0.000000000
  0
LINE
  5
A40
330
A02
100
AcDbEntity
  8
Sketch001
100
AcDbLine
 10
9.292515526
 20
124.425000000
 30
0.000000000
 11
9.292515526
 21
97.925000000
 31
0.000000000
  0
LINE
  5
A41
330
A02
100
AcDbEntity
  8
Sketch001
100
AcDbLine
 10
9.292515526
 20
84.050000000
 30
0.000000000
 11
9.292515526
 21
57.550000000
 31
0.000000000
  0
LINE
  5
A42
330
A02
100
AcDbEntity
  8
Sketch001
100
AcDbLine
 10
9.292515526
 20
57.550000000
 30
0.000000000
 11
54.392515526
 21
57.550000000
 31
0.000000000
  0
LINE
  5
A43
330
A02
100
AcDbEntity
  8
Sketch001
100
AcDbLine
 10
54.392515526
 20
57.550000000
 30
0.000000000
 11
54.392515526
 21
84.050000000
 31
0.000000000
  0
LINE
  5
A44
330
A02
100
AcDbEntity
  8
Sketch001
100
AcDbLine
 10
54.392515526
 20
84.050000000
 30
0.000000000
 11
9.292515526
 21
84.050000000
 31
0.000000000
  0
LINE
  5
A45
330
A02
100
AcDbEntity
  8
Sketch001
100
AcDbLine
 10
9.292515526
 20
43.675000000
 30
0.000000000
 11
9.292515526
 21
17.175000000
 31
0.000000000
  0
LINE
  5
A46
330
A02
100
AcDbEntity
  8
Sketch001
100
AcDbLine
 10
9.292515526
 20
17.175000000
 30
0.000000000
 11
54.392515526
 21
17.175000000
 31
0.000000000
  0
LINE
  5
A47
330
A02
100
AcDbEntity
  8
Sketch001
100
AcDbLine
 10
54.392515526
 20
17.175000000
 30
0.000000000
 11
54.392515526
 21
43.675000000
 31
0.000000000
  0
LINE
  5
A48
330
A02
100
AcDbEntity
  8
Sketch001
100
AcDbLine
 10
54.392515526
 20
43.675000000
 30
0.000000000
 11
9.292515526
 21
43.675000000
 31
0.000000000
  0
CIRCLE
  5
A49
330
A02
100
AcDbEntity
  8
Sketch001
100
AcDbCircle
 10
62.917866000
 20
111.175000000
 30
0.000000000
 40
3.000000000
  0
CIRCLE
  5
A4A
330
A02
100
AcDbEntity
  8
Sketch001
100
AcDbCircle
 10
62.917866000
 20
70.800000000
 30
0.000000000
 40
3.000000000
  0
CIRCLE
  5
A4B
330
A02
100
AcDbEntity
  8
Sketch001
100
AcDbCircle
 10
88.275000000
 20
50.453209738
 30
0.000000000
 40
2.000000000
  0
CIRCLE
  5
A4C
330
A02
100
AcDbEntity
  8
Sketch001
100
AcDbCircle
 10
107.325000000
 20
50.453209738
 30
0.000000000
 40
2.000000000
  0
CIRCLE
  5
A4D
330
A02
100
AcDbEntity
  8
Sketch001
100
AcDbCircle
 10
88.275000000
 20
20.453209738
 30
0.000000000
 40
2.000000000
  0
CIRCLE
  5
A4E
330
A02
100
AcDbEntity
  8
Sketch001
100
AcDbCircle
 10
107.325000000
 20
20.453209738
 30
0.000000000
 40
2.000000000
  0
CIRCLE
  5
A4F
330
A02
100
AcDbEntity
  8
Sketch001
100
AcDbCircle
 10
-80.647797000
 20
18.000000000
 30
0.000000000
 40
1.500000000
  0
CIRCLE
  5
A50
330
A02
100
AcDbEntity
  8
Sketch001
100
AcDbCircle
 10
-80.647797000
 20
132.500000000
 30
0.000000000
 40
1.500000000
  0
CIRCLE
  5
A51
330
A02
100
AcDbEntity
  8
Sketch001
100
AcDbCircle
 10
213.511673000
 20
132.500000000
 30
0.000000000
 40
1.500000000
  0
CIRCLE
  5
A52
330
A02
100
AcDbEntity
  8
Sketch001
100
AcDbCircle
 10
213.511673000
 20
18.000000000
 30
0.000000000
 40
1.500000000
  0
CIRCLE
  5
A53
330
A02
100
AcDbEntity
  8
Sketch001
100
AcDbCircle
 10
7.755199000
 20
195.346512000
 30
0.000000000
 40
1.050000000
  0
CIRCLE
  5
A54
330
A02
100
AcDbEntity
  8
Sketch001
100
AcDbCircle
 10
79.755199000
 20
195.346512000
 30
0.000000000
 40
1.050000000
  0
LWPOLYLINE
  5
A55
330
A02
100
AcDbEntity
100
AcDbPolyline
  8
ShapeString005
 90
2
 70
0
 43
0
 10
78.958180247
 20
28.055653595
 10
77.698223139
 20
27.814640523
  0
LWPOLYLINE
  5
A56
330
A02
100
AcDbEntity
100
AcDbPolyline
  8
ShapeString005
 90
2
 70
0
 43
0
 10
77.698223139
 20
27.814640523
 10
76.068576489
 20
28.448831699
  0
LWPOLYLINE
  5
A57
330
A02
100
AcDbEntity
100
AcDbPolyline
  8
ShapeString005
 90
2
 70
0
 43
0
 10
76.068576489
 20
28.448831699
 10
75.500000100
 20
30.324342320
  0
LWPOLYLINE
  5
A58
330
A02
100
AcDbEntity
100
AcDbPolyline
  8
ShapeString005
 90
2
 70
0
 43
0
 10
75.500000100
 20
30.324342320
 10
75.657016031
 20
31.412730801
  0
LWPOLYLINE
  5
A59
330
A02
100
AcDbEntity
100
AcDbPolyline
  8
ShapeString005
 90
2
 70
0
 43
0
 10
75.657016031
 20
31.412730801
 10
76.105085884
 20
32.238404820
  0
LWPOLYLINE
  5
A5A
330
A02
100
AcDbEntity
100
AcDbPolyline
  8
ShapeString005
 90
2
 70
0
 43
0
 10
76.105085884
 20
32.238404820
 10
76.809742747
 20
32.761280637
  0
LWPOLYLINE
  5
A5B
330
A02
100
AcDbEntity
100
AcDbPolyline
  8
ShapeString005
 90
2
 70
0
 43
0
 10
76.809742747
 20
32.761280637
 10
77.736519708
 20
32.945359477
  0
LWPOLYLINE
  5
A5C
330
A02
100
AcDbEntity
100
AcDbPolyline
  8
ShapeString005
 90
2
 70
0
 43
0
 10
77.736519708
 20
32.945359477
 10
78.383731718
 20
32.885106209
  0
LWPOLYLINE
  5
A5D
330
A02
100
AcDbEntity
100
AcDbPolyline
  8
ShapeString005
 90
2
 70
0
 43
0
 10
78.383731718
 20
32.885106209
 10
78.958180247
 20
32.700261438
  0
LINE
  5
A5E
330
A02
100
AcDbEntity
  8
ShapeString005
100
AcDbLine
 10
78.958180247
 20
32.700261438
 30
0.000000000
 11
78.958180247
 21
32.030326797
 31
0.000000000
  0
LWPOLYLINE
  5
A5F
330
A02
100
AcDbEntity
100
AcDbPolyline
  8
ShapeString005
 90
2
 70
0
 43
0
 10
78.958180247
 20
32.030326797
 10
78.395220688
 20
32.261127451
  0
LWPOLYLINE
  5
A60
330
A02
100
AcDbEntity
100
AcDbPolyline
  8
ShapeString005
 90
2
 70
0
 43
0
 10
78.395220688
 20
32.261127451
 10
77.759497649
 20
32.340784314
  0
LWPOLYLINE
  5
A61
330
A02
100
AcDbEntity
100
AcDbPolyline
  8
ShapeString005
 90
2
 70
0
 43
0
 10
77.759497649
 20
32.340784314
 10
77.121732126
 20
32.208533497
  0
LWPOLYLINE
  5
A62
330
A02
100
AcDbEntity
100
AcDbPolyline
  8
ShapeString005
 90
2
 70
0
 43
0
 10
77.121732126
 20
32.208533497
 10
76.637408188
 20
31.825057190
  0
LWPOLYLINE
  5
A63
330
A02
100
AcDbEntity
100
AcDbPolyline
  8
ShapeString005
 90
2
 70
0
 43
0
 10
76.637408188
 20
31.825057190
 10
76.331035639
 20
31.211801471
  0
LWPOLYLINE
  5
A64
330
A02
100
AcDbEntity
100
AcDbPolyline
  8
ShapeString005
 90
2
 70
0
 43
0
 10
76.331035639
 20
31.211801471
 10
76.223805247
 20
30.385872141
  0
LWPOLYLINE
  5
A65
330
A02
100
AcDbEntity
100
AcDbPolyline
  8
ShapeString005
 90
2
 70
0
 43
0
 10
76.223805247
 20
30.385872141
 10
76.618259904
 20
28.917837010
  0
LWPOLYLINE
  5
A66
330
A02
100
AcDbEntity
100
AcDbPolyline
  8
ShapeString005
 90
2
 70
0
 43
0
 10
76.618259904
 20
28.917837010
 10
77.774816276
 20
28.423300654
  0
LWPOLYLINE
  5
A67
330
A02
100
AcDbEntity
100
AcDbPolyline
  8
ShapeString005
 90
2
 70
0
 43
0
 10
77.774816276
 20
28.423300654
 10
78.391391031
 20
28.496319444
  0
LWPOLYLINE
  5
A68
330
A02
100
AcDbEntity
100
AcDbPolyline
  8
ShapeString005
 90
2
 70
0
 43
0
 10
78.391391031
 20
28.496319444
 10
78.958180247
 20
28.701078431
  0
LINE
  5
A69
330
A02
100
AcDbEntity
  8
ShapeString005
100
AcDbLine
 10
78.958180247
 20
28.701078431
 30
0.000000000
 11
78.958180247
 21
28.055653595
 31
0.000000000
  0
LINE
  5
A6A
330
A02
100
AcDbEntity
  8
ShapeString005
100
AcDbLine
 10
83.164675345
 20
27.880000000
 30
0.000000000
 11
82.567248875
 21
27.880000000
 31
0.000000000
  0
LINE
  5
A6B
330
A02
100
AcDbEntity
  8
ShapeString005
100
AcDbLine
 10
82.567248875
 20
27.880000000
 30
0.000000000
 11
82.544270933
 21
28.499638480
 31
0.000000000
  0
LWPOLYLINE
  5
A6C
330
A02
100
AcDbEntity
100
AcDbPolyline
  8
ShapeString005
 90
2
 70
0
 43
0
 10
82.544270933
 20
28.499638480
 10
82.216707616
 20
28.170287990
  0
LWPOLYLINE
  5
A6D
330
A02
100
AcDbEntity
100
AcDbPolyline
  8
ShapeString005
 90
2
 70
0
 43
0
 10
82.216707616
 20
28.170287990
 10
81.908547894
 20
27.959146242
  0
LWPOLYLINE
  5
A6E
330
A02
100
AcDbEntity
100
AcDbPolyline
  8
ShapeString005
 90
2
 70
0
 43
0
 10
81.908547894
 20
27.959146242
 10
81.600132861
 20
27.847064951
  0
LWPOLYLINE
  5
A6F
330
A02
100
AcDbEntity
100
AcDbPolyline
  8
ShapeString005
 90
2
 70
0
 43
0
 10
81.600132861
 20
27.847064951
 10
81.272824855
 20
27.814640523
  0
LWPOLYLINE
  5
A70
330
A02
100
AcDbEntity
100
AcDbPolyline
  8
ShapeString005
 90
2
 70
0
 43
0
 10
81.272824855
 20
27.814640523
 10
80.376685149
 20
28.162373366
  0
LWPOLYLINE
  5
A71
330
A02
100
AcDbEntity
100
AcDbPolyline
  8
ShapeString005
 90
2
 70
0
 43
0
 10
80.376685149
 20
28.162373366
 10
80.074142257
 20
29.213231209
  0
LINE
  5
A72
330
A02
100
AcDbEntity
  8
ShapeString005
100
AcDbLine
 10
80.074142257
 20
29.213231209
 30
0.000000000
 11
80.074142257
 21
31.719869281
 31
0.000000000
  0
LINE
  5
A73
330
A02
100
AcDbEntity
  8
ShapeString005
100
AcDbLine
 10
80.074142257
 20
31.719869281
 30
0.000000000
 11
80.740502551
 21
31.719869281
 31
0.000000000
  0
LINE
  5
A74
330
A02
100
AcDbEntity
  8
ShapeString005
100
AcDbLine
 10
80.740502551
 20
31.719869281
 30
0.000000000
 11
80.740502551
 21
29.268633578
 31
0.000000000
  0
LWPOLYLINE
  5
A75
330
A02
100
AcDbEntity
100
AcDbPolyline
  8
ShapeString005
 90
2
 70
0
 43
0
 10
80.740502551
 20
29.268633578
 10
81.406862845
 20
28.386535948
  0
LWPOLYLINE
  5
A76
330
A02
100
AcDbEntity
100
AcDbPolyline
  8
ShapeString005
 90
2
 70
0
 43
0
 10
81.406862845
 20
28.386535948
 10
81.646088744
 20
28.422790033
  0
LWPOLYLINE
  5
A77
330
A02
100
AcDbEntity
100
AcDbPolyline
  8
ShapeString005
 90
2
 70
0
 43
0
 10
81.646088744
 20
28.422790033
 10
81.891186783
 20
28.548658088
  0
LWPOLYLINE
  5
A78
330
A02
100
AcDbEntity
100
AcDbPolyline
  8
ShapeString005
 90
2
 70
0
 43
0
 10
81.891186783
 20
28.548658088
 10
82.166922077
 20
28.791203023
  0
LWPOLYLINE
  5
A79
330
A02
100
AcDbEntity
100
AcDbPolyline
  8
ShapeString005
 90
2
 70
0
 43
0
 10
82.166922077
 20
28.791203023
 10
82.498315051
 20
29.176977124
  0
LINE
  5
A7A
330
A02
100
AcDbEntity
  8
ShapeString005
100
AcDbLine
 10
82.498315051
 20
29.176977124
 30
0.000000000
 11
82.498315051
 21
31.719869281
 31
0.000000000
  0
LINE
  5
A7B
330
A02
100
AcDbEntity
  8
ShapeString005
100
AcDbLine
 10
82.498315051
 20
31.719869281
 30
0.000000000
 11
83.164675345
 21
31.719869281
 31
0.000000000
  0
LINE
  5
A7C
330
A02
100
AcDbEntity
  8
ShapeString005
100
AcDbLine
 10
83.164675345
 20
31.719869281
 30
0.000000000
 11
83.164675345
 21
27.880000000
 31
0.000000000
  0
LINE
  5
A7D
330
A02
100
AcDbEntity
  8
ShapeString005
100
AcDbLine
 10
84.544883678
 20
31.719869281
 30
0.000000000
 11
85.153799120
 21
31.719869281
 31
0.000000000
  0
LINE
  5
A7E
330
A02
100
AcDbEntity
  8
ShapeString005
100
AcDbLine
 10
85.153799120
 20
31.719869281
 30
0.000000000
 11
85.172947404
 21
31.009595588
 31
0.000000000
  0
LWPOLYLINE
  5
A7F
330
A02
100
AcDbEntity
100
AcDbPolyline
  8
ShapeString005
 90
2
 70
0
 43
0
 10
85.172947404
 20
31.009595588
 10
85.844924528
 20
31.614170752
  0
LWPOLYLINE
  5
A80
330
A02
100
AcDbEntity
100
AcDbPolyline
  8
ShapeString005
 90
2
 70
0
 43
0
 10
85.844924528
 20
31.614170752
 10
86.513327306
 20
31.801568627
  0
LWPOLYLINE
  5
A81
330
A02
100
AcDbEntity
100
AcDbPolyline
  8
ShapeString005
 90
2
 70
0
 43
0
 10
86.513327306
 20
31.801568627
 10
87.418913499
 20
31.410433007
  0
LWPOLYLINE
  5
A82
330
A02
100
AcDbEntity
100
AcDbPolyline
  8
ShapeString005
 90
2
 70
0
 43
0
 10
87.418913499
 20
31.410433007
 10
87.704350590
 20
30.249281046
  0
LINE
  5
A83
330
A02
100
AcDbEntity
  8
ShapeString005
100
AcDbLine
 10
87.704350590
 20
30.249281046
 30
0.000000000
 11
87.030330982
 21
30.249281046
 31
0.000000000
  0
LWPOLYLINE
  5
A84
330
A02
100
AcDbEntity
100
AcDbPolyline
  8
ShapeString005
 90
2
 70
0
 43
0
 10
87.030330982
 20
30.249281046
 10
86.882761538
 20
30.994021650
  0
LWPOLYLINE
  5
A85
330
A02
100
AcDbEntity
100
AcDbPolyline
  8
ShapeString005
 90
2
 70
0
 43
0
 10
86.882761538
 20
30.994021650
 10
86.417585884
 20
31.225588235
  0
LWPOLYLINE
  5
A86
330
A02
100
AcDbEntity
100
AcDbPolyline
  8
ShapeString005
 90
2
 70
0
 43
0
 10
86.417585884
 20
31.225588235
 10
86.147467420
 20
31.176823938
  0
LWPOLYLINE
  5
A87
330
A02
100
AcDbEntity
100
AcDbPolyline
  8
ShapeString005
 90
2
 70
0
 43
0
 10
86.147467420
 20
31.176823938
 10
85.867902469
 20
31.021084559
  0
LWPOLYLINE
  5
A88
330
A02
100
AcDbEntity
100
AcDbPolyline
  8
ShapeString005
 90
2
 70
0
 43
0
 10
85.867902469
 20
31.021084559
 10
85.563572404
 20
30.746625817
  0
LWPOLYLINE
  5
A89
330
A02
100
AcDbEntity
100
AcDbPolyline
  8
ShapeString005
 90
2
 70
0
 43
0
 10
85.563572404
 20
30.746625817
 10
85.218903286
 20
30.341448121
  0
LINE
  5
A8A
330
A02
100
AcDbEntity
  8
ShapeString005
100
AcDbLine
 10
85.218903286
 20
30.341448121
 30
0.000000000
 11
85.218903286
 21
27.880000000
 31
0.000000000
  0
LINE
  5
A8B
330
A02
100
AcDbEntity
  8
ShapeString005
100
AcDbLine
 10
85.218903286
 20
27.880000000
 30
0.000000000
 11
84.544883678
 21
27.880000000
 31
0.000000000
  0
LINE
  5
A8C
330
A02
100
AcDbEntity
  8
ShapeString005
100
AcDbLine
 10
84.544883678
 20
27.880000000
 30
0.000000000
 11
84.544883678
 21
31.719869281
 31
0.000000000
  0
LINE
  5
A8D
330
A02
100
AcDbEntity
  8
ShapeString005
100
AcDbLine
 10
88.858609169
 20
31.719869281
 30
0.000000000
 11
89.467524610
 21
31.719869281
 31
0.000000000
  0
LINE
  5
A8E
330
A02
100
AcDbEntity
  8
ShapeString005
100
AcDbLine
 10
89.467524610
 20
31.719869281
 30
0.000000000
 11
89.486672894
 21
31.009595588
 31
0.000000000
  0
LWPOLYLINE
  5
A8F
330
A02
100
AcDbEntity
100
AcDbPolyline
  8
ShapeString005
 90
2
 70
0
 43
0
 10
89.486672894
 20
31.009595588
 10
90.158650018
 20
31.614170752
  0
LWPOLYLINE
  5
A90
330
A02
100
AcDbEntity
100
AcDbPolyline
  8
ShapeString005
 90
2
 70
0
 43
0
 10
90.158650018
 20
31.614170752
 10
90.827052796
 20
31.801568627
  0
LWPOLYLINE
  5
A91
330
A02
100
AcDbEntity
100
AcDbPolyline
  8
ShapeString005
 90
2
 70
0
 43
0
 10
90.827052796
 20
31.801568627
 10
91.732638989
 20
31.410433007
  0
LWPOLYLINE
  5
A92
330
A02
100
AcDbEntity
100
AcDbPolyline
  8
ShapeString005
 90
2
 70
0
 43
0
 10
91.732638989
 20
31.410433007
 10
92.018076080
 20
30.249281046
  0
LINE
  5
A93
330
A02
100
AcDbEntity
  8
ShapeString005
100
AcDbLine
 10
92.018076080
 20
30.249281046
 30
0.000000000
 11
91.344056473
 21
30.249281046
 31
0.000000000
  0
LWPOLYLINE
  5
A94
330
A02
100
AcDbEntity
100
AcDbPolyline
  8
ShapeString005
 90
2
 70
0
 43
0
 10
91.344056473
 20
30.249281046
 10
91.196487028
 20
30.994021650
  0
LWPOLYLINE
  5
A95
330
A02
100
AcDbEntity
100
AcDbPolyline
  8
ShapeString005
 90
2
 70
0
 43
0
 10
91.196487028
 20
30.994021650
 10
90.731311375
 20
31.225588235
  0
LWPOLYLINE
  5
A96
330
A02
100
AcDbEntity
100
AcDbPolyline
  8
ShapeString005
 90
2
 70
0
 43
0
 10
90.731311375
 20
31.225588235
 10
90.461192910
 20
31.176823938
  0
LWPOLYLINE
  5
A97
330
A02
100
AcDbEntity
100
AcDbPolyline
  8
ShapeString005
 90
2
 70
0
 43
0
 10
90.461192910
 20
31.176823938
 10
90.181627959
 20
31.021084559
  0
LWPOLYLINE
  5
A98
330
A02
100
AcDbEntity
100
AcDbPolyline
  8
ShapeString005
 90
2
 70
0
 43
0
 10
90.181627959
 20
31.021084559
 10
89.877297894
 20
30.746625817
  0
LWPOLYLINE
  5
A99
330
A02
100
AcDbEntity
100
AcDbPolyline
  8
ShapeString005
 90
2
 70
0
 43
0
 10
89.877297894
 20
30.746625817
 10
89.532628776
 20
30.341448121
  0
LINE
  5
A9A
330
A02
100
AcDbEntity
  8
ShapeString005
100
AcDbLine
 10
89.532628776
 20
30.341448121
 30
0.000000000
 11
89.532628776
 21
27.880000000
 31
0.000000000
  0
LINE
  5
A9B
330
A02
100
AcDbEntity
  8
ShapeString005
100
AcDbLine
 10
89.532628776
 20
27.880000000
 30
0.000000000
 11
88.858609169
 21
27.880000000
 31
0.000000000
  0
LINE
  5
A9C
330
A02
100
AcDbEntity
  8
ShapeString005
100
AcDbLine
 10
88.858609169
 20
27.880000000
 30
0.000000000
 11
88.858609169
 21
31.719869281
 31
0.000000000
  0
LWPOLYLINE
  5
A9D
330
A02
100
AcDbEntity
100
AcDbPolyline
  8
ShapeString005
 90
2
 70
0
 43
0
 10
96.262867747
 20
30.013118873
 10
96.259038090
 20
29.775680147
  0
LWPOLYLINE
  5
A9E
330
A02
100
AcDbEntity
100
AcDbPolyline
  8
ShapeString005
 90
2
 70
0
 43
0
 10
96.259038090
 20
29.775680147
 10
96.247549120
 20
29.595686275
  0
LINE
  5
A9F
330
A02
100
AcDbEntity
  8
ShapeString005
100
AcDbLine
 10
96.247549120
 20
29.595686275
 30
0.000000000
 11
93.547641031
 21
29.595686275
 31
0.000000000
  0
LWPOLYLINE
  5
AA0
330
A02
100
AcDbEntity
100
AcDbPolyline
  8
ShapeString005
 90
2
 70
0
 43
0
 10
93.547641031
 20
29.595686275
 10
93.876991522
 20
28.687036356
  0
LWPOLYLINE
  5
AA1
330
A02
100
AcDbEntity
100
AcDbPolyline
  8
ShapeString005
 90
2
 70
0
 43
0
 10
93.876991522
 20
28.687036356
 10
94.826746424
 20
28.370196078
  0
LWPOLYLINE
  5
AA2
330
A02
100
AcDbEntity
100
AcDbPolyline
  8
ShapeString005
 90
2
 70
0
 43
0
 10
94.826746424
 20
28.370196078
 10
95.163756227
 20
28.383472222
  0
LWPOLYLINE
  5
AA3
330
A02
100
AcDbEntity
100
AcDbPolyline
  8
ShapeString005
 90
2
 70
0
 43
0
 10
95.163756227
 20
28.383472222
 10
95.489277061
 20
28.419470997
  0
LWPOLYLINE
  5
AA4
330
A02
100
AcDbEntity
100
AcDbPolyline
  8
ShapeString005
 90
2
 70
0
 43
0
 10
95.489277061
 20
28.419470997
 10
95.789777469
 20
28.470788399
  0
LWPOLYLINE
  5
AA5
330
A02
100
AcDbEntity
100
AcDbPolyline
  8
ShapeString005
 90
2
 70
0
 43
0
 10
95.789777469
 20
28.470788399
 10
96.056066276
 20
28.533594771
  0
LINE
  5
AA6
330
A02
100
AcDbEntity
  8
ShapeString005
100
AcDbLine
 10
96.056066276
 20
28.533594771
 30
0.000000000
 11
96.056066276
 21
27.986209150
 31
0.000000000
  0
LWPOLYLINE
  5
AA7
330
A02
100
AcDbEntity
100
AcDbPolyline
  8
ShapeString005
 90
2
 70
0
 43
0
 10
96.056066276
 20
27.986209150
 10
95.441278695
 20
27.862383578
  0
LWPOLYLINE
  5
AA8
330
A02
100
AcDbEntity
100
AcDbPolyline
  8
ShapeString005
 90
2
 70
0
 43
0
 10
95.441278695
 20
27.862383578
 10
94.731005002
 20
27.814640523
  0
LWPOLYLINE
  5
AA9
330
A02
100
AcDbEntity
100
AcDbPolyline
  8
ShapeString005
 90
2
 70
0
 43
0
 10
94.731005002
 20
27.814640523
 10
93.880821178
 20
27.948678513
  0
LWPOLYLINE
  5
AAA
330
A02
100
AcDbEntity
100
AcDbPolyline
  8
ShapeString005
 90
2
 70
0
 43
0
 10
93.880821178
 20
27.948678513
 10
93.296670852
 20
28.337771650
  0
LWPOLYLINE
  5
AAB
330
A02
100
AcDbEntity
100
AcDbPolyline
  8
ShapeString005
 90
2
 70
0
 43
0
 10
93.296670852
 20
28.337771650
 10
92.959661048
 20
28.962771650
  0
LWPOLYLINE
  5
AAC
330
A02
100
AcDbEntity
100
AcDbPolyline
  8
ShapeString005
 90
2
 70
0
 43
0
 10
92.959661048
 20
28.962771650
 10
92.850643482
 20
29.800445261
  0
LWPOLYLINE
  5
AAD
330
A02
100
AcDbEntity
100
AcDbPolyline
  8
ShapeString005
 90
2
 70
0
 43
0
 10
92.850643482
 20
29.800445261
 10
92.967320361
 20
30.569185049
  0
LWPOLYLINE
  5
AAE
330
A02
100
AcDbEntity
100
AcDbPolyline
  8
ShapeString005
 90
2
 70
0
 43
0
 10
92.967320361
 20
30.569185049
 10
93.308159822
 20
31.205418709
  0
LWPOLYLINE
  5
AAF
330
A02
100
AcDbEntity
100
AcDbPolyline
  8
ShapeString005
 90
2
 70
0
 43
0
 10
93.308159822
 20
31.205418709
 10
93.857843237
 20
31.640467729
  0
LWPOLYLINE
  5
AB0
330
A02
100
AcDbEntity
100
AcDbPolyline
  8
ShapeString005
 90
2
 70
0
 43
0
 10
93.857843237
 20
31.640467729
 10
94.596967012
 20
31.801568627
  0
LWPOLYLINE
  5
AB1
330
A02
100
AcDbEntity
100
AcDbPolyline
  8
ShapeString005
 90
2
 70
0
 43
0
 10
94.596967012
 20
31.801568627
 10
95.309283188
 20
31.675189951
  0
LWPOLYLINE
  5
AB2
330
A02
100
AcDbEntity
100
AcDbPolyline
  8
ShapeString005
 90
2
 70
0
 43
0
 10
95.309283188
 20
31.675189951
 10
95.831903695
 20
31.316989379
  0
LWPOLYLINE
  5
AB3
330
A02
100
AcDbEntity
100
AcDbPolyline
  8
ShapeString005
 90
2
 70
0
 43
0
 10
95.831903695
 20
31.316989379
 10
96.153594871
 20
30.754029820
  0
LWPOLYLINE
  5
AB4
330
A02
100
AcDbEntity
100
AcDbPolyline
  8
ShapeString005
 90
2
 70
0
 43
0
 10
96.153594871
 20
30.754029820
 10
96.262867747
 20
30.013118873
  0
LWPOLYLINE
  5
AB5
330
A02
100
AcDbEntity
100
AcDbPolyline
  8
ShapeString005
 90
2
 70
0
 43
0
 10
95.569699855
 20
30.110392157
 10
95.519914316
 20
30.579397467
  0
LWPOLYLINE
  5
AB6
330
A02
100
AcDbEntity
100
AcDbPolyline
  8
ShapeString005
 90
2
 70
0
 43
0
 10
95.519914316
 20
30.579397467
 10
95.330218646
 20
30.945002042
  0
LWPOLYLINE
  5
AB7
330
A02
100
AcDbEntity
100
AcDbPolyline
  8
ShapeString005
 90
2
 70
0
 43
0
 10
95.330218646
 20
30.945002042
 10
95.010569953
 20
31.184227941
  0
LWPOLYLINE
  5
AB8
330
A02
100
AcDbEntity
100
AcDbPolyline
  8
ShapeString005
 90
2
 70
0
 43
0
 10
95.010569953
 20
31.184227941
 10
94.566329757
 20
31.270522876
  0
LWPOLYLINE
  5
AB9
330
A02
100
AcDbEntity
100
AcDbPolyline
  8
ShapeString005
 90
2
 70
0
 43
0
 10
94.566329757
 20
31.270522876
 10
94.168045443
 20
31.186270425
  0
LWPOLYLINE
  5
ABA
330
A02
100
AcDbEntity
100
AcDbPolyline
  8
ShapeString005
 90
2
 70
0
 43
0
 10
94.168045443
 20
31.186270425
 10
93.857843237
 20
30.948831699
  0
LWPOLYLINE
  5
ABB
330
A02
100
AcDbEntity
100
AcDbPolyline
  8
ShapeString005
 90
2
 70
0
 43
0
 10
93.857843237
 20
30.948831699
 10
93.647212110
 20
30.581184641
  0
LWPOLYLINE
  5
ABC
330
A02
100
AcDbEntity
100
AcDbPolyline
  8
ShapeString005
 90
2
 70
0
 43
0
 10
93.647212110
 20
30.581184641
 10
93.547641031
 20
30.110392157
  0
LINE
  5
ABD
330
A02
100
AcDbEntity
  8
ShapeString005
100
AcDbLine
 10
93.547641031
 20
30.110392157
 30
0.000000000
 11
95.569699855
 21
30.110392157
 31
0.000000000
  0
LINE
  5
ABE
330
A02
100
AcDbEntity
  8
ShapeString005
100
AcDbLine
 10
97.329044218
 20
31.719869281
 30
0.000000000
 11
97.922641031
 21
31.719869281
 31
0.000000000
  0
LINE
  5
ABF
330
A02
100
AcDbEntity
  8
ShapeString005
100
AcDbLine
 10
97.922641031
 20
31.719869281
 30
0.000000000
 11
97.949448629
 21
31.100230801
 31
0.000000000
  0
LWPOLYLINE
  5
AC0
330
A02
100
AcDbEntity
100
AcDbPolyline
  8
ShapeString005
 90
2
 70
0
 43
0
 10
97.949448629
 20
31.100230801
 10
98.274969463
 20
31.437240605
  0
LWPOLYLINE
  5
AC1
330
A02
100
AcDbEntity
100
AcDbPolyline
  8
ShapeString005
 90
2
 70
0
 43
0
 10
98.274969463
 20
31.437240605
 10
98.583129185
 20
31.653488562
  0
LWPOLYLINE
  5
AC2
330
A02
100
AcDbEntity
100
AcDbPolyline
  8
ShapeString005
 90
2
 70
0
 43
0
 10
98.583129185
 20
31.653488562
 10
98.891544218
 20
31.768378268
  0
LWPOLYLINE
  5
AC3
330
A02
100
AcDbEntity
100
AcDbPolyline
  8
ShapeString005
 90
2
 70
0
 43
0
 10
98.891544218
 20
31.768378268
 10
99.217065051
 20
31.801568627
  0
LWPOLYLINE
  5
AC4
330
A02
100
AcDbEntity
100
AcDbPolyline
  8
ShapeString005
 90
2
 70
0
 43
0
 10
99.217065051
 20
31.801568627
 10
100.114991930
 20
31.450516748
  0
LWPOLYLINE
  5
AC5
330
A02
100
AcDbEntity
100
AcDbPolyline
  8
ShapeString005
 90
2
 70
0
 43
0
 10
100.114991930
 20
31.450516748
 10
100.419577306
 20
30.393276144
  0
LINE
  5
AC6
330
A02
100
AcDbEntity
  8
ShapeString005
100
AcDbLine
 10
100.419577306
 20
30.393276144
 30
0.000000000
 11
100.419577306
 21
27.880000000
 31
0.000000000
  0
LINE
  5
AC7
330
A02
100
AcDbEntity
  8
ShapeString005
100
AcDbLine
 10
100.419577306
 20
27.880000000
 30
0.000000000
 11
99.753217012
 21
27.880000000
 31
0.000000000
  0
LINE
  5
AC8
330
A02
100
AcDbEntity
  8
ShapeString005
100
AcDbLine
 10
99.753217012
 20
27.880000000
 30
0.000000000
 11
99.753217012
 21
30.339405637
 31
0.000000000
  0
LWPOLYLINE
  5
AC9
330
A02
100
AcDbEntity
100
AcDbPolyline
  8
ShapeString005
 90
2
 70
0
 43
0
 10
99.753217012
 20
30.339405637
 10
99.584712110
 20
31.008829657
  0
LWPOLYLINE
  5
ACA
330
A02
100
AcDbEntity
100
AcDbPolyline
  8
ShapeString005
 90
2
 70
0
 43
0
 10
99.584712110
 20
31.008829657
 10
99.083027061
 20
31.225588235
  0
LWPOLYLINE
  5
ACB
330
A02
100
AcDbEntity
100
AcDbPolyline
  8
ShapeString005
 90
2
 70
0
 43
0
 10
99.083027061
 20
31.225588235
 10
98.843545852
 20
31.189078840
  0
LWPOLYLINE
  5
ACC
330
A02
100
AcDbEntity
100
AcDbPolyline
  8
ShapeString005
 90
2
 70
0
 43
0
 10
98.843545852
 20
31.189078840
 10
98.600490296
 20
31.062444853
  0
LWPOLYLINE
  5
ACD
330
A02
100
AcDbEntity
100
AcDbPolyline
  8
ShapeString005
 90
2
 70
0
 43
0
 10
98.600490296
 20
31.062444853
 10
98.326542175
 20
30.818878676
  0
LWPOLYLINE
  5
ACE
330
A02
100
AcDbEntity
100
AcDbPolyline
  8
ShapeString005
 90
2
 70
0
 43
0
 10
98.326542175
 20
30.818878676
 10
97.995404512
 20
30.435147059
  0
LINE
  5
ACF
330
A02
100
AcDbEntity
  8
ShapeString005
100
AcDbLine
 10
97.995404512
 20
30.435147059
 30
0.000000000
 11
97.995404512
 21
27.880000000
 31
0.000000000
  0
LINE
  5
AD0
330
A02
100
AcDbEntity
  8
ShapeString005
100
AcDbLine
 10
97.995404512
 20
27.880000000
 30
0.000000000
 11
97.329044218
 21
27.880000000
 31
0.000000000
  0
LINE
  5
AD1
330
A02
100
AcDbEntity
  8
ShapeString005
100
AcDbLine
 10
97.329044218
 20
27.880000000
 30
0.000000000
 11
97.329044218
 21
31.719869281
 31
0.000000000
  0
LWPOLYLINE
  5
AD2
330
A02
100
AcDbEntity
100
AcDbPolyline
  8
ShapeString005
 90
2
 70
0
 43
0
 10
104.740962110
 20
27.933104575
 10
104.273743973
 20
27.854724265
  0
LWPOLYLINE
  5
AD3
330
A02
100
AcDbEntity
100
AcDbPolyline
  8
ShapeString005
 90
2
 70
0
 43
0
 10
104.273743973
 20
27.854724265
 10
103.783547894
 20
27.830980392
  0
LWPOLYLINE
  5
AD4
330
A02
100
AcDbEntity
100
AcDbPolyline
  8
ShapeString005
 90
2
 70
0
 43
0
 10
103.783547894
 20
27.830980392
 10
102.703584659
 20
28.157267157
  0
LWPOLYLINE
  5
AD5
330
A02
100
AcDbEntity
100
AcDbPolyline
  8
ShapeString005
 90
2
 70
0
 43
0
 10
102.703584659
 20
28.157267157
 10
102.347426571
 20
29.159616013
  0
LINE
  5
AD6
330
A02
100
AcDbEntity
  8
ShapeString005
100
AcDbLine
 10
102.347426571
 20
29.159616013
 30
0.000000000
 11
102.347426571
 21
31.160228758
 31
0.000000000
  0
LINE
  5
AD7
330
A02
100
AcDbEntity
  8
ShapeString005
100
AcDbLine
 10
102.347426571
 20
31.160228758
 30
0.000000000
 11
101.271292992
 21
31.160228758
 31
0.000000000
  0
LINE
  5
AD8
330
A02
100
AcDbEntity
  8
ShapeString005
100
AcDbLine
 10
101.271292992
 20
31.160228758
 30
0.000000000
 11
101.271292992
 21
31.719869281
 31
0.000000000
  0
LINE
  5
AD9
330
A02
100
AcDbEntity
  8
ShapeString005
100
AcDbLine
 10
101.271292992
 20
31.719869281
 30
0.000000000
 11
102.347426571
 21
31.719869281
 31
0.000000000
  0
LINE
  5
ADA
330
A02
100
AcDbEntity
  8
ShapeString005
100
AcDbLine
 10
102.347426571
 20
31.719869281
 30
0.000000000
 11
102.347426571
 21
32.773535539
 31
0.000000000
  0
LINE
  5
ADB
330
A02
100
AcDbEntity
  8
ShapeString005
100
AcDbLine
 10
102.347426571
 20
32.773535539
 30
0.000000000
 11
103.013786865
 21
32.945359477
 31
0.000000000
  0
LINE
  5
ADC
330
A02
100
AcDbEntity
  8
ShapeString005
100
AcDbLine
 10
103.013786865
 20
32.945359477
 30
0.000000000
 11
103.013786865
 21
31.719869281
 31
0.000000000
  0
LINE
  5
ADD
330
A02
100
AcDbEntity
  8
ShapeString005
100
AcDbLine
 10
103.013786865
 20
31.719869281
 30
0.000000000
 11
104.740962110
 21
31.719869281
 31
0.000000000
  0
LINE
  5
ADE
330
A02
100
AcDbEntity
  8
ShapeString005
100
AcDbLine
 10
104.740962110
 20
31.719869281
 30
0.000000000
 11
104.740962110
 21
31.160228758
 31
0.000000000
  0
LINE
  5
ADF
330
A02
100
AcDbEntity
  8
ShapeString005
100
AcDbLine
 10
104.740962110
 20
31.160228758
 30
0.000000000
 11
103.013786865
 21
31.160228758
 31
0.000000000
  0
LINE
  5
AE0
330
A02
100
AcDbEntity
  8
ShapeString005
100
AcDbLine
 10
103.013786865
 20
31.160228758
 30
0.000000000
 11
103.013786865
 21
29.214763072
 31
0.000000000
  0
LWPOLYLINE
  5
AE1
330
A02
100
AcDbEntity
100
AcDbPolyline
  8
ShapeString005
 90
2
 70
0
 43
0
 10
103.013786865
 20
29.214763072
 10
103.233864479
 20
28.598698938
  0
LWPOLYLINE
  5
AE2
330
A02
100
AcDbEntity
100
AcDbPolyline
  8
ShapeString005
 90
2
 70
0
 43
0
 10
103.233864479
 20
28.598698938
 10
103.883118973
 20
28.394705882
  0
LWPOLYLINE
  5
AE3
330
A02
100
AcDbEntity
100
AcDbPolyline
  8
ShapeString005
 90
2
 70
0
 43
0
 10
103.883118973
 20
28.394705882
 10
104.285232943
 20
28.422279412
  0
LWPOLYLINE
  5
AE4
330
A02
100
AcDbEntity
100
AcDbPolyline
  8
ShapeString005
 90
2
 70
0
 43
0
 10
104.285232943
 20
28.422279412
 10
104.740962110
 20
28.509084967
  0
LINE
  5
AE5
330
A02
100
AcDbEntity
  8
ShapeString005
100
AcDbLine
 10
104.740962110
 20
28.509084967
 30
0.000000000
 11
104.740962110
 21
27.933104575
 31
0.000000000
  0
LINE
  5
AE6
330
A02
100
AcDbEntity
  8
ShapeString005
100
AcDbLine
 10
113.782016031
 20
27.880000000
 30
0.000000000
 11
113.115655737
 21
27.880000000
 31
0.000000000
  0
LINE
  5
AE7
330
A02
100
AcDbEntity
  8
ShapeString005
100
AcDbLine
 10
113.115655737
 20
27.880000000
 30
0.000000000
 11
113.016084659
 21
31.000149101
 31
0.000000000
  0
LINE
  5
AE8
330
A02
100
AcDbEntity
  8
ShapeString005
100
AcDbLine
 10
113.016084659
 20
31.000149101
 30
0.000000000
 11
112.973958433
 21
32.196023284
 31
0.000000000
  0
LINE
  5
AE9
330
A02
100
AcDbEntity
  8
ShapeString005
100
AcDbLine
 10
112.973958433
 20
32.196023284
 30
0.000000000
 11
112.740349365
 21
31.500812908
 31
0.000000000
  0
LINE
  5
AEA
330
A02
100
AcDbEntity
  8
ShapeString005
100
AcDbLine
 10
112.740349365
 20
31.500812908
 30
0.000000000
 11
112.001225590
 21
29.513986928
 31
0.000000000
  0
LINE
  5
AEB
330
A02
100
AcDbEntity
  8
ShapeString005
100
AcDbLine
 10
112.001225590
 20
29.513986928
 30
0.000000000
 11
111.530177796
 21
29.513986928
 31
0.000000000
  0
LINE
  5
AEC
330
A02
100
AcDbEntity
  8
ShapeString005
100
AcDbLine
 10
111.530177796
 20
29.513986928
 30
0.000000000
 11
110.825520933
 21
31.424219771
 31
0.000000000
  0
LINE
  5
AED
330
A02
100
AcDbEntity
  8
ShapeString005
100
AcDbLine
 10
110.825520933
 20
31.424219771
 30
0.000000000
 11
110.591911865
 21
32.196023284
 31
0.000000000
  0
LINE
  5
AEE
330
A02
100
AcDbEntity
  8
ShapeString005
100
AcDbLine
 10
110.591911865
 20
32.196023284
 30
0.000000000
 11
110.576593237
 21
30.946789216
 31
0.000000000
  0
LINE
  5
AEF
330
A02
100
AcDbEntity
  8
ShapeString005
100
AcDbLine
 10
110.576593237
 20
30.946789216
 30
0.000000000
 11
110.488511129
 21
27.880000000
 31
0.000000000
  0
LINE
  5
AF0
330
A02
100
AcDbEntity
  8
ShapeString005
100
AcDbLine
 10
110.488511129
 20
27.880000000
 30
0.000000000
 11
109.845128776
 21
27.880000000
 31
0.000000000
  0
LINE
  5
AF1
330
A02
100
AcDbEntity
  8
ShapeString005
100
AcDbLine
 10
109.845128776
 20
27.880000000
 30
0.000000000
 11
110.090226816
 21
32.880000000
 31
0.000000000
  0
LINE
  5
AF2
330
A02
100
AcDbEntity
  8
ShapeString005
100
AcDbLine
 10
110.090226816
 20
32.880000000
 30
0.000000000
 11
110.898284414
 21
32.880000000
 31
0.000000000
  0
LINE
  5
AF3
330
A02
100
AcDbEntity
  8
ShapeString005
100
AcDbLine
 10
110.898284414
 20
32.880000000
 30
0.000000000
 11
111.572304022
 21
31.000149101
 31
0.000000000
  0
LINE
  5
AF4
330
A02
100
AcDbEntity
  8
ShapeString005
100
AcDbLine
 10
111.572304022
 20
31.000149101
 30
0.000000000
 11
111.790594463
 21
30.365957925
 31
0.000000000
  0
LINE
  5
AF5
330
A02
100
AcDbEntity
  8
ShapeString005
100
AcDbLine
 10
111.790594463
 20
30.365957925
 30
0.000000000
 11
112.001225590
 21
31.000149101
 31
0.000000000
  0
LINE
  5
AF6
330
A02
100
AcDbEntity
  8
ShapeString005
100
AcDbLine
 10
112.001225590
 20
31.000149101
 30
0.000000000
 11
112.709712110
 21
32.880000000
 31
0.000000000
  0
LINE
  5
AF7
330
A02
100
AcDbEntity
  8
ShapeString005
100
AcDbLine
 10
112.709712110
 20
32.880000000
 30
0.000000000
 11
113.540747649
 21
32.880000000
 31
0.000000000
  0
LINE
  5
AF8
330
A02
100
AcDbEntity
  8
ShapeString005
100
AcDbLine
 10
113.540747649
 20
32.880000000
 30
0.000000000
 11
113.782016031
 21
27.880000000
 31
0.000000000
  0
LWPOLYLINE
  5
AF9
330
A02
100
AcDbEntity
100
AcDbPolyline
  8
ShapeString005
 90
2
 70
0
 43
0
 10
117.931066276
 20
29.838741830
 10
117.804687600
 20
29.016386846
  0
LWPOLYLINE
  5
AFA
330
A02
100
AcDbEntity
100
AcDbPolyline
  8
ShapeString005
 90
2
 70
0
 43
0
 10
117.804687600
 20
29.016386846
 10
117.440870198
 20
28.376068219
  0
LWPOLYLINE
  5
AFB
330
A02
100
AcDbEntity
100
AcDbPolyline
  8
ShapeString005
 90
2
 70
0
 43
0
 10
117.440870198
 20
28.376068219
 10
116.862592012
 20
27.962209967
  0
LWPOLYLINE
  5
AFC
330
A02
100
AcDbEntity
100
AcDbPolyline
  8
ShapeString005
 90
2
 70
0
 43
0
 10
116.862592012
 20
27.962209967
 10
116.089001325
 20
27.814640523
  0
LWPOLYLINE
  5
AFD
330
A02
100
AcDbEntity
100
AcDbPolyline
  8
ShapeString005
 90
2
 70
0
 43
0
 10
116.089001325
 20
27.814640523
 10
115.347835067
 20
27.943061683
  0
LWPOLYLINE
  5
AFE
330
A02
100
AcDbEntity
100
AcDbPolyline
  8
ShapeString005
 90
2
 70
0
 43
0
 10
115.347835067
 20
27.943061683
 10
114.792534822
 20
28.320665850
  0
LWPOLYLINE
  5
AFF
330
A02
100
AcDbEntity
100
AcDbPolyline
  8
ShapeString005
 90
2
 70
0
 43
0
 10
114.792534822
 20
28.320665850
 10
114.444036048
 20
28.937751225
  0
LWPOLYLINE
  5
B00
330
A02
100
AcDbEntity
100
AcDbPolyline
  8
ShapeString005
 90
2
 70
0
 43
0
 10
114.444036048
 20
28.937751225
 10
114.323529512
 20
29.785126634
  0
LWPOLYLINE
  5
B01
330
A02
100
AcDbEntity
100
AcDbPolyline
  8
ShapeString005
 90
2
 70
0
 43
0
 10
114.323529512
 20
29.785126634
 10
114.449908188
 20
30.603651961
  0
LWPOLYLINE
  5
B02
330
A02
100
AcDbEntity
100
AcDbPolyline
  8
ShapeString005
 90
2
 70
0
 43
0
 10
114.449908188
 20
30.603651961
 10
114.813725590
 20
31.239885621
  0
LWPOLYLINE
  5
B03
330
A02
100
AcDbEntity
100
AcDbPolyline
  8
ShapeString005
 90
2
 70
0
 43
0
 10
114.813725590
 20
31.239885621
 10
115.392003776
 20
31.653999183
  0
LWPOLYLINE
  5
B04
330
A02
100
AcDbEntity
100
AcDbPolyline
  8
ShapeString005
 90
2
 70
0
 43
0
 10
115.392003776
 20
31.653999183
 10
116.165594463
 20
31.801568627
  0
LWPOLYLINE
  5
B05
330
A02
100
AcDbEntity
100
AcDbPolyline
  8
ShapeString005
 90
2
 70
0
 43
0
 10
116.165594463
 20
31.801568627
 10
116.906505410
 20
31.673147467
  0
LWPOLYLINE
  5
B06
330
A02
100
AcDbEntity
100
AcDbPolyline
  8
ShapeString005
 90
2
 70
0
 43
0
 10
116.906505410
 20
31.673147467
 10
117.461805656
 20
31.297330474
  0
LWPOLYLINE
  5
B07
330
A02
100
AcDbEntity
100
AcDbPolyline
  8
ShapeString005
 90
2
 70
0
 43
0
 10
117.461805656
 20
31.297330474
 10
117.810304430
 20
30.682032271
  0
LWPOLYLINE
  5
B08
330
A02
100
AcDbEntity
100
AcDbPolyline
  8
ShapeString005
 90
2
 70
0
 43
0
 10
117.810304430
 20
30.682032271
 10
117.931066276
 20
29.838741830
  0
LWPOLYLINE
  5
B09
330
A02
100
AcDbEntity
100
AcDbPolyline
  8
ShapeString005
 90
2
 70
0
 43
0
 10
117.249387355
 20
29.808104575
 10
117.170751734
 20
30.430806781
  0
LWPOLYLINE
  5
B0A
330
A02
100
AcDbEntity
100
AcDbPolyline
  8
ShapeString005
 90
2
 70
0
 43
0
 10
117.170751734
 20
30.430806781
 10
116.946844463
 20
30.875302288
  0
LWPOLYLINE
  5
B0B
330
A02
100
AcDbEntity
100
AcDbPolyline
  8
ShapeString005
 90
2
 70
0
 43
0
 10
116.946844463
 20
30.875302288
 10
116.592473548
 20
31.143633578
  0
LWPOLYLINE
  5
B0C
330
A02
100
AcDbEntity
100
AcDbPolyline
  8
ShapeString005
 90
2
 70
0
 43
0
 10
116.592473548
 20
31.143633578
 10
116.127297894
 20
31.233758170
  0
LWPOLYLINE
  5
B0D
330
A02
100
AcDbEntity
100
AcDbPolyline
  8
ShapeString005
 90
2
 70
0
 43
0
 10
116.127297894
 20
31.233758170
 10
115.615911048
 20
31.116825980
  0
LWPOLYLINE
  5
B0E
330
A02
100
AcDbEntity
100
AcDbPolyline
  8
ShapeString005
 90
2
 70
0
 43
0
 10
115.615911048
 20
31.116825980
 10
115.267412273
 20
30.804325980
  0
LWPOLYLINE
  5
B0F
330
A02
100
AcDbEntity
100
AcDbPolyline
  8
ShapeString005
 90
2
 70
0
 43
0
 10
115.267412273
 20
30.804325980
 10
115.068270116
 20
30.350128676
  0
LWPOLYLINE
  5
B10
330
A02
100
AcDbEntity
100
AcDbPolyline
  8
ShapeString005
 90
2
 70
0
 43
0
 10
115.068270116
 20
30.350128676
 10
115.005208433
 20
29.808104575
  0
LWPOLYLINE
  5
B11
330
A02
100
AcDbEntity
100
AcDbPolyline
  8
ShapeString005
 90
2
 70
0
 43
0
 10
115.005208433
 20
29.808104575
 10
115.083588744
 20
29.183104575
  0
LWPOLYLINE
  5
B12
330
A02
100
AcDbEntity
100
AcDbPolyline
  8
ShapeString005
 90
2
 70
0
 43
0
 10
115.083588744
 20
29.183104575
 10
115.307751325
 20
28.736821895
  0
LWPOLYLINE
  5
B13
330
A02
100
AcDbEntity
100
AcDbPolyline
  8
ShapeString005
 90
2
 70
0
 43
0
 10
115.307751325
 20
28.736821895
 10
115.660079757
 20
28.468490605
  0
LWPOLYLINE
  5
B14
330
A02
100
AcDbEntity
100
AcDbPolyline
  8
ShapeString005
 90
2
 70
0
 43
0
 10
115.660079757
 20
28.468490605
 10
116.127297894
 20
28.378366013
  0
LWPOLYLINE
  5
B15
330
A02
100
AcDbEntity
100
AcDbPolyline
  8
ShapeString005
 90
2
 70
0
 43
0
 10
116.127297894
 20
28.378366013
 10
116.638429430
 20
28.495298203
  0
LWPOLYLINE
  5
B16
330
A02
100
AcDbEntity
100
AcDbPolyline
  8
ShapeString005
 90
2
 70
0
 43
0
 10
116.638429430
 20
28.495298203
 10
116.986928205
 20
28.807542892
  0
LWPOLYLINE
  5
B17
330
A02
100
AcDbEntity
100
AcDbPolyline
  8
ShapeString005
 90
2
 70
0
 43
0
 10
116.986928205
 20
28.807542892
 10
117.186070361
 20
29.261740196
  0
LWPOLYLINE
  5
B18
330
A02
100
AcDbEntity
100
AcDbPolyline
  8
ShapeString005
 90
2
 70
0
 43
0
 10
117.186070361
 20
29.261740196
 10
117.249387355
 20
29.808104575
  0
LINE
  5
B19
330
A02
100
AcDbEntity
  8
ShapeString005
100
AcDbLine
 10
118.897671669
 20
31.719869281
 30
0.000000000
 11
119.491268482
 21
31.719869281
 31
0.000000000
  0
LINE
  5
B1A
330
A02
100
AcDbEntity
  8
ShapeString005
100
AcDbLine
 10
119.491268482
 20
31.719869281
 30
0.000000000
 11
119.518076080
 21
31.100230801
 31
0.000000000
  0
LWPOLYLINE
  5
B1B
330
A02
100
AcDbEntity
100
AcDbPolyline
  8
ShapeString005
 90
2
 70
0
 43
0
 10
119.518076080
 20
31.100230801
 10
119.843596914
 20
31.437240605
  0
LWPOLYLINE
  5
B1C
330
A02
100
AcDbEntity
100
AcDbPolyline
  8
ShapeString005
 90
2
 70
0
 43
0
 10
119.843596914
 20
31.437240605
 10
120.151756636
 20
31.653488562
  0
LWPOLYLINE
  5
B1D
330
A02
100
AcDbEntity
100
AcDbPolyline
  8
ShapeString005
 90
2
 70
0
 43
0
 10
120.151756636
 20
31.653488562
 10
120.460171669
 20
31.768378268
  0
LWPOLYLINE
  5
B1E
330
A02
100
AcDbEntity
100
AcDbPolyline
  8
ShapeString005
 90
2
 70
0
 43
0
 10
120.460171669
 20
31.768378268
 10
120.785692502
 20
31.801568627
  0
LWPOLYLINE
  5
B1F
330
A02
100
AcDbEntity
100
AcDbPolyline
  8
ShapeString005
 90
2
 70
0
 43
0
 10
120.785692502
 20
31.801568627
 10
121.683619381
 20
31.450516748
  0
LWPOLYLINE
  5
B20
330
A02
100
AcDbEntity
100
AcDbPolyline
  8
ShapeString005
 90
2
 70
0
 43
0
 10
121.683619381
 20
31.450516748
 10
121.988204757
 20
30.393276144
  0
LINE
  5
B21
330
A02
100
AcDbEntity
  8
ShapeString005
100
AcDbLine
 10
121.988204757
 20
30.393276144
 30
0.000000000
 11
121.988204757
 21
27.880000000
 31
0.000000000
  0
LINE
  5
B22
330
A02
100
AcDbEntity
  8
ShapeString005
100
AcDbLine
 10
121.988204757
 20
27.880000000
 30
0.000000000
 11
121.321844463
 21
27.880000000
 31
0.000000000
  0
LINE
  5
B23
330
A02
100
AcDbEntity
  8
ShapeString005
100
AcDbLine
 10
121.321844463
 20
27.880000000
 30
0.000000000
 11
121.321844463
 21
30.339405637
 31
0.000000000
  0
LWPOLYLINE
  5
B24
330
A02
100
AcDbEntity
100
AcDbPolyline
  8
ShapeString005
 90
2
 70
0
 43
0
 10
121.321844463
 20
30.339405637
 10
121.153339561
 20
31.008829657
  0
LWPOLYLINE
  5
B25
330
A02
100
AcDbEntity
100
AcDbPolyline
  8
ShapeString005
 90
2
 70
0
 43
0
 10
121.153339561
 20
31.008829657
 10
120.651654512
 20
31.225588235
  0
LWPOLYLINE
  5
B26
330
A02
100
AcDbEntity
100
AcDbPolyline
  8
ShapeString005
 90
2
 70
0
 43
0
 10
120.651654512
 20
31.225588235
 10
120.412173303
 20
31.189078840
  0
LWPOLYLINE
  5
B27
330
A02
100
AcDbEntity
100
AcDbPolyline
  8
ShapeString005
 90
2
 70
0
 43
0
 10
120.412173303
 20
31.189078840
 10
120.169117747
 20
31.062444853
  0
LWPOLYLINE
  5
B28
330
A02
100
AcDbEntity
100
AcDbPolyline
  8
ShapeString005
 90
2
 70
0
 43
0
 10
120.169117747
 20
31.062444853
 10
119.895169626
 20
30.818878676
  0
LWPOLYLINE
  5
B29
330
A02
100
AcDbEntity
100
AcDbPolyline
  8
ShapeString005
 90
2
 70
0
 43
0
 10
119.895169626
 20
30.818878676
 10
119.564031963
 20
30.435147059
  0
LINE
  5
B2A
330
A02
100
AcDbEntity
  8
ShapeString005
100
AcDbLine
 10
119.564031963
 20
30.435147059
 30
0.000000000
 11
119.564031963
 21
27.880000000
 31
0.000000000
  0
LINE
  5
B2B
330
A02
100
AcDbEntity
  8
ShapeString005
100
AcDbLine
 10
119.564031963
 20
27.880000000
 30
0.000000000
 11
118.897671669
 21
27.880000000
 31
0.000000000
  0
LINE
  5
B2C
330
A02
100
AcDbEntity
  8
ShapeString005
100
AcDbLine
 10
118.897671669
 20
27.880000000
 30
0.000000000
 11
118.897671669
 21
31.719869281
 31
0.000000000
  0
LWPOLYLINE
  5
B2D
330
A02
100
AcDbEntity
100
AcDbPolyline
  8
ShapeString
 90
2
 70
0
 43
0
 10
12.458180247
 20
91.055653595
 10
11.198223139
 20
90.814640523
  0
LWPOLYLINE
  5
B2E
330
A02
100
AcDbEntity
100
AcDbPolyline
  8
ShapeString
 90
2
 70
0
 43
0
 10
11.198223139
 20
90.814640523
 10
9.568576489
 20
91.448831699
  0
LWPOLYLINE
  5
B2F
330
A02
100
AcDbEntity
100
AcDbPolyline
  8
ShapeString
 90
2
 70
0
 43
0
 10
9.568576489
 20
91.448831699
 10
9.000000100
 20
93.324342320
  0
LWPOLYLINE
  5
B30
330
A02
100
AcDbEntity
100
AcDbPolyline
  8
ShapeString
 90
2
 70
0
 43
0
 10
9.000000100
 20
93.324342320
 10
9.157016031
 20
94.412730801
  0
LWPOLYLINE
  5
B31
330
A02
100
AcDbEntity
100
AcDbPolyline
  8
ShapeString
 90
2
 70
0
 43
0
 10
9.157016031
 20
94.412730801
 10
9.605085884
 20
95.238404820
  0
LWPOLYLINE
  5
B32
330
A02
100
AcDbEntity
100
AcDbPolyline
  8
ShapeString
 90
2
 70
0
 43
0
 10
9.605085884
 20
95.238404820
 10
10.309742747
 20
95.761280637
  0
LWPOLYLINE
  5
B33
330
A02
100
AcDbEntity
100
AcDbPolyline
  8
ShapeString
 90
2
 70
0
 43
0
 10
10.309742747
 20
95.761280637
 10
11.236519708
 20
95.945359477
  0
LWPOLYLINE
  5
B34
330
A02
100
AcDbEntity
100
AcDbPolyline
  8
ShapeString
 90
2
 70
0
 43
0
 10
11.236519708
 20
95.945359477
 10
11.883731718
 20
95.885106209
  0
LWPOLYLINE
  5
B35
330
A02
100
AcDbEntity
100
AcDbPolyline
  8
ShapeString
 90
2
 70
0
 43
0
 10
11.883731718
 20
95.885106209
 10
12.458180247
 20
95.700261438
  0
LINE
  5
B36
330
A02
100
AcDbEntity
  8
ShapeString
100
AcDbLine
 10
12.458180247
 20
95.700261438
 30
0.000000000
 11
12.458180247
 21
95.030326797
 31
0.000000000
  0
LWPOLYLINE
  5
B37
330
A02
100
AcDbEntity
100
AcDbPolyline
  8
ShapeString
 90
2
 70
0
 43
0
 10
12.458180247
 20
95.030326797
 10
11.895220688
 20
95.261127451
  0
LWPOLYLINE
  5
B38
330
A02
100
AcDbEntity
100
AcDbPolyline
  8
ShapeString
 90
2
 70
0
 43
0
 10
11.895220688
 20
95.261127451
 10
11.259497649
 20
95.340784314
  0
LWPOLYLINE
  5
B39
330
A02
100
AcDbEntity
100
AcDbPolyline
  8
ShapeString
 90
2
 70
0
 43
0
 10
11.259497649
 20
95.340784314
 10
10.621732126
 20
95.208533497
  0
LWPOLYLINE
  5
B3A
330
A02
100
AcDbEntity
100
AcDbPolyline
  8
ShapeString
 90
2
 70
0
 43
0
 10
10.621732126
 20
95.208533497
 10
10.137408188
 20
94.825057190
  0
LWPOLYLINE
  5
B3B
330
A02
100
AcDbEntity
100
AcDbPolyline
  8
ShapeString
 90
2
 70
0
 43
0
 10
10.137408188
 20
94.825057190
 10
9.831035639
 20
94.211801471
  0
LWPOLYLINE
  5
B3C
330
A02
100
AcDbEntity
100
AcDbPolyline
  8
ShapeString
 90
2
 70
0
 43
0
 10
9.831035639
 20
94.211801471
 10
9.723805247
 20
93.385872141
  0
LWPOLYLINE
  5
B3D
330
A02
100
AcDbEntity
100
AcDbPolyline
  8
ShapeString
 90
2
 70
0
 43
0
 10
9.723805247
 20
93.385872141
 10
10.118259904
 20
91.917837010
  0
LWPOLYLINE
  5
B3E
330
A02
100
AcDbEntity
100
AcDbPolyline
  8
ShapeString
 90
2
 70
0
 43
0
 10
10.118259904
 20
91.917837010
 10
11.274816276
 20
91.423300654
  0
LWPOLYLINE
  5
B3F
330
A02
100
AcDbEntity
100
AcDbPolyline
  8
ShapeString
 90
2
 70
0
 43
0
 10
11.274816276
 20
91.423300654
 10
11.891391031
 20
91.496319444
  0
LWPOLYLINE
  5
B40
330
A02
100
AcDbEntity
100
AcDbPolyline
  8
ShapeString
 90
2
 70
0
 43
0
 10
11.891391031
 20
91.496319444
 10
12.458180247
 20
91.701078431
  0
LINE
  5
B41
330
A02
100
AcDbEntity
  8
ShapeString
100
AcDbLine
 10
12.458180247
 20
91.701078431
 30
0.000000000
 11
12.458180247
 21
91.055653595
 31
0.000000000
  0
LINE
  5
B42
330
A02
100
AcDbEntity
  8
ShapeString
100
AcDbLine
 10
16.664675345
 20
90.880000000
 30
0.000000000
 11
16.067248875
 21
90.880000000
 31
0.000000000
  0
LINE
  5
B43
330
A02
100
AcDbEntity
  8
ShapeString
100
AcDbLine
 10
16.067248875
 20
90.880000000
 30
0.000000000
 11
16.044270933
 21
91.499638480
 31
0.000000000
  0
LWPOLYLINE
  5
B44
330
A02
100
AcDbEntity
100
AcDbPolyline
  8
ShapeString
 90
2
 70
0
 43
0
 10
16.044270933
 20
91.499638480
 10
15.716707616
 20
91.170287990
  0
LWPOLYLINE
  5
B45
330
A02
100
AcDbEntity
100
AcDbPolyline
  8
ShapeString
 90
2
 70
0
 43
0
 10
15.716707616
 20
91.170287990
 10
15.408547894
 20
90.959146242
  0
LWPOLYLINE
  5
B46
330
A02
100
AcDbEntity
100
AcDbPolyline
  8
ShapeString
 90
2
 70
0
 43
0
 10
15.408547894
 20
90.959146242
 10
15.100132861
 20
90.847064951
  0
LWPOLYLINE
  5
B47
330
A02
100
AcDbEntity
100
AcDbPolyline
  8
ShapeString
 90
2
 70
0
 43
0
 10
15.100132861
 20
90.847064951
 10
14.772824855
 20
90.814640523
  0
LWPOLYLINE
  5
B48
330
A02
100
AcDbEntity
100
AcDbPolyline
  8
ShapeString
 90
2
 70
0
 43
0
 10
14.772824855
 20
90.814640523
 10
13.876685149
 20
91.162373366
  0
LWPOLYLINE
  5
B49
330
A02
100
AcDbEntity
100
AcDbPolyline
  8
ShapeString
 90
2
 70
0
 43
0
 10
13.876685149
 20
91.162373366
 10
13.574142257
 20
92.213231209
  0
LINE
  5
B4A
330
A02
100
AcDbEntity
  8
ShapeString
100
AcDbLine
 10
13.574142257
 20
92.213231209
 30
0.000000000
 11
13.574142257
 21
94.719869281
 31
0.000000000
  0
LINE
  5
B4B
330
A02
100
AcDbEntity
  8
ShapeString
100
AcDbLine
 10
13.574142257
 20
94.719869281
 30
0.000000000
 11
14.240502551
 21
94.719869281
 31
0.000000000
  0
LINE
  5
B4C
330
A02
100
AcDbEntity
  8
ShapeString
100
AcDbLine
 10
14.240502551
 20
94.719869281
 30
0.000000000
 11
14.240502551
 21
92.268633578
 31
0.000000000
  0
LWPOLYLINE
  5
B4D
330
A02
100
AcDbEntity
100
AcDbPolyline
  8
ShapeString
 90
2
 70
0
 43
0
 10
14.240502551
 20
92.268633578
 10
14.906862845
 20
91.386535948
  0
LWPOLYLINE
  5
B4E
330
A02
100
AcDbEntity
100
AcDbPolyline
  8
ShapeString
 90
2
 70
0
 43
0
 10
14.906862845
 20
91.386535948
 10
15.146088744
 20
91.422790033
  0
LWPOLYLINE
  5
B4F
330
A02
100
AcDbEntity
100
AcDbPolyline
  8
ShapeString
 90
2
 70
0
 43
0
 10
15.146088744
 20
91.422790033
 10
15.391186783
 20
91.548658088
  0
LWPOLYLINE
  5
B50
330
A02
100
AcDbEntity
100
AcDbPolyline
  8
ShapeString
 90
2
 70
0
 43
0
 10
15.391186783
 20
91.548658088
 10
15.666922077
 20
91.791203023
  0
LWPOLYLINE
  5
B51
330
A02
100
AcDbEntity
100
AcDbPolyline
  8
ShapeString
 90
2
 70
0
 43
0
 10
15.666922077
 20
91.791203023
 10
15.998315051
 20
92.176977124
  0
LINE
  5
B52
330
A02
100
AcDbEntity
  8
ShapeString
100
AcDbLine
 10
15.998315051
 20
92.176977124
 30
0.000000000
 11
15.998315051
 21
94.719869281
 31
0.000000000
  0
LINE
  5
B53
330
A02
100
AcDbEntity
  8
ShapeString
100
AcDbLine
 10
15.998315051
 20
94.719869281
 30
0.000000000
 11
16.664675345
 21
94.719869281
 31
0.000000000
  0
LINE
  5
B54
330
A02
100
AcDbEntity
  8
ShapeString
100
AcDbLine
 10
16.664675345
 20
94.719869281
 30
0.000000000
 11
16.664675345
 21
90.880000000
 31
0.000000000
  0
LINE
  5
B55
330
A02
100
AcDbEntity
  8
ShapeString
100
AcDbLine
 10
18.044883678
 20
94.719869281
 30
0.000000000
 11
18.653799120
 21
94.719869281
 31
0.000000000
  0
LINE
  5
B56
330
A02
100
AcDbEntity
  8
ShapeString
100
AcDbLine
 10
18.653799120
 20
94.719869281
 30
0.000000000
 11
18.672947404
 21
94.009595588
 31
0.000000000
  0
LWPOLYLINE
  5
B57
330
A02
100
AcDbEntity
100
AcDbPolyline
  8
ShapeString
 90
2
 70
0
 43
0
 10
18.672947404
 20
94.009595588
 10
19.344924528
 20
94.614170752
  0
LWPOLYLINE
  5
B58
330
A02
100
AcDbEntity
100
AcDbPolyline
  8
ShapeString
 90
2
 70
0
 43
0
 10
19.344924528
 20
94.614170752
 10
20.013327306
 20
94.801568627
  0
LWPOLYLINE
  5
B59
330
A02
100
AcDbEntity
100
AcDbPolyline
  8
ShapeString
 90
2
 70
0
 43
0
 10
20.013327306
 20
94.801568627
 10
20.918913499
 20
94.410433007
  0
LWPOLYLINE
  5
B5A
330
A02
100
AcDbEntity
100
AcDbPolyline
  8
ShapeString
 90
2
 70
0
 43
0
 10
20.918913499
 20
94.410433007
 10
21.204350590
 20
93.249281046
  0
LINE
  5
B5B
330
A02
100
AcDbEntity
  8
ShapeString
100
AcDbLine
 10
21.204350590
 20
93.249281046
 30
0.000000000
 11
20.530330982
 21
93.249281046
 31
0.000000000
  0
LWPOLYLINE
  5
B5C
330
A02
100
AcDbEntity
100
AcDbPolyline
  8
ShapeString
 90
2
 70
0
 43
0
 10
20.530330982
 20
93.249281046
 10
20.382761538
 20
93.994021650
  0
LWPOLYLINE
  5
B5D
330
A02
100
AcDbEntity
100
AcDbPolyline
  8
ShapeString
 90
2
 70
0
 43
0
 10
20.382761538
 20
93.994021650
 10
19.917585884
 20
94.225588235
  0
LWPOLYLINE
  5
B5E
330
A02
100
AcDbEntity
100
AcDbPolyline
  8
ShapeString
 90
2
 70
0
 43
0
 10
19.917585884
 20
94.225588235
 10
19.647467420
 20
94.176823938
  0
LWPOLYLINE
  5
B5F
330
A02
100
AcDbEntity
100
AcDbPolyline
  8
ShapeString
 90
2
 70
0
 43
0
 10
19.647467420
 20
94.176823938
 10
19.367902469
 20
94.021084559
  0
LWPOLYLINE
  5
B60
330
A02
100
AcDbEntity
100
AcDbPolyline
  8
ShapeString
 90
2
 70
0
 43
0
 10
19.367902469
 20
94.021084559
 10
19.063572404
 20
93.746625817
  0
LWPOLYLINE
  5
B61
330
A02
100
AcDbEntity
100
AcDbPolyline
  8
ShapeString
 90
2
 70
0
 43
0
 10
19.063572404
 20
93.746625817
 10
18.718903286
 20
93.341448121
  0
LINE
  5
B62
330
A02
100
AcDbEntity
  8
ShapeString
100
AcDbLine
 10
18.718903286
 20
93.341448121
 30
0.000000000
 11
18.718903286
 21
90.880000000
 31
0.000000000
  0
LINE
  5
B63
330
A02
100
AcDbEntity
  8
ShapeString
100
AcDbLine
 10
18.718903286
 20
90.880000000
 30
0.000000000
 11
18.044883678
 21
90.880000000
 31
0.000000000
  0
LINE
  5
B64
330
A02
100
AcDbEntity
  8
ShapeString
100
AcDbLine
 10
18.044883678
 20
90.880000000
 30
0.000000000
 11
18.044883678
 21
94.719869281
 31
0.000000000
  0
LINE
  5
B65
330
A02
100
AcDbEntity
  8
ShapeString
100
AcDbLine
 10
22.358609169
 20
94.719869281
 30
0.000000000
 11
22.967524610
 21
94.719869281
 31
0.000000000
  0
LINE
  5
B66
330
A02
100
AcDbEntity
  8
ShapeString
100
AcDbLine
 10
22.967524610
 20
94.719869281
 30
0.000000000
 11
22.986672894
 21
94.009595588
 31
0.000000000
  0
LWPOLYLINE
  5
B67
330
A02
100
AcDbEntity
100
AcDbPolyline
  8
ShapeString
 90
2
 70
0
 43
0
 10
22.986672894
 20
94.009595588
 10
23.658650018
 20
94.614170752
  0
LWPOLYLINE
  5
B68
330
A02
100
AcDbEntity
100
AcDbPolyline
  8
ShapeString
 90
2
 70
0
 43
0
 10
23.658650018
 20
94.614170752
 10
24.327052796
 20
94.801568627
  0
LWPOLYLINE
  5
B69
330
A02
100
AcDbEntity
100
AcDbPolyline
  8
ShapeString
 90
2
 70
0
 43
0
 10
24.327052796
 20
94.801568627
 10
25.232638989
 20
94.410433007
  0
LWPOLYLINE
  5
B6A
330
A02
100
AcDbEntity
100
AcDbPolyline
  8
ShapeString
 90
2
 70
0
 43
0
 10
25.232638989
 20
94.410433007
 10
25.518076080
 20
93.249281046
  0
LINE
  5
B6B
330
A02
100
AcDbEntity
  8
ShapeString
100
AcDbLine
 10
25.518076080
 20
93.249281046
 30
0.000000000
 11
24.844056473
 21
93.249281046
 31
0.000000000
  0
LWPOLYLINE
  5
B6C
330
A02
100
AcDbEntity
100
AcDbPolyline
  8
ShapeString
 90
2
 70
0
 43
0
 10
24.844056473
 20
93.249281046
 10
24.696487028
 20
93.994021650
  0
LWPOLYLINE
  5
B6D
330
A02
100
AcDbEntity
100
AcDbPolyline
  8
ShapeString
 90
2
 70
0
 43
0
 10
24.696487028
 20
93.994021650
 10
24.231311375
 20
94.225588235
  0
LWPOLYLINE
  5
B6E
330
A02
100
AcDbEntity
100
AcDbPolyline
  8
ShapeString
 90
2
 70
0
 43
0
 10
24.231311375
 20
94.225588235
 10
23.961192910
 20
94.176823938
  0
LWPOLYLINE
  5
B6F
330
A02
100
AcDbEntity
100
AcDbPolyline
  8
ShapeString
 90
2
 70
0
 43
0
 10
23.961192910
 20
94.176823938
 10
23.681627959
 20
94.021084559
  0
LWPOLYLINE
  5
B70
330
A02
100
AcDbEntity
100
AcDbPolyline
  8
ShapeString
 90
2
 70
0
 43
0
 10
23.681627959
 20
94.021084559
 10
23.377297894
 20
93.746625817
  0
LWPOLYLINE
  5
B71
330
A02
100
AcDbEntity
100
AcDbPolyline
  8
ShapeString
 90
2
 70
0
 43
0
 10
23.377297894
 20
93.746625817
 10
23.032628776
 20
93.341448121
  0
LINE
  5
B72
330
A02
100
AcDbEntity
  8
ShapeString
100
AcDbLine
 10
23.032628776
 20
93.341448121
 30
0.000000000
 11
23.032628776
 21
90.880000000
 31
0.000000000
  0
LINE
  5
B73
330
A02
100
AcDbEntity
  8
ShapeString
100
AcDbLine
 10
23.032628776
 20
90.880000000
 30
0.000000000
 11
22.358609169
 21
90.880000000
 31
0.000000000
  0
LINE
  5
B74
330
A02
100
AcDbEntity
  8
ShapeString
100
AcDbLine
 10
22.358609169
 20
90.880000000
 30
0.000000000
 11
22.358609169
 21
94.719869281
 31
0.000000000
  0
LWPOLYLINE
  5
B75
330
A02
100
AcDbEntity
100
AcDbPolyline
  8
ShapeString
 90
2
 70
0
 43
0
 10
29.762867747
 20
93.013118873
 10
29.759038090
 20
92.775680147
  0
LWPOLYLINE
  5
B76
330
A02
100
AcDbEntity
100
AcDbPolyline
  8
ShapeString
 90
2
 70
0
 43
0
 10
29.759038090
 20
92.775680147
 10
29.747549120
 20
92.595686275
  0
LINE
  5
B77
330
A02
100
AcDbEntity
  8
ShapeString
100
AcDbLine
 10
29.747549120
 20
92.595686275
 30
0.000000000
 11
27.047641031
 21
92.595686275
 31
0.000000000
  0
LWPOLYLINE
  5
B78
330
A02
100
AcDbEntity
100
AcDbPolyline
  8
ShapeString
 90
2
 70
0
 43
0
 10
27.047641031
 20
92.595686275
 10
27.376991522
 20
91.687036356
  0
LWPOLYLINE
  5
B79
330
A02
100
AcDbEntity
100
AcDbPolyline
  8
ShapeString
 90
2
 70
0
 43
0
 10
27.376991522
 20
91.687036356
 10
28.326746424
 20
91.370196078
  0
LWPOLYLINE
  5
B7A
330
A02
100
AcDbEntity
100
AcDbPolyline
  8
ShapeString
 90
2
 70
0
 43
0
 10
28.326746424
 20
91.370196078
 10
28.663756227
 20
91.383472222
  0
LWPOLYLINE
  5
B7B
330
A02
100
AcDbEntity
100
AcDbPolyline
  8
ShapeString
 90
2
 70
0
 43
0
 10
28.663756227
 20
91.383472222
 10
28.989277061
 20
91.419470997
  0
LWPOLYLINE
  5
B7C
330
A02
100
AcDbEntity
100
AcDbPolyline
  8
ShapeString
 90
2
 70
0
 43
0
 10
28.989277061
 20
91.419470997
 10
29.289777469
 20
91.470788399
  0
LWPOLYLINE
  5
B7D
330
A02
100
AcDbEntity
100
AcDbPolyline
  8
ShapeString
 90
2
 70
0
 43
0
 10
29.289777469
 20
91.470788399
 10
29.556066276
 20
91.533594771
  0
LINE
  5
B7E
330
A02
100
AcDbEntity
  8
ShapeString
100
AcDbLine
 10
29.556066276
 20
91.533594771
 30
0.000000000
 11
29.556066276
 21
90.986209150
 31
0.000000000
  0
LWPOLYLINE
  5
B7F
330
A02
100
AcDbEntity
100
AcDbPolyline
  8
ShapeString
 90
2
 70
0
 43
0
 10
29.556066276
 20
90.986209150
 10
28.941278695
 20
90.862383578
  0
LWPOLYLINE
  5
B80
330
A02
100
AcDbEntity
100
AcDbPolyline
  8
ShapeString
 90
2
 70
0
 43
0
 10
28.941278695
 20
90.862383578
 10
28.231005002
 20
90.814640523
  0
LWPOLYLINE
  5
B81
330
A02
100
AcDbEntity
100
AcDbPolyline
  8
ShapeString
 90
2
 70
0
 43
0
 10
28.231005002
 20
90.814640523
 10
27.380821178
 20
90.948678513
  0
LWPOLYLINE
  5
B82
330
A02
100
AcDbEntity
100
AcDbPolyline
  8
ShapeString
 90
2
 70
0
 43
0
 10
27.380821178
 20
90.948678513
 10
26.796670852
 20
91.337771650
  0
LWPOLYLINE
  5
B83
330
A02
100
AcDbEntity
100
AcDbPolyline
  8
ShapeString
 90
2
 70
0
 43
0
 10
26.796670852
 20
91.337771650
 10
26.459661048
 20
91.962771650
  0
LWPOLYLINE
  5
B84
330
A02
100
AcDbEntity
100
AcDbPolyline
  8
ShapeString
 90
2
 70
0
 43
0
 10
26.459661048
 20
91.962771650
 10
26.350643482
 20
92.800445261
  0
LWPOLYLINE
  5
B85
330
A02
100
AcDbEntity
100
AcDbPolyline
  8
ShapeString
 90
2
 70
0
 43
0
 10
26.350643482
 20
92.800445261
 10
26.467320361
 20
93.569185049
  0
LWPOLYLINE
  5
B86
330
A02
100
AcDbEntity
100
AcDbPolyline
  8
ShapeString
 90
2
 70
0
 43
0
 10
26.467320361
 20
93.569185049
 10
26.808159822
 20
94.205418709
  0
LWPOLYLINE
  5
B87
330
A02
100
AcDbEntity
100
AcDbPolyline
  8
ShapeString
 90
2
 70
0
 43
0
 10
26.808159822
 20
94.205418709
 10
27.357843237
 20
94.640467729
  0
LWPOLYLINE
  5
B88
330
A02
100
AcDbEntity
100
AcDbPolyline
  8
ShapeString
 90
2
 70
0
 43
0
 10
27.357843237
 20
94.640467729
 10
28.096967012
 20
94.801568627
  0
LWPOLYLINE
  5
B89
330
A02
100
AcDbEntity
100
AcDbPolyline
  8
ShapeString
 90
2
 70
0
 43
0
 10
28.096967012
 20
94.801568627
 10
28.809283188
 20
94.675189951
  0
LWPOLYLINE
  5
B8A
330
A02
100
AcDbEntity
100
AcDbPolyline
  8
ShapeString
 90
2
 70
0
 43
0
 10
28.809283188
 20
94.675189951
 10
29.331903695
 20
94.316989379
  0
LWPOLYLINE
  5
B8B
330
A02
100
AcDbEntity
100
AcDbPolyline
  8
ShapeString
 90
2
 70
0
 43
0
 10
29.331903695
 20
94.316989379
 10
29.653594871
 20
93.754029820
  0
LWPOLYLINE
  5
B8C
330
A02
100
AcDbEntity
100
AcDbPolyline
  8
ShapeString
 90
2
 70
0
 43
0
 10
29.653594871
 20
93.754029820
 10
29.762867747
 20
93.013118873
  0
LWPOLYLINE
  5
B8D
330
A02
100
AcDbEntity
100
AcDbPolyline
  8
ShapeString
 90
2
 70
0
 43
0
 10
29.069699855
 20
93.110392157
 10
29.019914316
 20
93.579397467
  0
LWPOLYLINE
  5
B8E
330
A02
100
AcDbEntity
100
AcDbPolyline
  8
ShapeString
 90
2
 70
0
 43
0
 10
29.019914316
 20
93.579397467
 10
28.830218646
 20
93.945002042
  0
LWPOLYLINE
  5
B8F
330
A02
100
AcDbEntity
100
AcDbPolyline
  8
ShapeString
 90
2
 70
0
 43
0
 10
28.830218646
 20
93.945002042
 10
28.510569953
 20
94.184227941
  0
LWPOLYLINE
  5
B90
330
A02
100
AcDbEntity
100
AcDbPolyline
  8
ShapeString
 90
2
 70
0
 43
0
 10
28.510569953
 20
94.184227941
 10
28.066329757
 20
94.270522876
  0
LWPOLYLINE
  5
B91
330
A02
100
AcDbEntity
100
AcDbPolyline
  8
ShapeString
 90
2
 70
0
 43
0
 10
28.066329757
 20
94.270522876
 10
27.668045443
 20
94.186270425
  0
LWPOLYLINE
  5
B92
330
A02
100
AcDbEntity
100
AcDbPolyline
  8
ShapeString
 90
2
 70
0
 43
0
 10
27.668045443
 20
94.186270425
 10
27.357843237
 20
93.948831699
  0
LWPOLYLINE
  5
B93
330
A02
100
AcDbEntity
100
AcDbPolyline
  8
ShapeString
 90
2
 70
0
 43
0
 10
27.357843237
 20
93.948831699
 10
27.147212110
 20
93.581184641
  0
LWPOLYLINE
  5
B94
330
A02
100
AcDbEntity
100
AcDbPolyline
  8
ShapeString
 90
2
 70
0
 43
0
 10
27.147212110
 20
93.581184641
 10
27.047641031
 20
93.110392157
  0
LINE
  5
B95
330
A02
100
AcDbEntity
  8
ShapeString
100
AcDbLine
 10
27.047641031
 20
93.110392157
 30
0.000000000
 11
29.069699855
 21
93.110392157
 31
0.000000000
  0
LINE
  5
B96
330
A02
100
AcDbEntity
  8
ShapeString
100
AcDbLine
 10
30.829044218
 20
94.719869281
 30
0.000000000
 11
31.422641031
 21
94.719869281
 31
0.000000000
  0
LINE
  5
B97
330
A02
100
AcDbEntity
  8
ShapeString
100
AcDbLine
 10
31.422641031
 20
94.719869281
 30
0.000000000
 11
31.449448629
 21
94.100230801
 31
0.000000000
  0
LWPOLYLINE
  5
B98
330
A02
100
AcDbEntity
100
AcDbPolyline
  8
ShapeString
 90
2
 70
0
 43
0
 10
31.449448629
 20
94.100230801
 10
31.774969463
 20
94.437240605
  0
LWPOLYLINE
  5
B99
330
A02
100
AcDbEntity
100
AcDbPolyline
  8
ShapeString
 90
2
 70
0
 43
0
 10
31.774969463
 20
94.437240605
 10
32.083129185
 20
94.653488562
  0
LWPOLYLINE
  5
B9A
330
A02
100
AcDbEntity
100
AcDbPolyline
  8
ShapeString
 90
2
 70
0
 43
0
 10
32.083129185
 20
94.653488562
 10
32.391544218
 20
94.768378268
  0
LWPOLYLINE
  5
B9B
330
A02
100
AcDbEntity
100
AcDbPolyline
  8
ShapeString
 90
2
 70
0
 43
0
 10
32.391544218
 20
94.768378268
 10
32.717065051
 20
94.801568627
  0
LWPOLYLINE
  5
B9C
330
A02
100
AcDbEntity
100
AcDbPolyline
  8
ShapeString
 90
2
 70
0
 43
0
 10
32.717065051
 20
94.801568627
 10
33.614991930
 20
94.450516748
  0
LWPOLYLINE
  5
B9D
330
A02
100
AcDbEntity
100
AcDbPolyline
  8
ShapeString
 90
2
 70
0
 43
0
 10
33.614991930
 20
94.450516748
 10
33.919577306
 20
93.393276144
  0
LINE
  5
B9E
330
A02
100
AcDbEntity
  8
ShapeString
100
AcDbLine
 10
33.919577306
 20
93.393276144
 30
0.000000000
 11
33.919577306
 21
90.880000000
 31
0.000000000
  0
LINE
  5
B9F
330
A02
100
AcDbEntity
  8
ShapeString
100
AcDbLine
 10
33.919577306
 20
90.880000000
 30
0.000000000
 11
33.253217012
 21
90.880000000
 31
0.000000000
  0
LINE
  5
BA0
330
A02
100
AcDbEntity
  8
ShapeString
100
AcDbLine
 10
33.253217012
 20
90.880000000
 30
0.000000000
 11
33.253217012
 21
93.339405637
 31
0.000000000
  0
LWPOLYLINE
  5
BA1
330
A02
100
AcDbEntity
100
AcDbPolyline
  8
ShapeString
 90
2
 70
0
 43
0
 10
33.253217012
 20
93.339405637
 10
33.084712110
 20
94.008829657
  0
LWPOLYLINE
  5
BA2
330
A02
100
AcDbEntity
100
AcDbPolyline
  8
ShapeString
 90
2
 70
0
 43
0
 10
33.084712110
 20
94.008829657
 10
32.583027061
 20
94.225588235
  0
LWPOLYLINE
  5
BA3
330
A02
100
AcDbEntity
100
AcDbPolyline
  8
ShapeString
 90
2
 70
0
 43
0
 10
32.583027061
 20
94.225588235
 10
32.343545852
 20
94.189078840
  0
LWPOLYLINE
  5
BA4
330
A02
100
AcDbEntity
100
AcDbPolyline
  8
ShapeString
 90
2
 70
0
 43
0
 10
32.343545852
 20
94.189078840
 10
32.100490296
 20
94.062444853
  0
LWPOLYLINE
  5
BA5
330
A02
100
AcDbEntity
100
AcDbPolyline
  8
ShapeString
 90
2
 70
0
 43
0
 10
32.100490296
 20
94.062444853
 10
31.826542175
 20
93.818878676
  0
LWPOLYLINE
  5
BA6
330
A02
100
AcDbEntity
100
AcDbPolyline
  8
ShapeString
 90
2
 70
0
 43
0
 10
31.826542175
 20
93.818878676
 10
31.495404512
 20
93.435147059
  0
LINE
  5
BA7
330
A02
100
AcDbEntity
  8
ShapeString
100
AcDbLine
 10
31.495404512
 20
93.435147059
 30
0.000000000
 11
31.495404512
 21
90.880000000
 31
0.000000000
  0
LINE
  5
BA8
330
A02
100
AcDbEntity
  8
ShapeString
100
AcDbLine
 10
31.495404512
 20
90.880000000
 30
0.000000000
 11
30.829044218
 21
90.880000000
 31
0.000000000
  0
LINE
  5
BA9
330
A02
100
AcDbEntity
  8
ShapeString
100
AcDbLine
 10
30.829044218
 20
90.880000000
 30
0.000000000
 11
30.829044218
 21
94.719869281
 31
0.000000000
  0
LWPOLYLINE
  5
BAA
330
A02
100
AcDbEntity
100
AcDbPolyline
  8
ShapeString
 90
2
 70
0
 43
0
 10
38.240962110
 20
90.933104575
 10
37.773743973
 20
90.854724265
  0
LWPOLYLINE
  5
BAB
330
A02
100
AcDbEntity
100
AcDbPolyline
  8
ShapeString
 90
2
 70
0
 43
0
 10
37.773743973
 20
90.854724265
 10
37.283547894
 20
90.830980392
  0
LWPOLYLINE
  5
BAC
330
A02
100
AcDbEntity
100
AcDbPolyline
  8
ShapeString
 90
2
 70
0
 43
0
 10
37.283547894
 20
90.830980392
 10
36.203584659
 20
91.157267157
  0
LWPOLYLINE
  5
BAD
330
A02
100
AcDbEntity
100
AcDbPolyline
  8
ShapeString
 90
2
 70
0
 43
0
 10
36.203584659
 20
91.157267157
 10
35.847426571
 20
92.159616013
  0
LINE
  5
BAE
330
A02
100
AcDbEntity
  8
ShapeString
100
AcDbLine
 10
35.847426571
 20
92.159616013
 30
0.000000000
 11
35.847426571
 21
94.160228758
 31
0.000000000
  0
LINE
  5
BAF
330
A02
100
AcDbEntity
  8
ShapeString
100
AcDbLine
 10
35.847426571
 20
94.160228758
 30
0.000000000
 11
34.771292992
 21
94.160228758
 31
0.000000000
  0
LINE
  5
BB0
330
A02
100
AcDbEntity
  8
ShapeString
100
AcDbLine
 10
34.771292992
 20
94.160228758
 30
0.000000000
 11
34.771292992
 21
94.719869281
 31
0.000000000
  0
LINE
  5
BB1
330
A02
100
AcDbEntity
  8
ShapeString
100
AcDbLine
 10
34.771292992
 20
94.719869281
 30
0.000000000
 11
35.847426571
 21
94.719869281
 31
0.000000000
  0
LINE
  5
BB2
330
A02
100
AcDbEntity
  8
ShapeString
100
AcDbLine
 10
35.847426571
 20
94.719869281
 30
0.000000000
 11
35.847426571
 21
95.773535539
 31
0.000000000
  0
LINE
  5
BB3
330
A02
100
AcDbEntity
  8
ShapeString
100
AcDbLine
 10
35.847426571
 20
95.773535539
 30
0.000000000
 11
36.513786865
 21
95.945359477
 31
0.000000000
  0
LINE
  5
BB4
330
A02
100
AcDbEntity
  8
ShapeString
100
AcDbLine
 10
36.513786865
 20
95.945359477
 30
0.000000000
 11
36.513786865
 21
94.719869281
 31
0.000000000
  0
LINE
  5
BB5
330
A02
100
AcDbEntity
  8
ShapeString
100
AcDbLine
 10
36.513786865
 20
94.719869281
 30
0.000000000
 11
38.240962110
 21
94.719869281
 31
0.000000000
  0
LINE
  5
BB6
330
A02
100
AcDbEntity
  8
ShapeString
100
AcDbLine
 10
38.240962110
 20
94.719869281
 30
0.000000000
 11
38.240962110
 21
94.160228758
 31
0.000000000
  0
LINE
  5
BB7
330
A02
100
AcDbEntity
  8
ShapeString
100
AcDbLine
 10
38.240962110
 20
94.160228758
 30
0.000000000
 11
36.513786865
 21
94.160228758
 31
0.000000000
  0
LINE
  5
BB8
330
A02
100
AcDbEntity
  8
ShapeString
100
AcDbLine
 10
36.513786865
 20
94.160228758
 30
0.000000000
 11
36.513786865
 21
92.214763072
 31
0.000000000
  0
LWPOLYLINE
  5
BB9
330
A02
100
AcDbEntity
100
AcDbPolyline
  8
ShapeString
 90
2
 70
0
 43
0
 10
36.513786865
 20
92.214763072
 10
36.733864479
 20
91.598698938
  0
LWPOLYLINE
  5
BBA
330
A02
100
AcDbEntity
100
AcDbPolyline
  8
ShapeString
 90
2
 70
0
 43
0
 10
36.733864479
 20
91.598698938
 10
37.383118973
 20
91.394705882
  0
LWPOLYLINE
  5
BBB
330
A02
100
AcDbEntity
100
AcDbPolyline
  8
ShapeString
 90
2
 70
0
 43
0
 10
37.383118973
 20
91.394705882
 10
37.785232943
 20
91.422279412
  0
LWPOLYLINE
  5
BBC
330
A02
100
AcDbEntity
100
AcDbPolyline
  8
ShapeString
 90
2
 70
0
 43
0
 10
37.785232943
 20
91.422279412
 10
38.240962110
 20
91.509084967
  0
LINE
  5
BBD
330
A02
100
AcDbEntity
  8
ShapeString
100
AcDbLine
 10
38.240962110
 20
91.509084967
 30
0.000000000
 11
38.240962110
 21
90.933104575
 31
0.000000000
  0
LWPOLYLINE
  5
BBE
330
A02
100
AcDbEntity
100
AcDbPolyline
  8
ShapeString
 90
2
 70
0
 43
0
 10
46.975643482
 20
92.240294118
 10
46.830116522
 20
91.615549428
  0
LWPOLYLINE
  5
BBF
330
A02
100
AcDbEntity
100
AcDbPolyline
  8
ShapeString
 90
2
 70
0
 43
0
 10
46.830116522
 20
91.615549428
 10
46.424172894
 20
91.169266748
  0
LWPOLYLINE
  5
BC0
330
A02
100
AcDbEntity
100
AcDbPolyline
  8
ShapeString
 90
2
 70
0
 43
0
 10
46.424172894
 20
91.169266748
 10
45.797896342
 20
90.902722631
  0
LWPOLYLINE
  5
BC1
330
A02
100
AcDbEntity
100
AcDbPolyline
  8
ShapeString
 90
2
 70
0
 43
0
 10
45.797896342
 20
90.902722631
 10
44.991881227
 20
90.814640523
  0
LWPOLYLINE
  5
BC2
330
A02
100
AcDbEntity
100
AcDbPolyline
  8
ShapeString
 90
2
 70
0
 43
0
 10
44.991881227
 20
90.814640523
 10
44.595384087
 20
90.829959150
  0
LWPOLYLINE
  5
BC3
330
A02
100
AcDbEntity
100
AcDbPolyline
  8
ShapeString
 90
2
 70
0
 43
0
 10
44.595384087
 20
90.829959150
 10
44.216248058
 20
90.868255719
  0
LWPOLYLINE
  5
BC4
330
A02
100
AcDbEntity
100
AcDbPolyline
  8
ShapeString
 90
2
 70
0
 43
0
 10
44.216248058
 20
90.868255719
 10
43.873621424
 20
90.921615605
  0
LWPOLYLINE
  5
BC5
330
A02
100
AcDbEntity
100
AcDbPolyline
  8
ShapeString
 90
2
 70
0
 43
0
 10
43.873621424
 20
90.921615605
 10
43.582567502
 20
90.986719771
  0
LINE
  5
BC6
330
A02
100
AcDbEntity
  8
ShapeString
100
AcDbLine
 10
43.582567502
 20
90.986719771
 30
0.000000000
 11
43.582567502
 21
91.644910131
 31
0.000000000
  0
LWPOLYLINE
  5
BC7
330
A02
100
AcDbEntity
100
AcDbPolyline
  8
ShapeString
 90
2
 70
0
 43
0
 10
43.582567502
 20
91.644910131
 10
44.227737028
 20
91.476405229
  0
LWPOLYLINE
  5
BC8
330
A02
100
AcDbEntity
100
AcDbPolyline
  8
ShapeString
 90
2
 70
0
 43
0
 10
44.227737028
 20
91.476405229
 10
45.041666767
 20
91.415130719
  0
LWPOLYLINE
  5
BC9
330
A02
100
AcDbEntity
100
AcDbPolyline
  8
ShapeString
 90
2
 70
0
 43
0
 10
45.041666767
 20
91.415130719
 10
45.602583842
 20
91.466958742
  0
LWPOLYLINE
  5
BCA
330
A02
100
AcDbEntity
100
AcDbPolyline
  8
ShapeString
 90
2
 70
0
 43
0
 10
45.602583842
 20
91.466958742
 10
45.981719871
 20
91.620400327
  0
LWPOLYLINE
  5
BCB
330
A02
100
AcDbEntity
100
AcDbPolyline
  8
ShapeString
 90
2
 70
0
 43
0
 10
45.981719871
 20
91.620400327
 10
46.196180656
 20
91.868051471
  0
LWPOLYLINE
  5
BCC
330
A02
100
AcDbEntity
100
AcDbPolyline
  8
ShapeString
 90
2
 70
0
 43
0
 10
46.196180656
 20
91.868051471
 10
46.263327306
 20
92.201997549
  0
LWPOLYLINE
  5
BCD
330
A02
100
AcDbEntity
100
AcDbPolyline
  8
ShapeString
 90
2
 70
0
 43
0
 10
46.263327306
 20
92.201997549
 10
46.150224773
 20
92.548709150
  0
LWPOLYLINE
  5
BCE
330
A02
100
AcDbEntity
100
AcDbPolyline
  8
ShapeString
 90
2
 70
0
 43
0
 10
46.150224773
 20
92.548709150
 10
45.853554022
 20
92.805551471
  0
LWPOLYLINE
  5
BCF
330
A02
100
AcDbEntity
100
AcDbPolyline
  8
ShapeString
 90
2
 70
0
 43
0
 10
45.853554022
 20
92.805551471
 10
45.434078940
 20
93.012608252
  0
LWPOLYLINE
  5
BD0
330
A02
100
AcDbEntity
100
AcDbPolyline
  8
ShapeString
 90
2
 70
0
 43
0
 10
45.434078940
 20
93.012608252
 10
44.953584659
 20
93.206133578
  0
LWPOLYLINE
  5
BD1
330
A02
100
AcDbEntity
100
AcDbPolyline
  8
ShapeString
 90
2
 70
0
 43
0
 10
44.953584659
 20
93.206133578
 10
44.472835067
 20
93.422636846
  0
LWPOLYLINE
  5
BD2
330
A02
100
AcDbEntity
100
AcDbPolyline
  8
ShapeString
 90
2
 70
0
 43
0
 10
44.472835067
 20
93.422636846
 10
44.053615296
 20
93.698627451
  0
LWPOLYLINE
  5
BD3
330
A02
100
AcDbEntity
100
AcDbPolyline
  8
ShapeString
 90
2
 70
0
 43
0
 10
44.053615296
 20
93.698627451
 10
43.756689234
 20
94.072146650
  0
LWPOLYLINE
  5
BD4
330
A02
100
AcDbEntity
100
AcDbPolyline
  8
ShapeString
 90
2
 70
0
 43
0
 10
43.756689234
 20
94.072146650
 10
43.643842012
 20
94.582001634
  0
LWPOLYLINE
  5
BD5
330
A02
100
AcDbEntity
100
AcDbPolyline
  8
ShapeString
 90
2
 70
0
 43
0
 10
43.643842012
 20
94.582001634
 10
43.751072404
 20
95.087771650
  0
LWPOLYLINE
  5
BD6
330
A02
100
AcDbEntity
100
AcDbPolyline
  8
ShapeString
 90
2
 70
0
 43
0
 10
43.751072404
 20
95.087771650
 10
44.084252551
 20
95.530479984
  0
LWPOLYLINE
  5
BD7
330
A02
100
AcDbEntity
100
AcDbPolyline
  8
ShapeString
 90
2
 70
0
 43
0
 10
44.084252551
 20
95.530479984
 10
44.664317910
 20
95.842724673
  0
LWPOLYLINE
  5
BD8
330
A02
100
AcDbEntity
100
AcDbPolyline
  8
ShapeString
 90
2
 70
0
 43
0
 10
44.664317910
 20
95.842724673
 10
45.508884904
 20
95.961699346
  0
LWPOLYLINE
  5
BD9
330
A02
100
AcDbEntity
100
AcDbPolyline
  8
ShapeString
 90
2
 70
0
 43
0
 10
45.508884904
 20
95.961699346
 10
45.782577714
 20
95.950210376
  0
LWPOLYLINE
  5
BDA
330
A02
100
AcDbEntity
100
AcDbPolyline
  8
ShapeString
 90
2
 70
0
 43
0
 10
45.782577714
 20
95.950210376
 10
46.081290950
 20
95.917785948
  0
LWPOLYLINE
  5
BDB
330
A02
100
AcDbEntity
100
AcDbPolyline
  8
ShapeString
 90
2
 70
0
 43
0
 10
46.081290950
 20
95.917785948
 10
46.380004185
 20
95.870042892
  0
LWPOLYLINE
  5
BDC
330
A02
100
AcDbEntity
100
AcDbPolyline
  8
ShapeString
 90
2
 70
0
 43
0
 10
46.380004185
 20
95.870042892
 10
46.653952306
 20
95.812853350
  0
LINE
  5
BDD
330
A02
100
AcDbEntity
  8
ShapeString
100
AcDbLine
 10
46.653952306
 20
95.812853350
 30
0.000000000
 11
46.653952306
 21
95.201129493
 31
0.000000000
  0
LWPOLYLINE
  5
BDE
330
A02
100
AcDbEntity
100
AcDbPolyline
  8
ShapeString
 90
2
 70
0
 43
0
 10
46.653952306
 20
95.201129493
 10
46.064185149
 20
95.329295343
  0
LWPOLYLINE
  5
BDF
330
A02
100
AcDbEntity
100
AcDbPolyline
  8
ShapeString
 90
2
 70
0
 43
0
 10
46.064185149
 20
95.329295343
 10
45.493566276
 20
95.373464052
  0
LWPOLYLINE
  5
BE0
330
A02
100
AcDbEntity
100
AcDbPolyline
  8
ShapeString
 90
2
 70
0
 43
0
 10
45.493566276
 20
95.373464052
 10
44.631893482
 20
95.177385621
  0
LWPOLYLINE
  5
BE1
330
A02
100
AcDbEntity
100
AcDbPolyline
  8
ShapeString
 90
2
 70
0
 43
0
 10
44.631893482
 20
95.177385621
 10
44.356158188
 20
94.650935458
  0
LWPOLYLINE
  5
BE2
330
A02
100
AcDbEntity
100
AcDbPolyline
  8
ShapeString
 90
2
 70
0
 43
0
 10
44.356158188
 20
94.650935458
 10
44.469005410
 20
94.302181373
  0
LWPOLYLINE
  5
BE3
330
A02
100
AcDbEntity
100
AcDbPolyline
  8
ShapeString
 90
2
 70
0
 43
0
 10
44.469005410
 20
94.302181373
 10
44.765931473
 20
94.041509395
  0
LWPOLYLINE
  5
BE4
330
A02
100
AcDbEntity
100
AcDbPolyline
  8
ShapeString
 90
2
 70
0
 43
0
 10
44.765931473
 20
94.041509395
 10
45.185151244
 20
93.832665441
  0
LWPOLYLINE
  5
BE5
330
A02
100
AcDbEntity
100
AcDbPolyline
  8
ShapeString
 90
2
 70
0
 43
0
 10
45.185151244
 20
93.832665441
 10
45.665900835
 20
93.639140114
  0
LWPOLYLINE
  5
BE6
330
A02
100
AcDbEntity
100
AcDbPolyline
  8
ShapeString
 90
2
 70
0
 43
0
 10
45.665900835
 20
93.639140114
 10
46.146395116
 20
93.420594363
  0
LWPOLYLINE
  5
BE7
330
A02
100
AcDbEntity
100
AcDbPolyline
  8
ShapeString
 90
2
 70
0
 43
0
 10
46.146395116
 20
93.420594363
 10
46.565870198
 20
93.138986928
  0
LWPOLYLINE
  5
BE8
330
A02
100
AcDbEntity
100
AcDbPolyline
  8
ShapeString
 90
2
 70
0
 43
0
 10
46.565870198
 20
93.138986928
 10
46.862540950
 20
92.757553105
  0
LWPOLYLINE
  5
BE9
330
A02
100
AcDbEntity
100
AcDbPolyline
  8
ShapeString
 90
2
 70
0
 43
0
 10
46.862540950
 20
92.757553105
 10
46.975643482
 20
92.240294118
  0
LWPOLYLINE
  5
BEA
330
A02
100
AcDbEntity
100
AcDbPolyline
  8
ShapeString
 90
2
 70
0
 43
0
 10
51.331495198
 20
93.013118873
 10
51.327665541
 20
92.775680147
  0
LWPOLYLINE
  5
BEB
330
A02
100
AcDbEntity
100
AcDbPolyline
  8
ShapeString
 90
2
 70
0
 43
0
 10
51.327665541
 20
92.775680147
 10
51.316176571
 20
92.595686275
  0
LINE
  5
BEC
330
A02
100
AcDbEntity
  8
ShapeString
100
AcDbLine
 10
51.316176571
 20
92.595686275
 30
0.000000000
 11
48.616268482
 21
92.595686275
 31
0.000000000
  0
LWPOLYLINE
  5
BED
330
A02
100
AcDbEntity
100
AcDbPolyline
  8
ShapeString
 90
2
 70
0
 43
0
 10
48.616268482
 20
92.595686275
 10
48.945618973
 20
91.687036356
  0
LWPOLYLINE
  5
BEE
330
A02
100
AcDbEntity
100
AcDbPolyline
  8
ShapeString
 90
2
 70
0
 43
0
 10
48.945618973
 20
91.687036356
 10
49.895373875
 20
91.370196078
  0
LWPOLYLINE
  5
BEF
330
A02
100
AcDbEntity
100
AcDbPolyline
  8
ShapeString
 90
2
 70
0
 43
0
 10
49.895373875
 20
91.370196078
 10
50.232383678
 20
91.383472222
  0
LWPOLYLINE
  5
BF0
330
A02
100
AcDbEntity
100
AcDbPolyline
  8
ShapeString
 90
2
 70
0
 43
0
 10
50.232383678
 20
91.383472222
 10
50.557904512
 20
91.419470997
  0
LWPOLYLINE
  5
BF1
330
A02
100
AcDbEntity
100
AcDbPolyline
  8
ShapeString
 90
2
 70
0
 43
0
 10
50.557904512
 20
91.419470997
 10
50.858404920
 20
91.470788399
  0
LWPOLYLINE
  5
BF2
330
A02
100
AcDbEntity
100
AcDbPolyline
  8
ShapeString
 90
2
 70
0
 43
0
 10
50.858404920
 20
91.470788399
 10
51.124693727
 20
91.533594771
  0
LINE
  5
BF3
330
A02
100
AcDbEntity
  8
ShapeString
100
AcDbLine
 10
51.124693727
 20
91.533594771
 30
0.000000000
 11
51.124693727
 21
90.986209150
 31
0.000000000
  0
LWPOLYLINE
  5
BF4
330
A02
100
AcDbEntity
100
AcDbPolyline
  8
ShapeString
 90
2
 70
0
 43
0
 10
51.124693727
 20
90.986209150
 10
50.509906146
 20
90.862383578
  0
LWPOLYLINE
  5
BF5
330
A02
100
AcDbEntity
100
AcDbPolyline
  8
ShapeString
 90
2
 70
0
 43
0
 10
50.509906146
 20
90.862383578
 10
49.799632453
 20
90.814640523
  0
LWPOLYLINE
  5
BF6
330
A02
100
AcDbEntity
100
AcDbPolyline
  8
ShapeString
 90
2
 70
0
 43
0
 10
49.799632453
 20
90.814640523
 10
48.949448629
 20
90.948678513
  0
LWPOLYLINE
  5
BF7
330
A02
100
AcDbEntity
100
AcDbPolyline
  8
ShapeString
 90
2
 70
0
 43
0
 10
48.949448629
 20
90.948678513
 10
48.365298303
 20
91.337771650
  0
LWPOLYLINE
  5
BF8
330
A02
100
AcDbEntity
100
AcDbPolyline
  8
ShapeString
 90
2
 70
0
 43
0
 10
48.365298303
 20
91.337771650
 10
48.028288499
 20
91.962771650
  0
LWPOLYLINE
  5
BF9
330
A02
100
AcDbEntity
100
AcDbPolyline
  8
ShapeString
 90
2
 70
0
 43
0
 10
48.028288499
 20
91.962771650
 10
47.919270933
 20
92.800445261
  0
LWPOLYLINE
  5
BFA
330
A02
100
AcDbEntity
100
AcDbPolyline
  8
ShapeString
 90
2
 70
0
 43
0
 10
47.919270933
 20
92.800445261
 10
48.035947812
 20
93.569185049
  0
LWPOLYLINE
  5
BFB
330
A02
100
AcDbEntity
100
AcDbPolyline
  8
ShapeString
 90
2
 70
0
 43
0
 10
48.035947812
 20
93.569185049
 10
48.376787273
 20
94.205418709
  0
LWPOLYLINE
  5
BFC
330
A02
100
AcDbEntity
100
AcDbPolyline
  8
ShapeString
 90
2
 70
0
 43
0
 10
48.376787273
 20
94.205418709
 10
48.926470688
 20
94.640467729
  0
LWPOLYLINE
  5
BFD
330
A02
100
AcDbEntity
100
AcDbPolyline
  8
ShapeString
 90
2
 70
0
 43
0
 10
48.926470688
 20
94.640467729
 10
49.665594463
 20
94.801568627
  0
LWPOLYLINE
  5
BFE
330
A02
100
AcDbEntity
100
AcDbPolyline
  8
ShapeString
 90
2
 70
0
 43
0
 10
49.665594463
 20
94.801568627
 10
50.377910639
 20
94.675189951
  0
LWPOLYLINE
  5
BFF
330
A02
100
AcDbEntity
100
AcDbPolyline
  8
ShapeString
 90
2
 70
0
 43
0
 10
50.377910639
 20
94.675189951
 10
50.900531146
 20
94.316989379
  0
LWPOLYLINE
  5
C00
330
A02
100
AcDbEntity
100
AcDbPolyline
  8
ShapeString
 90
2
 70
0
 43
0
 10
50.900531146
 20
94.316989379
 10
51.222222322
 20
93.754029820
  0
LWPOLYLINE
  5
C01
330
A02
100
AcDbEntity
100
AcDbPolyline
  8
ShapeString
 90
2
 70
0
 43
0
 10
51.222222322
 20
93.754029820
 10
51.331495198
 20
93.013118873
  0
LWPOLYLINE
  5
C02
330
A02
100
AcDbEntity
100
AcDbPolyline
  8
ShapeString
 90
2
 70
0
 43
0
 10
50.638327306
 20
93.110392157
 10
50.588541767
 20
93.579397467
  0
LWPOLYLINE
  5
C03
330
A02
100
AcDbEntity
100
AcDbPolyline
  8
ShapeString
 90
2
 70
0
 43
0
 10
50.588541767
 20
93.579397467
 10
50.398846097
 20
93.945002042
  0
LWPOLYLINE
  5
C04
330
A02
100
AcDbEntity
100
AcDbPolyline
  8
ShapeString
 90
2
 70
0
 43
0
 10
50.398846097
 20
93.945002042
 10
50.079197404
 20
94.184227941
  0
LWPOLYLINE
  5
C05
330
A02
100
AcDbEntity
100
AcDbPolyline
  8
ShapeString
 90
2
 70
0
 43
0
 10
50.079197404
 20
94.184227941
 10
49.634957208
 20
94.270522876
  0
LWPOLYLINE
  5
C06
330
A02
100
AcDbEntity
100
AcDbPolyline
  8
ShapeString
 90
2
 70
0
 43
0
 10
49.634957208
 20
94.270522876
 10
49.236672894
 20
94.186270425
  0
LWPOLYLINE
  5
C07
330
A02
100
AcDbEntity
100
AcDbPolyline
  8
ShapeString
 90
2
 70
0
 43
0
 10
49.236672894
 20
94.186270425
 10
48.926470688
 20
93.948831699
  0
LWPOLYLINE
  5
C08
330
A02
100
AcDbEntity
100
AcDbPolyline
  8
ShapeString
 90
2
 70
0
 43
0
 10
48.926470688
 20
93.948831699
 10
48.715839561
 20
93.581184641
  0
LWPOLYLINE
  5
C09
330
A02
100
AcDbEntity
100
AcDbPolyline
  8
ShapeString
 90
2
 70
0
 43
0
 10
48.715839561
 20
93.581184641
 10
48.616268482
 20
93.110392157
  0
LINE
  5
C0A
330
A02
100
AcDbEntity
  8
ShapeString
100
AcDbLine
 10
48.616268482
 20
93.110392157
 30
0.000000000
 11
50.638327306
 21
93.110392157
 31
0.000000000
  0
LWPOLYLINE
  5
C0B
330
A02
100
AcDbEntity
100
AcDbPolyline
  8
ShapeString
 90
2
 70
0
 43
0
 10
55.495864071
 20
90.933104575
 10
55.028645933
 20
90.854724265
  0
LWPOLYLINE
  5
C0C
330
A02
100
AcDbEntity
100
AcDbPolyline
  8
ShapeString
 90
2
 70
0
 43
0
 10
55.028645933
 20
90.854724265
 10
54.538449855
 20
90.830980392
  0
LWPOLYLINE
  5
C0D
330
A02
100
AcDbEntity
100
AcDbPolyline
  8
ShapeString
 90
2
 70
0
 43
0
 10
54.538449855
 20
90.830980392
 10
53.458486620
 20
91.157267157
  0
LWPOLYLINE
  5
C0E
330
A02
100
AcDbEntity
100
AcDbPolyline
  8
ShapeString
 90
2
 70
0
 43
0
 10
53.458486620
 20
91.157267157
 10
53.102328531
 20
92.159616013
  0
LINE
  5
C0F
330
A02
100
AcDbEntity
  8
ShapeString
100
AcDbLine
 10
53.102328531
 20
92.159616013
 30
0.000000000
 11
53.102328531
 21
94.160228758
 31
0.000000000
  0
LINE
  5
C10
330
A02
100
AcDbEntity
  8
ShapeString
100
AcDbLine
 10
53.102328531
 20
94.160228758
 30
0.000000000
 11
52.026194953
 21
94.160228758
 31
0.000000000
  0
LINE
  5
C11
330
A02
100
AcDbEntity
  8
ShapeString
100
AcDbLine
 10
52.026194953
 20
94.160228758
 30
0.000000000
 11
52.026194953
 21
94.719869281
 31
0.000000000
  0
LINE
  5
C12
330
A02
100
AcDbEntity
  8
ShapeString
100
AcDbLine
 10
52.026194953
 20
94.719869281
 30
0.000000000
 11
53.102328531
 21
94.719869281
 31
0.000000000
  0
LINE
  5
C13
330
A02
100
AcDbEntity
  8
ShapeString
100
AcDbLine
 10
53.102328531
 20
94.719869281
 30
0.000000000
 11
53.102328531
 21
95.773535539
 31
0.000000000
  0
LINE
  5
C14
330
A02
100
AcDbEntity
  8
ShapeString
100
AcDbLine
 10
53.102328531
 20
95.773535539
 30
0.000000000
 11
53.768688825
 21
95.945359477
 31
0.000000000
  0
LINE
  5
C15
330
A02
100
AcDbEntity
  8
ShapeString
100
AcDbLine
 10
53.768688825
 20
95.945359477
 30
0.000000000
 11
53.768688825
 21
94.719869281
 31
0.000000000
  0
LINE
  5
C16
330
A02
100
AcDbEntity
  8
ShapeString
100
AcDbLine
 10
53.768688825
 20
94.719869281
 30
0.000000000
 11
55.495864071
 21
94.719869281
 31
0.000000000
  0
LINE
  5
C17
330
A02
100
AcDbEntity
  8
ShapeString
100
AcDbLine
 10
55.495864071
 20
94.719869281
 30
0.000000000
 11
55.495864071
 21
94.160228758
 31
0.000000000
  0
LINE
  5
C18
330
A02
100
AcDbEntity
  8
ShapeString
100
AcDbLine
 10
55.495864071
 20
94.160228758
 30
0.000000000
 11
53.768688825
 21
94.160228758
 31
0.000000000
  0
LINE
  5
C19
330
A02
100
AcDbEntity
  8
ShapeString
100
AcDbLine
 10
53.768688825
 20
94.160228758
 30
0.000000000
 11
53.768688825
 21
92.214763072
 31
0.000000000
  0
LWPOLYLINE
  5
C1A
330
A02
100
AcDbEntity
100
AcDbPolyline
  8
ShapeString
 90
2
 70
0
 43
0
 10
53.768688825
 20
92.214763072
 10
53.988766440
 20
91.598698938
  0
LWPOLYLINE
  5
C1B
330
A02
100
AcDbEntity
100
AcDbPolyline
  8
ShapeString
 90
2
 70
0
 43
0
 10
53.988766440
 20
91.598698938
 10
54.638020933
 20
91.394705882
  0
LWPOLYLINE
  5
C1C
330
A02
100
AcDbEntity
100
AcDbPolyline
  8
ShapeString
 90
2
 70
0
 43
0
 10
54.638020933
 20
91.394705882
 10
55.040134904
 20
91.422279412
  0
LWPOLYLINE
  5
C1D
330
A02
100
AcDbEntity
100
AcDbPolyline
  8
ShapeString
 90
2
 70
0
 43
0
 10
55.040134904
 20
91.422279412
 10
55.495864071
 20
91.509084967
  0
LINE
  5
C1E
330
A02
100
AcDbEntity
  8
ShapeString
100
AcDbLine
 10
55.495864071
 20
91.509084967
 30
0.000000000
 11
55.495864071
 21
90.933104575
 31
0.000000000
  0
LWPOLYLINE
  5
C1F
330
A02
100
AcDbEntity
100
AcDbPolyline
  8
ShapeString001
 90
2
 70
0
 43
0
 10
12.958180247
 20
50.055653595
 10
11.698223139
 20
49.814640523
  0
LWPOLYLINE
  5
C20
330
A02
100
AcDbEntity
100
AcDbPolyline
  8
ShapeString001
 90
2
 70
0
 43
0
 10
11.698223139
 20
49.814640523
 10
10.068576489
 20
50.448831699
  0
LWPOLYLINE
  5
C21
330
A02
100
AcDbEntity
100
AcDbPolyline
  8
ShapeString001
 90
2
 70
0
 43
0
 10
10.068576489
 20
50.448831699
 10
9.500000100
 20
52.324342320
  0
LWPOLYLINE
  5
C22
330
A02
100
AcDbEntity
100
AcDbPolyline
  8
ShapeString001
 90
2
 70
0
 43
0
 10
9.500000100
 20
52.324342320
 10
9.657016031
 20
53.412730801
  0
LWPOLYLINE
  5
C23
330
A02
100
AcDbEntity
100
AcDbPolyline
  8
ShapeString001
 90
2
 70
0
 43
0
 10
9.657016031
 20
53.412730801
 10
10.105085884
 20
54.238404820
  0
LWPOLYLINE
  5
C24
330
A02
100
AcDbEntity
100
AcDbPolyline
  8
ShapeString001
 90
2
 70
0
 43
0
 10
10.105085884
 20
54.238404820
 10
10.809742747
 20
54.761280637
  0
LWPOLYLINE
  5
C25
330
A02
100
AcDbEntity
100
AcDbPolyline
  8
ShapeString001
 90
2
 70
0
 43
0
 10
10.809742747
 20
54.761280637
 10
11.736519708
 20
54.945359477
  0
LWPOLYLINE
  5
C26
330
A02
100
AcDbEntity
100
AcDbPolyline
  8
ShapeString001
 90
2
 70
0
 43
0
 10
11.736519708
 20
54.945359477
 10
12.383731718
 20
54.885106209
  0
LWPOLYLINE
  5
C27
330
A02
100
AcDbEntity
100
AcDbPolyline
  8
ShapeString001
 90
2
 70
0
 43
0
 10
12.383731718
 20
54.885106209
 10
12.958180247
 20
54.700261438
  0
LINE
  5
C28
330
A02
100
AcDbEntity
  8
ShapeString001
100
AcDbLine
 10
12.958180247
 20
54.700261438
 30
0.000000000
 11
12.958180247
 21
54.030326797
 31
0.000000000
  0
LWPOLYLINE
  5
C29
330
A02
100
AcDbEntity
100
AcDbPolyline
  8
ShapeString001
 90
2
 70
0
 43
0
 10
12.958180247
 20
54.030326797
 10
12.395220688
 20
54.261127451
  0
LWPOLYLINE
  5
C2A
330
A02
100
AcDbEntity
100
AcDbPolyline
  8
ShapeString001
 90
2
 70
0
 43
0
 10
12.395220688
 20
54.261127451
 10
11.759497649
 20
54.340784314
  0
LWPOLYLINE
  5
C2B
330
A02
100
AcDbEntity
100
AcDbPolyline
  8
ShapeString001
 90
2
 70
0
 43
0
 10
11.759497649
 20
54.340784314
 10
11.121732126
 20
54.208533497
  0
LWPOLYLINE
  5
C2C
330
A02
100
AcDbEntity
100
AcDbPolyline
  8
ShapeString001
 90
2
 70
0
 43
0
 10
11.121732126
 20
54.208533497
 10
10.637408188
 20
53.825057190
  0
LWPOLYLINE
  5
C2D
330
A02
100
AcDbEntity
100
AcDbPolyline
  8
ShapeString001
 90
2
 70
0
 43
0
 10
10.637408188
 20
53.825057190
 10
10.331035639
 20
53.211801471
  0
LWPOLYLINE
  5
C2E
330
A02
100
AcDbEntity
100
AcDbPolyline
  8
ShapeString001
 90
2
 70
0
 43
0
 10
10.331035639
 20
53.211801471
 10
10.223805247
 20
52.385872141
  0
LWPOLYLINE
  5
C2F
330
A02
100
AcDbEntity
100
AcDbPolyline
  8
ShapeString001
 90
2
 70
0
 43
0
 10
10.223805247
 20
52.385872141
 10
10.618259904
 20
50.917837010
  0
LWPOLYLINE
  5
C30
330
A02
100
AcDbEntity
100
AcDbPolyline
  8
ShapeString001
 90
2
 70
0
 43
0
 10
10.618259904
 20
50.917837010
 10
11.774816276
 20
50.423300654
  0
LWPOLYLINE
  5
C31
330
A02
100
AcDbEntity
100
AcDbPolyline
  8
ShapeString001
 90
2
 70
0
 43
0
 10
11.774816276
 20
50.423300654
 10
12.391391031
 20
50.496319444
  0
LWPOLYLINE
  5
C32
330
A02
100
AcDbEntity
100
AcDbPolyline
  8
ShapeString001
 90
2
 70
0
 43
0
 10
12.391391031
 20
50.496319444
 10
12.958180247
 20
50.701078431
  0
LINE
  5
C33
330
A02
100
AcDbEntity
  8
ShapeString001
100
AcDbLine
 10
12.958180247
 20
50.701078431
 30
0.000000000
 11
12.958180247
 21
50.055653595
 31
0.000000000
  0
LINE
  5
C34
330
A02
100
AcDbEntity
  8
ShapeString001
100
AcDbLine
 10
17.164675345
 20
49.880000000
 30
0.000000000
 11
16.567248875
 21
49.880000000
 31
0.000000000
  0
LINE
  5
C35
330
A02
100
AcDbEntity
  8
ShapeString001
100
AcDbLine
 10
16.567248875
 20
49.880000000
 30
0.000000000
 11
16.544270933
 21
50.499638480
 31
0.000000000
  0
LWPOLYLINE
  5
C36
330
A02
100
AcDbEntity
100
AcDbPolyline
  8
ShapeString001
 90
2
 70
0
 43
0
 10
16.544270933
 20
50.499638480
 10
16.216707616
 20
50.170287990
  0
LWPOLYLINE
  5
C37
330
A02
100
AcDbEntity
100
AcDbPolyline
  8
ShapeString001
 90
2
 70
0
 43
0
 10
16.216707616
 20
50.170287990
 10
15.908547894
 20
49.959146242
  0
LWPOLYLINE
  5
C38
330
A02
100
AcDbEntity
100
AcDbPolyline
  8
ShapeString001
 90
2
 70
0
 43
0
 10
15.908547894
 20
49.959146242
 10
15.600132861
 20
49.847064951
  0
LWPOLYLINE
  5
C39
330
A02
100
AcDbEntity
100
AcDbPolyline
  8
ShapeString001
 90
2
 70
0
 43
0
 10
15.600132861
 20
49.847064951
 10
15.272824855
 20
49.814640523
  0
LWPOLYLINE
  5
C3A
330
A02
100
AcDbEntity
100
AcDbPolyline
  8
ShapeString001
 90
2
 70
0
 43
0
 10
15.272824855
 20
49.814640523
 10
14.376685149
 20
50.162373366
  0
LWPOLYLINE
  5
C3B
330
A02
100
AcDbEntity
100
AcDbPolyline
  8
ShapeString001
 90
2
 70
0
 43
0
 10
14.376685149
 20
50.162373366
 10
14.074142257
 20
51.213231209
  0
LINE
  5
C3C
330
A02
100
AcDbEntity
  8
ShapeString001
100
AcDbLine
 10
14.074142257
 20
51.213231209
 30
0.000000000
 11
14.074142257
 21
53.719869281
 31
0.000000000
  0
LINE
  5
C3D
330
A02
100
AcDbEntity
  8
ShapeString001
100
AcDbLine
 10
14.074142257
 20
53.719869281
 30
0.000000000
 11
14.740502551
 21
53.719869281
 31
0.000000000
  0
LINE
  5
C3E
330
A02
100
AcDbEntity
  8
ShapeString001
100
AcDbLine
 10
14.740502551
 20
53.719869281
 30
0.000000000
 11
14.740502551
 21
51.268633578
 31
0.000000000
  0
LWPOLYLINE
  5
C3F
330
A02
100
AcDbEntity
100
AcDbPolyline
  8
ShapeString001
 90
2
 70
0
 43
0
 10
14.740502551
 20
51.268633578
 10
15.406862845
 20
50.386535948
  0
LWPOLYLINE
  5
C40
330
A02
100
AcDbEntity
100
AcDbPolyline
  8
ShapeString001
 90
2
 70
0
 43
0
 10
15.406862845
 20
50.386535948
 10
15.646088744
 20
50.422790033
  0
LWPOLYLINE
  5
C41
330
A02
100
AcDbEntity
100
AcDbPolyline
  8
ShapeString001
 90
2
 70
0
 43
0
 10
15.646088744
 20
50.422790033
 10
15.891186783
 20
50.548658088
  0
LWPOLYLINE
  5
C42
330
A02
100
AcDbEntity
100
AcDbPolyline
  8
ShapeString001
 90
2
 70
0
 43
0
 10
15.891186783
 20
50.548658088
 10
16.166922077
 20
50.791203023
  0
LWPOLYLINE
  5
C43
330
A02
100
AcDbEntity
100
AcDbPolyline
  8
ShapeString001
 90
2
 70
0
 43
0
 10
16.166922077
 20
50.791203023
 10
16.498315051
 20
51.176977124
  0
LINE
  5
C44
330
A02
100
AcDbEntity
  8
ShapeString001
100
AcDbLine
 10
16.498315051
 20
51.176977124
 30
0.000000000
 11
16.498315051
 21
53.719869281
 31
0.000000000
  0
LINE
  5
C45
330
A02
100
AcDbEntity
  8
ShapeString001
100
AcDbLine
 10
16.498315051
 20
53.719869281
 30
0.000000000
 11
17.164675345
 21
53.719869281
 31
0.000000000
  0
LINE
  5
C46
330
A02
100
AcDbEntity
  8
ShapeString001
100
AcDbLine
 10
17.164675345
 20
53.719869281
 30
0.000000000
 11
17.164675345
 21
49.880000000
 31
0.000000000
  0
LINE
  5
C47
330
A02
100
AcDbEntity
  8
ShapeString001
100
AcDbLine
 10
18.544883678
 20
53.719869281
 30
0.000000000
 11
19.153799120
 21
53.719869281
 31
0.000000000
  0
LINE
  5
C48
330
A02
100
AcDbEntity
  8
ShapeString001
100
AcDbLine
 10
19.153799120
 20
53.719869281
 30
0.000000000
 11
19.172947404
 21
53.009595588
 31
0.000000000
  0
LWPOLYLINE
  5
C49
330
A02
100
AcDbEntity
100
AcDbPolyline
  8
ShapeString001
 90
2
 70
0
 43
0
 10
19.172947404
 20
53.009595588
 10
19.844924528
 20
53.614170752
  0
LWPOLYLINE
  5
C4A
330
A02
100
AcDbEntity
100
AcDbPolyline
  8
ShapeString001
 90
2
 70
0
 43
0
 10
19.844924528
 20
53.614170752
 10
20.513327306
 20
53.801568627
  0
LWPOLYLINE
  5
C4B
330
A02
100
AcDbEntity
100
AcDbPolyline
  8
ShapeString001
 90
2
 70
0
 43
0
 10
20.513327306
 20
53.801568627
 10
21.418913499
 20
53.410433007
  0
LWPOLYLINE
  5
C4C
330
A02
100
AcDbEntity
100
AcDbPolyline
  8
ShapeString001
 90
2
 70
0
 43
0
 10
21.418913499
 20
53.410433007
 10
21.704350590
 20
52.249281046
  0
LINE
  5
C4D
330
A02
100
AcDbEntity
  8
ShapeString001
100
AcDbLine
 10
21.704350590
 20
52.249281046
 30
0.000000000
 11
21.030330982
 21
52.249281046
 31
0.000000000
  0
LWPOLYLINE
  5
C4E
330
A02
100
AcDbEntity
100
AcDbPolyline
  8
ShapeString001
 90
2
 70
0
 43
0
 10
21.030330982
 20
52.249281046
 10
20.882761538
 20
52.994021650
  0
LWPOLYLINE
  5
C4F
330
A02
100
AcDbEntity
100
AcDbPolyline
  8
ShapeString001
 90
2
 70
0
 43
0
 10
20.882761538
 20
52.994021650
 10
20.417585884
 20
53.225588235
  0
LWPOLYLINE
  5
C50
330
A02
100
AcDbEntity
100
AcDbPolyline
  8
ShapeString001
 90
2
 70
0
 43
0
 10
20.417585884
 20
53.225588235
 10
20.147467420
 20
53.176823938
  0
LWPOLYLINE
  5
C51
330
A02
100
AcDbEntity
100
AcDbPolyline
  8
ShapeString001
 90
2
 70
0
 43
0
 10
20.147467420
 20
53.176823938
 10
19.867902469
 20
53.021084559
  0
LWPOLYLINE
  5
C52
330
A02
100
AcDbEntity
100
AcDbPolyline
  8
ShapeString001
 90
2
 70
0
 43
0
 10
19.867902469
 20
53.021084559
 10
19.563572404
 20
52.746625817
  0
LWPOLYLINE
  5
C53
330
A02
100
AcDbEntity
100
AcDbPolyline
  8
ShapeString001
 90
2
 70
0
 43
0
 10
19.563572404
 20
52.746625817
 10
19.218903286
 20
52.341448121
  0
LINE
  5
C54
330
A02
100
AcDbEntity
  8
ShapeString001
100
AcDbLine
 10
19.218903286
 20
52.341448121
 30
0.000000000
 11
19.218903286
 21
49.880000000
 31
0.000000000
  0
LINE
  5
C55
330
A02
100
AcDbEntity
  8
ShapeString001
100
AcDbLine
 10
19.218903286
 20
49.880000000
 30
0.000000000
 11
18.544883678
 21
49.880000000
 31
0.000000000
  0
LINE
  5
C56
330
A02
100
AcDbEntity
  8
ShapeString001
100
AcDbLine
 10
18.544883678
 20
49.880000000
 30
0.000000000
 11
18.544883678
 21
53.719869281
 31
0.000000000
  0
LINE
  5
C57
330
A02
100
AcDbEntity
  8
ShapeString001
100
AcDbLine
 10
22.858609169
 20
53.719869281
 30
0.000000000
 11
23.467524610
 21
53.719869281
 31
0.000000000
  0
LINE
  5
C58
330
A02
100
AcDbEntity
  8
ShapeString001
100
AcDbLine
 10
23.467524610
 20
53.719869281
 30
0.000000000
 11
23.486672894
 21
53.009595588
 31
0.000000000
  0
LWPOLYLINE
  5
C59
330
A02
100
AcDbEntity
100
AcDbPolyline
  8
ShapeString001
 90
2
 70
0
 43
0
 10
23.486672894
 20
53.009595588
 10
24.158650018
 20
53.614170752
  0
LWPOLYLINE
  5
C5A
330
A02
100
AcDbEntity
100
AcDbPolyline
  8
ShapeString001
 90
2
 70
0
 43
0
 10
24.158650018
 20
53.614170752
 10
24.827052796
 20
53.801568627
  0
LWPOLYLINE
  5
C5B
330
A02
100
AcDbEntity
100
AcDbPolyline
  8
ShapeString001
 90
2
 70
0
 43
0
 10
24.827052796
 20
53.801568627
 10
25.732638989
 20
53.410433007
  0
LWPOLYLINE
  5
C5C
330
A02
100
AcDbEntity
100
AcDbPolyline
  8
ShapeString001
 90
2
 70
0
 43
0
 10
25.732638989
 20
53.410433007
 10
26.018076080
 20
52.249281046
  0
LINE
  5
C5D
330
A02
100
AcDbEntity
  8
ShapeString001
100
AcDbLine
 10
26.018076080
 20
52.249281046
 30
0.000000000
 11
25.344056473
 21
52.249281046
 31
0.000000000
  0
LWPOLYLINE
  5
C5E
330
A02
100
AcDbEntity
100
AcDbPolyline
  8
ShapeString001
 90
2
 70
0
 43
0
 10
25.344056473
 20
52.249281046
 10
25.196487028
 20
52.994021650
  0
LWPOLYLINE
  5
C5F
330
A02
100
AcDbEntity
100
AcDbPolyline
  8
ShapeString001
 90
2
 70
0
 43
0
 10
25.196487028
 20
52.994021650
 10
24.731311375
 20
53.225588235
  0
LWPOLYLINE
  5
C60
330
A02
100
AcDbEntity
100
AcDbPolyline
  8
ShapeString001
 90
2
 70
0
 43
0
 10
24.731311375
 20
53.225588235
 10
24.461192910
 20
53.176823938
  0
LWPOLYLINE
  5
C61
330
A02
100
AcDbEntity
100
AcDbPolyline
  8
ShapeString001
 90
2
 70
0
 43
0
 10
24.461192910
 20
53.176823938
 10
24.181627959
 20
53.021084559
  0
LWPOLYLINE
  5
C62
330
A02
100
AcDbEntity
100
AcDbPolyline
  8
ShapeString001
 90
2
 70
0
 43
0
 10
24.181627959
 20
53.021084559
 10
23.877297894
 20
52.746625817
  0
LWPOLYLINE
  5
C63
330
A02
100
AcDbEntity
100
AcDbPolyline
  8
ShapeString001
 90
2
 70
0
 43
0
 10
23.877297894
 20
52.746625817
 10
23.532628776
 20
52.341448121
  0
LINE
  5
C64
330
A02
100
AcDbEntity
  8
ShapeString001
100
AcDbLine
 10
23.532628776
 20
52.341448121
 30
0.000000000
 11
23.532628776
 21
49.880000000
 31
0.000000000
  0
LINE
  5
C65
330
A02
100
AcDbEntity
  8
ShapeString001
100
AcDbLine
 10
23.532628776
 20
49.880000000
 30
0.000000000
 11
22.858609169
 21
49.880000000
 31
0.000000000
  0
LINE
  5
C66
330
A02
100
AcDbEntity
  8
ShapeString001
100
AcDbLine
 10
22.858609169
 20
49.880000000
 30
0.000000000
 11
22.858609169
 21
53.719869281
 31
0.000000000
  0
LWPOLYLINE
  5
C67
330
A02
100
AcDbEntity
100
AcDbPolyline
  8
ShapeString001
 90
2
 70
0
 43
0
 10
30.262867747
 20
52.013118873
 10
30.259038090
 20
51.775680147
  0
LWPOLYLINE
  5
C68
330
A02
100
AcDbEntity
100
AcDbPolyline
  8
ShapeString001
 90
2
 70
0
 43
0
 10
30.259038090
 20
51.775680147
 10
30.247549120
 20
51.595686275
  0
LINE
  5
C69
330
A02
100
AcDbEntity
  8
ShapeString001
100
AcDbLine
 10
30.247549120
 20
51.595686275
 30
0.000000000
 11
27.547641031
 21
51.595686275
 31
0.000000000
  0
LWPOLYLINE
  5
C6A
330
A02
100
AcDbEntity
100
AcDbPolyline
  8
ShapeString001
 90
2
 70
0
 43
0
 10
27.547641031
 20
51.595686275
 10
27.876991522
 20
50.687036356
  0
LWPOLYLINE
  5
C6B
330
A02
100
AcDbEntity
100
AcDbPolyline
  8
ShapeString001
 90
2
 70
0
 43
0
 10
27.876991522
 20
50.687036356
 10
28.826746424
 20
50.370196078
  0
LWPOLYLINE
  5
C6C
330
A02
100
AcDbEntity
100
AcDbPolyline
  8
ShapeString001
 90
2
 70
0
 43
0
 10
28.826746424
 20
50.370196078
 10
29.163756227
 20
50.383472222
  0
LWPOLYLINE
  5
C6D
330
A02
100
AcDbEntity
100
AcDbPolyline
  8
ShapeString001
 90
2
 70
0
 43
0
 10
29.163756227
 20
50.383472222
 10
29.489277061
 20
50.419470997
  0
LWPOLYLINE
  5
C6E
330
A02
100
AcDbEntity
100
AcDbPolyline
  8
ShapeString001
 90
2
 70
0
 43
0
 10
29.489277061
 20
50.419470997
 10
29.789777469
 20
50.470788399
  0
LWPOLYLINE
  5
C6F
330
A02
100
AcDbEntity
100
AcDbPolyline
  8
ShapeString001
 90
2
 70
0
 43
0
 10
29.789777469
 20
50.470788399
 10
30.056066276
 20
50.533594771
  0
LINE
  5
C70
330
A02
100
AcDbEntity
  8
ShapeString001
100
AcDbLine
 10
30.056066276
 20
50.533594771
 30
0.000000000
 11
30.056066276
 21
49.986209150
 31
0.000000000
  0
LWPOLYLINE
  5
C71
330
A02
100
AcDbEntity
100
AcDbPolyline
  8
ShapeString001
 90
2
 70
0
 43
0
 10
30.056066276
 20
49.986209150
 10
29.441278695
 20
49.862383578
  0
LWPOLYLINE
  5
C72
330
A02
100
AcDbEntity
100
AcDbPolyline
  8
ShapeString001
 90
2
 70
0
 43
0
 10
29.441278695
 20
49.862383578
 10
28.731005002
 20
49.814640523
  0
LWPOLYLINE
  5
C73
330
A02
100
AcDbEntity
100
AcDbPolyline
  8
ShapeString001
 90
2
 70
0
 43
0
 10
28.731005002
 20
49.814640523
 10
27.880821178
 20
49.948678513
  0
LWPOLYLINE
  5
C74
330
A02
100
AcDbEntity
100
AcDbPolyline
  8
ShapeString001
 90
2
 70
0
 43
0
 10
27.880821178
 20
49.948678513
 10
27.296670852
 20
50.337771650
  0
LWPOLYLINE
  5
C75
330
A02
100
AcDbEntity
100
AcDbPolyline
  8
ShapeString001
 90
2
 70
0
 43
0
 10
27.296670852
 20
50.337771650
 10
26.959661048
 20
50.962771650
  0
LWPOLYLINE
  5
C76
330
A02
100
AcDbEntity
100
AcDbPolyline
  8
ShapeString001
 90
2
 70
0
 43
0
 10
26.959661048
 20
50.962771650
 10
26.850643482
 20
51.800445261
  0
LWPOLYLINE
  5
C77
330
A02
100
AcDbEntity
100
AcDbPolyline
  8
ShapeString001
 90
2
 70
0
 43
0
 10
26.850643482
 20
51.800445261
 10
26.967320361
 20
52.569185049
  0
LWPOLYLINE
  5
C78
330
A02
100
AcDbEntity
100
AcDbPolyline
  8
ShapeString001
 90
2
 70
0
 43
0
 10
26.967320361
 20
52.569185049
 10
27.308159822
 20
53.205418709
  0
LWPOLYLINE
  5
C79
330
A02
100
AcDbEntity
100
AcDbPolyline
  8
ShapeString001
 90
2
 70
0
 43
0
 10
27.308159822
 20
53.205418709
 10
27.857843237
 20
53.640467729
  0
LWPOLYLINE
  5
C7A
330
A02
100
AcDbEntity
100
AcDbPolyline
  8
ShapeString001
 90
2
 70
0
 43
0
 10
27.857843237
 20
53.640467729
 10
28.596967012
 20
53.801568627
  0
LWPOLYLINE
  5
C7B
330
A02
100
AcDbEntity
100
AcDbPolyline
  8
ShapeString001
 90
2
 70
0
 43
0
 10
28.596967012
 20
53.801568627
 10
29.309283188
 20
53.675189951
  0
LWPOLYLINE
  5
C7C
330
A02
100
AcDbEntity
100
AcDbPolyline
  8
ShapeString001
 90
2
 70
0
 43
0
 10
29.309283188
 20
53.675189951
 10
29.831903695
 20
53.316989379
  0
LWPOLYLINE
  5
C7D
330
A02
100
AcDbEntity
100
AcDbPolyline
  8
ShapeString001
 90
2
 70
0
 43
0
 10
29.831903695
 20
53.316989379
 10
30.153594871
 20
52.754029820
  0
LWPOLYLINE
  5
C7E
330
A02
100
AcDbEntity
100
AcDbPolyline
  8
ShapeString001
 90
2
 70
0
 43
0
 10
30.153594871
 20
52.754029820
 10
30.262867747
 20
52.013118873
  0
LWPOLYLINE
  5
C7F
330
A02
100
AcDbEntity
100
AcDbPolyline
  8
ShapeString001
 90
2
 70
0
 43
0
 10
29.569699855
 20
52.110392157
 10
29.519914316
 20
52.579397467
  0
LWPOLYLINE
  5
C80
330
A02
100
AcDbEntity
100
AcDbPolyline
  8
ShapeString001
 90
2
 70
0
 43
0
 10
29.519914316
 20
52.579397467
 10
29.330218646
 20
52.945002042
  0
LWPOLYLINE
  5
C81
330
A02
100
AcDbEntity
100
AcDbPolyline
  8
ShapeString001
 90
2
 70
0
 43
0
 10
29.330218646
 20
52.945002042
 10
29.010569953
 20
53.184227941
  0
LWPOLYLINE
  5
C82
330
A02
100
AcDbEntity
100
AcDbPolyline
  8
ShapeString001
 90
2
 70
0
 43
0
 10
29.010569953
 20
53.184227941
 10
28.566329757
 20
53.270522876
  0
LWPOLYLINE
  5
C83
330
A02
100
AcDbEntity
100
AcDbPolyline
  8
ShapeString001
 90
2
 70
0
 43
0
 10
28.566329757
 20
53.270522876
 10
28.168045443
 20
53.186270425
  0
LWPOLYLINE
  5
C84
330
A02
100
AcDbEntity
100
AcDbPolyline
  8
ShapeString001
 90
2
 70
0
 43
0
 10
28.168045443
 20
53.186270425
 10
27.857843237
 20
52.948831699
  0
LWPOLYLINE
  5
C85
330
A02
100
AcDbEntity
100
AcDbPolyline
  8
ShapeString001
 90
2
 70
0
 43
0
 10
27.857843237
 20
52.948831699
 10
27.647212110
 20
52.581184641
  0
LWPOLYLINE
  5
C86
330
A02
100
AcDbEntity
100
AcDbPolyline
  8
ShapeString001
 90
2
 70
0
 43
0
 10
27.647212110
 20
52.581184641
 10
27.547641031
 20
52.110392157
  0
LINE
  5
C87
330
A02
100
AcDbEntity
  8
ShapeString001
100
AcDbLine
 10
27.547641031
 20
52.110392157
 30
0.000000000
 11
29.569699855
 21
52.110392157
 31
0.000000000
  0
LINE
  5
C88
330
A02
100
AcDbEntity
  8
ShapeString001
100
AcDbLine
 10
31.329044218
 20
53.719869281
 30
0.000000000
 11
31.922641031
 21
53.719869281
 31
0.000000000
  0
LINE
  5
C89
330
A02
100
AcDbEntity
  8
ShapeString001
100
AcDbLine
 10
31.922641031
 20
53.719869281
 30
0.000000000
 11
31.949448629
 21
53.100230801
 31
0.000000000
  0
LWPOLYLINE
  5
C8A
330
A02
100
AcDbEntity
100
AcDbPolyline
  8
ShapeString001
 90
2
 70
0
 43
0
 10
31.949448629
 20
53.100230801
 10
32.274969463
 20
53.437240605
  0
LWPOLYLINE
  5
C8B
330
A02
100
AcDbEntity
100
AcDbPolyline
  8
ShapeString001
 90
2
 70
0
 43
0
 10
32.274969463
 20
53.437240605
 10
32.583129185
 20
53.653488562
  0
LWPOLYLINE
  5
C8C
330
A02
100
AcDbEntity
100
AcDbPolyline
  8
ShapeString001
 90
2
 70
0
 43
0
 10
32.583129185
 20
53.653488562
 10
32.891544218
 20
53.768378268
  0
LWPOLYLINE
  5
C8D
330
A02
100
AcDbEntity
100
AcDbPolyline
  8
ShapeString001
 90
2
 70
0
 43
0
 10
32.891544218
 20
53.768378268
 10
33.217065051
 20
53.801568627
  0
LWPOLYLINE
  5
C8E
330
A02
100
AcDbEntity
100
AcDbPolyline
  8
ShapeString001
 90
2
 70
0
 43
0
 10
33.217065051
 20
53.801568627
 10
34.114991930
 20
53.450516748
  0
LWPOLYLINE
  5
C8F
330
A02
100
AcDbEntity
100
AcDbPolyline
  8
ShapeString001
 90
2
 70
0
 43
0
 10
34.114991930
 20
53.450516748
 10
34.419577306
 20
52.393276144
  0
LINE
  5
C90
330
A02
100
AcDbEntity
  8
ShapeString001
100
AcDbLine
 10
34.419577306
 20
52.393276144
 30
0.000000000
 11
34.419577306
 21
49.880000000
 31
0.000000000
  0
LINE
  5
C91
330
A02
100
AcDbEntity
  8
ShapeString001
100
AcDbLine
 10
34.419577306
 20
49.880000000
 30
0.000000000
 11
33.753217012
 21
49.880000000
 31
0.000000000
  0
LINE
  5
C92
330
A02
100
AcDbEntity
  8
ShapeString001
100
AcDbLine
 10
33.753217012
 20
49.880000000
 30
0.000000000
 11
33.753217012
 21
52.339405637
 31
0.000000000
  0
LWPOLYLINE
  5
C93
330
A02
100
AcDbEntity
100
AcDbPolyline
  8
ShapeString001
 90
2
 70
0
 43
0
 10
33.753217012
 20
52.339405637
 10
33.584712110
 20
53.008829657
  0
LWPOLYLINE
  5
C94
330
A02
100
AcDbEntity
100
AcDbPolyline
  8
ShapeString001
 90
2
 70
0
 43
0
 10
33.584712110
 20
53.008829657
 10
33.083027061
 20
53.225588235
  0
LWPOLYLINE
  5
C95
330
A02
100
AcDbEntity
100
AcDbPolyline
  8
ShapeString001
 90
2
 70
0
 43
0
 10
33.083027061
 20
53.225588235
 10
32.843545852
 20
53.189078840
  0
LWPOLYLINE
  5
C96
330
A02
100
AcDbEntity
100
AcDbPolyline
  8
ShapeString001
 90
2
 70
0
 43
0
 10
32.843545852
 20
53.189078840
 10
32.600490296
 20
53.062444853
  0
LWPOLYLINE
  5
C97
330
A02
100
AcDbEntity
100
AcDbPolyline
  8
ShapeString001
 90
2
 70
0
 43
0
 10
32.600490296
 20
53.062444853
 10
32.326542175
 20
52.818878676
  0
LWPOLYLINE
  5
C98
330
A02
100
AcDbEntity
100
AcDbPolyline
  8
ShapeString001
 90
2
 70
0
 43
0
 10
32.326542175
 20
52.818878676
 10
31.995404512
 20
52.435147059
  0
LINE
  5
C99
330
A02
100
AcDbEntity
  8
ShapeString001
100
AcDbLine
 10
31.995404512
 20
52.435147059
 30
0.000000000
 11
31.995404512
 21
49.880000000
 31
0.000000000
  0
LINE
  5
C9A
330
A02
100
AcDbEntity
  8
ShapeString001
100
AcDbLine
 10
31.995404512
 20
49.880000000
 30
0.000000000
 11
31.329044218
 21
49.880000000
 31
0.000000000
  0
LINE
  5
C9B
330
A02
100
AcDbEntity
  8
ShapeString001
100
AcDbLine
 10
31.329044218
 20
49.880000000
 30
0.000000000
 11
31.329044218
 21
53.719869281
 31
0.000000000
  0
LWPOLYLINE
  5
C9C
330
A02
100
AcDbEntity
100
AcDbPolyline
  8
ShapeString001
 90
2
 70
0
 43
0
 10
38.740962110
 20
49.933104575
 10
38.273743973
 20
49.854724265
  0
LWPOLYLINE
  5
C9D
330
A02
100
AcDbEntity
100
AcDbPolyline
  8
ShapeString001
 90
2
 70
0
 43
0
 10
38.273743973
 20
49.854724265
 10
37.783547894
 20
49.830980392
  0
LWPOLYLINE
  5
C9E
330
A02
100
AcDbEntity
100
AcDbPolyline
  8
ShapeString001
 90
2
 70
0
 43
0
 10
37.783547894
 20
49.830980392
 10
36.703584659
 20
50.157267157
  0
LWPOLYLINE
  5
C9F
330
A02
100
AcDbEntity
100
AcDbPolyline
  8
ShapeString001
 90
2
 70
0
 43
0
 10
36.703584659
 20
50.157267157
 10
36.347426571
 20
51.159616013
  0
LINE
  5
CA0
330
A02
100
AcDbEntity
  8
ShapeString001
100
AcDbLine
 10
36.347426571
 20
51.159616013
 30
0.000000000
 11
36.347426571
 21
53.160228758
 31
0.000000000
  0
LINE
  5
CA1
330
A02
100
AcDbEntity
  8
ShapeString001
100
AcDbLine
 10
36.347426571
 20
53.160228758
 30
0.000000000
 11
35.271292992
 21
53.160228758
 31
0.000000000
  0
LINE
  5
CA2
330
A02
100
AcDbEntity
  8
ShapeString001
100
AcDbLine
 10
35.271292992
 20
53.160228758
 30
0.000000000
 11
35.271292992
 21
53.719869281
 31
0.000000000
  0
LINE
  5
CA3
330
A02
100
AcDbEntity
  8
ShapeString001
100
AcDbLine
 10
35.271292992
 20
53.719869281
 30
0.000000000
 11
36.347426571
 21
53.719869281
 31
0.000000000
  0
LINE
  5
CA4
330
A02
100
AcDbEntity
  8
ShapeString001
100
AcDbLine
 10
36.347426571
 20
53.719869281
 30
0.000000000
 11
36.347426571
 21
54.773535539
 31
0.000000000
  0
LINE
  5
CA5
330
A02
100
AcDbEntity
  8
ShapeString001
100
AcDbLine
 10
36.347426571
 20
54.773535539
 30
0.000000000
 11
37.013786865
 21
54.945359477
 31
0.000000000
  0
LINE
  5
CA6
330
A02
100
AcDbEntity
  8
ShapeString001
100
AcDbLine
 10
37.013786865
 20
54.945359477
 30
0.000000000
 11
37.013786865
 21
53.719869281
 31
0.000000000
  0
LINE
  5
CA7
330
A02
100
AcDbEntity
  8
ShapeString001
100
AcDbLine
 10
37.013786865
 20
53.719869281
 30
0.000000000
 11
38.740962110
 21
53.719869281
 31
0.000000000
  0
LINE
  5
CA8
330
A02
100
AcDbEntity
  8
ShapeString001
100
AcDbLine
 10
38.740962110
 20
53.719869281
 30
0.000000000
 11
38.740962110
 21
53.160228758
 31
0.000000000
  0
LINE
  5
CA9
330
A02
100
AcDbEntity
  8
ShapeString001
100
AcDbLine
 10
38.740962110
 20
53.160228758
 30
0.000000000
 11
37.013786865
 21
53.160228758
 31
0.000000000
  0
LINE
  5
CAA
330
A02
100
AcDbEntity
  8
ShapeString001
100
AcDbLine
 10
37.013786865
 20
53.160228758
 30
0.000000000
 11
37.013786865
 21
51.214763072
 31
0.000000000
  0
LWPOLYLINE
  5
CAB
330
A02
100
AcDbEntity
100
AcDbPolyline
  8
ShapeString001
 90
2
 70
0
 43
0
 10
37.013786865
 20
51.214763072
 10
37.233864479
 20
50.598698938
  0
LWPOLYLINE
  5
CAC
330
A02
100
AcDbEntity
100
AcDbPolyline
  8
ShapeString001
 90
2
 70
0
 43
0
 10
37.233864479
 20
50.598698938
 10
37.883118973
 20
50.394705882
  0
LWPOLYLINE
  5
CAD
330
A02
100
AcDbEntity
100
AcDbPolyline
  8
ShapeString001
 90
2
 70
0
 43
0
 10
37.883118973
 20
50.394705882
 10
38.285232943
 20
50.422279412
  0
LWPOLYLINE
  5
CAE
330
A02
100
AcDbEntity
100
AcDbPolyline
  8
ShapeString001
 90
2
 70
0
 43
0
 10
38.285232943
 20
50.422279412
 10
38.740962110
 20
50.509084967
  0
LINE
  5
CAF
330
A02
100
AcDbEntity
  8
ShapeString001
100
AcDbLine
 10
38.740962110
 20
50.509084967
 30
0.000000000
 11
38.740962110
 21
49.933104575
 31
0.000000000
  0
LWPOLYLINE
  5
CB0
330
A02
100
AcDbEntity
100
AcDbPolyline
  8
ShapeString001
 90
2
 70
0
 43
0
 10
47.690104267
 20
52.435402369
 10
47.634446587
 20
51.746830065
  0
LWPOLYLINE
  5
CB1
330
A02
100
AcDbEntity
100
AcDbPolyline
  8
ShapeString001
 90
2
 70
0
 43
0
 10
47.634446587
 20
51.746830065
 10
47.456495198
 20
51.134850899
  0
LWPOLYLINE
  5
CB2
330
A02
100
AcDbEntity
100
AcDbPolyline
  8
ShapeString001
 90
2
 70
0
 43
0
 10
47.456495198
 20
51.134850899
 10
47.138633678
 20
50.620145016
  0
LWPOLYLINE
  5
CB3
330
A02
100
AcDbEntity
100
AcDbPolyline
  8
ShapeString001
 90
2
 70
0
 43
0
 10
47.138633678
 20
50.620145016
 10
46.659926571
 20
50.224158497
  0
LWPOLYLINE
  5
CB4
330
A02
100
AcDbEntity
100
AcDbPolyline
  8
ShapeString001
 90
2
 70
0
 43
0
 10
46.659926571
 20
50.224158497
 10
46.001225590
 20
49.969869281
  0
LWPOLYLINE
  5
CB5
330
A02
100
AcDbEntity
100
AcDbPolyline
  8
ShapeString001
 90
2
 70
0
 43
0
 10
46.001225590
 20
49.969869281
 10
45.147212110
 20
49.880000000
  0
LINE
  5
CB6
330
A02
100
AcDbEntity
  8
ShapeString001
100
AcDbLine
 10
45.147212110
 20
49.880000000
 30
0.000000000
 11
44.074908188
 21
49.880000000
 31
0.000000000
  0
LINE
  5
CB7
330
A02
100
AcDbEntity
  8
ShapeString001
100
AcDbLine
 10
44.074908188
 20
49.880000000
 30
0.000000000
 11
44.074908188
 21
54.880000000
 31
0.000000000
  0
LINE
  5
CB8
330
A02
100
AcDbEntity
  8
ShapeString001
100
AcDbLine
 10
44.074908188
 20
54.880000000
 30
0.000000000
 11
45.365502551
 21
54.880000000
 31
0.000000000
  0
LWPOLYLINE
  5
CB9
330
A02
100
AcDbEntity
100
AcDbPolyline
  8
ShapeString001
 90
2
 70
0
 43
0
 10
45.365502551
 20
54.880000000
 10
47.113613254
 20
54.277467320
  0
LWPOLYLINE
  5
CBA
330
A02
100
AcDbEntity
100
AcDbPolyline
  8
ShapeString001
 90
2
 70
0
 43
0
 10
47.113613254
 20
54.277467320
 10
47.690104267
 20
52.435402369
  0
LWPOLYLINE
  5
CBB
330
A02
100
AcDbEntity
100
AcDbPolyline
  8
ShapeString001
 90
2
 70
0
 43
0
 10
46.973958433
 20
52.384340278
 10
46.874387355
 20
53.283033088
  0
LWPOLYLINE
  5
CBC
330
A02
100
AcDbEntity
100
AcDbPolyline
  8
ShapeString001
 90
2
 70
0
 43
0
 10
46.874387355
 20
53.283033088
 10
46.571844463
 20
53.875608660
  0
LWPOLYLINE
  5
CBD
330
A02
100
AcDbEntity
100
AcDbPolyline
  8
ShapeString001
 90
2
 70
0
 43
0
 10
46.571844463
 20
53.875608660
 10
46.062500100
 20
54.202661356
  0
LWPOLYLINE
  5
CBE
330
A02
100
AcDbEntity
100
AcDbPolyline
  8
ShapeString001
 90
2
 70
0
 43
0
 10
46.062500100
 20
54.202661356
 10
45.342524610
 20
54.304019608
  0
LINE
  5
CBF
330
A02
100
AcDbEntity
  8
ShapeString001
100
AcDbLine
 10
45.342524610
 20
54.304019608
 30
0.000000000
 11
44.756587110
 21
54.304019608
 31
0.000000000
  0
LINE
  5
CC0
330
A02
100
AcDbEntity
  8
ShapeString001
100
AcDbLine
 10
44.756587110
 20
54.304019608
 30
0.000000000
 11
44.756587110
 21
50.468235294
 31
0.000000000
  0
LINE
  5
CC1
330
A02
100
AcDbEntity
  8
ShapeString001
100
AcDbLine
 10
44.756587110
 20
50.468235294
 30
0.000000000
 11
45.265931473
 21
50.468235294
 31
0.000000000
  0
LWPOLYLINE
  5
CC2
330
A02
100
AcDbEntity
100
AcDbPolyline
  8
ShapeString001
 90
2
 70
0
 43
0
 10
45.265931473
 20
50.468235294
 10
46.973958433
 20
52.384340278
  0
LWPOLYLINE
  5
CC3
330
A02
100
AcDbEntity
100
AcDbPolyline
  8
ShapeString001
 90
2
 70
0
 43
0
 10
51.869791767
 20
51.623004493
 10
51.752859577
 20
50.875455474
  0
LWPOLYLINE
  5
CC4
330
A02
100
AcDbEntity
100
AcDbPolyline
  8
ShapeString001
 90
2
 70
0
 43
0
 10
51.752859577
 20
50.875455474
 10
51.410232943
 20
50.305857843
  0
LWPOLYLINE
  5
CC5
330
A02
100
AcDbEntity
100
AcDbPolyline
  8
ShapeString001
 90
2
 70
0
 43
0
 10
51.410232943
 20
50.305857843
 10
50.856719871
 20
49.942551062
  0
LWPOLYLINE
  5
CC6
330
A02
100
AcDbEntity
100
AcDbPolyline
  8
ShapeString001
 90
2
 70
0
 43
0
 10
50.856719871
 20
49.942551062
 10
50.104319953
 20
49.814640523
  0
LWPOLYLINE
  5
CC7
330
A02
100
AcDbEntity
100
AcDbPolyline
  8
ShapeString001
 90
2
 70
0
 43
0
 10
50.104319953
 20
49.814640523
 10
49.311580982
 20
49.936934232
  0
LWPOLYLINE
  5
CC8
330
A02
100
AcDbEntity
100
AcDbPolyline
  8
ShapeString001
 90
2
 70
0
 43
0
 10
49.311580982
 20
49.936934232
 10
48.781045852
 20
50.282879902
  0
LWPOLYLINE
  5
CC9
330
A02
100
AcDbEntity
100
AcDbPolyline
  8
ShapeString001
 90
2
 70
0
 43
0
 10
48.781045852
 20
50.282879902
 10
48.482332616
 20
50.820053105
  0
LWPOLYLINE
  5
CCA
330
A02
100
AcDbEntity
100
AcDbPolyline
  8
ShapeString001
 90
2
 70
0
 43
0
 10
48.482332616
 20
50.820053105
 10
48.388633678
 20
51.519603758
  0
LINE
  5
CCB
330
A02
100
AcDbEntity
  8
ShapeString001
100
AcDbLine
 10
48.388633678
 20
51.519603758
 30
0.000000000
 11
48.388633678
 21
54.880000000
 31
0.000000000
  0
LINE
  5
CCC
330
A02
100
AcDbEntity
  8
ShapeString001
100
AcDbLine
 10
48.388633678
 20
54.880000000
 30
0.000000000
 11
49.070312600
 21
54.880000000
 31
0.000000000
  0
LINE
  5
CCD
330
A02
100
AcDbEntity
  8
ShapeString001
100
AcDbLine
 10
49.070312600
 20
54.880000000
 30
0.000000000
 11
49.070312600
 21
51.574750817
 31
0.000000000
  0
LWPOLYLINE
  5
CCE
330
A02
100
AcDbEntity
100
AcDbPolyline
  8
ShapeString001
 90
2
 70
0
 43
0
 10
49.070312600
 20
51.574750817
 10
49.125714969
 20
51.059023693
  0
LWPOLYLINE
  5
CCF
330
A02
100
AcDbEntity
100
AcDbPolyline
  8
ShapeString001
 90
2
 70
0
 43
0
 10
49.125714969
 20
51.059023693
 10
49.307751325
 20
50.688312908
  0
LWPOLYLINE
  5
CD0
330
A02
100
AcDbEntity
100
AcDbPolyline
  8
ShapeString001
 90
2
 70
0
 43
0
 10
49.307751325
 20
50.688312908
 10
49.635059332
 20
50.462873775
  0
LWPOLYLINE
  5
CD1
330
A02
100
AcDbEntity
100
AcDbPolyline
  8
ShapeString001
 90
2
 70
0
 43
0
 10
49.635059332
 20
50.462873775
 10
50.127297894
 20
50.386535948
  0
LWPOLYLINE
  5
CD2
330
A02
100
AcDbEntity
100
AcDbPolyline
  8
ShapeString001
 90
2
 70
0
 43
0
 10
50.127297894
 20
50.386535948
 10
50.929483352
 20
50.699801879
  0
LWPOLYLINE
  5
CD3
330
A02
100
AcDbEntity
100
AcDbPolyline
  8
ShapeString001
 90
2
 70
0
 43
0
 10
50.929483352
 20
50.699801879
 10
51.188112845
 20
51.582410131
  0
LINE
  5
CD4
330
A02
100
AcDbEntity
  8
ShapeString001
100
AcDbLine
 10
51.188112845
 20
51.582410131
 30
0.000000000
 11
51.188112845
 21
54.880000000
 31
0.000000000
  0
LINE
  5
CD5
330
A02
100
AcDbEntity
  8
ShapeString001
100
AcDbLine
 10
51.188112845
 20
54.880000000
 30
0.000000000
 11
51.869791767
 21
54.880000000
 31
0.000000000
  0
LINE
  5
CD6
330
A02
100
AcDbEntity
  8
ShapeString001
100
AcDbLine
 10
51.869791767
 20
54.880000000
 30
0.000000000
 11
51.869791767
 21
51.623004493
 31
0.000000000
  0
LINE
  5
CD7
330
A02
100
AcDbEntity
  8
ShapeString001
100
AcDbLine
 10
56.267769708
 20
54.295849673
 30
0.000000000
 11
54.785692502
 21
54.295849673
 31
0.000000000
  0
LINE
  5
CD8
330
A02
100
AcDbEntity
  8
ShapeString001
100
AcDbLine
 10
54.785692502
 20
54.295849673
 30
0.000000000
 11
54.785692502
 21
49.880000000
 31
0.000000000
  0
LINE
  5
CD9
330
A02
100
AcDbEntity
  8
ShapeString001
100
AcDbLine
 10
54.785692502
 20
49.880000000
 30
0.000000000
 11
54.096354267
 21
49.880000000
 31
0.000000000
  0
LINE
  5
CDA
330
A02
100
AcDbEntity
  8
ShapeString001
100
AcDbLine
 10
54.096354267
 20
49.880000000
 30
0.000000000
 11
54.096354267
 21
54.295849673
 31
0.000000000
  0
LINE
  5
CDB
330
A02
100
AcDbEntity
  8
ShapeString001
100
AcDbLine
 10
54.096354267
 20
54.295849673
 30
0.000000000
 11
52.614277061
 21
54.295849673
 31
0.000000000
  0
LINE
  5
CDC
330
A02
100
AcDbEntity
  8
ShapeString001
100
AcDbLine
 10
52.614277061
 20
54.295849673
 30
0.000000000
 11
52.614277061
 21
54.880000000
 31
0.000000000
  0
LINE
  5
CDD
330
A02
100
AcDbEntity
  8
ShapeString001
100
AcDbLine
 10
52.614277061
 20
54.880000000
 30
0.000000000
 11
56.267769708
 21
54.880000000
 31
0.000000000
  0
LINE
  5
CDE
330
A02
100
AcDbEntity
  8
ShapeString001
100
AcDbLine
 10
56.267769708
 20
54.880000000
 30
0.000000000
 11
56.267769708
 21
54.295849673
 31
0.000000000
  0
LINE
  5
CDF
330
A02
100
AcDbEntity
  8
ShapeString002
100
AcDbLine
 10
12.281556373
 20
13.880000000
 30
0.000000000
 11
10.581188725
 21
8.880000000
 31
0.000000000
  0
LINE
  5
CE0
330
A02
100
AcDbEntity
  8
ShapeString002
100
AcDbLine
 10
10.581188725
 20
8.880000000
 30
0.000000000
 11
9.662071078
 21
8.880000000
 31
0.000000000
  0
LINE
  5
CE1
330
A02
100
AcDbEntity
  8
ShapeString002
100
AcDbLine
 10
9.662071078
 20
8.880000000
 30
0.000000000
 11
8.000000000
 21
13.880000000
 31
0.000000000
  0
LINE
  5
CE2
330
A02
100
AcDbEntity
  8
ShapeString002
100
AcDbLine
 10
8.000000000
 20
13.880000000
 30
0.000000000
 11
8.769761029
 21
13.880000000
 31
0.000000000
  0
LINE
  5
CE3
330
A02
100
AcDbEntity
  8
ShapeString002
100
AcDbLine
 10
8.769761029
 20
13.880000000
 30
0.000000000
 11
9.849724265
 21
10.509646650
 31
0.000000000
  0
LINE
  5
CE4
330
A02
100
AcDbEntity
  8
ShapeString002
100
AcDbLine
 10
9.849724265
 20
10.509646650
 30
0.000000000
 11
10.156096814
 21
9.522616422
 31
0.000000000
  0
LINE
  5
CE5
330
A02
100
AcDbEntity
  8
ShapeString002
100
AcDbLine
 10
10.156096814
 20
9.522616422
 30
0.000000000
 11
10.470128676
 21
10.509646650
 31
0.000000000
  0
LINE
  5
CE6
330
A02
100
AcDbEntity
  8
ShapeString002
100
AcDbLine
 10
10.470128676
 20
10.509646650
 30
0.000000000
 11
11.553921569
 21
13.880000000
 31
0.000000000
  0
LINE
  5
CE7
330
A02
100
AcDbEntity
  8
ShapeString002
100
AcDbLine
 10
11.553921569
 20
13.880000000
 30
0.000000000
 11
12.281556373
 21
13.880000000
 31
0.000000000
  0
LWPOLYLINE
  5
CE8
330
A02
100
AcDbEntity
100
AcDbPolyline
  8
ShapeString002
 90
2
 70
0
 43
0
 10
16.258272059
 20
10.838741830
 10
16.131893382
 20
10.016386846
  0
LWPOLYLINE
  5
CE9
330
A02
100
AcDbEntity
100
AcDbPolyline
  8
ShapeString002
 90
2
 70
0
 43
0
 10
16.131893382
 20
10.016386846
 10
15.768075980
 20
9.376068219
  0
LWPOLYLINE
  5
CEA
330
A02
100
AcDbEntity
100
AcDbPolyline
  8
ShapeString002
 90
2
 70
0
 43
0
 10
15.768075980
 20
9.376068219
 10
15.189797794
 20
8.962209967
  0
LWPOLYLINE
  5
CEB
330
A02
100
AcDbEntity
100
AcDbPolyline
  8
ShapeString002
 90
2
 70
0
 43
0
 10
15.189797794
 20
8.962209967
 10
14.416207108
 20
8.814640523
  0
LWPOLYLINE
  5
CEC
330
A02
100
AcDbEntity
100
AcDbPolyline
  8
ShapeString002
 90
2
 70
0
 43
0
 10
14.416207108
 20
8.814640523
 10
13.675040850
 20
8.943061683
  0
LWPOLYLINE
  5
CED
330
A02
100
AcDbEntity
100
AcDbPolyline
  8
ShapeString002
 90
2
 70
0
 43
0
 10
13.675040850
 20
8.943061683
 10
13.119740605
 20
9.320665850
  0
LWPOLYLINE
  5
CEE
330
A02
100
AcDbEntity
100
AcDbPolyline
  8
ShapeString002
 90
2
 70
0
 43
0
 10
13.119740605
 20
9.320665850
 10
12.771241830
 20
9.937751225
  0
LWPOLYLINE
  5
CEF
330
A02
100
AcDbEntity
100
AcDbPolyline
  8
ShapeString002
 90
2
 70
0
 43
0
 10
12.771241830
 20
9.937751225
 10
12.650735294
 20
10.785126634
  0
LWPOLYLINE
  5
CF0
330
A02
100
AcDbEntity
100
AcDbPolyline
  8
ShapeString002
 90
2
 70
0
 43
0
 10
12.650735294
 20
10.785126634
 10
12.777113971
 20
11.603651961
  0
LWPOLYLINE
  5
CF1
330
A02
100
AcDbEntity
100
AcDbPolyline
  8
ShapeString002
 90
2
 70
0
 43
0
 10
12.777113971
 20
11.603651961
 10
13.140931373
 20
12.239885621
  0
LWPOLYLINE
  5
CF2
330
A02
100
AcDbEntity
100
AcDbPolyline
  8
ShapeString002
 90
2
 70
0
 43
0
 10
13.140931373
 20
12.239885621
 10
13.719209559
 20
12.653999183
  0
LWPOLYLINE
  5
CF3
330
A02
100
AcDbEntity
100
AcDbPolyline
  8
ShapeString002
 90
2
 70
0
 43
0
 10
13.719209559
 20
12.653999183
 10
14.492800245
 20
12.801568627
  0
LWPOLYLINE
  5
CF4
330
A02
100
AcDbEntity
100
AcDbPolyline
  8
ShapeString002
 90
2
 70
0
 43
0
 10
14.492800245
 20
12.801568627
 10
15.233711193
 20
12.673147467
  0
LWPOLYLINE
  5
CF5
330
A02
100
AcDbEntity
100
AcDbPolyline
  8
ShapeString002
 90
2
 70
0
 43
0
 10
15.233711193
 20
12.673147467
 10
15.789011438
 20
12.297330474
  0
LWPOLYLINE
  5
CF6
330
A02
100
AcDbEntity
100
AcDbPolyline
  8
ShapeString002
 90
2
 70
0
 43
0
 10
15.789011438
 20
12.297330474
 10
16.137510212
 20
11.682032271
  0
LWPOLYLINE
  5
CF7
330
A02
100
AcDbEntity
100
AcDbPolyline
  8
ShapeString002
 90
2
 70
0
 43
0
 10
16.137510212
 20
11.682032271
 10
16.258272059
 20
10.838741830
  0
LWPOLYLINE
  5
CF8
330
A02
100
AcDbEntity
100
AcDbPolyline
  8
ShapeString002
 90
2
 70
0
 43
0
 10
15.576593137
 20
10.808104575
 10
15.497957516
 20
11.430806781
  0
LWPOLYLINE
  5
CF9
330
A02
100
AcDbEntity
100
AcDbPolyline
  8
ShapeString002
 90
2
 70
0
 43
0
 10
15.497957516
 20
11.430806781
 10
15.274050245
 20
11.875302288
  0
LWPOLYLINE
  5
CFA
330
A02
100
AcDbEntity
100
AcDbPolyline
  8
ShapeString002
 90
2
 70
0
 43
0
 10
15.274050245
 20
11.875302288
 10
14.919679330
 20
12.143633578
  0
LWPOLYLINE
  5
CFB
330
A02
100
AcDbEntity
100
AcDbPolyline
  8
ShapeString002
 90
2
 70
0
 43
0
 10
14.919679330
 20
12.143633578
 10
14.454503676
 20
12.233758170
  0
LWPOLYLINE
  5
CFC
330
A02
100
AcDbEntity
100
AcDbPolyline
  8
ShapeString002
 90
2
 70
0
 43
0
 10
14.454503676
 20
12.233758170
 10
13.943116830
 20
12.116825980
  0
LWPOLYLINE
  5
CFD
330
A02
100
AcDbEntity
100
AcDbPolyline
  8
ShapeString002
 90
2
 70
0
 43
0
 10
13.943116830
 20
12.116825980
 10
13.594618056
 20
11.804325980
  0
LWPOLYLINE
  5
CFE
330
A02
100
AcDbEntity
100
AcDbPolyline
  8
ShapeString002
 90
2
 70
0
 43
0
 10
13.594618056
 20
11.804325980
 10
13.395475899
 20
11.350128676
  0
LWPOLYLINE
  5
CFF
330
A02
100
AcDbEntity
100
AcDbPolyline
  8
ShapeString002
 90
2
 70
0
 43
0
 10
13.395475899
 20
11.350128676
 10
13.332414216
 20
10.808104575
  0
LWPOLYLINE
  5
D00
330
A02
100
AcDbEntity
100
AcDbPolyline
  8
ShapeString002
 90
2
 70
0
 43
0
 10
13.332414216
 20
10.808104575
 10
13.410794526
 20
10.183104575
  0
LWPOLYLINE
  5
D01
330
A02
100
AcDbEntity
100
AcDbPolyline
  8
ShapeString002
 90
2
 70
0
 43
0
 10
13.410794526
 20
10.183104575
 10
13.634957108
 20
9.736821895
  0
LWPOLYLINE
  5
D02
330
A02
100
AcDbEntity
100
AcDbPolyline
  8
ShapeString002
 90
2
 70
0
 43
0
 10
13.634957108
 20
9.736821895
 10
13.987285539
 20
9.468490605
  0
LWPOLYLINE
  5
D03
330
A02
100
AcDbEntity
100
AcDbPolyline
  8
ShapeString002
 90
2
 70
0
 43
0
 10
13.987285539
 20
9.468490605
 10
14.454503676
 20
9.378366013
  0
LWPOLYLINE
  5
D04
330
A02
100
AcDbEntity
100
AcDbPolyline
  8
ShapeString002
 90
2
 70
0
 43
0
 10
14.454503676
 20
9.378366013
 10
14.965635212
 20
9.495298203
  0
LWPOLYLINE
  5
D05
330
A02
100
AcDbEntity
100
AcDbPolyline
  8
ShapeString002
 90
2
 70
0
 43
0
 10
14.965635212
 20
9.495298203
 10
15.314133987
 20
9.807542892
  0
LWPOLYLINE
  5
D06
330
A02
100
AcDbEntity
100
AcDbPolyline
  8
ShapeString002
 90
2
 70
0
 43
0
 10
15.314133987
 20
9.807542892
 10
15.513276144
 20
10.261740196
  0
LWPOLYLINE
  5
D07
330
A02
100
AcDbEntity
100
AcDbPolyline
  8
ShapeString002
 90
2
 70
0
 43
0
 10
15.513276144
 20
10.261740196
 10
15.576593137
 20
10.808104575
  0
LINE
  5
D08
330
A02
100
AcDbEntity
  8
ShapeString002
100
AcDbLine
 10
18.534620098
 20
13.741111111
 30
0.000000000
 11
17.397212010
 21
13.741111111
 31
0.000000000
  0
LINE
  5
D09
330
A02
100
AcDbEntity
  8
ShapeString002
100
AcDbLine
 10
17.397212010
 20
13.741111111
 30
0.000000000
 11
17.397212010
 21
14.288496732
 31
0.000000000
  0
LINE
  5
D0A
330
A02
100
AcDbEntity
  8
ShapeString002
100
AcDbLine
 10
17.397212010
 20
14.288496732
 30
0.000000000
 11
19.208639706
 21
14.288496732
 31
0.000000000
  0
LINE
  5
D0B
330
A02
100
AcDbEntity
  8
ShapeString002
100
AcDbLine
 10
19.208639706
 20
14.288496732
 30
0.000000000
 11
19.208639706
 21
9.435555556
 31
0.000000000
  0
LINE
  5
D0C
330
A02
100
AcDbEntity
  8
ShapeString002
100
AcDbLine
 10
19.208639706
 20
9.435555556
 30
0.000000000
 11
20.353707108
 21
9.435555556
 31
0.000000000
  0
LINE
  5
D0D
330
A02
100
AcDbEntity
  8
ShapeString002
100
AcDbLine
 10
20.353707108
 20
9.435555556
 30
0.000000000
 11
20.353707108
 21
8.880000000
 31
0.000000000
  0
LINE
  5
D0E
330
A02
100
AcDbEntity
  8
ShapeString002
100
AcDbLine
 10
20.353707108
 20
8.880000000
 30
0.000000000
 11
17.270833333
 21
8.880000000
 31
0.000000000
  0
LINE
  5
D0F
330
A02
100
AcDbEntity
  8
ShapeString002
100
AcDbLine
 10
17.270833333
 20
8.880000000
 30
0.000000000
 11
17.270833333
 21
9.435555556
 31
0.000000000
  0
LINE
  5
D10
330
A02
100
AcDbEntity
  8
ShapeString002
100
AcDbLine
 10
17.270833333
 20
9.435555556
 30
0.000000000
 11
18.534620098
 21
9.435555556
 31
0.000000000
  0
LINE
  5
D11
330
A02
100
AcDbEntity
  8
ShapeString002
100
AcDbLine
 10
18.534620098
 20
9.435555556
 30
0.000000000
 11
18.534620098
 21
13.741111111
 31
0.000000000
  0
LWPOLYLINE
  5
D12
330
A02
100
AcDbEntity
100
AcDbPolyline
  8
ShapeString002
 90
2
 70
0
 43
0
 10
24.636795343
 20
8.933104575
 10
24.169577206
 20
8.854724265
  0
LWPOLYLINE
  5
D13
330
A02
100
AcDbEntity
100
AcDbPolyline
  8
ShapeString002
 90
2
 70
0
 43
0
 10
24.169577206
 20
8.854724265
 10
23.679381127
 20
8.830980392
  0
LWPOLYLINE
  5
D14
330
A02
100
AcDbEntity
100
AcDbPolyline
  8
ShapeString002
 90
2
 70
0
 43
0
 10
23.679381127
 20
8.830980392
 10
22.599417892
 20
9.157267157
  0
LWPOLYLINE
  5
D15
330
A02
100
AcDbEntity
100
AcDbPolyline
  8
ShapeString002
 90
2
 70
0
 43
0
 10
22.599417892
 20
9.157267157
 10
22.243259804
 20
10.159616013
  0
LINE
  5
D16
330
A02
100
AcDbEntity
  8
ShapeString002
100
AcDbLine
 10
22.243259804
 20
10.159616013
 30
0.000000000
 11
22.243259804
 21
12.160228758
 31
0.000000000
  0
LINE
  5
D17
330
A02
100
AcDbEntity
  8
ShapeString002
100
AcDbLine
 10
22.243259804
 20
12.160228758
 30
0.000000000
 11
21.167126225
 21
12.160228758
 31
0.000000000
  0
LINE
  5
D18
330
A02
100
AcDbEntity
  8
ShapeString002
100
AcDbLine
 10
21.167126225
 20
12.160228758
 30
0.000000000
 11
21.167126225
 21
12.719869281
 31
0.000000000
  0
LINE
  5
D19
330
A02
100
AcDbEntity
  8
ShapeString002
100
AcDbLine
 10
21.167126225
 20
12.719869281
 30
0.000000000
 11
22.243259804
 21
12.719869281
 31
0.000000000
  0
LINE
  5
D1A
330
A02
100
AcDbEntity
  8
ShapeString002
100
AcDbLine
 10
22.243259804
 20
12.719869281
 30
0.000000000
 11
22.243259804
 21
13.773535539
 31
0.000000000
  0
LINE
  5
D1B
330
A02
100
AcDbEntity
  8
ShapeString002
100
AcDbLine
 10
22.243259804
 20
13.773535539
 30
0.000000000
 11
22.909620098
 21
13.945359477
 31
0.000000000
  0
LINE
  5
D1C
330
A02
100
AcDbEntity
  8
ShapeString002
100
AcDbLine
 10
22.909620098
 20
13.945359477
 30
0.000000000
 11
22.909620098
 21
12.719869281
 31
0.000000000
  0
LINE
  5
D1D
330
A02
100
AcDbEntity
  8
ShapeString002
100
AcDbLine
 10
22.909620098
 20
12.719869281
 30
0.000000000
 11
24.636795343
 21
12.719869281
 31
0.000000000
  0
LINE
  5
D1E
330
A02
100
AcDbEntity
  8
ShapeString002
100
AcDbLine
 10
24.636795343
 20
12.719869281
 30
0.000000000
 11
24.636795343
 21
12.160228758
 31
0.000000000
  0
LINE
  5
D1F
330
A02
100
AcDbEntity
  8
ShapeString002
100
AcDbLine
 10
24.636795343
 20
12.160228758
 30
0.000000000
 11
22.909620098
 21
12.160228758
 31
0.000000000
  0
LINE
  5
D20
330
A02
100
AcDbEntity
  8
ShapeString002
100
AcDbLine
 10
22.909620098
 20
12.160228758
 30
0.000000000
 11
22.909620098
 21
10.214763072
 31
0.000000000
  0
LWPOLYLINE
  5
D21
330
A02
100
AcDbEntity
100
AcDbPolyline
  8
ShapeString002
 90
2
 70
0
 43
0
 10
22.909620098
 20
10.214763072
 10
23.129697712
 20
9.598698938
  0
LWPOLYLINE
  5
D22
330
A02
100
AcDbEntity
100
AcDbPolyline
  8
ShapeString002
 90
2
 70
0
 43
0
 10
23.129697712
 20
9.598698938
 10
23.778952206
 20
9.394705882
  0
LWPOLYLINE
  5
D23
330
A02
100
AcDbEntity
100
AcDbPolyline
  8
ShapeString002
 90
2
 70
0
 43
0
 10
23.778952206
 20
9.394705882
 10
24.181066176
 20
9.422279412
  0
LWPOLYLINE
  5
D24
330
A02
100
AcDbEntity
100
AcDbPolyline
  8
ShapeString002
 90
2
 70
0
 43
0
 10
24.181066176
 20
9.422279412
 10
24.636795343
 20
9.509084967
  0
LINE
  5
D25
330
A02
100
AcDbEntity
  8
ShapeString002
100
AcDbLine
 10
24.636795343
 20
9.509084967
 30
0.000000000
 11
24.636795343
 21
8.933104575
 31
0.000000000
  0
LINE
  5
D26
330
A02
100
AcDbEntity
  8
ShapeString002
100
AcDbLine
 10
28.322457108
 20
8.880000000
 30
0.000000000
 11
28.307138480
 21
9.396493056
 31
0.000000000
  0
LWPOLYLINE
  5
D27
330
A02
100
AcDbEntity
100
AcDbPolyline
  8
ShapeString002
 90
2
 70
0
 43
0
 10
28.307138480
 20
9.396493056
 10
27.669372958
 20
8.951486928
  0
LWPOLYLINE
  5
D28
330
A02
100
AcDbEntity
100
AcDbPolyline
  8
ShapeString002
 90
2
 70
0
 43
0
 10
27.669372958
 20
8.951486928
 10
26.989736520
 20
8.814640523
  0
LWPOLYLINE
  5
D29
330
A02
100
AcDbEntity
100
AcDbPolyline
  8
ShapeString002
 90
2
 70
0
 43
0
 10
26.989736520
 20
8.814640523
 10
26.426776961
 20
8.898637663
  0
LWPOLYLINE
  5
D2A
330
A02
100
AcDbEntity
100
AcDbPolyline
  8
ShapeString002
 90
2
 70
0
 43
0
 10
26.426776961
 20
8.898637663
 10
26.041768791
 20
9.129948938
  0
LWPOLYLINE
  5
D2B
330
A02
100
AcDbEntity
100
AcDbPolyline
  8
ShapeString002
 90
2
 70
0
 43
0
 10
26.041768791
 20
9.129948938
 10
25.819648693
 20
9.475894608
  0
LWPOLYLINE
  5
D2C
330
A02
100
AcDbEntity
100
AcDbPolyline
  8
ShapeString002
 90
2
 70
0
 43
0
 10
25.819648693
 20
9.475894608
 10
25.748927696
 20
9.907879902
  0
LWPOLYLINE
  5
D2D
330
A02
100
AcDbEntity
100
AcDbPolyline
  8
ShapeString002
 90
2
 70
0
 43
0
 10
25.748927696
 20
9.907879902
 10
26.179636438
 20
10.811934232
  0
LWPOLYLINE
  5
D2E
330
A02
100
AcDbEntity
100
AcDbPolyline
  8
ShapeString002
 90
2
 70
0
 43
0
 10
26.179636438
 20
10.811934232
 10
27.453125000
 20
11.138986928
  0
LINE
  5
D2F
330
A02
100
AcDbEntity
  8
ShapeString002
100
AcDbLine
 10
27.453125000
 20
11.138986928
 30
0.000000000
 11
28.249693627
 21
11.138986928
 31
0.000000000
  0
LINE
  5
D30
330
A02
100
AcDbEntity
  8
ShapeString002
100
AcDbLine
 10
28.249693627
 20
11.138986928
 30
0.000000000
 11
28.249693627
 21
11.478294526
 31
0.000000000
  0
LWPOLYLINE
  5
D31
330
A02
100
AcDbEntity
100
AcDbPolyline
  8
ShapeString002
 90
2
 70
0
 43
0
 10
28.249693627
 20
11.478294526
 10
28.031403186
 20
12.027467320
  0
LWPOLYLINE
  5
D32
330
A02
100
AcDbEntity
100
AcDbPolyline
  8
ShapeString002
 90
2
 70
0
 43
0
 10
28.031403186
 20
12.027467320
 10
27.365042892
 20
12.233758170
  0
LWPOLYLINE
  5
D33
330
A02
100
AcDbEntity
100
AcDbPolyline
  8
ShapeString002
 90
2
 70
0
 43
0
 10
27.365042892
 20
12.233758170
 10
26.723447712
 20
12.161505310
  0
LWPOLYLINE
  5
D34
330
A02
100
AcDbEntity
100
AcDbPolyline
  8
ShapeString002
 90
2
 70
0
 43
0
 10
26.723447712
 20
12.161505310
 10
26.070618873
 20
11.955980392
  0
LINE
  5
D35
330
A02
100
AcDbEntity
  8
ShapeString002
100
AcDbLine
 10
26.070618873
 20
11.955980392
 30
0.000000000
 11
26.070618873
 21
12.556470588
 31
0.000000000
  0
LWPOLYLINE
  5
D36
330
A02
100
AcDbEntity
100
AcDbPolyline
  8
ShapeString002
 90
2
 70
0
 43
0
 10
26.070618873
 20
12.556470588
 10
26.351970997
 20
12.646339869
  0
LWPOLYLINE
  5
D37
330
A02
100
AcDbEntity
100
AcDbPolyline
  8
ShapeString002
 90
2
 70
0
 43
0
 10
26.351970997
 20
12.646339869
 10
26.679534314
 20
12.724975490
  0
LWPOLYLINE
  5
D38
330
A02
100
AcDbEntity
100
AcDbPolyline
  8
ShapeString002
 90
2
 70
0
 43
0
 10
26.679534314
 20
12.724975490
 10
27.039522059
 20
12.780377859
  0
LWPOLYLINE
  5
D39
330
A02
100
AcDbEntity
100
AcDbPolyline
  8
ShapeString002
 90
2
 70
0
 43
0
 10
27.039522059
 20
12.780377859
 10
27.418658088
 20
12.801568627
  0
LWPOLYLINE
  5
D3A
330
A02
100
AcDbEntity
100
AcDbPolyline
  8
ShapeString002
 90
2
 70
0
 43
0
 10
27.418658088
 20
12.801568627
 10
28.046721814
 20
12.724720180
  0
LWPOLYLINE
  5
D3B
330
A02
100
AcDbEntity
100
AcDbPolyline
  8
ShapeString002
 90
2
 70
0
 43
0
 10
28.046721814
 20
12.724720180
 10
28.519556781
 20
12.490600490
  0
LWPOLYLINE
  5
D3C
330
A02
100
AcDbEntity
100
AcDbPolyline
  8
ShapeString002
 90
2
 70
0
 43
0
 10
28.519556781
 20
12.490600490
 10
28.816482843
 20
12.095379902
  0
LWPOLYLINE
  5
D3D
330
A02
100
AcDbEntity
100
AcDbPolyline
  8
ShapeString002
 90
2
 70
0
 43
0
 10
28.816482843
 20
12.095379902
 10
28.919883578
 20
11.535228758
  0
LINE
  5
D3E
330
A02
100
AcDbEntity
  8
ShapeString002
100
AcDbLine
 10
28.919883578
 20
11.535228758
 30
0.000000000
 11
28.919883578
 21
8.880000000
 31
0.000000000
  0
LINE
  5
D3F
330
A02
100
AcDbEntity
  8
ShapeString002
100
AcDbLine
 10
28.919883578
 20
8.880000000
 30
0.000000000
 11
28.322457108
 21
8.880000000
 31
0.000000000
  0
LINE
  5
D40
330
A02
100
AcDbEntity
  8
ShapeString002
100
AcDbLine
 10
28.249693627
 20
10.628366013
 30
0.000000000
 11
27.403339461
 21
10.628366013
 31
0.000000000
  0
LWPOLYLINE
  5
D41
330
A02
100
AcDbEntity
100
AcDbPolyline
  8
ShapeString002
 90
2
 70
0
 43
0
 10
27.403339461
 20
10.628366013
 10
26.974417892
 20
10.578835784
  0
LWPOLYLINE
  5
D42
330
A02
100
AcDbEntity
100
AcDbPolyline
  8
ShapeString002
 90
2
 70
0
 43
0
 10
26.974417892
 20
10.578835784
 10
26.679534314
 20
10.437649101
  0
LWPOLYLINE
  5
D43
330
A02
100
AcDbEntity
100
AcDbPolyline
  8
ShapeString002
 90
2
 70
0
 43
0
 10
26.679534314
 20
10.437649101
 10
26.508986928
 20
10.218337418
  0
LWPOLYLINE
  5
D44
330
A02
100
AcDbEntity
100
AcDbPolyline
  8
ShapeString002
 90
2
 70
0
 43
0
 10
26.508986928
 20
10.218337418
 10
26.453584559
 20
9.930602533
  0
LWPOLYLINE
  5
D45
330
A02
100
AcDbEntity
100
AcDbPolyline
  8
ShapeString002
 90
2
 70
0
 43
0
 10
26.453584559
 20
9.930602533
 10
26.488051471
 20
9.718950163
  0
LWPOLYLINE
  5
D46
330
A02
100
AcDbEntity
100
AcDbPolyline
  8
ShapeString002
 90
2
 70
0
 43
0
 10
26.488051471
 20
9.718950163
 10
26.599111520
 20
9.539722222
  0
LWPOLYLINE
  5
D47
330
A02
100
AcDbEntity
100
AcDbPolyline
  8
ShapeString002
 90
2
 70
0
 43
0
 10
26.599111520
 20
9.539722222
 10
26.798253676
 20
9.415896650
  0
LWPOLYLINE
  5
D48
330
A02
100
AcDbEntity
100
AcDbPolyline
  8
ShapeString002
 90
2
 70
0
 43
0
 10
26.798253676
 20
9.415896650
 10
27.096966912
 20
9.370196078
  0
LWPOLYLINE
  5
D49
330
A02
100
AcDbEntity
100
AcDbPolyline
  8
ShapeString002
 90
2
 70
0
 43
0
 10
27.096966912
 20
9.370196078
 10
27.623417075
 20
9.509340278
  0
LWPOLYLINE
  5
D4A
330
A02
100
AcDbEntity
100
AcDbPolyline
  8
ShapeString002
 90
2
 70
0
 43
0
 10
27.623417075
 20
9.509340278
 10
28.249693627
 20
9.949750817
  0
LINE
  5
D4B
330
A02
100
AcDbEntity
  8
ShapeString002
100
AcDbLine
 10
28.249693627
 20
9.949750817
 30
0.000000000
 11
28.249693627
 21
10.628366013
 31
0.000000000
  0
LWPOLYLINE
  5
D4C
330
A02
100
AcDbEntity
100
AcDbPolyline
  8
ShapeString002
 90
2
 70
0
 43
0
 10
32.934895833
 20
12.176568627
 10
33.101358252
 20
11.870451389
  0
LWPOLYLINE
  5
D4D
330
A02
100
AcDbEntity
100
AcDbPolyline
  8
ShapeString002
 90
2
 70
0
 43
0
 10
33.101358252
 20
11.870451389
 10
33.160845588
 20
11.493357843
  0
LWPOLYLINE
  5
D4E
330
A02
100
AcDbEntity
100
AcDbPolyline
  8
ShapeString002
 90
2
 70
0
 43
0
 10
33.160845588
 20
11.493357843
 10
33.051572712
 20
10.948270016
  0
LWPOLYLINE
  5
D4F
330
A02
100
AcDbEntity
100
AcDbPolyline
  8
ShapeString002
 90
2
 70
0
 43
0
 10
33.051572712
 20
10.948270016
 10
32.743412990
 20
10.525475899
  0
LWPOLYLINE
  5
D50
330
A02
100
AcDbEntity
100
AcDbPolyline
  8
ShapeString002
 90
2
 70
0
 43
0
 10
32.743412990
 20
10.525475899
 10
32.266493056
 20
10.252038399
  0
LWPOLYLINE
  5
D51
330
A02
100
AcDbEntity
100
AcDbPolyline
  8
ShapeString002
 90
2
 70
0
 43
0
 10
32.266493056
 20
10.252038399
 10
31.655790441
 20
10.154509804
  0
LWPOLYLINE
  5
D52
330
A02
100
AcDbEntity
100
AcDbPolyline
  8
ShapeString002
 90
2
 70
0
 43
0
 10
31.655790441
 20
10.154509804
 10
31.203890931
 20
10.206082516
  0
LWPOLYLINE
  5
D53
330
A02
100
AcDbEntity
100
AcDbPolyline
  8
ShapeString002
 90
2
 70
0
 43
0
 10
31.203890931
 20
10.206082516
 10
30.870710784
 20
10.334503676
  0
LWPOLYLINE
  5
D54
330
A02
100
AcDbEntity
100
AcDbPolyline
  8
ShapeString002
 90
2
 70
0
 43
0
 10
30.870710784
 20
10.334503676
 10
30.748161765
 20
10.130000000
  0
LWPOLYLINE
  5
D55
330
A02
100
AcDbEntity
100
AcDbPolyline
  8
ShapeString002
 90
2
 70
0
 43
0
 10
30.748161765
 20
10.130000000
 10
30.698376225
 20
9.911709559
  0
LWPOLYLINE
  5
D56
330
A02
100
AcDbEntity
100
AcDbPolyline
  8
ShapeString002
 90
2
 70
0
 43
0
 10
30.698376225
 20
9.911709559
 10
30.838031046
 20
9.664569036
  0
LWPOLYLINE
  5
D57
330
A02
100
AcDbEntity
100
AcDbPolyline
  8
ShapeString002
 90
2
 70
0
 43
0
 10
30.838031046
 20
9.664569036
 10
31.207720588
 20
9.559125817
  0
LINE
  5
D58
330
A02
100
AcDbEntity
  8
ShapeString002
100
AcDbLine
 10
31.207720588
 20
9.559125817
 30
0.000000000
 11
32.218750000
 21
9.520829248
 31
0.000000000
  0
LWPOLYLINE
  5
D59
330
A02
100
AcDbEntity
100
AcDbPolyline
  8
ShapeString002
 90
2
 70
0
 43
0
 10
32.218750000
 20
9.520829248
 10
32.749029820
 20
9.448321078
  0
LWPOLYLINE
  5
D5A
330
A02
100
AcDbEntity
100
AcDbPolyline
  8
ShapeString002
 90
2
 70
0
 43
0
 10
32.749029820
 20
9.448321078
 10
33.166462418
 20
9.261433824
  0
LWPOLYLINE
  5
D5B
330
A02
100
AcDbEntity
100
AcDbPolyline
  8
ShapeString002
 90
2
 70
0
 43
0
 10
33.166462418
 20
9.261433824
 10
33.438368056
 20
8.960167484
  0
LWPOLYLINE
  5
D5C
330
A02
100
AcDbEntity
100
AcDbPolyline
  8
ShapeString002
 90
2
 70
0
 43
0
 10
33.438368056
 20
8.960167484
 10
33.536151961
 20
8.544522059
  0
LWPOLYLINE
  5
D5D
330
A02
100
AcDbEntity
100
AcDbPolyline
  8
ShapeString002
 90
2
 70
0
 43
0
 10
33.536151961
 20
8.544522059
 10
33.425091912
 20
8.060453431
  0
LWPOLYLINE
  5
D5E
330
A02
100
AcDbEntity
100
AcDbPolyline
  8
ShapeString002
 90
2
 70
0
 43
0
 10
33.425091912
 20
8.060453431
 10
33.082209967
 20
7.658084150
  0
LWPOLYLINE
  5
D5F
330
A02
100
AcDbEntity
100
AcDbPolyline
  8
ShapeString002
 90
2
 70
0
 43
0
 10
33.082209967
 20
7.658084150
 10
32.494485294
 20
7.381582925
  0
LWPOLYLINE
  5
D60
330
A02
100
AcDbEntity
100
AcDbPolyline
  8
ShapeString002
 90
2
 70
0
 43
0
 10
32.494485294
 20
7.381582925
 10
31.648131127
 20
7.278692810
  0
LWPOLYLINE
  5
D61
330
A02
100
AcDbEntity
100
AcDbPolyline
  8
ShapeString002
 90
2
 70
0
 43
0
 10
31.648131127
 20
7.278692810
 10
30.853349673
 20
7.353243464
  0
LWPOLYLINE
  5
D62
330
A02
100
AcDbEntity
100
AcDbPolyline
  8
ShapeString002
 90
2
 70
0
 43
0
 10
30.853349673
 20
7.353243464
 10
30.315410539
 20
7.559279003
  0
LWPOLYLINE
  5
D63
330
A02
100
AcDbEntity
100
AcDbPolyline
  8
ShapeString002
 90
2
 70
0
 43
0
 10
30.315410539
 20
7.559279003
 10
30.009037990
 20
7.872544935
  0
LWPOLYLINE
  5
D64
330
A02
100
AcDbEntity
100
AcDbPolyline
  8
ShapeString002
 90
2
 70
0
 43
0
 10
30.009037990
 20
7.872544935
 10
29.913296569
 20
8.271339869
  0
LWPOLYLINE
  5
D65
330
A02
100
AcDbEntity
100
AcDbPolyline
  8
ShapeString002
 90
2
 70
0
 43
0
 10
29.913296569
 20
8.271339869
 10
30.043504902
 20
8.760259395
  0
LWPOLYLINE
  5
D66
330
A02
100
AcDbEntity
100
AcDbPolyline
  8
ShapeString002
 90
2
 70
0
 43
0
 10
30.043504902
 20
8.760259395
 10
30.445618873
 20
9.164926471
  0
LWPOLYLINE
  5
D67
330
A02
100
AcDbEntity
100
AcDbPolyline
  8
ShapeString002
 90
2
 70
0
 43
0
 10
30.445618873
 20
9.164926471
 10
30.273284314
 20
9.280326797
  0
LWPOLYLINE
  5
D68
330
A02
100
AcDbEntity
100
AcDbPolyline
  8
ShapeString002
 90
2
 70
0
 43
0
 10
30.273284314
 20
9.280326797
 10
30.154564951
 20
9.432491830
  0
LWPOLYLINE
  5
D69
330
A02
100
AcDbEntity
100
AcDbPolyline
  8
ShapeString002
 90
2
 70
0
 43
0
 10
30.154564951
 20
9.432491830
 10
30.085631127
 20
9.607890114
  0
LWPOLYLINE
  5
D6A
330
A02
100
AcDbEntity
100
AcDbPolyline
  8
ShapeString002
 90
2
 70
0
 43
0
 10
30.085631127
 20
9.607890114
 10
30.062653186
 20
9.788905229
  0
LWPOLYLINE
  5
D6B
330
A02
100
AcDbEntity
100
AcDbPolyline
  8
ShapeString002
 90
2
 70
0
 43
0
 10
30.062653186
 20
9.788905229
 10
30.179330065
 20
10.247442810
  0
LWPOLYLINE
  5
D6C
330
A02
100
AcDbEntity
100
AcDbPolyline
  8
ShapeString002
 90
2
 70
0
 43
0
 10
30.179330065
 20
10.247442810
 10
30.457107843
 20
10.640365605
  0
LWPOLYLINE
  5
D6D
330
A02
100
AcDbEntity
100
AcDbPolyline
  8
ShapeString002
 90
2
 70
0
 43
0
 10
30.457107843
 20
10.640365605
 10
30.328686683
 20
10.812444853
  0
LWPOLYLINE
  5
D6E
330
A02
100
AcDbEntity
100
AcDbPolyline
  8
ShapeString002
 90
2
 70
0
 43
0
 10
30.328686683
 20
10.812444853
 10
30.232945261
 20
10.994225899
  0
LWPOLYLINE
  5
D6F
330
A02
100
AcDbEntity
100
AcDbPolyline
  8
ShapeString002
 90
2
 70
0
 43
0
 10
30.232945261
 20
10.994225899
 10
30.171670752
 20
11.204601716
  0
LWPOLYLINE
  5
D70
330
A02
100
AcDbEntity
100
AcDbPolyline
  8
ShapeString002
 90
2
 70
0
 43
0
 10
30.171670752
 20
11.204601716
 10
30.150735294
 20
11.462720588
  0
LWPOLYLINE
  5
D71
330
A02
100
AcDbEntity
100
AcDbPolyline
  8
ShapeString002
 90
2
 70
0
 43
0
 10
30.150735294
 20
11.462720588
 10
30.259752859
 20
12.007808415
  0
LWPOLYLINE
  5
D72
330
A02
100
AcDbEntity
100
AcDbPolyline
  8
ShapeString002
 90
2
 70
0
 43
0
 10
30.259752859
 20
12.007808415
 10
30.566125408
 20
12.430602533
  0
LWPOLYLINE
  5
D73
330
A02
100
AcDbEntity
100
AcDbPolyline
  8
ShapeString002
 90
2
 70
0
 43
0
 10
30.566125408
 20
12.430602533
 10
31.041002859
 20
12.704040033
  0
LWPOLYLINE
  5
D74
330
A02
100
AcDbEntity
100
AcDbPolyline
  8
ShapeString002
 90
2
 70
0
 43
0
 10
31.041002859
 20
12.704040033
 10
31.655790441
 20
12.801568627
  0
LWPOLYLINE
  5
D75
330
A02
100
AcDbEntity
100
AcDbPolyline
  8
ShapeString002
 90
2
 70
0
 43
0
 10
31.655790441
 20
12.801568627
 10
31.927696078
 20
12.778845997
  0
LWPOLYLINE
  5
D76
330
A02
100
AcDbEntity
100
AcDbPolyline
  8
ShapeString002
 90
2
 70
0
 43
0
 10
31.927696078
 20
12.778845997
 10
32.157475490
 20
12.719869281
  0
LINE
  5
D77
330
A02
100
AcDbEntity
  8
ShapeString002
100
AcDbLine
 10
32.157475490
 20
12.719869281
 30
0.000000000
 11
33.551470588
 21
12.719869281
 31
0.000000000
  0
LINE
  5
D78
330
A02
100
AcDbEntity
  8
ShapeString002
100
AcDbLine
 10
33.551470588
 20
12.719869281
 30
0.000000000
 11
33.551470588
 21
12.176568627
 31
0.000000000
  0
LINE
  5
D79
330
A02
100
AcDbEntity
  8
ShapeString002
100
AcDbLine
 10
33.551470588
 20
12.176568627
 30
0.000000000
 11
32.934895833
 21
12.176568627
 31
0.000000000
  0
LWPOLYLINE
  5
D7A
330
A02
100
AcDbEntity
100
AcDbPolyline
  8
ShapeString002
 90
2
 70
0
 43
0
 10
30.621783088
 20
8.327763480
 10
30.905177696
 20
7.933564134
  0
LWPOLYLINE
  5
D7B
330
A02
100
AcDbEntity
100
AcDbPolyline
  8
ShapeString002
 90
2
 70
0
 43
0
 10
30.905177696
 20
7.933564134
 10
31.694087010
 20
7.809738562
  0
LWPOLYLINE
  5
D7C
330
A02
100
AcDbEntity
100
AcDbPolyline
  8
ShapeString002
 90
2
 70
0
 43
0
 10
31.694087010
 20
7.809738562
 10
32.228196487
 20
7.866928105
  0
LWPOLYLINE
  5
D7D
330
A02
100
AcDbEntity
100
AcDbPolyline
  8
ShapeString002
 90
2
 70
0
 43
0
 10
32.228196487
 20
7.866928105
 10
32.576695261
 20
8.017305964
  0
LWPOLYLINE
  5
D7E
330
A02
100
AcDbEntity
100
AcDbPolyline
  8
ShapeString002
 90
2
 70
0
 43
0
 10
32.576695261
 20
8.017305964
 10
32.766390931
 20
8.230490196
  0
LWPOLYLINE
  5
D7F
330
A02
100
AcDbEntity
100
AcDbPolyline
  8
ShapeString002
 90
2
 70
0
 43
0
 10
32.766390931
 20
8.230490196
 10
32.823835784
 20
8.476098856
  0
LWPOLYLINE
  5
D80
330
A02
100
AcDbEntity
100
AcDbPolyline
  8
ShapeString002
 90
2
 70
0
 43
0
 10
32.823835784
 20
8.476098856
 10
32.632352941
 20
8.818725490
  0
LWPOLYLINE
  5
D81
330
A02
100
AcDbEntity
100
AcDbPolyline
  8
ShapeString002
 90
2
 70
0
 43
0
 10
32.632352941
 20
8.818725490
 10
32.046415441
 20
8.948167892
  0
LINE
  5
D82
330
A02
100
AcDbEntity
  8
ShapeString002
100
AcDbLine
 10
32.046415441
 20
8.948167892
 30
0.000000000
 11
31.043045343
 21
8.982634804
 31
0.000000000
  0
LWPOLYLINE
  5
D83
330
A02
100
AcDbEntity
100
AcDbPolyline
  8
ShapeString002
 90
2
 70
0
 43
0
 10
31.043045343
 20
8.982634804
 10
30.834201389
 20
8.818980801
  0
LWPOLYLINE
  5
D84
330
A02
100
AcDbEntity
100
AcDbPolyline
  8
ShapeString002
 90
2
 70
0
 43
0
 10
30.834201389
 20
8.818980801
 10
30.706035539
 20
8.657113971
  0
LWPOLYLINE
  5
D85
330
A02
100
AcDbEntity
100
AcDbPolyline
  8
ShapeString002
 90
2
 70
0
 43
0
 10
30.706035539
 20
8.657113971
 10
30.640931373
 20
8.493459967
  0
LWPOLYLINE
  5
D86
330
A02
100
AcDbEntity
100
AcDbPolyline
  8
ShapeString002
 90
2
 70
0
 43
0
 10
30.640931373
 20
8.493459967
 10
30.621783088
 20
8.327763480
  0
LWPOLYLINE
  5
D87
330
A02
100
AcDbEntity
100
AcDbPolyline
  8
ShapeString002
 90
2
 70
0
 43
0
 10
30.824754902
 20
11.478039216
 10
30.886029412
 20
11.141795343
  0
LWPOLYLINE
  5
D88
330
A02
100
AcDbEntity
100
AcDbPolyline
  8
ShapeString002
 90
2
 70
0
 43
0
 10
30.886029412
 20
11.141795343
 10
31.058363971
 20
10.882144608
  0
LWPOLYLINE
  5
D89
330
A02
100
AcDbEntity
100
AcDbPolyline
  8
ShapeString002
 90
2
 70
0
 43
0
 10
31.058363971
 20
10.882144608
 10
31.320567810
 20
10.716192810
  0
LWPOLYLINE
  5
D8A
330
A02
100
AcDbEntity
100
AcDbPolyline
  8
ShapeString002
 90
2
 70
0
 43
0
 10
31.320567810
 20
10.716192810
 10
31.655790441
 20
10.656960784
  0
LWPOLYLINE
  5
D8B
330
A02
100
AcDbEntity
100
AcDbPolyline
  8
ShapeString002
 90
2
 70
0
 43
0
 10
31.655790441
 20
10.656960784
 10
32.009906046
 20
10.723852124
  0
LWPOLYLINE
  5
D8C
330
A02
100
AcDbEntity
100
AcDbPolyline
  8
ShapeString002
 90
2
 70
0
 43
0
 10
32.009906046
 20
10.723852124
 10
32.270322712
 20
10.905122549
  0
LWPOLYLINE
  5
D8D
330
A02
100
AcDbEntity
100
AcDbPolyline
  8
ShapeString002
 90
2
 70
0
 43
0
 10
32.270322712
 20
10.905122549
 10
32.431168301
 20
11.168602941
  0
LWPOLYLINE
  5
D8E
330
A02
100
AcDbEntity
100
AcDbPolyline
  8
ShapeString002
 90
2
 70
0
 43
0
 10
32.431168301
 20
11.168602941
 10
32.486825980
 20
11.478039216
  0
LWPOLYLINE
  5
D8F
330
A02
100
AcDbEntity
100
AcDbPolyline
  8
ShapeString002
 90
2
 70
0
 43
0
 10
32.486825980
 20
11.478039216
 10
32.425551471
 20
11.814027778
  0
LWPOLYLINE
  5
D90
330
A02
100
AcDbEntity
100
AcDbPolyline
  8
ShapeString002
 90
2
 70
0
 43
0
 10
32.425551471
 20
11.814027778
 10
32.253216912
 20
12.073678513
  0
LWPOLYLINE
  5
D91
330
A02
100
AcDbEntity
100
AcDbPolyline
  8
ShapeString002
 90
2
 70
0
 43
0
 10
32.253216912
 20
12.073678513
 10
31.990757761
 20
12.239885621
  0
LWPOLYLINE
  5
D92
330
A02
100
AcDbEntity
100
AcDbPolyline
  8
ShapeString002
 90
2
 70
0
 43
0
 10
31.990757761
 20
12.239885621
 10
31.655790441
 20
12.299117647
  0
LWPOLYLINE
  5
D93
330
A02
100
AcDbEntity
100
AcDbPolyline
  8
ShapeString002
 90
2
 70
0
 43
0
 10
31.655790441
 20
12.299117647
 10
31.301419526
 20
12.230439134
  0
LWPOLYLINE
  5
D94
330
A02
100
AcDbEntity
100
AcDbPolyline
  8
ShapeString002
 90
2
 70
0
 43
0
 10
31.301419526
 20
12.230439134
 10
31.041002859
 20
12.048913399
  0
LWPOLYLINE
  5
D95
330
A02
100
AcDbEntity
100
AcDbPolyline
  8
ShapeString002
 90
2
 70
0
 43
0
 10
31.041002859
 20
12.048913399
 10
30.880157271
 20
11.787220180
  0
LWPOLYLINE
  5
D96
330
A02
100
AcDbEntity
100
AcDbPolyline
  8
ShapeString002
 90
2
 70
0
 43
0
 10
30.880157271
 20
11.787220180
 10
30.824754902
 20
11.478039216
  0
LWPOLYLINE
  5
D97
330
A02
100
AcDbEntity
100
AcDbPolyline
  8
ShapeString002
 90
2
 70
0
 43
0
 10
37.727328431
 20
11.013118873
 10
37.723498775
 20
10.775680147
  0
LWPOLYLINE
  5
D98
330
A02
100
AcDbEntity
100
AcDbPolyline
  8
ShapeString002
 90
2
 70
0
 43
0
 10
37.723498775
 20
10.775680147
 10
37.712009804
 20
10.595686275
  0
LINE
  5
D99
330
A02
100
AcDbEntity
  8
ShapeString002
100
AcDbLine
 10
37.712009804
 20
10.595686275
 30
0.000000000
 11
35.012101716
 21
10.595686275
 31
0.000000000
  0
LWPOLYLINE
  5
D9A
330
A02
100
AcDbEntity
100
AcDbPolyline
  8
ShapeString002
 90
2
 70
0
 43
0
 10
35.012101716
 20
10.595686275
 10
35.341452206
 20
9.687036356
  0
LWPOLYLINE
  5
D9B
330
A02
100
AcDbEntity
100
AcDbPolyline
  8
ShapeString002
 90
2
 70
0
 43
0
 10
35.341452206
 20
9.687036356
 10
36.291207108
 20
9.370196078
  0
LWPOLYLINE
  5
D9C
330
A02
100
AcDbEntity
100
AcDbPolyline
  8
ShapeString002
 90
2
 70
0
 43
0
 10
36.291207108
 20
9.370196078
 10
36.628216912
 20
9.383472222
  0
LWPOLYLINE
  5
D9D
330
A02
100
AcDbEntity
100
AcDbPolyline
  8
ShapeString002
 90
2
 70
0
 43
0
 10
36.628216912
 20
9.383472222
 10
36.953737745
 20
9.419470997
  0
LWPOLYLINE
  5
D9E
330
A02
100
AcDbEntity
100
AcDbPolyline
  8
ShapeString002
 90
2
 70
0
 43
0
 10
36.953737745
 20
9.419470997
 10
37.254238154
 20
9.470788399
  0
LWPOLYLINE
  5
D9F
330
A02
100
AcDbEntity
100
AcDbPolyline
  8
ShapeString002
 90
2
 70
0
 43
0
 10
37.254238154
 20
9.470788399
 10
37.520526961
 20
9.533594771
  0
LINE
  5
DA0
330
A02
100
AcDbEntity
  8
ShapeString002
100
AcDbLine
 10
37.520526961
 20
9.533594771
 30
0.000000000
 11
37.520526961
 21
8.986209150
 31
0.000000000
  0
LWPOLYLINE
  5
DA1
330
A02
100
AcDbEntity
100
AcDbPolyline
  8
ShapeString002
 90
2
 70
0
 43
0
 10
37.520526961
 20
8.986209150
 10
36.905739379
 20
8.862383578
  0
LWPOLYLINE
  5
DA2
330
A02
100
AcDbEntity
100
AcDbPolyline
  8
ShapeString002
 90
2
 70
0
 43
0
 10
36.905739379
 20
8.862383578
 10
36.195465686
 20
8.814640523
  0
LWPOLYLINE
  5
DA3
330
A02
100
AcDbEntity
100
AcDbPolyline
  8
ShapeString002
 90
2
 70
0
 43
0
 10
36.195465686
 20
8.814640523
 10
35.345281863
 20
8.948678513
  0
LWPOLYLINE
  5
DA4
330
A02
100
AcDbEntity
100
AcDbPolyline
  8
ShapeString002
 90
2
 70
0
 43
0
 10
35.345281863
 20
8.948678513
 10
34.761131536
 20
9.337771650
  0
LWPOLYLINE
  5
DA5
330
A02
100
AcDbEntity
100
AcDbPolyline
  8
ShapeString002
 90
2
 70
0
 43
0
 10
34.761131536
 20
9.337771650
 10
34.424121732
 20
9.962771650
  0
LWPOLYLINE
  5
DA6
330
A02
100
AcDbEntity
100
AcDbPolyline
  8
ShapeString002
 90
2
 70
0
 43
0
 10
34.424121732
 20
9.962771650
 10
34.315104167
 20
10.800445261
  0
LWPOLYLINE
  5
DA7
330
A02
100
AcDbEntity
100
AcDbPolyline
  8
ShapeString002
 90
2
 70
0
 43
0
 10
34.315104167
 20
10.800445261
 10
34.431781046
 20
11.569185049
  0
LWPOLYLINE
  5
DA8
330
A02
100
AcDbEntity
100
AcDbPolyline
  8
ShapeString002
 90
2
 70
0
 43
0
 10
34.431781046
 20
11.569185049
 10
34.772620507
 20
12.205418709
  0
LWPOLYLINE
  5
DA9
330
A02
100
AcDbEntity
100
AcDbPolyline
  8
ShapeString002
 90
2
 70
0
 43
0
 10
34.772620507
 20
12.205418709
 10
35.322303922
 20
12.640467729
  0
LWPOLYLINE
  5
DAA
330
A02
100
AcDbEntity
100
AcDbPolyline
  8
ShapeString002
 90
2
 70
0
 43
0
 10
35.322303922
 20
12.640467729
 10
36.061427696
 20
12.801568627
  0
LWPOLYLINE
  5
DAB
330
A02
100
AcDbEntity
100
AcDbPolyline
  8
ShapeString002
 90
2
 70
0
 43
0
 10
36.061427696
 20
12.801568627
 10
36.773743873
 20
12.675189951
  0
LWPOLYLINE
  5
DAC
330
A02
100
AcDbEntity
100
AcDbPolyline
  8
ShapeString002
 90
2
 70
0
 43
0
 10
36.773743873
 20
12.675189951
 10
37.296364379
 20
12.316989379
  0
LWPOLYLINE
  5
DAD
330
A02
100
AcDbEntity
100
AcDbPolyline
  8
ShapeString002
 90
2
 70
0
 43
0
 10
37.296364379
 20
12.316989379
 10
37.618055556
 20
11.754029820
  0
LWPOLYLINE
  5
DAE
330
A02
100
AcDbEntity
100
AcDbPolyline
  8
ShapeString002
 90
2
 70
0
 43
0
 10
37.618055556
 20
11.754029820
 10
37.727328431
 20
11.013118873
  0
LWPOLYLINE
  5
DAF
330
A02
100
AcDbEntity
100
AcDbPolyline
  8
ShapeString002
 90
2
 70
0
 43
0
 10
37.034160539
 20
11.110392157
 10
36.984375000
 20
11.579397467
  0
LWPOLYLINE
  5
DB0
330
A02
100
AcDbEntity
100
AcDbPolyline
  8
ShapeString002
 90
2
 70
0
 43
0
 10
36.984375000
 20
11.579397467
 10
36.794679330
 20
11.945002042
  0
LWPOLYLINE
  5
DB1
330
A02
100
AcDbEntity
100
AcDbPolyline
  8
ShapeString002
 90
2
 70
0
 43
0
 10
36.794679330
 20
11.945002042
 10
36.475030637
 20
12.184227941
  0
LWPOLYLINE
  5
DB2
330
A02
100
AcDbEntity
100
AcDbPolyline
  8
ShapeString002
 90
2
 70
0
 43
0
 10
36.475030637
 20
12.184227941
 10
36.030790441
 20
12.270522876
  0
LWPOLYLINE
  5
DB3
330
A02
100
AcDbEntity
100
AcDbPolyline
  8
ShapeString002
 90
2
 70
0
 43
0
 10
36.030790441
 20
12.270522876
 10
35.632506127
 20
12.186270425
  0
LWPOLYLINE
  5
DB4
330
A02
100
AcDbEntity
100
AcDbPolyline
  8
ShapeString002
 90
2
 70
0
 43
0
 10
35.632506127
 20
12.186270425
 10
35.322303922
 20
11.948831699
  0
LWPOLYLINE
  5
DB5
330
A02
100
AcDbEntity
100
AcDbPolyline
  8
ShapeString002
 90
2
 70
0
 43
0
 10
35.322303922
 20
11.948831699
 10
35.111672794
 20
11.581184641
  0
LWPOLYLINE
  5
DB6
330
A02
100
AcDbEntity
100
AcDbPolyline
  8
ShapeString002
 90
2
 70
0
 43
0
 10
35.111672794
 20
11.581184641
 10
35.012101716
 20
11.110392157
  0
LINE
  5
DB7
330
A02
100
AcDbEntity
  8
ShapeString002
100
AcDbLine
 10
35.012101716
 20
11.110392157
 30
0.000000000
 11
37.034160539
 21
11.110392157
 31
0.000000000
  0
LWPOLYLINE
  5
DB8
330
A02
100
AcDbEntity
100
AcDbPolyline
  8
ShapeString002
 90
2
 70
0
 43
0
 10
46.527113971
 20
11.435402369
 10
46.471456291
 20
10.746830065
  0
LWPOLYLINE
  5
DB9
330
A02
100
AcDbEntity
100
AcDbPolyline
  8
ShapeString002
 90
2
 70
0
 43
0
 10
46.471456291
 20
10.746830065
 10
46.293504902
 20
10.134850899
  0
LWPOLYLINE
  5
DBA
330
A02
100
AcDbEntity
100
AcDbPolyline
  8
ShapeString002
 90
2
 70
0
 43
0
 10
46.293504902
 20
10.134850899
 10
45.975643382
 20
9.620145016
  0
LWPOLYLINE
  5
DBB
330
A02
100
AcDbEntity
100
AcDbPolyline
  8
ShapeString002
 90
2
 70
0
 43
0
 10
45.975643382
 20
9.620145016
 10
45.496936275
 20
9.224158497
  0
LWPOLYLINE
  5
DBC
330
A02
100
AcDbEntity
100
AcDbPolyline
  8
ShapeString002
 90
2
 70
0
 43
0
 10
45.496936275
 20
9.224158497
 10
44.838235294
 20
8.969869281
  0
LWPOLYLINE
  5
DBD
330
A02
100
AcDbEntity
100
AcDbPolyline
  8
ShapeString002
 90
2
 70
0
 43
0
 10
44.838235294
 20
8.969869281
 10
43.984221814
 20
8.880000000
  0
LINE
  5
DBE
330
A02
100
AcDbEntity
  8
ShapeString002
100
AcDbLine
 10
43.984221814
 20
8.880000000
 30
0.000000000
 11
42.911917892
 21
8.880000000
 31
0.000000000
  0
LINE
  5
DBF
330
A02
100
AcDbEntity
  8
ShapeString002
100
AcDbLine
 10
42.911917892
 20
8.880000000
 30
0.000000000
 11
42.911917892
 21
13.880000000
 31
0.000000000
  0
LINE
  5
DC0
330
A02
100
AcDbEntity
  8
ShapeString002
100
AcDbLine
 10
42.911917892
 20
13.880000000
 30
0.000000000
 11
44.202512255
 21
13.880000000
 31
0.000000000
  0
LWPOLYLINE
  5
DC1
330
A02
100
AcDbEntity
100
AcDbPolyline
  8
ShapeString002
 90
2
 70
0
 43
0
 10
44.202512255
 20
13.880000000
 10
45.950622958
 20
13.277467320
  0
LWPOLYLINE
  5
DC2
330
A02
100
AcDbEntity
100
AcDbPolyline
  8
ShapeString002
 90
2
 70
0
 43
0
 10
45.950622958
 20
13.277467320
 10
46.527113971
 20
11.435402369
  0
LWPOLYLINE
  5
DC3
330
A02
100
AcDbEntity
100
AcDbPolyline
  8
ShapeString002
 90
2
 70
0
 43
0
 10
45.810968137
 20
11.384340278
 10
45.711397059
 20
12.283033088
  0
LWPOLYLINE
  5
DC4
330
A02
100
AcDbEntity
100
AcDbPolyline
  8
ShapeString002
 90
2
 70
0
 43
0
 10
45.711397059
 20
12.283033088
 10
45.408854167
 20
12.875608660
  0
LWPOLYLINE
  5
DC5
330
A02
100
AcDbEntity
100
AcDbPolyline
  8
ShapeString002
 90
2
 70
0
 43
0
 10
45.408854167
 20
12.875608660
 10
44.899509804
 20
13.202661356
  0
LWPOLYLINE
  5
DC6
330
A02
100
AcDbEntity
100
AcDbPolyline
  8
ShapeString002
 90
2
 70
0
 43
0
 10
44.899509804
 20
13.202661356
 10
44.179534314
 20
13.304019608
  0
LINE
  5
DC7
330
A02
100
AcDbEntity
  8
ShapeString002
100
AcDbLine
 10
44.179534314
 20
13.304019608
 30
0.000000000
 11
43.593596814
 21
13.304019608
 31
0.000000000
  0
LINE
  5
DC8
330
A02
100
AcDbEntity
  8
ShapeString002
100
AcDbLine
 10
43.593596814
 20
13.304019608
 30
0.000000000
 11
43.593596814
 21
9.468235294
 31
0.000000000
  0
LINE
  5
DC9
330
A02
100
AcDbEntity
  8
ShapeString002
100
AcDbLine
 10
43.593596814
 20
9.468235294
 30
0.000000000
 11
44.102941176
 21
9.468235294
 31
0.000000000
  0
LWPOLYLINE
  5
DCA
330
A02
100
AcDbEntity
100
AcDbPolyline
  8
ShapeString002
 90
2
 70
0
 43
0
 10
44.102941176
 20
9.468235294
 10
45.810968137
 20
11.384340278
  0
LWPOLYLINE
  5
DCB
330
A02
100
AcDbEntity
100
AcDbPolyline
  8
ShapeString002
 90
2
 70
0
 43
0
 10
50.706801471
 20
10.623004493
 10
50.589869281
 20
9.875455474
  0
LWPOLYLINE
  5
DCC
330
A02
100
AcDbEntity
100
AcDbPolyline
  8
ShapeString002
 90
2
 70
0
 43
0
 10
50.589869281
 20
9.875455474
 10
50.247242647
 20
9.305857843
  0
LWPOLYLINE
  5
DCD
330
A02
100
AcDbEntity
100
AcDbPolyline
  8
ShapeString002
 90
2
 70
0
 43
0
 10
50.247242647
 20
9.305857843
 10
49.693729575
 20
8.942551062
  0
LWPOLYLINE
  5
DCE
330
A02
100
AcDbEntity
100
AcDbPolyline
  8
ShapeString002
 90
2
 70
0
 43
0
 10
49.693729575
 20
8.942551062
 10
48.941329657
 20
8.814640523
  0
LWPOLYLINE
  5
DCF
330
A02
100
AcDbEntity
100
AcDbPolyline
  8
ShapeString002
 90
2
 70
0
 43
0
 10
48.941329657
 20
8.814640523
 10
48.148590686
 20
8.936934232
  0
LWPOLYLINE
  5
DD0
330
A02
100
AcDbEntity
100
AcDbPolyline
  8
ShapeString002
 90
2
 70
0
 43
0
 10
48.148590686
 20
8.936934232
 10
47.618055556
 20
9.282879902
  0
LWPOLYLINE
  5
DD1
330
A02
100
AcDbEntity
100
AcDbPolyline
  8
ShapeString002
 90
2
 70
0
 43
0
 10
47.618055556
 20
9.282879902
 10
47.319342320
 20
9.820053105
  0
LWPOLYLINE
  5
DD2
330
A02
100
AcDbEntity
100
AcDbPolyline
  8
ShapeString002
 90
2
 70
0
 43
0
 10
47.319342320
 20
9.820053105
 10
47.225643382
 20
10.519603758
  0
LINE
  5
DD3
330
A02
100
AcDbEntity
  8
ShapeString002
100
AcDbLine
 10
47.225643382
 20
10.519603758
 30
0.000000000
 11
47.225643382
 21
13.880000000
 31
0.000000000
  0
LINE
  5
DD4
330
A02
100
AcDbEntity
  8
ShapeString002
100
AcDbLine
 10
47.225643382
 20
13.880000000
 30
0.000000000
 11
47.907322304
 21
13.880000000
 31
0.000000000
  0
LINE
  5
DD5
330
A02
100
AcDbEntity
  8
ShapeString002
100
AcDbLine
 10
47.907322304
 20
13.880000000
 30
0.000000000
 11
47.907322304
 21
10.574750817
 31
0.000000000
  0
LWPOLYLINE
  5
DD6
330
A02
100
AcDbEntity
100
AcDbPolyline
  8
ShapeString002
 90
2
 70
0
 43
0
 10
47.907322304
 20
10.574750817
 10
47.962724673
 20
10.059023693
  0
LWPOLYLINE
  5
DD7
330
A02
100
AcDbEntity
100
AcDbPolyline
  8
ShapeString002
 90
2
 70
0
 43
0
 10
47.962724673
 20
10.059023693
 10
48.144761029
 20
9.688312908
  0
LWPOLYLINE
  5
DD8
330
A02
100
AcDbEntity
100
AcDbPolyline
  8
ShapeString002
 90
2
 70
0
 43
0
 10
48.144761029
 20
9.688312908
 10
48.472069036
 20
9.462873775
  0
LWPOLYLINE
  5
DD9
330
A02
100
AcDbEntity
100
AcDbPolyline
  8
ShapeString002
 90
2
 70
0
 43
0
 10
48.472069036
 20
9.462873775
 10
48.964307598
 20
9.386535948
  0
LWPOLYLINE
  5
DDA
330
A02
100
AcDbEntity
100
AcDbPolyline
  8
ShapeString002
 90
2
 70
0
 43
0
 10
48.964307598
 20
9.386535948
 10
49.766493056
 20
9.699801879
  0
LWPOLYLINE
  5
DDB
330
A02
100
AcDbEntity
100
AcDbPolyline
  8
ShapeString002
 90
2
 70
0
 43
0
 10
49.766493056
 20
9.699801879
 10
50.025122549
 20
10.582410131
  0
LINE
  5
DDC
330
A02
100
AcDbEntity
  8
ShapeString002
100
AcDbLine
 10
50.025122549
 20
10.582410131
 30
0.000000000
 11
50.025122549
 21
13.880000000
 31
0.000000000
  0
LINE
  5
DDD
330
A02
100
AcDbEntity
  8
ShapeString002
100
AcDbLine
 10
50.025122549
 20
13.880000000
 30
0.000000000
 11
50.706801471
 21
13.880000000
 31
0.000000000
  0
LINE
  5
DDE
330
A02
100
AcDbEntity
  8
ShapeString002
100
AcDbLine
 10
50.706801471
 20
13.880000000
 30
0.000000000
 11
50.706801471
 21
10.623004493
 31
0.000000000
  0
LINE
  5
DDF
330
A02
100
AcDbEntity
  8
ShapeString002
100
AcDbLine
 10
55.104779412
 20
13.295849673
 30
0.000000000
 11
53.622702206
 21
13.295849673
 31
0.000000000
  0
LINE
  5
DE0
330
A02
100
AcDbEntity
  8
ShapeString002
100
AcDbLine
 10
53.622702206
 20
13.295849673
 30
0.000000000
 11
53.622702206
 21
8.880000000
 31
0.000000000
  0
LINE
  5
DE1
330
A02
100
AcDbEntity
  8
ShapeString002
100
AcDbLine
 10
53.622702206
 20
8.880000000
 30
0.000000000
 11
52.933363971
 21
8.880000000
 31
0.000000000
  0
LINE
  5
DE2
330
A02
100
AcDbEntity
  8
ShapeString002
100
AcDbLine
 10
52.933363971
 20
8.880000000
 30
0.000000000
 11
52.933363971
 21
13.295849673
 31
0.000000000
  0
LINE
  5
DE3
330
A02
100
AcDbEntity
  8
ShapeString002
100
AcDbLine
 10
52.933363971
 20
13.295849673
 30
0.000000000
 11
51.451286765
 21
13.295849673
 31
0.000000000
  0
LINE
  5
DE4
330
A02
100
AcDbEntity
  8
ShapeString002
100
AcDbLine
 10
51.451286765
 20
13.295849673
 30
0.000000000
 11
51.451286765
 21
13.880000000
 31
0.000000000
  0
LINE
  5
DE5
330
A02
100
AcDbEntity
  8
ShapeString002
100
AcDbLine
 10
51.451286765
 20
13.880000000
 30
0.000000000
 11
55.104779412
 21
13.880000000
 31
0.000000000
  0
LINE
  5
DE6
330
A02
100
AcDbEntity
  8
ShapeString002
100
AcDbLine
 10
55.104779412
 20
13.880000000
 30
0.000000000
 11
55.104779412
 21
13.295849673
 31
0.000000000
  0
LWPOLYLINE
  5
DE7
330
A02
100
AcDbEntity
100
AcDbPolyline
  8
ShapeString003
 90
2
 70
0
 43
0
 10
77.458180247
 20
130.555653595
 10
76.198223139
 20
130.314640523
  0
LWPOLYLINE
  5
DE8
330
A02
100
AcDbEntity
100
AcDbPolyline
  8
ShapeString003
 90
2
 70
0
 43
0
 10
76.198223139
 20
130.314640523
 10
74.568576489
 20
130.948831699
  0
LWPOLYLINE
  5
DE9
330
A02
100
AcDbEntity
100
AcDbPolyline
  8
ShapeString003
 90
2
 70
0
 43
0
 10
74.568576489
 20
130.948831699
 10
74.000000100
 20
132.824342320
  0
LWPOLYLINE
  5
DEA
330
A02
100
AcDbEntity
100
AcDbPolyline
  8
ShapeString003
 90
2
 70
0
 43
0
 10
74.000000100
 20
132.824342320
 10
74.157016031
 20
133.912730801
  0
LWPOLYLINE
  5
DEB
330
A02
100
AcDbEntity
100
AcDbPolyline
  8
ShapeString003
 90
2
 70
0
 43
0
 10
74.157016031
 20
133.912730801
 10
74.605085884
 20
134.738404820
  0
LWPOLYLINE
  5
DEC
330
A02
100
AcDbEntity
100
AcDbPolyline
  8
ShapeString003
 90
2
 70
0
 43
0
 10
74.605085884
 20
134.738404820
 10
75.309742747
 20
135.261280637
  0
LWPOLYLINE
  5
DED
330
A02
100
AcDbEntity
100
AcDbPolyline
  8
ShapeString003
 90
2
 70
0
 43
0
 10
75.309742747
 20
135.261280637
 10
76.236519708
 20
135.445359477
  0
LWPOLYLINE
  5
DEE
330
A02
100
AcDbEntity
100
AcDbPolyline
  8
ShapeString003
 90
2
 70
0
 43
0
 10
76.236519708
 20
135.445359477
 10
76.883731718
 20
135.385106209
  0
LWPOLYLINE
  5
DEF
330
A02
100
AcDbEntity
100
AcDbPolyline
  8
ShapeString003
 90
2
 70
0
 43
0
 10
76.883731718
 20
135.385106209
 10
77.458180247
 20
135.200261438
  0
LINE
  5
DF0
330
A02
100
AcDbEntity
  8
ShapeString003
100
AcDbLine
 10
77.458180247
 20
135.200261438
 30
0.000000000
 11
77.458180247
 21
134.530326797
 31
0.000000000
  0
LWPOLYLINE
  5
DF1
330
A02
100
AcDbEntity
100
AcDbPolyline
  8
ShapeString003
 90
2
 70
0
 43
0
 10
77.458180247
 20
134.530326797
 10
76.895220688
 20
134.761127451
  0
LWPOLYLINE
  5
DF2
330
A02
100
AcDbEntity
100
AcDbPolyline
  8
ShapeString003
 90
2
 70
0
 43
0
 10
76.895220688
 20
134.761127451
 10
76.259497649
 20
134.840784314
  0
LWPOLYLINE
  5
DF3
330
A02
100
AcDbEntity
100
AcDbPolyline
  8
ShapeString003
 90
2
 70
0
 43
0
 10
76.259497649
 20
134.840784314
 10
75.621732126
 20
134.708533497
  0
LWPOLYLINE
  5
DF4
330
A02
100
AcDbEntity
100
AcDbPolyline
  8
ShapeString003
 90
2
 70
0
 43
0
 10
75.621732126
 20
134.708533497
 10
75.137408188
 20
134.325057190
  0
LWPOLYLINE
  5
DF5
330
A02
100
AcDbEntity
100
AcDbPolyline
  8
ShapeString003
 90
2
 70
0
 43
0
 10
75.137408188
 20
134.325057190
 10
74.831035639
 20
133.711801471
  0
LWPOLYLINE
  5
DF6
330
A02
100
AcDbEntity
100
AcDbPolyline
  8
ShapeString003
 90
2
 70
0
 43
0
 10
74.831035639
 20
133.711801471
 10
74.723805247
 20
132.885872141
  0
LWPOLYLINE
  5
DF7
330
A02
100
AcDbEntity
100
AcDbPolyline
  8
ShapeString003
 90
2
 70
0
 43
0
 10
74.723805247
 20
132.885872141
 10
75.118259904
 20
131.417837010
  0
LWPOLYLINE
  5
DF8
330
A02
100
AcDbEntity
100
AcDbPolyline
  8
ShapeString003
 90
2
 70
0
 43
0
 10
75.118259904
 20
131.417837010
 10
76.274816276
 20
130.923300654
  0
LWPOLYLINE
  5
DF9
330
A02
100
AcDbEntity
100
AcDbPolyline
  8
ShapeString003
 90
2
 70
0
 43
0
 10
76.274816276
 20
130.923300654
 10
76.891391031
 20
130.996319444
  0
LWPOLYLINE
  5
DFA
330
A02
100
AcDbEntity
100
AcDbPolyline
  8
ShapeString003
 90
2
 70
0
 43
0
 10
76.891391031
 20
130.996319444
 10
77.458180247
 20
131.201078431
  0
LINE
  5
DFB
330
A02
100
AcDbEntity
  8
ShapeString003
100
AcDbLine
 10
77.458180247
 20
131.201078431
 30
0.000000000
 11
77.458180247
 21
130.555653595
 31
0.000000000
  0
LINE
  5
DFC
330
A02
100
AcDbEntity
  8
ShapeString003
100
AcDbLine
 10
81.664675345
 20
130.380000000
 30
0.000000000
 11
81.067248875
 21
130.380000000
 31
0.000000000
  0
LINE
  5
DFD
330
A02
100
AcDbEntity
  8
ShapeString003
100
AcDbLine
 10
81.067248875
 20
130.380000000
 30
0.000000000
 11
81.044270933
 21
130.999638480
 31
0.000000000
  0
LWPOLYLINE
  5
DFE
330
A02
100
AcDbEntity
100
AcDbPolyline
  8
ShapeString003
 90
2
 70
0
 43
0
 10
81.044270933
 20
130.999638480
 10
80.716707616
 20
130.670287990
  0
LWPOLYLINE
  5
DFF
330
A02
100
AcDbEntity
100
AcDbPolyline
  8
ShapeString003
 90
2
 70
0
 43
0
 10
80.716707616
 20
130.670287990
 10
80.408547894
 20
130.459146242
  0
LWPOLYLINE
  5
E00
330
A02
100
AcDbEntity
100
AcDbPolyline
  8
ShapeString003
 90
2
 70
0
 43
0
 10
80.408547894
 20
130.459146242
 10
80.100132861
 20
130.347064951
  0
LWPOLYLINE
  5
E01
330
A02
100
AcDbEntity
100
AcDbPolyline
  8
ShapeString003
 90
2
 70
0
 43
0
 10
80.100132861
 20
130.347064951
 10
79.772824855
 20
130.314640523
  0
LWPOLYLINE
  5
E02
330
A02
100
AcDbEntity
100
AcDbPolyline
  8
ShapeString003
 90
2
 70
0
 43
0
 10
79.772824855
 20
130.314640523
 10
78.876685149
 20
130.662373366
  0
LWPOLYLINE
  5
E03
330
A02
100
AcDbEntity
100
AcDbPolyline
  8
ShapeString003
 90
2
 70
0
 43
0
 10
78.876685149
 20
130.662373366
 10
78.574142257
 20
131.713231209
  0
LINE
  5
E04
330
A02
100
AcDbEntity
  8
ShapeString003
100
AcDbLine
 10
78.574142257
 20
131.713231209
 30
0.000000000
 11
78.574142257
 21
134.219869281
 31
0.000000000
  0
LINE
  5
E05
330
A02
100
AcDbEntity
  8
ShapeString003
100
AcDbLine
 10
78.574142257
 20
134.219869281
 30
0.000000000
 11
79.240502551
 21
134.219869281
 31
0.000000000
  0
LINE
  5
E06
330
A02
100
AcDbEntity
  8
ShapeString003
100
AcDbLine
 10
79.240502551
 20
134.219869281
 30
0.000000000
 11
79.240502551
 21
131.768633578
 31
0.000000000
  0
LWPOLYLINE
  5
E07
330
A02
100
AcDbEntity
100
AcDbPolyline
  8
ShapeString003
 90
2
 70
0
 43
0
 10
79.240502551
 20
131.768633578
 10
79.906862845
 20
130.886535948
  0
LWPOLYLINE
  5
E08
330
A02
100
AcDbEntity
100
AcDbPolyline
  8
ShapeString003
 90
2
 70
0
 43
0
 10
79.906862845
 20
130.886535948
 10
80.146088744
 20
130.922790033
  0
LWPOLYLINE
  5
E09
330
A02
100
AcDbEntity
100
AcDbPolyline
  8
ShapeString003
 90
2
 70
0
 43
0
 10
80.146088744
 20
130.922790033
 10
80.391186783
 20
131.048658088
  0
LWPOLYLINE
  5
E0A
330
A02
100
AcDbEntity
100
AcDbPolyline
  8
ShapeString003
 90
2
 70
0
 43
0
 10
80.391186783
 20
131.048658088
 10
80.666922077
 20
131.291203023
  0
LWPOLYLINE
  5
E0B
330
A02
100
AcDbEntity
100
AcDbPolyline
  8
ShapeString003
 90
2
 70
0
 43
0
 10
80.666922077
 20
131.291203023
 10
80.998315051
 20
131.676977124
  0
LINE
  5
E0C
330
A02
100
AcDbEntity
  8
ShapeString003
100
AcDbLine
 10
80.998315051
 20
131.676977124
 30
0.000000000
 11
80.998315051
 21
134.219869281
 31
0.000000000
  0
LINE
  5
E0D
330
A02
100
AcDbEntity
  8
ShapeString003
100
AcDbLine
 10
80.998315051
 20
134.219869281
 30
0.000000000
 11
81.664675345
 21
134.219869281
 31
0.000000000
  0
LINE
  5
E0E
330
A02
100
AcDbEntity
  8
ShapeString003
100
AcDbLine
 10
81.664675345
 20
134.219869281
 30
0.000000000
 11
81.664675345
 21
130.380000000
 31
0.000000000
  0
LINE
  5
E0F
330
A02
100
AcDbEntity
  8
ShapeString003
100
AcDbLine
 10
83.044883678
 20
134.219869281
 30
0.000000000
 11
83.653799120
 21
134.219869281
 31
0.000000000
  0
LINE
  5
E10
330
A02
100
AcDbEntity
  8
ShapeString003
100
AcDbLine
 10
83.653799120
 20
134.219869281
 30
0.000000000
 11
83.672947404
 21
133.509595588
 31
0.000000000
  0
LWPOLYLINE
  5
E11
330
A02
100
AcDbEntity
100
AcDbPolyline
  8
ShapeString003
 90
2
 70
0
 43
0
 10
83.672947404
 20
133.509595588
 10
84.344924528
 20
134.114170752
  0
LWPOLYLINE
  5
E12
330
A02
100
AcDbEntity
100
AcDbPolyline
  8
ShapeString003
 90
2
 70
0
 43
0
 10
84.344924528
 20
134.114170752
 10
85.013327306
 20
134.301568627
  0
LWPOLYLINE
  5
E13
330
A02
100
AcDbEntity
100
AcDbPolyline
  8
ShapeString003
 90
2
 70
0
 43
0
 10
85.013327306
 20
134.301568627
 10
85.918913499
 20
133.910433007
  0
LWPOLYLINE
  5
E14
330
A02
100
AcDbEntity
100
AcDbPolyline
  8
ShapeString003
 90
2
 70
0
 43
0
 10
85.918913499
 20
133.910433007
 10
86.204350590
 20
132.749281046
  0
LINE
  5
E15
330
A02
100
AcDbEntity
  8
ShapeString003
100
AcDbLine
 10
86.204350590
 20
132.749281046
 30
0.000000000
 11
85.530330982
 21
132.749281046
 31
0.000000000
  0
LWPOLYLINE
  5
E16
330
A02
100
AcDbEntity
100
AcDbPolyline
  8
ShapeString003
 90
2
 70
0
 43
0
 10
85.530330982
 20
132.749281046
 10
85.382761538
 20
133.494021650
  0
LWPOLYLINE
  5
E17
330
A02
100
AcDbEntity
100
AcDbPolyline
  8
ShapeString003
 90
2
 70
0
 43
0
 10
85.382761538
 20
133.494021650
 10
84.917585884
 20
133.725588235
  0
LWPOLYLINE
  5
E18
330
A02
100
AcDbEntity
100
AcDbPolyline
  8
ShapeString003
 90
2
 70
0
 43
0
 10
84.917585884
 20
133.725588235
 10
84.647467420
 20
133.676823938
  0
LWPOLYLINE
  5
E19
330
A02
100
AcDbEntity
100
AcDbPolyline
  8
ShapeString003
 90
2
 70
0
 43
0
 10
84.647467420
 20
133.676823938
 10
84.367902469
 20
133.521084559
  0
LWPOLYLINE
  5
E1A
330
A02
100
AcDbEntity
100
AcDbPolyline
  8
ShapeString003
 90
2
 70
0
 43
0
 10
84.367902469
 20
133.521084559
 10
84.063572404
 20
133.246625817
  0
LWPOLYLINE
  5
E1B
330
A02
100
AcDbEntity
100
AcDbPolyline
  8
ShapeString003
 90
2
 70
0
 43
0
 10
84.063572404
 20
133.246625817
 10
83.718903286
 20
132.841448121
  0
LINE
  5
E1C
330
A02
100
AcDbEntity
  8
ShapeString003
100
AcDbLine
 10
83.718903286
 20
132.841448121
 30
0.000000000
 11
83.718903286
 21
130.380000000
 31
0.000000000
  0
LINE
  5
E1D
330
A02
100
AcDbEntity
  8
ShapeString003
100
AcDbLine
 10
83.718903286
 20
130.380000000
 30
0.000000000
 11
83.044883678
 21
130.380000000
 31
0.000000000
  0
LINE
  5
E1E
330
A02
100
AcDbEntity
  8
ShapeString003
100
AcDbLine
 10
83.044883678
 20
130.380000000
 30
0.000000000
 11
83.044883678
 21
134.219869281
 31
0.000000000
  0
LINE
  5
E1F
330
A02
100
AcDbEntity
  8
ShapeString003
100
AcDbLine
 10
87.358609169
 20
134.219869281
 30
0.000000000
 11
87.967524610
 21
134.219869281
 31
0.000000000
  0
LINE
  5
E20
330
A02
100
AcDbEntity
  8
ShapeString003
100
AcDbLine
 10
87.967524610
 20
134.219869281
 30
0.000000000
 11
87.986672894
 21
133.509595588
 31
0.000000000
  0
LWPOLYLINE
  5
E21
330
A02
100
AcDbEntity
100
AcDbPolyline
  8
ShapeString003
 90
2
 70
0
 43
0
 10
87.986672894
 20
133.509595588
 10
88.658650018
 20
134.114170752
  0
LWPOLYLINE
  5
E22
330
A02
100
AcDbEntity
100
AcDbPolyline
  8
ShapeString003
 90
2
 70
0
 43
0
 10
88.658650018
 20
134.114170752
 10
89.327052796
 20
134.301568627
  0
LWPOLYLINE
  5
E23
330
A02
100
AcDbEntity
100
AcDbPolyline
  8
ShapeString003
 90
2
 70
0
 43
0
 10
89.327052796
 20
134.301568627
 10
90.232638989
 20
133.910433007
  0
LWPOLYLINE
  5
E24
330
A02
100
AcDbEntity
100
AcDbPolyline
  8
ShapeString003
 90
2
 70
0
 43
0
 10
90.232638989
 20
133.910433007
 10
90.518076080
 20
132.749281046
  0
LINE
  5
E25
330
A02
100
AcDbEntity
  8
ShapeString003
100
AcDbLine
 10
90.518076080
 20
132.749281046
 30
0.000000000
 11
89.844056473
 21
132.749281046
 31
0.000000000
  0
LWPOLYLINE
  5
E26
330
A02
100
AcDbEntity
100
AcDbPolyline
  8
ShapeString003
 90
2
 70
0
 43
0
 10
89.844056473
 20
132.749281046
 10
89.696487028
 20
133.494021650
  0
LWPOLYLINE
  5
E27
330
A02
100
AcDbEntity
100
AcDbPolyline
  8
ShapeString003
 90
2
 70
0
 43
0
 10
89.696487028
 20
133.494021650
 10
89.231311375
 20
133.725588235
  0
LWPOLYLINE
  5
E28
330
A02
100
AcDbEntity
100
AcDbPolyline
  8
ShapeString003
 90
2
 70
0
 43
0
 10
89.231311375
 20
133.725588235
 10
88.961192910
 20
133.676823938
  0
LWPOLYLINE
  5
E29
330
A02
100
AcDbEntity
100
AcDbPolyline
  8
ShapeString003
 90
2
 70
0
 43
0
 10
88.961192910
 20
133.676823938
 10
88.681627959
 20
133.521084559
  0
LWPOLYLINE
  5
E2A
330
A02
100
AcDbEntity
100
AcDbPolyline
  8
ShapeString003
 90
2
 70
0
 43
0
 10
88.681627959
 20
133.521084559
 10
88.377297894
 20
133.246625817
  0
LWPOLYLINE
  5
E2B
330
A02
100
AcDbEntity
100
AcDbPolyline
  8
ShapeString003
 90
2
 70
0
 43
0
 10
88.377297894
 20
133.246625817
 10
88.032628776
 20
132.841448121
  0
LINE
  5
E2C
330
A02
100
AcDbEntity
  8
ShapeString003
100
AcDbLine
 10
88.032628776
 20
132.841448121
 30
0.000000000
 11
88.032628776
 21
130.380000000
 31
0.000000000
  0
LINE
  5
E2D
330
A02
100
AcDbEntity
  8
ShapeString003
100
AcDbLine
 10
88.032628776
 20
130.380000000
 30
0.000000000
 11
87.358609169
 21
130.380000000
 31
0.000000000
  0
LINE
  5
E2E
330
A02
100
AcDbEntity
  8
ShapeString003
100
AcDbLine
 10
87.358609169
 20
130.380000000
 30
0.000000000
 11
87.358609169
 21
134.219869281
 31
0.000000000
  0
LWPOLYLINE
  5
E2F
330
A02
100
AcDbEntity
100
AcDbPolyline
  8
ShapeString003
 90
2
 70
0
 43
0
 10
94.762867747
 20
132.513118873
 10
94.759038090
 20
132.275680147
  0
LWPOLYLINE
  5
E30
330
A02
100
AcDbEntity
100
AcDbPolyline
  8
ShapeString003
 90
2
 70
0
 43
0
 10
94.759038090
 20
132.275680147
 10
94.747549120
 20
132.095686275
  0
LINE
  5
E31
330
A02
100
AcDbEntity
  8
ShapeString003
100
AcDbLine
 10
94.747549120
 20
132.095686275
 30
0.000000000
 11
92.047641031
 21
132.095686275
 31
0.000000000
  0
LWPOLYLINE
  5
E32
330
A02
100
AcDbEntity
100
AcDbPolyline
  8
ShapeString003
 90
2
 70
0
 43
0
 10
92.047641031
 20
132.095686275
 10
92.376991522
 20
131.187036356
  0
LWPOLYLINE
  5
E33
330
A02
100
AcDbEntity
100
AcDbPolyline
  8
ShapeString003
 90
2
 70
0
 43
0
 10
92.376991522
 20
131.187036356
 10
93.326746424
 20
130.870196078
  0
LWPOLYLINE
  5
E34
330
A02
100
AcDbEntity
100
AcDbPolyline
  8
ShapeString003
 90
2
 70
0
 43
0
 10
93.326746424
 20
130.870196078
 10
93.663756227
 20
130.883472222
  0
LWPOLYLINE
  5
E35
330
A02
100
AcDbEntity
100
AcDbPolyline
  8
ShapeString003
 90
2
 70
0
 43
0
 10
93.663756227
 20
130.883472222
 10
93.989277061
 20
130.919470997
  0
LWPOLYLINE
  5
E36
330
A02
100
AcDbEntity
100
AcDbPolyline
  8
ShapeString003
 90
2
 70
0
 43
0
 10
93.989277061
 20
130.919470997
 10
94.289777469
 20
130.970788399
  0
LWPOLYLINE
  5
E37
330
A02
100
AcDbEntity
100
AcDbPolyline
  8
ShapeString003
 90
2
 70
0
 43
0
 10
94.289777469
 20
130.970788399
 10
94.556066276
 20
131.033594771
  0
LINE
  5
E38
330
A02
100
AcDbEntity
  8
ShapeString003
100
AcDbLine
 10
94.556066276
 20
131.033594771
 30
0.000000000
 11
94.556066276
 21
130.486209150
 31
0.000000000
  0
LWPOLYLINE
  5
E39
330
A02
100
AcDbEntity
100
AcDbPolyline
  8
ShapeString003
 90
2
 70
0
 43
0
 10
94.556066276
 20
130.486209150
 10
93.941278695
 20
130.362383578
  0
LWPOLYLINE
  5
E3A
330
A02
100
AcDbEntity
100
AcDbPolyline
  8
ShapeString003
 90
2
 70
0
 43
0
 10
93.941278695
 20
130.362383578
 10
93.231005002
 20
130.314640523
  0
LWPOLYLINE
  5
E3B
330
A02
100
AcDbEntity
100
AcDbPolyline
  8
ShapeString003
 90
2
 70
0
 43
0
 10
93.231005002
 20
130.314640523
 10
92.380821178
 20
130.448678513
  0
LWPOLYLINE
  5
E3C
330
A02
100
AcDbEntity
100
AcDbPolyline
  8
ShapeString003
 90
2
 70
0
 43
0
 10
92.380821178
 20
130.448678513
 10
91.796670852
 20
130.837771650
  0
LWPOLYLINE
  5
E3D
330
A02
100
AcDbEntity
100
AcDbPolyline
  8
ShapeString003
 90
2
 70
0
 43
0
 10
91.796670852
 20
130.837771650
 10
91.459661048
 20
131.462771650
  0
LWPOLYLINE
  5
E3E
330
A02
100
AcDbEntity
100
AcDbPolyline
  8
ShapeString003
 90
2
 70
0
 43
0
 10
91.459661048
 20
131.462771650
 10
91.350643482
 20
132.300445261
  0
LWPOLYLINE
  5
E3F
330
A02
100
AcDbEntity
100
AcDbPolyline
  8
ShapeString003
 90
2
 70
0
 43
0
 10
91.350643482
 20
132.300445261
 10
91.467320361
 20
133.069185049
  0
LWPOLYLINE
  5
E40
330
A02
100
AcDbEntity
100
AcDbPolyline
  8
ShapeString003
 90
2
 70
0
 43
0
 10
91.467320361
 20
133.069185049
 10
91.808159822
 20
133.705418709
  0
LWPOLYLINE
  5
E41
330
A02
100
AcDbEntity
100
AcDbPolyline
  8
ShapeString003
 90
2
 70
0
 43
0
 10
91.808159822
 20
133.705418709
 10
92.357843237
 20
134.140467729
  0
LWPOLYLINE
  5
E42
330
A02
100
AcDbEntity
100
AcDbPolyline
  8
ShapeString003
 90
2
 70
0
 43
0
 10
92.357843237
 20
134.140467729
 10
93.096967012
 20
134.301568627
  0
LWPOLYLINE
  5
E43
330
A02
100
AcDbEntity
100
AcDbPolyline
  8
ShapeString003
 90
2
 70
0
 43
0
 10
93.096967012
 20
134.301568627
 10
93.809283188
 20
134.175189951
  0
LWPOLYLINE
  5
E44
330
A02
100
AcDbEntity
100
AcDbPolyline
  8
ShapeString003
 90
2
 70
0
 43
0
 10
93.809283188
 20
134.175189951
 10
94.331903695
 20
133.816989379
  0
LWPOLYLINE
  5
E45
330
A02
100
AcDbEntity
100
AcDbPolyline
  8
ShapeString003
 90
2
 70
0
 43
0
 10
94.331903695
 20
133.816989379
 10
94.653594871
 20
133.254029820
  0
LWPOLYLINE
  5
E46
330
A02
100
AcDbEntity
100
AcDbPolyline
  8
ShapeString003
 90
2
 70
0
 43
0
 10
94.653594871
 20
133.254029820
 10
94.762867747
 20
132.513118873
  0
LWPOLYLINE
  5
E47
330
A02
100
AcDbEntity
100
AcDbPolyline
  8
ShapeString003
 90
2
 70
0
 43
0
 10
94.069699855
 20
132.610392157
 10
94.019914316
 20
133.079397467
  0
LWPOLYLINE
  5
E48
330
A02
100
AcDbEntity
100
AcDbPolyline
  8
ShapeString003
 90
2
 70
0
 43
0
 10
94.019914316
 20
133.079397467
 10
93.830218646
 20
133.445002042
  0
LWPOLYLINE
  5
E49
330
A02
100
AcDbEntity
100
AcDbPolyline
  8
ShapeString003
 90
2
 70
0
 43
0
 10
93.830218646
 20
133.445002042
 10
93.510569953
 20
133.684227941
  0
LWPOLYLINE
  5
E4A
330
A02
100
AcDbEntity
100
AcDbPolyline
  8
ShapeString003
 90
2
 70
0
 43
0
 10
93.510569953
 20
133.684227941
 10
93.066329757
 20
133.770522876
  0
LWPOLYLINE
  5
E4B
330
A02
100
AcDbEntity
100
AcDbPolyline
  8
ShapeString003
 90
2
 70
0
 43
0
 10
93.066329757
 20
133.770522876
 10
92.668045443
 20
133.686270425
  0
LWPOLYLINE
  5
E4C
330
A02
100
AcDbEntity
100
AcDbPolyline
  8
ShapeString003
 90
2
 70
0
 43
0
 10
92.668045443
 20
133.686270425
 10
92.357843237
 20
133.448831699
  0
LWPOLYLINE
  5
E4D
330
A02
100
AcDbEntity
100
AcDbPolyline
  8
ShapeString003
 90
2
 70
0
 43
0
 10
92.357843237
 20
133.448831699
 10
92.147212110
 20
133.081184641
  0
LWPOLYLINE
  5
E4E
330
A02
100
AcDbEntity
100
AcDbPolyline
  8
ShapeString003
 90
2
 70
0
 43
0
 10
92.147212110
 20
133.081184641
 10
92.047641031
 20
132.610392157
  0
LINE
  5
E4F
330
A02
100
AcDbEntity
  8
ShapeString003
100
AcDbLine
 10
92.047641031
 20
132.610392157
 30
0.000000000
 11
94.069699855
 21
132.610392157
 31
0.000000000
  0
LINE
  5
E50
330
A02
100
AcDbEntity
  8
ShapeString003
100
AcDbLine
 10
95.829044218
 20
134.219869281
 30
0.000000000
 11
96.422641031
 21
134.219869281
 31
0.000000000
  0
LINE
  5
E51
330
A02
100
AcDbEntity
  8
ShapeString003
100
AcDbLine
 10
96.422641031
 20
134.219869281
 30
0.000000000
 11
96.449448629
 21
133.600230801
 31
0.000000000
  0
LWPOLYLINE
  5
E52
330
A02
100
AcDbEntity
100
AcDbPolyline
  8
ShapeString003
 90
2
 70
0
 43
0
 10
96.449448629
 20
133.600230801
 10
96.774969463
 20
133.937240605
  0
LWPOLYLINE
  5
E53
330
A02
100
AcDbEntity
100
AcDbPolyline
  8
ShapeString003
 90
2
 70
0
 43
0
 10
96.774969463
 20
133.937240605
 10
97.083129185
 20
134.153488562
  0
LWPOLYLINE
  5
E54
330
A02
100
AcDbEntity
100
AcDbPolyline
  8
ShapeString003
 90
2
 70
0
 43
0
 10
97.083129185
 20
134.153488562
 10
97.391544218
 20
134.268378268
  0
LWPOLYLINE
  5
E55
330
A02
100
AcDbEntity
100
AcDbPolyline
  8
ShapeString003
 90
2
 70
0
 43
0
 10
97.391544218
 20
134.268378268
 10
97.717065051
 20
134.301568627
  0
LWPOLYLINE
  5
E56
330
A02
100
AcDbEntity
100
AcDbPolyline
  8
ShapeString003
 90
2
 70
0
 43
0
 10
97.717065051
 20
134.301568627
 10
98.614991930
 20
133.950516748
  0
LWPOLYLINE
  5
E57
330
A02
100
AcDbEntity
100
AcDbPolyline
  8
ShapeString003
 90
2
 70
0
 43
0
 10
98.614991930
 20
133.950516748
 10
98.919577306
 20
132.893276144
  0
LINE
  5
E58
330
A02
100
AcDbEntity
  8
ShapeString003
100
AcDbLine
 10
98.919577306
 20
132.893276144
 30
0.000000000
 11
98.919577306
 21
130.380000000
 31
0.000000000
  0
LINE
  5
E59
330
A02
100
AcDbEntity
  8
ShapeString003
100
AcDbLine
 10
98.919577306
 20
130.380000000
 30
0.000000000
 11
98.253217012
 21
130.380000000
 31
0.000000000
  0
LINE
  5
E5A
330
A02
100
AcDbEntity
  8
ShapeString003
100
AcDbLine
 10
98.253217012
 20
130.380000000
 30
0.000000000
 11
98.253217012
 21
132.839405637
 31
0.000000000
  0
LWPOLYLINE
  5
E5B
330
A02
100
AcDbEntity
100
AcDbPolyline
  8
ShapeString003
 90
2
 70
0
 43
0
 10
98.253217012
 20
132.839405637
 10
98.084712110
 20
133.508829657
  0
LWPOLYLINE
  5
E5C
330
A02
100
AcDbEntity
100
AcDbPolyline
  8
ShapeString003
 90
2
 70
0
 43
0
 10
98.084712110
 20
133.508829657
 10
97.583027061
 20
133.725588235
  0
LWPOLYLINE
  5
E5D
330
A02
100
AcDbEntity
100
AcDbPolyline
  8
ShapeString003
 90
2
 70
0
 43
0
 10
97.583027061
 20
133.725588235
 10
97.343545852
 20
133.689078840
  0
LWPOLYLINE
  5
E5E
330
A02
100
AcDbEntity
100
AcDbPolyline
  8
ShapeString003
 90
2
 70
0
 43
0
 10
97.343545852
 20
133.689078840
 10
97.100490296
 20
133.562444853
  0
LWPOLYLINE
  5
E5F
330
A02
100
AcDbEntity
100
AcDbPolyline
  8
ShapeString003
 90
2
 70
0
 43
0
 10
97.100490296
 20
133.562444853
 10
96.826542175
 20
133.318878676
  0
LWPOLYLINE
  5
E60
330
A02
100
AcDbEntity
100
AcDbPolyline
  8
ShapeString003
 90
2
 70
0
 43
0
 10
96.826542175
 20
133.318878676
 10
96.495404512
 20
132.935147059
  0
LINE
  5
E61
330
A02
100
AcDbEntity
  8
ShapeString003
100
AcDbLine
 10
96.495404512
 20
132.935147059
 30
0.000000000
 11
96.495404512
 21
130.380000000
 31
0.000000000
  0
LINE
  5
E62
330
A02
100
AcDbEntity
  8
ShapeString003
100
AcDbLine
 10
96.495404512
 20
130.380000000
 30
0.000000000
 11
95.829044218
 21
130.380000000
 31
0.000000000
  0
LINE
  5
E63
330
A02
100
AcDbEntity
  8
ShapeString003
100
AcDbLine
 10
95.829044218
 20
130.380000000
 30
0.000000000
 11
95.829044218
 21
134.219869281
 31
0.000000000
  0
LWPOLYLINE
  5
E64
330
A02
100
AcDbEntity
100
AcDbPolyline
  8
ShapeString003
 90
2
 70
0
 43
0
 10
103.240962110
 20
130.433104575
 10
102.773743973
 20
130.354724265
  0
LWPOLYLINE
  5
E65
330
A02
100
AcDbEntity
100
AcDbPolyline
  8
ShapeString003
 90
2
 70
0
 43
0
 10
102.773743973
 20
130.354724265
 10
102.283547894
 20
130.330980392
  0
LWPOLYLINE
  5
E66
330
A02
100
AcDbEntity
100
AcDbPolyline
  8
ShapeString003
 90
2
 70
0
 43
0
 10
102.283547894
 20
130.330980392
 10
101.203584659
 20
130.657267157
  0
LWPOLYLINE
  5
E67
330
A02
100
AcDbEntity
100
AcDbPolyline
  8
ShapeString003
 90
2
 70
0
 43
0
 10
101.203584659
 20
130.657267157
 10
100.847426571
 20
131.659616013
  0
LINE
  5
E68
330
A02
100
AcDbEntity
  8
ShapeString003
100
AcDbLine
 10
100.847426571
 20
131.659616013
 30
0.000000000
 11
100.847426571
 21
133.660228758
 31
0.000000000
  0
LINE
  5
E69
330
A02
100
AcDbEntity
  8
ShapeString003
100
AcDbLine
 10
100.847426571
 20
133.660228758
 30
0.000000000
 11
99.771292992
 21
133.660228758
 31
0.000000000
  0
LINE
  5
E6A
330
A02
100
AcDbEntity
  8
ShapeString003
100
AcDbLine
 10
99.771292992
 20
133.660228758
 30
0.000000000
 11
99.771292992
 21
134.219869281
 31
0.000000000
  0
LINE
  5
E6B
330
A02
100
AcDbEntity
  8
ShapeString003
100
AcDbLine
 10
99.771292992
 20
134.219869281
 30
0.000000000
 11
100.847426571
 21
134.219869281
 31
0.000000000
  0
LINE
  5
E6C
330
A02
100
AcDbEntity
  8
ShapeString003
100
AcDbLine
 10
100.847426571
 20
134.219869281
 30
0.000000000
 11
100.847426571
 21
135.273535539
 31
0.000000000
  0
LINE
  5
E6D
330
A02
100
AcDbEntity
  8
ShapeString003
100
AcDbLine
 10
100.847426571
 20
135.273535539
 30
0.000000000
 11
101.513786865
 21
135.445359477
 31
0.000000000
  0
LINE
  5
E6E
330
A02
100
AcDbEntity
  8
ShapeString003
100
AcDbLine
 10
101.513786865
 20
135.445359477
 30
0.000000000
 11
101.513786865
 21
134.219869281
 31
0.000000000
  0
LINE
  5
E6F
330
A02
100
AcDbEntity
  8
ShapeString003
100
AcDbLine
 10
101.513786865
 20
134.219869281
 30
0.000000000
 11
103.240962110
 21
134.219869281
 31
0.000000000
  0
LINE
  5
E70
330
A02
100
AcDbEntity
  8
ShapeString003
100
AcDbLine
 10
103.240962110
 20
134.219869281
 30
0.000000000
 11
103.240962110
 21
133.660228758
 31
0.000000000
  0
LINE
  5
E71
330
A02
100
AcDbEntity
  8
ShapeString003
100
AcDbLine
 10
103.240962110
 20
133.660228758
 30
0.000000000
 11
101.513786865
 21
133.660228758
 31
0.000000000
  0
LINE
  5
E72
330
A02
100
AcDbEntity
  8
ShapeString003
100
AcDbLine
 10
101.513786865
 20
133.660228758
 30
0.000000000
 11
101.513786865
 21
131.714763072
 31
0.000000000
  0
LWPOLYLINE
  5
E73
330
A02
100
AcDbEntity
100
AcDbPolyline
  8
ShapeString003
 90
2
 70
0
 43
0
 10
101.513786865
 20
131.714763072
 10
101.733864479
 20
131.098698938
  0
LWPOLYLINE
  5
E74
330
A02
100
AcDbEntity
100
AcDbPolyline
  8
ShapeString003
 90
2
 70
0
 43
0
 10
101.733864479
 20
131.098698938
 10
102.383118973
 20
130.894705882
  0
LWPOLYLINE
  5
E75
330
A02
100
AcDbEntity
100
AcDbPolyline
  8
ShapeString003
 90
2
 70
0
 43
0
 10
102.383118973
 20
130.894705882
 10
102.785232943
 20
130.922279412
  0
LWPOLYLINE
  5
E76
330
A02
100
AcDbEntity
100
AcDbPolyline
  8
ShapeString003
 90
2
 70
0
 43
0
 10
102.785232943
 20
130.922279412
 10
103.240962110
 20
131.009084967
  0
LINE
  5
E77
330
A02
100
AcDbEntity
  8
ShapeString003
100
AcDbLine
 10
103.240962110
 20
131.009084967
 30
0.000000000
 11
103.240962110
 21
130.433104575
 31
0.000000000
  0
LINE
  5
E78
330
A02
100
AcDbEntity
  8
ShapeString003
100
AcDbLine
 10
112.431372649
 20
130.380000000
 30
0.000000000
 11
111.688419218
 21
130.380000000
 31
0.000000000
  0
LINE
  5
E79
330
A02
100
AcDbEntity
  8
ShapeString003
100
AcDbLine
 10
111.688419218
 20
130.380000000
 30
0.000000000
 11
111.339920443
 21
131.474771242
 31
0.000000000
  0
LINE
  5
E7A
330
A02
100
AcDbEntity
  8
ShapeString003
100
AcDbLine
 10
111.339920443
 20
131.474771242
 30
0.000000000
 11
109.256587110
 21
131.474771242
 31
0.000000000
  0
LINE
  5
E7B
330
A02
100
AcDbEntity
  8
ShapeString003
100
AcDbLine
 10
109.256587110
 20
131.474771242
 30
0.000000000
 11
108.904258678
 21
130.380000000
 31
0.000000000
  0
LINE
  5
E7C
330
A02
100
AcDbEntity
  8
ShapeString003
100
AcDbLine
 10
108.904258678
 20
130.380000000
 30
0.000000000
 11
108.195772159
 21
130.380000000
 31
0.000000000
  0
LINE
  5
E7D
330
A02
100
AcDbEntity
  8
ShapeString003
100
AcDbLine
 10
108.195772159
 20
130.380000000
 30
0.000000000
 11
109.857843237
 21
135.380000000
 31
0.000000000
  0
LINE
  5
E7E
330
A02
100
AcDbEntity
  8
ShapeString003
100
AcDbLine
 10
109.857843237
 20
135.380000000
 30
0.000000000
 11
110.792279512
 21
135.380000000
 31
0.000000000
  0
LINE
  5
E7F
330
A02
100
AcDbEntity
  8
ShapeString003
100
AcDbLine
 10
110.792279512
 20
135.380000000
 30
0.000000000
 11
112.431372649
 21
130.380000000
 31
0.000000000
  0
LINE
  5
E80
330
A02
100
AcDbEntity
  8
ShapeString003
100
AcDbLine
 10
111.144607943
 20
132.083431373
 30
0.000000000
 11
110.298253776
 21
134.753212827
 31
0.000000000
  0
LINE
  5
E81
330
A02
100
AcDbEntity
  8
ShapeString003
100
AcDbLine
 10
110.298253776
 20
134.753212827
 30
0.000000000
 11
109.451899610
 21
132.083431373
 31
0.000000000
  0
LINE
  5
E82
330
A02
100
AcDbEntity
  8
ShapeString003
100
AcDbLine
 10
109.451899610
 20
132.083431373
 30
0.000000000
 11
111.144607943
 21
132.083431373
 31
0.000000000
  0
LWPOLYLINE
  5
E83
330
A02
100
AcDbEntity
100
AcDbPolyline
  8
ShapeString003
 90
2
 70
0
 43
0
 10
112.888633678
 20
132.222830882
 10
113.022671669
 20
133.092928922
  0
LWPOLYLINE
  5
E84
330
A02
100
AcDbEntity
100
AcDbPolyline
  8
ShapeString003
 90
2
 70
0
 43
0
 10
113.022671669
 20
133.092928922
 10
113.403594871
 20
133.735290033
  0
LWPOLYLINE
  5
E85
330
A02
100
AcDbEntity
100
AcDbPolyline
  8
ShapeString003
 90
2
 70
0
 43
0
 10
113.403594871
 20
133.735290033
 10
113.997191685
 20
134.133063725
  0
LWPOLYLINE
  5
E86
330
A02
100
AcDbEntity
100
AcDbPolyline
  8
ShapeString003
 90
2
 70
0
 43
0
 10
113.997191685
 20
134.133063725
 10
114.768995198
 20
134.268888889
  0
LWPOLYLINE
  5
E87
330
A02
100
AcDbEntity
100
AcDbPolyline
  8
ShapeString003
 90
2
 70
0
 43
0
 10
114.768995198
 20
134.268888889
 10
115.130770116
 20
134.245910948
  0
LWPOLYLINE
  5
E88
330
A02
100
AcDbEntity
100
AcDbPolyline
  8
ShapeString003
 90
2
 70
0
 43
0
 10
115.130770116
 20
134.245910948
 10
115.481311375
 20
134.173402778
  0
LINE
  5
E89
330
A02
100
AcDbEntity
  8
ShapeString003
100
AcDbLine
 10
115.481311375
 20
134.173402778
 30
0.000000000
 11
115.481311375
 21
135.788496732
 31
0.000000000
  0
LINE
  5
E8A
330
A02
100
AcDbEntity
  8
ShapeString003
100
AcDbLine
 10
115.481311375
 20
135.788496732
 30
0.000000000
 11
116.151501325
 21
135.788496732
 31
0.000000000
  0
LINE
  5
E8B
330
A02
100
AcDbEntity
  8
ShapeString003
100
AcDbLine
 10
116.151501325
 20
135.788496732
 30
0.000000000
 11
116.151501325
 21
130.380000000
 31
0.000000000
  0
LINE
  5
E8C
330
A02
100
AcDbEntity
  8
ShapeString003
100
AcDbLine
 10
116.151501325
 20
130.380000000
 30
0.000000000
 11
115.554074855
 21
130.380000000
 31
0.000000000
  0
LINE
  5
E8D
330
A02
100
AcDbEntity
  8
ShapeString003
100
AcDbLine
 10
115.554074855
 20
130.380000000
 30
0.000000000
 11
115.531096914
 21
131.110187908
 31
0.000000000
  0
LWPOLYLINE
  5
E8E
330
A02
100
AcDbEntity
100
AcDbPolyline
  8
ShapeString003
 90
2
 70
0
 43
0
 10
115.531096914
 20
131.110187908
 10
114.926011129
 20
130.509697712
  0
LWPOLYLINE
  5
E8F
330
A02
100
AcDbEntity
100
AcDbPolyline
  8
ShapeString003
 90
2
 70
0
 43
0
 10
114.926011129
 20
130.509697712
 10
114.221354267
 20
130.314640523
  0
LWPOLYLINE
  5
E90
330
A02
100
AcDbEntity
100
AcDbPolyline
  8
ShapeString003
 90
2
 70
0
 43
0
 10
114.221354267
 20
130.314640523
 10
113.641033597
 20
130.452252859
  0
LWPOLYLINE
  5
E91
330
A02
100
AcDbEntity
100
AcDbPolyline
  8
ShapeString003
 90
2
 70
0
 43
0
 10
113.641033597
 20
130.452252859
 10
113.223600999
 20
130.840324755
  0
LWPOLYLINE
  5
E92
330
A02
100
AcDbEntity
100
AcDbPolyline
  8
ShapeString003
 90
2
 70
0
 43
0
 10
113.223600999
 20
130.840324755
 10
112.972886129
 20
131.442857435
  0
LWPOLYLINE
  5
E93
330
A02
100
AcDbEntity
100
AcDbPolyline
  8
ShapeString003
 90
2
 70
0
 43
0
 10
112.972886129
 20
131.442857435
 10
112.888633678
 20
132.222830882
  0
LWPOLYLINE
  5
E94
330
A02
100
AcDbEntity
100
AcDbPolyline
  8
ShapeString003
 90
2
 70
0
 43
0
 10
113.570312600
 20
132.265723039
 10
113.775071587
 20
131.228396650
  0
LWPOLYLINE
  5
E95
330
A02
100
AcDbEntity
100
AcDbPolyline
  8
ShapeString003
 90
2
 70
0
 43
0
 10
113.775071587
 20
131.228396650
 10
114.355392257
 20
130.886535948
  0
LWPOLYLINE
  5
E96
330
A02
100
AcDbEntity
100
AcDbPolyline
  8
ShapeString003
 90
2
 70
0
 43
0
 10
114.355392257
 20
130.886535948
 10
114.889501734
 20
131.111975082
  0
LWPOLYLINE
  5
E97
330
A02
100
AcDbEntity
100
AcDbPolyline
  8
ShapeString003
 90
2
 70
0
 43
0
 10
114.889501734
 20
131.111975082
 10
115.481311375
 20
131.780377859
  0
LINE
  5
E98
330
A02
100
AcDbEntity
  8
ShapeString003
100
AcDbLine
 10
115.481311375
 20
131.780377859
 30
0.000000000
 11
115.481311375
 21
133.560657680
 31
0.000000000
  0
LWPOLYLINE
  5
E99
330
A02
100
AcDbEntity
100
AcDbPolyline
  8
ShapeString003
 90
2
 70
0
 43
0
 10
115.481311375
 20
133.560657680
 10
115.117493973
 20
133.677334559
  0
LWPOLYLINE
  5
E9A
330
A02
100
AcDbEntity
100
AcDbPolyline
  8
ShapeString003
 90
2
 70
0
 43
0
 10
115.117493973
 20
133.677334559
 10
114.723039316
 20
133.717418301
  0
LWPOLYLINE
  5
E9B
330
A02
100
AcDbEntity
100
AcDbPolyline
  8
ShapeString003
 90
2
 70
0
 43
0
 10
114.723039316
 20
133.717418301
 10
113.874642665
 20
133.365855801
  0
LWPOLYLINE
  5
E9C
330
A02
100
AcDbEntity
100
AcDbPolyline
  8
ShapeString003
 90
2
 70
0
 43
0
 10
113.874642665
 20
133.365855801
 10
113.570312600
 20
132.265723039
  0
LINE
  5
E9D
330
A02
100
AcDbEntity
  8
ShapeString003
100
AcDbLine
 10
120.001838335
 20
134.219869281
 30
0.000000000
 11
120.001838335
 21
130.452252859
 31
0.000000000
  0
LWPOLYLINE
  5
E9E
330
A02
100
AcDbEntity
100
AcDbPolyline
  8
ShapeString003
 90
2
 70
0
 43
0
 10
120.001838335
 20
130.452252859
 10
119.886948629
 20
129.739681373
  0
LWPOLYLINE
  5
E9F
330
A02
100
AcDbEntity
100
AcDbPolyline
  8
ShapeString003
 90
2
 70
0
 43
0
 10
119.886948629
 20
129.739681373
 10
119.557598139
 20
129.214252451
  0
LWPOLYLINE
  5
EA0
330
A02
100
AcDbEntity
100
AcDbPolyline
  8
ShapeString003
 90
2
 70
0
 43
0
 10
119.557598139
 20
129.214252451
 10
119.030892665
 20
128.889497549
  0
LWPOLYLINE
  5
EA1
330
A02
100
AcDbEntity
100
AcDbPolyline
  8
ShapeString003
 90
2
 70
0
 43
0
 10
119.030892665
 20
128.889497549
 10
118.328278286
 20
128.778692810
  0
LWPOLYLINE
  5
EA2
330
A02
100
AcDbEntity
100
AcDbPolyline
  8
ShapeString003
 90
2
 70
0
 43
0
 10
118.328278286
 20
128.778692810
 10
117.774765214
 20
128.829499592
  0
LWPOLYLINE
  5
EA3
330
A02
100
AcDbEntity
100
AcDbPolyline
  8
ShapeString003
 90
2
 70
0
 43
0
 10
117.774765214
 20
128.829499592
 10
117.286611620
 20
128.970686275
  0
LINE
  5
EA4
330
A02
100
AcDbEntity
  8
ShapeString003
100
AcDbLine
 10
117.286611620
 20
128.970686275
 30
0.000000000
 11
117.286611620
 21
129.607941176
 31
0.000000000
  0
LWPOLYLINE
  5
EA5
330
A02
100
AcDbEntity
100
AcDbPolyline
  8
ShapeString003
 90
2
 70
0
 43
0
 10
117.286611620
 20
129.607941176
 10
117.541156146
 20
129.498157680
  0
LWPOLYLINE
  5
EA6
330
A02
100
AcDbEntity
100
AcDbPolyline
  8
ShapeString003
 90
2
 70
0
 43
0
 10
117.541156146
 20
129.498157680
 10
117.820721097
 20
129.414926471
  0
LWPOLYLINE
  5
EA7
330
A02
100
AcDbEntity
100
AcDbPolyline
  8
ShapeString003
 90
2
 70
0
 43
0
 10
117.820721097
 20
129.414926471
 10
118.109987845
 20
129.363609069
  0
LWPOLYLINE
  5
EA8
330
A02
100
AcDbEntity
100
AcDbPolyline
  8
ShapeString003
 90
2
 70
0
 43
0
 10
118.109987845
 20
129.363609069
 10
118.393382453
 20
129.346503268
  0
LWPOLYLINE
  5
EA9
330
A02
100
AcDbEntity
100
AcDbPolyline
  8
ShapeString003
 90
2
 70
0
 43
0
 10
118.393382453
 20
129.346503268
 10
119.078891031
 20
129.619430147
  0
LWPOLYLINE
  5
EAA
330
A02
100
AcDbEntity
100
AcDbPolyline
  8
ShapeString003
 90
2
 70
0
 43
0
 10
119.078891031
 20
129.619430147
 10
119.327818727
 20
130.427232435
  0
LINE
  5
EAB
330
A02
100
AcDbEntity
  8
ShapeString003
100
AcDbLine
 10
119.327818727
 20
130.427232435
 30
0.000000000
 11
119.327818727
 21
133.668398693
 31
0.000000000
  0
LINE
  5
EAC
330
A02
100
AcDbEntity
  8
ShapeString003
100
AcDbLine
 10
119.327818727
 20
133.668398693
 30
0.000000000
 11
117.443627551
 21
133.668398693
 31
0.000000000
  0
LINE
  5
EAD
330
A02
100
AcDbEntity
  8
ShapeString003
100
AcDbLine
 10
117.443627551
 20
133.668398693
 30
0.000000000
 11
117.443627551
 21
134.219869281
 31
0.000000000
  0
LINE
  5
EAE
330
A02
100
AcDbEntity
  8
ShapeString003
100
AcDbLine
 10
117.443627551
 20
134.219869281
 30
0.000000000
 11
120.001838335
 21
134.219869281
 31
0.000000000
  0
LWPOLYLINE
  5
EAF
330
A02
100
AcDbEntity
100
AcDbPolyline
  8
ShapeString003
 90
2
 70
0
 43
0
 10
119.599724365
 20
135.825261438
 10
119.806525835
 20
135.784922386
  0
LWPOLYLINE
  5
EB0
330
A02
100
AcDbEntity
100
AcDbPolyline
  8
ShapeString003
 90
2
 70
0
 43
0
 10
119.806525835
 20
135.784922386
 10
119.972988254
 20
135.672075163
  0
LWPOLYLINE
  5
EB1
330
A02
100
AcDbEntity
100
AcDbPolyline
  8
ShapeString003
 90
2
 70
0
 43
0
 10
119.972988254
 20
135.672075163
 10
120.084048303
 20
135.503314951
  0
LWPOLYLINE
  5
EB2
330
A02
100
AcDbEntity
100
AcDbPolyline
  8
ShapeString003
 90
2
 70
0
 43
0
 10
120.084048303
 20
135.503314951
 10
120.124387355
 20
135.300343137
  0
LWPOLYLINE
  5
EB3
330
A02
100
AcDbEntity
100
AcDbPolyline
  8
ShapeString003
 90
2
 70
0
 43
0
 10
120.124387355
 20
135.300343137
 10
120.084048303
 20
135.095328840
  0
LWPOLYLINE
  5
EB4
330
A02
100
AcDbEntity
100
AcDbPolyline
  8
ShapeString003
 90
2
 70
0
 43
0
 10
120.084048303
 20
135.095328840
 10
119.972988254
 20
134.928611111
  0
LWPOLYLINE
  5
EB5
330
A02
100
AcDbEntity
100
AcDbPolyline
  8
ShapeString003
 90
2
 70
0
 43
0
 10
119.972988254
 20
134.928611111
 10
119.806525835
 20
134.815508578
  0
LWPOLYLINE
  5
EB6
330
A02
100
AcDbEntity
100
AcDbPolyline
  8
ShapeString003
 90
2
 70
0
 43
0
 10
119.806525835
 20
134.815508578
 10
119.599724365
 20
134.775424837
  0
LWPOLYLINE
  5
EB7
330
A02
100
AcDbEntity
100
AcDbPolyline
  8
ShapeString003
 90
2
 70
0
 43
0
 10
119.599724365
 20
134.775424837
 10
119.392922894
 20
134.815508578
  0
LWPOLYLINE
  5
EB8
330
A02
100
AcDbEntity
100
AcDbPolyline
  8
ShapeString003
 90
2
 70
0
 43
0
 10
119.392922894
 20
134.815508578
 10
119.226205165
 20
134.928611111
  0
LWPOLYLINE
  5
EB9
330
A02
100
AcDbEntity
100
AcDbPolyline
  8
ShapeString003
 90
2
 70
0
 43
0
 10
119.226205165
 20
134.928611111
 10
119.115145116
 20
135.095328840
  0
LWPOLYLINE
  5
EBA
330
A02
100
AcDbEntity
100
AcDbPolyline
  8
ShapeString003
 90
2
 70
0
 43
0
 10
119.115145116
 20
135.095328840
 10
119.075061375
 20
135.300343137
  0
LWPOLYLINE
  5
EBB
330
A02
100
AcDbEntity
100
AcDbPolyline
  8
ShapeString003
 90
2
 70
0
 43
0
 10
119.075061375
 20
135.300343137
 10
119.115145116
 20
135.503314951
  0
LWPOLYLINE
  5
EBC
330
A02
100
AcDbEntity
100
AcDbPolyline
  8
ShapeString003
 90
2
 70
0
 43
0
 10
119.115145116
 20
135.503314951
 10
119.226205165
 20
135.672075163
  0
LWPOLYLINE
  5
EBD
330
A02
100
AcDbEntity
100
AcDbPolyline
  8
ShapeString003
 90
2
 70
0
 43
0
 10
119.226205165
 20
135.672075163
 10
119.392922894
 20
135.784922386
  0
LWPOLYLINE
  5
EBE
330
A02
100
AcDbEntity
100
AcDbPolyline
  8
ShapeString003
 90
2
 70
0
 43
0
 10
119.392922894
 20
135.784922386
 10
119.599724365
 20
135.825261438
  0
LINE
  5
EBF
330
A02
100
AcDbEntity
  8
ShapeString004
100
AcDbLine
 10
86.168811275
 20
58.677385621
 30
0.000000000
 11
84.663756127
 21
58.677385621
 31
0.000000000
  0
LINE
  5
EC0
330
A02
100
AcDbEntity
  8
ShapeString004
100
AcDbLine
 10
84.663756127
 20
58.677385621
 30
0.000000000
 11
84.663756127
 21
57.108758170
 31
0.000000000
  0
LINE
  5
EC1
330
A02
100
AcDbEntity
  8
ShapeString004
100
AcDbLine
 10
84.663756127
 20
57.108758170
 30
0.000000000
 11
84.005055147
 21
57.108758170
 31
0.000000000
  0
LINE
  5
EC2
330
A02
100
AcDbEntity
  8
ShapeString004
100
AcDbLine
 10
84.005055147
 20
57.108758170
 30
0.000000000
 11
84.005055147
 21
58.677385621
 31
0.000000000
  0
LINE
  5
EC3
330
A02
100
AcDbEntity
  8
ShapeString004
100
AcDbLine
 10
84.005055147
 20
58.677385621
 30
0.000000000
 11
82.500000000
 21
58.677385621
 31
0.000000000
  0
LINE
  5
EC4
330
A02
100
AcDbEntity
  8
ShapeString004
100
AcDbLine
 10
82.500000000
 20
58.677385621
 30
0.000000000
 11
82.500000000
 21
59.261535948
 31
0.000000000
  0
LINE
  5
EC5
330
A02
100
AcDbEntity
  8
ShapeString004
100
AcDbLine
 10
82.500000000
 20
59.261535948
 30
0.000000000
 11
84.005055147
 21
59.261535948
 31
0.000000000
  0
LINE
  5
EC6
330
A02
100
AcDbEntity
  8
ShapeString004
100
AcDbLine
 10
84.005055147
 20
59.261535948
 30
0.000000000
 11
84.005055147
 21
60.813823529
 31
0.000000000
  0
LINE
  5
EC7
330
A02
100
AcDbEntity
  8
ShapeString004
100
AcDbLine
 10
84.005055147
 20
60.813823529
 30
0.000000000
 11
84.663756127
 21
60.813823529
 31
0.000000000
  0
LINE
  5
EC8
330
A02
100
AcDbEntity
  8
ShapeString004
100
AcDbLine
 10
84.663756127
 20
60.813823529
 30
0.000000000
 11
84.663756127
 21
59.261535948
 31
0.000000000
  0
LINE
  5
EC9
330
A02
100
AcDbEntity
  8
ShapeString004
100
AcDbLine
 10
84.663756127
 20
59.261535948
 30
0.000000000
 11
86.168811275
 21
59.261535948
 31
0.000000000
  0
LINE
  5
ECA
330
A02
100
AcDbEntity
  8
ShapeString004
100
AcDbLine
 10
86.168811275
 20
59.261535948
 30
0.000000000
 11
86.168811275
 21
58.677385621
 31
0.000000000
  0
LWPOLYLINE
  5
ECB
330
A02
100
AcDbEntity
100
AcDbPolyline
  8
ShapeString004
 90
2
 70
0
 43
0
 10
94.838388480
 20
59.435402369
 10
94.782730801
 20
58.746830065
  0
LWPOLYLINE
  5
ECC
330
A02
100
AcDbEntity
100
AcDbPolyline
  8
ShapeString004
 90
2
 70
0
 43
0
 10
94.782730801
 20
58.746830065
 10
94.604779412
 20
58.134850899
  0
LWPOLYLINE
  5
ECD
330
A02
100
AcDbEntity
100
AcDbPolyline
  8
ShapeString004
 90
2
 70
0
 43
0
 10
94.604779412
 20
58.134850899
 10
94.286917892
 20
57.620145016
  0
LWPOLYLINE
  5
ECE
330
A02
100
AcDbEntity
100
AcDbPolyline
  8
ShapeString004
 90
2
 70
0
 43
0
 10
94.286917892
 20
57.620145016
 10
93.808210784
 20
57.224158497
  0
LWPOLYLINE
  5
ECF
330
A02
100
AcDbEntity
100
AcDbPolyline
  8
ShapeString004
 90
2
 70
0
 43
0
 10
93.808210784
 20
57.224158497
 10
93.149509804
 20
56.969869281
  0
LWPOLYLINE
  5
ED0
330
A02
100
AcDbEntity
100
AcDbPolyline
  8
ShapeString004
 90
2
 70
0
 43
0
 10
93.149509804
 20
56.969869281
 10
92.295496324
 20
56.880000000
  0
LINE
  5
ED1
330
A02
100
AcDbEntity
  8
ShapeString004
100
AcDbLine
 10
92.295496324
 20
56.880000000
 30
0.000000000
 11
91.223192402
 21
56.880000000
 31
0.000000000
  0
LINE
  5
ED2
330
A02
100
AcDbEntity
  8
ShapeString004
100
AcDbLine
 10
91.223192402
 20
56.880000000
 30
0.000000000
 11
91.223192402
 21
61.880000000
 31
0.000000000
  0
LINE
  5
ED3
330
A02
100
AcDbEntity
  8
ShapeString004
100
AcDbLine
 10
91.223192402
 20
61.880000000
 30
0.000000000
 11
92.513786765
 21
61.880000000
 31
0.000000000
  0
LWPOLYLINE
  5
ED4
330
A02
100
AcDbEntity
100
AcDbPolyline
  8
ShapeString004
 90
2
 70
0
 43
0
 10
92.513786765
 20
61.880000000
 10
94.261897467
 20
61.277467320
  0
LWPOLYLINE
  5
ED5
330
A02
100
AcDbEntity
100
AcDbPolyline
  8
ShapeString004
 90
2
 70
0
 43
0
 10
94.261897467
 20
61.277467320
 10
94.838388480
 20
59.435402369
  0
LWPOLYLINE
  5
ED6
330
A02
100
AcDbEntity
100
AcDbPolyline
  8
ShapeString004
 90
2
 70
0
 43
0
 10
94.122242647
 20
59.384340278
 10
94.022671569
 20
60.283033088
  0
LWPOLYLINE
  5
ED7
330
A02
100
AcDbEntity
100
AcDbPolyline
  8
ShapeString004
 90
2
 70
0
 43
0
 10
94.022671569
 20
60.283033088
 10
93.720128676
 20
60.875608660
  0
LWPOLYLINE
  5
ED8
330
A02
100
AcDbEntity
100
AcDbPolyline
  8
ShapeString004
 90
2
 70
0
 43
0
 10
93.720128676
 20
60.875608660
 10
93.210784314
 20
61.202661356
  0
LWPOLYLINE
  5
ED9
330
A02
100
AcDbEntity
100
AcDbPolyline
  8
ShapeString004
 90
2
 70
0
 43
0
 10
93.210784314
 20
61.202661356
 10
92.490808824
 20
61.304019608
  0
LINE
  5
EDA
330
A02
100
AcDbEntity
  8
ShapeString004
100
AcDbLine
 10
92.490808824
 20
61.304019608
 30
0.000000000
 11
91.904871324
 21
61.304019608
 31
0.000000000
  0
LINE
  5
EDB
330
A02
100
AcDbEntity
  8
ShapeString004
100
AcDbLine
 10
91.904871324
 20
61.304019608
 30
0.000000000
 11
91.904871324
 21
57.468235294
 31
0.000000000
  0
LINE
  5
EDC
330
A02
100
AcDbEntity
  8
ShapeString004
100
AcDbLine
 10
91.904871324
 20
57.468235294
 30
0.000000000
 11
92.414215686
 21
57.468235294
 31
0.000000000
  0
LWPOLYLINE
  5
EDD
330
A02
100
AcDbEntity
100
AcDbPolyline
  8
ShapeString004
 90
2
 70
0
 43
0
 10
92.414215686
 20
57.468235294
 10
94.122242647
 20
59.384340278
  0
LWPOLYLINE
  5
EDE
330
A02
100
AcDbEntity
100
AcDbPolyline
  8
ShapeString004
 90
2
 70
0
 43
0
 10
99.018075980
 20
58.623004493
 10
98.901143791
 20
57.875455474
  0
LWPOLYLINE
  5
EDF
330
A02
100
AcDbEntity
100
AcDbPolyline
  8
ShapeString004
 90
2
 70
0
 43
0
 10
98.901143791
 20
57.875455474
 10
98.558517157
 20
57.305857843
  0
LWPOLYLINE
  5
EE0
330
A02
100
AcDbEntity
100
AcDbPolyline
  8
ShapeString004
 90
2
 70
0
 43
0
 10
98.558517157
 20
57.305857843
 10
98.005004085
 20
56.942551062
  0
LWPOLYLINE
  5
EE1
330
A02
100
AcDbEntity
100
AcDbPolyline
  8
ShapeString004
 90
2
 70
0
 43
0
 10
98.005004085
 20
56.942551062
 10
97.252604167
 20
56.814640523
  0
LWPOLYLINE
  5
EE2
330
A02
100
AcDbEntity
100
AcDbPolyline
  8
ShapeString004
 90
2
 70
0
 43
0
 10
97.252604167
 20
56.814640523
 10
96.459865196
 20
56.936934232
  0
LWPOLYLINE
  5
EE3
330
A02
100
AcDbEntity
100
AcDbPolyline
  8
ShapeString004
 90
2
 70
0
 43
0
 10
96.459865196
 20
56.936934232
 10
95.929330065
 20
57.282879902
  0
LWPOLYLINE
  5
EE4
330
A02
100
AcDbEntity
100
AcDbPolyline
  8
ShapeString004
 90
2
 70
0
 43
0
 10
95.929330065
 20
57.282879902
 10
95.630616830
 20
57.820053105
  0
LWPOLYLINE
  5
EE5
330
A02
100
AcDbEntity
100
AcDbPolyline
  8
ShapeString004
 90
2
 70
0
 43
0
 10
95.630616830
 20
57.820053105
 10
95.536917892
 20
58.519603758
  0
LINE
  5
EE6
330
A02
100
AcDbEntity
  8
ShapeString004
100
AcDbLine
 10
95.536917892
 20
58.519603758
 30
0.000000000
 11
95.536917892
 21
61.880000000
 31
0.000000000
  0
LINE
  5
EE7
330
A02
100
AcDbEntity
  8
ShapeString004
100
AcDbLine
 10
95.536917892
 20
61.880000000
 30
0.000000000
 11
96.218596814
 21
61.880000000
 31
0.000000000
  0
LINE
  5
EE8
330
A02
100
AcDbEntity
  8
ShapeString004
100
AcDbLine
 10
96.218596814
 20
61.880000000
 30
0.000000000
 11
96.218596814
 21
58.574750817
 31
0.000000000
  0
LWPOLYLINE
  5
EE9
330
A02
100
AcDbEntity
100
AcDbPolyline
  8
ShapeString004
 90
2
 70
0
 43
0
 10
96.218596814
 20
58.574750817
 10
96.273999183
 20
58.059023693
  0
LWPOLYLINE
  5
EEA
330
A02
100
AcDbEntity
100
AcDbPolyline
  8
ShapeString004
 90
2
 70
0
 43
0
 10
96.273999183
 20
58.059023693
 10
96.456035539
 20
57.688312908
  0
LWPOLYLINE
  5
EEB
330
A02
100
AcDbEntity
100
AcDbPolyline
  8
ShapeString004
 90
2
 70
0
 43
0
 10
96.456035539
 20
57.688312908
 10
96.783343546
 20
57.462873775
  0
LWPOLYLINE
  5
EEC
330
A02
100
AcDbEntity
100
AcDbPolyline
  8
ShapeString004
 90
2
 70
0
 43
0
 10
96.783343546
 20
57.462873775
 10
97.275582108
 20
57.386535948
  0
LWPOLYLINE
  5
EED
330
A02
100
AcDbEntity
100
AcDbPolyline
  8
ShapeString004
 90
2
 70
0
 43
0
 10
97.275582108
 20
57.386535948
 10
98.077767565
 20
57.699801879
  0
LWPOLYLINE
  5
EEE
330
A02
100
AcDbEntity
100
AcDbPolyline
  8
ShapeString004
 90
2
 70
0
 43
0
 10
98.077767565
 20
57.699801879
 10
98.336397059
 20
58.582410131
  0
LINE
  5
EEF
330
A02
100
AcDbEntity
  8
ShapeString004
100
AcDbLine
 10
98.336397059
 20
58.582410131
 30
0.000000000
 11
98.336397059
 21
61.880000000
 31
0.000000000
  0
LINE
  5
EF0
330
A02
100
AcDbEntity
  8
ShapeString004
100
AcDbLine
 10
98.336397059
 20
61.880000000
 30
0.000000000
 11
99.018075980
 21
61.880000000
 31
0.000000000
  0
LINE
  5
EF1
330
A02
100
AcDbEntity
  8
ShapeString004
100
AcDbLine
 10
99.018075980
 20
61.880000000
 30
0.000000000
 11
99.018075980
 21
58.623004493
 31
0.000000000
  0
LINE
  5
EF2
330
A02
100
AcDbEntity
  8
ShapeString004
100
AcDbLine
 10
103.416053922
 20
61.295849673
 30
0.000000000
 11
101.933976716
 21
61.295849673
 31
0.000000000
  0
LINE
  5
EF3
330
A02
100
AcDbEntity
  8
ShapeString004
100
AcDbLine
 10
101.933976716
 20
61.295849673
 30
0.000000000
 11
101.933976716
 21
56.880000000
 31
0.000000000
  0
LINE
  5
EF4
330
A02
100
AcDbEntity
  8
ShapeString004
100
AcDbLine
 10
101.933976716
 20
56.880000000
 30
0.000000000
 11
101.244638480
 21
56.880000000
 31
0.000000000
  0
LINE
  5
EF5
330
A02
100
AcDbEntity
  8
ShapeString004
100
AcDbLine
 10
101.244638480
 20
56.880000000
 30
0.000000000
 11
101.244638480
 21
61.295849673
 31
0.000000000
  0
LINE
  5
EF6
330
A02
100
AcDbEntity
  8
ShapeString004
100
AcDbLine
 10
101.244638480
 20
61.295849673
 30
0.000000000
 11
99.762561275
 21
61.295849673
 31
0.000000000
  0
LINE
  5
EF7
330
A02
100
AcDbEntity
  8
ShapeString004
100
AcDbLine
 10
99.762561275
 20
61.295849673
 30
0.000000000
 11
99.762561275
 21
61.880000000
 31
0.000000000
  0
LINE
  5
EF8
330
A02
100
AcDbEntity
  8
ShapeString004
100
AcDbLine
 10
99.762561275
 20
61.880000000
 30
0.000000000
 11
103.416053922
 21
61.880000000
 31
0.000000000
  0
LINE
  5
EF9
330
A02
100
AcDbEntity
  8
ShapeString004
100
AcDbLine
 10
103.416053922
 20
61.880000000
 30
0.000000000
 11
103.416053922
 21
61.295849673
 31
0.000000000
  0
LINE
  5
EFA
330
A02
100
AcDbEntity
  8
ShapeString004
100
AcDbLine
 10
111.361825980
 20
58.661045752
 30
0.000000000
 11
109.071691176
 21
58.661045752
 31
0.000000000
  0
LINE
  5
EFB
330
A02
100
AcDbEntity
  8
ShapeString004
100
AcDbLine
 10
109.071691176
 20
58.661045752
 30
0.000000000
 11
109.071691176
 21
59.290130719
 31
0.000000000
  0
LINE
  5
EFC
330
A02
100
AcDbEntity
  8
ShapeString004
100
AcDbLine
 10
109.071691176
 20
59.290130719
 30
0.000000000
 11
111.361825980
 21
59.290130719
 31
0.000000000
  0
LINE
  5
EFD
330
A02
100
AcDbEntity
  8
ShapeString004
100
AcDbLine
 10
111.361825980
 20
59.290130719
 30
0.000000000
 11
111.361825980
 21
58.661045752
 31
0.000000000
  0
LWPOLYLINE
  5
EFE
330
A02
100
AcDbEntity
100
AcDbPolyline
  8
ShapeString006
 90
2
 70
0
 43
0
 10
14.285845588
 20
129.372034314
 10
14.145935458
 20
128.736566585
  0
LWPOLYLINE
  5
EFF
330
A02
100
AcDbEntity
100
AcDbPolyline
  8
ShapeString006
 90
2
 70
0
 43
0
 10
14.145935458
 20
128.736566585
 10
13.747651144
 20
128.269093137
  0
LWPOLYLINE
  5
F00
330
A02
100
AcDbEntity
100
AcDbPolyline
  8
ShapeString006
 90
2
 70
0
 43
0
 10
13.747651144
 20
128.269093137
 10
13.123417075
 20
127.979060458
  0
LWPOLYLINE
  5
F01
330
A02
100
AcDbEntity
100
AcDbPolyline
  8
ShapeString006
 90
2
 70
0
 43
0
 10
13.123417075
 20
127.979060458
 10
12.309742647
 20
127.880000000
  0
LINE
  5
F02
330
A02
100
AcDbEntity
  8
ShapeString006
100
AcDbLine
 10
12.309742647
 20
127.880000000
 30
0.000000000
 11
11.000000000
 21
127.880000000
 31
0.000000000
  0
LINE
  5
F03
330
A02
100
AcDbEntity
  8
ShapeString006
100
AcDbLine
 10
11.000000000
 20
127.880000000
 30
0.000000000
 11
11.000000000
 21
132.880000000
 31
0.000000000
  0
LINE
  5
F04
330
A02
100
AcDbEntity
  8
ShapeString006
100
AcDbLine
 10
11.000000000
 20
132.880000000
 30
0.000000000
 11
12.432291667
 21
132.880000000
 31
0.000000000
  0
LWPOLYLINE
  5
F05
330
A02
100
AcDbEntity
100
AcDbPolyline
  8
ShapeString006
 90
2
 70
0
 43
0
 10
12.432291667
 20
132.880000000
 10
14.105851716
 20
131.660126634
  0
LWPOLYLINE
  5
F06
330
A02
100
AcDbEntity
100
AcDbPolyline
  8
ShapeString006
 90
2
 70
0
 43
0
 10
14.105851716
 20
131.660126634
 10
13.912326389
 20
130.961852533
  0
LWPOLYLINE
  5
F07
330
A02
100
AcDbEntity
100
AcDbPolyline
  8
ShapeString006
 90
2
 70
0
 43
0
 10
13.912326389
 20
130.961852533
 10
13.282475490
 20
130.528335376
  0
LWPOLYLINE
  5
F08
330
A02
100
AcDbEntity
100
AcDbPolyline
  8
ShapeString006
 90
2
 70
0
 43
0
 10
13.282475490
 20
130.528335376
 10
13.667228350
 20
130.398637663
  0
LWPOLYLINE
  5
F09
330
A02
100
AcDbEntity
100
AcDbPolyline
  8
ShapeString006
 90
2
 70
0
 43
0
 10
13.667228350
 20
130.398637663
 10
13.987132353
 20
130.161964869
  0
LWPOLYLINE
  5
F0A
330
A02
100
AcDbEntity
100
AcDbPolyline
  8
ShapeString006
 90
2
 70
0
 43
0
 10
13.987132353
 20
130.161964869
 10
14.205422794
 20
129.818572304
  0
LWPOLYLINE
  5
F0B
330
A02
100
AcDbEntity
100
AcDbPolyline
  8
ShapeString006
 90
2
 70
0
 43
0
 10
14.205422794
 20
129.818572304
 10
14.285845588
 20
129.372034314
  0
LWPOLYLINE
  5
F0C
330
A02
100
AcDbEntity
100
AcDbPolyline
  8
ShapeString006
 90
2
 70
0
 43
0
 10
13.397365196
 20
131.567704248
 10
13.351409314
 20
131.857226307
  0
LWPOLYLINE
  5
F0D
330
A02
100
AcDbEntity
100
AcDbPolyline
  8
ShapeString006
 90
2
 70
0
 43
0
 10
13.351409314
 20
131.857226307
 10
13.190563725
 20
132.091090686
  0
LWPOLYLINE
  5
F0E
330
A02
100
AcDbEntity
100
AcDbPolyline
  8
ShapeString006
 90
2
 70
0
 43
0
 10
13.190563725
 20
132.091090686
 10
12.880361520
 20
132.246319444
  0
LWPOLYLINE
  5
F0F
330
A02
100
AcDbEntity
100
AcDbPolyline
  8
ShapeString006
 90
2
 70
0
 43
0
 10
12.880361520
 20
132.246319444
 10
12.386335784
 20
132.304019608
  0
LINE
  5
F10
330
A02
100
AcDbEntity
  8
ShapeString006
100
AcDbLine
 10
12.386335784
 20
132.304019608
 30
0.000000000
 11
11.681678922
 21
132.304019608
 31
0.000000000
  0
LINE
  5
F11
330
A02
100
AcDbEntity
  8
ShapeString006
100
AcDbLine
 10
11.681678922
 20
132.304019608
 30
0.000000000
 11
11.681678922
 21
130.735392157
 31
0.000000000
  0
LINE
  5
F12
330
A02
100
AcDbEntity
  8
ShapeString006
100
AcDbLine
 10
11.681678922
 20
130.735392157
 30
0.000000000
 11
12.363357843
 21
130.735392157
 31
0.000000000
  0
LWPOLYLINE
  5
F13
330
A02
100
AcDbEntity
100
AcDbPolyline
  8
ShapeString006
 90
2
 70
0
 43
0
 10
12.363357843
 20
130.735392157
 10
12.786407271
 20
130.785177696
  0
LWPOLYLINE
  5
F14
330
A02
100
AcDbEntity
100
AcDbPolyline
  8
ShapeString006
 90
2
 70
0
 43
0
 10
12.786407271
 20
130.785177696
 10
13.111928105
 20
130.938619281
  0
LWPOLYLINE
  5
F15
330
A02
100
AcDbEntity
100
AcDbPolyline
  8
ShapeString006
 90
2
 70
0
 43
0
 10
13.111928105
 20
130.938619281
 10
13.322559232
 20
131.197504085
  0
LWPOLYLINE
  5
F16
330
A02
100
AcDbEntity
100
AcDbPolyline
  8
ShapeString006
 90
2
 70
0
 43
0
 10
13.322559232
 20
131.197504085
 10
13.397365196
 20
131.567704248
  0
LWPOLYLINE
  5
F17
330
A02
100
AcDbEntity
100
AcDbPolyline
  8
ShapeString006
 90
2
 70
0
 43
0
 10
13.562040441
 20
129.349822304
 10
13.481617647
 20
129.692193627
  0
LWPOLYLINE
  5
F18
330
A02
100
AcDbEntity
100
AcDbPolyline
  8
ShapeString006
 90
2
 70
0
 43
0
 10
13.481617647
 20
129.692193627
 10
13.248008578
 20
129.948780637
  0
LWPOLYLINE
  5
F19
330
A02
100
AcDbEntity
100
AcDbPolyline
  8
ShapeString006
 90
2
 70
0
 43
0
 10
13.248008578
 20
129.948780637
 10
12.874489379
 20
130.110392157
  0
LWPOLYLINE
  5
F1A
330
A02
100
AcDbEntity
100
AcDbPolyline
  8
ShapeString006
 90
2
 70
0
 43
0
 10
12.874489379
 20
130.110392157
 10
12.378676471
 20
130.167581699
  0
LINE
  5
F1B
330
A02
100
AcDbEntity
  8
ShapeString006
100
AcDbLine
 10
12.378676471
 20
130.167581699
 30
0.000000000
 11
11.681678922
 21
130.167581699
 31
0.000000000
  0
LINE
  5
F1C
330
A02
100
AcDbEntity
  8
ShapeString006
100
AcDbLine
 10
11.681678922
 20
130.167581699
 30
0.000000000
 11
11.681678922
 21
128.455980392
 31
0.000000000
  0
LINE
  5
F1D
330
A02
100
AcDbEntity
  8
ShapeString006
100
AcDbLine
 10
11.681678922
 20
128.455980392
 30
0.000000000
 11
12.401654412
 21
128.455980392
 31
0.000000000
  0
LWPOLYLINE
  5
F1E
330
A02
100
AcDbEntity
100
AcDbPolyline
  8
ShapeString006
 90
2
 70
0
 43
0
 10
12.401654412
 20
128.455980392
 10
13.274816176
 20
128.672738971
  0
LWPOLYLINE
  5
F1F
330
A02
100
AcDbEntity
100
AcDbPolyline
  8
ShapeString006
 90
2
 70
0
 43
0
 10
13.274816176
 20
128.672738971
 10
13.562040441
 20
129.349822304
  0
LINE
  5
F20
330
A02
100
AcDbEntity
  8
ShapeString006
100
AcDbLine
 10
17.791513480
 20
127.880000000
 30
0.000000000
 11
17.776194853
 21
128.396493056
 31
0.000000000
  0
LWPOLYLINE
  5
F21
330
A02
100
AcDbEntity
100
AcDbPolyline
  8
ShapeString006
 90
2
 70
0
 43
0
 10
17.776194853
 20
128.396493056
 10
17.138429330
 20
127.951486928
  0
LWPOLYLINE
  5
F22
330
A02
100
AcDbEntity
100
AcDbPolyline
  8
ShapeString006
 90
2
 70
0
 43
0
 10
17.138429330
 20
127.951486928
 10
16.458792892
 20
127.814640523
  0
LWPOLYLINE
  5
F23
330
A02
100
AcDbEntity
100
AcDbPolyline
  8
ShapeString006
 90
2
 70
0
 43
0
 10
16.458792892
 20
127.814640523
 10
15.895833333
 20
127.898637663
  0
LWPOLYLINE
  5
F24
330
A02
100
AcDbEntity
100
AcDbPolyline
  8
ShapeString006
 90
2
 70
0
 43
0
 10
15.895833333
 20
127.898637663
 10
15.510825163
 20
128.129948938
  0
LWPOLYLINE
  5
F25
330
A02
100
AcDbEntity
100
AcDbPolyline
  8
ShapeString006
 90
2
 70
0
 43
0
 10
15.510825163
 20
128.129948938
 10
15.288705065
 20
128.475894608
  0
LWPOLYLINE
  5
F26
330
A02
100
AcDbEntity
100
AcDbPolyline
  8
ShapeString006
 90
2
 70
0
 43
0
 10
15.288705065
 20
128.475894608
 10
15.217984069
 20
128.907879902
  0
LWPOLYLINE
  5
F27
330
A02
100
AcDbEntity
100
AcDbPolyline
  8
ShapeString006
 90
2
 70
0
 43
0
 10
15.217984069
 20
128.907879902
 10
15.648692810
 20
129.811934232
  0
LWPOLYLINE
  5
F28
330
A02
100
AcDbEntity
100
AcDbPolyline
  8
ShapeString006
 90
2
 70
0
 43
0
 10
15.648692810
 20
129.811934232
 10
16.922181373
 20
130.138986928
  0
LINE
  5
F29
330
A02
100
AcDbEntity
  8
ShapeString006
100
AcDbLine
 10
16.922181373
 20
130.138986928
 30
0.000000000
 11
17.718750000
 21
130.138986928
 31
0.000000000
  0
LINE
  5
F2A
330
A02
100
AcDbEntity
  8
ShapeString006
100
AcDbLine
 10
17.718750000
 20
130.138986928
 30
0.000000000
 11
17.718750000
 21
130.478294526
 31
0.000000000
  0
LWPOLYLINE
  5
F2B
330
A02
100
AcDbEntity
100
AcDbPolyline
  8
ShapeString006
 90
2
 70
0
 43
0
 10
17.718750000
 20
130.478294526
 10
17.500459559
 20
131.027467320
  0
LWPOLYLINE
  5
F2C
330
A02
100
AcDbEntity
100
AcDbPolyline
  8
ShapeString006
 90
2
 70
0
 43
0
 10
17.500459559
 20
131.027467320
 10
16.834099265
 20
131.233758170
  0
LWPOLYLINE
  5
F2D
330
A02
100
AcDbEntity
100
AcDbPolyline
  8
ShapeString006
 90
2
 70
0
 43
0
 10
16.834099265
 20
131.233758170
 10
16.192504085
 20
131.161505310
  0
LWPOLYLINE
  5
F2E
330
A02
100
AcDbEntity
100
AcDbPolyline
  8
ShapeString006
 90
2
 70
0
 43
0
 10
16.192504085
 20
131.161505310
 10
15.539675245
 20
130.955980392
  0
LINE
  5
F2F
330
A02
100
AcDbEntity
  8
ShapeString006
100
AcDbLine
 10
15.539675245
 20
130.955980392
 30
0.000000000
 11
15.539675245
 21
131.556470588
 31
0.000000000
  0
LWPOLYLINE
  5
F30
330
A02
100
AcDbEntity
100
AcDbPolyline
  8
ShapeString006
 90
2
 70
0
 43
0
 10
15.539675245
 20
131.556470588
 10
15.821027369
 20
131.646339869
  0
LWPOLYLINE
  5
F31
330
A02
100
AcDbEntity
100
AcDbPolyline
  8
ShapeString006
 90
2
 70
0
 43
0
 10
15.821027369
 20
131.646339869
 10
16.148590686
 20
131.724975490
  0
LWPOLYLINE
  5
F32
330
A02
100
AcDbEntity
100
AcDbPolyline
  8
ShapeString006
 90
2
 70
0
 43
0
 10
16.148590686
 20
131.724975490
 10
16.508578431
 20
131.780377859
  0
LWPOLYLINE
  5
F33
330
A02
100
AcDbEntity
100
AcDbPolyline
  8
ShapeString006
 90
2
 70
0
 43
0
 10
16.508578431
 20
131.780377859
 10
16.887714461
 20
131.801568627
  0
LWPOLYLINE
  5
F34
330
A02
100
AcDbEntity
100
AcDbPolyline
  8
ShapeString006
 90
2
 70
0
 43
0
 10
16.887714461
 20
131.801568627
 10
17.515778186
 20
131.724720180
  0
LWPOLYLINE
  5
F35
330
A02
100
AcDbEntity
100
AcDbPolyline
  8
ShapeString006
 90
2
 70
0
 43
0
 10
17.515778186
 20
131.724720180
 10
17.988613154
 20
131.490600490
  0
LWPOLYLINE
  5
F36
330
A02
100
AcDbEntity
100
AcDbPolyline
  8
ShapeString006
 90
2
 70
0
 43
0
 10
17.988613154
 20
131.490600490
 10
18.285539216
 20
131.095379902
  0
LWPOLYLINE
  5
F37
330
A02
100
AcDbEntity
100
AcDbPolyline
  8
ShapeString006
 90
2
 70
0
 43
0
 10
18.285539216
 20
131.095379902
 10
18.388939951
 20
130.535228758
  0
LINE
  5
F38
330
A02
100
AcDbEntity
  8
ShapeString006
100
AcDbLine
 10
18.388939951
 20
130.535228758
 30
0.000000000
 11
18.388939951
 21
127.880000000
 31
0.000000000
  0
LINE
  5
F39
330
A02
100
AcDbEntity
  8
ShapeString006
100
AcDbLine
 10
18.388939951
 20
127.880000000
 30
0.000000000
 11
17.791513480
 21
127.880000000
 31
0.000000000
  0
LINE
  5
F3A
330
A02
100
AcDbEntity
  8
ShapeString006
100
AcDbLine
 10
17.718750000
 20
129.628366013
 30
0.000000000
 11
16.872395833
 21
129.628366013
 31
0.000000000
  0
LWPOLYLINE
  5
F3B
330
A02
100
AcDbEntity
100
AcDbPolyline
  8
ShapeString006
 90
2
 70
0
 43
0
 10
16.872395833
 20
129.628366013
 10
16.443474265
 20
129.578835784
  0
LWPOLYLINE
  5
F3C
330
A02
100
AcDbEntity
100
AcDbPolyline
  8
ShapeString006
 90
2
 70
0
 43
0
 10
16.443474265
 20
129.578835784
 10
16.148590686
 20
129.437649101
  0
LWPOLYLINE
  5
F3D
330
A02
100
AcDbEntity
100
AcDbPolyline
  8
ShapeString006
 90
2
 70
0
 43
0
 10
16.148590686
 20
129.437649101
 10
15.978043301
 20
129.218337418
  0
LWPOLYLINE
  5
F3E
330
A02
100
AcDbEntity
100
AcDbPolyline
  8
ShapeString006
 90
2
 70
0
 43
0
 10
15.978043301
 20
129.218337418
 10
15.922640931
 20
128.930602533
  0
LWPOLYLINE
  5
F3F
330
A02
100
AcDbEntity
100
AcDbPolyline
  8
ShapeString006
 90
2
 70
0
 43
0
 10
15.922640931
 20
128.930602533
 10
15.957107843
 20
128.718950163
  0
LWPOLYLINE
  5
F40
330
A02
100
AcDbEntity
100
AcDbPolyline
  8
ShapeString006
 90
2
 70
0
 43
0
 10
15.957107843
 20
128.718950163
 10
16.068167892
 20
128.539722222
  0
LWPOLYLINE
  5
F41
330
A02
100
AcDbEntity
100
AcDbPolyline
  8
ShapeString006
 90
2
 70
0
 43
0
 10
16.068167892
 20
128.539722222
 10
16.267310049
 20
128.415896650
  0
LWPOLYLINE
  5
F42
330
A02
100
AcDbEntity
100
AcDbPolyline
  8
ShapeString006
 90
2
 70
0
 43
0
 10
16.267310049
 20
128.415896650
 10
16.566023284
 20
128.370196078
  0
LWPOLYLINE
  5
F43
330
A02
100
AcDbEntity
100
AcDbPolyline
  8
ShapeString006
 90
2
 70
0
 43
0
 10
16.566023284
 20
128.370196078
 10
17.092473448
 20
128.509340278
  0
LWPOLYLINE
  5
F44
330
A02
100
AcDbEntity
100
AcDbPolyline
  8
ShapeString006
 90
2
 70
0
 43
0
 10
17.092473448
 20
128.509340278
 10
17.718750000
 20
128.949750817
  0
LINE
  5
F45
330
A02
100
AcDbEntity
  8
ShapeString006
100
AcDbLine
 10
17.718750000
 20
128.949750817
 30
0.000000000
 11
17.718750000
 21
129.628366013
 31
0.000000000
  0
LWPOLYLINE
  5
F46
330
A02
100
AcDbEntity
100
AcDbPolyline
  8
ShapeString006
 90
2
 70
0
 43
0
 10
22.733302696
 20
127.933104575
 10
22.266084559
 20
127.854724265
  0
LWPOLYLINE
  5
F47
330
A02
100
AcDbEntity
100
AcDbPolyline
  8
ShapeString006
 90
2
 70
0
 43
0
 10
22.266084559
 20
127.854724265
 10
21.775888480
 20
127.830980392
  0
LWPOLYLINE
  5
F48
330
A02
100
AcDbEntity
100
AcDbPolyline
  8
ShapeString006
 90
2
 70
0
 43
0
 10
21.775888480
 20
127.830980392
 10
20.695925245
 20
128.157267157
  0
LWPOLYLINE
  5
F49
330
A02
100
AcDbEntity
100
AcDbPolyline
  8
ShapeString006
 90
2
 70
0
 43
0
 10
20.695925245
 20
128.157267157
 10
20.339767157
 20
129.159616013
  0
LINE
  5
F4A
330
A02
100
AcDbEntity
  8
ShapeString006
100
AcDbLine
 10
20.339767157
 20
129.159616013
 30
0.000000000
 11
20.339767157
 21
131.160228758
 31
0.000000000
  0
LINE
  5
F4B
330
A02
100
AcDbEntity
  8
ShapeString006
100
AcDbLine
 10
20.339767157
 20
131.160228758
 30
0.000000000
 11
19.263633578
 21
131.160228758
 31
0.000000000
  0
LINE
  5
F4C
330
A02
100
AcDbEntity
  8
ShapeString006
100
AcDbLine
 10
19.263633578
 20
131.160228758
 30
0.000000000
 11
19.263633578
 21
131.719869281
 31
0.000000000
  0
LINE
  5
F4D
330
A02
100
AcDbEntity
  8
ShapeString006
100
AcDbLine
 10
19.263633578
 20
131.719869281
 30
0.000000000
 11
20.339767157
 21
131.719869281
 31
0.000000000
  0
LINE
  5
F4E
330
A02
100
AcDbEntity
  8
ShapeString006
100
AcDbLine
 10
20.339767157
 20
131.719869281
 30
0.000000000
 11
20.339767157
 21
132.773535539
 31
0.000000000
  0
LINE
  5
F4F
330
A02
100
AcDbEntity
  8
ShapeString006
100
AcDbLine
 10
20.339767157
 20
132.773535539
 30
0.000000000
 11
21.006127451
 21
132.945359477
 31
0.000000000
  0
LINE
  5
F50
330
A02
100
AcDbEntity
  8
ShapeString006
100
AcDbLine
 10
21.006127451
 20
132.945359477
 30
0.000000000
 11
21.006127451
 21
131.719869281
 31
0.000000000
  0
LINE
  5
F51
330
A02
100
AcDbEntity
  8
ShapeString006
100
AcDbLine
 10
21.006127451
 20
131.719869281
 30
0.000000000
 11
22.733302696
 21
131.719869281
 31
0.000000000
  0
LINE
  5
F52
330
A02
100
AcDbEntity
  8
ShapeString006
100
AcDbLine
 10
22.733302696
 20
131.719869281
 30
0.000000000
 11
22.733302696
 21
131.160228758
 31
0.000000000
  0
LINE
  5
F53
330
A02
100
AcDbEntity
  8
ShapeString006
100
AcDbLine
 10
22.733302696
 20
131.160228758
 30
0.000000000
 11
21.006127451
 21
131.160228758
 31
0.000000000
  0
LINE
  5
F54
330
A02
100
AcDbEntity
  8
ShapeString006
100
AcDbLine
 10
21.006127451
 20
131.160228758
 30
0.000000000
 11
21.006127451
 21
129.214763072
 31
0.000000000
  0
LWPOLYLINE
  5
F55
330
A02
100
AcDbEntity
100
AcDbPolyline
  8
ShapeString006
 90
2
 70
0
 43
0
 10
21.006127451
 20
129.214763072
 10
21.226205065
 20
128.598698938
  0
LWPOLYLINE
  5
F56
330
A02
100
AcDbEntity
100
AcDbPolyline
  8
ShapeString006
 90
2
 70
0
 43
0
 10
21.226205065
 20
128.598698938
 10
21.875459559
 20
128.394705882
  0
LWPOLYLINE
  5
F57
330
A02
100
AcDbEntity
100
AcDbPolyline
  8
ShapeString006
 90
2
 70
0
 43
0
 10
21.875459559
 20
128.394705882
 10
22.277573529
 20
128.422279412
  0
LWPOLYLINE
  5
F58
330
A02
100
AcDbEntity
100
AcDbPolyline
  8
ShapeString006
 90
2
 70
0
 43
0
 10
22.277573529
 20
128.422279412
 10
22.733302696
 20
128.509084967
  0
LINE
  5
F59
330
A02
100
AcDbEntity
  8
ShapeString006
100
AcDbLine
 10
22.733302696
 20
128.509084967
 30
0.000000000
 11
22.733302696
 21
127.933104575
 31
0.000000000
  0
LWPOLYLINE
  5
F5A
330
A02
100
AcDbEntity
100
AcDbPolyline
  8
ShapeString006
 90
2
 70
0
 43
0
 10
27.047028186
 20
127.933104575
 10
26.579810049
 20
127.854724265
  0
LWPOLYLINE
  5
F5B
330
A02
100
AcDbEntity
100
AcDbPolyline
  8
ShapeString006
 90
2
 70
0
 43
0
 10
26.579810049
 20
127.854724265
 10
26.089613971
 20
127.830980392
  0
LWPOLYLINE
  5
F5C
330
A02
100
AcDbEntity
100
AcDbPolyline
  8
ShapeString006
 90
2
 70
0
 43
0
 10
26.089613971
 20
127.830980392
 10
25.009650735
 20
128.157267157
  0
LWPOLYLINE
  5
F5D
330
A02
100
AcDbEntity
100
AcDbPolyline
  8
ShapeString006
 90
2
 70
0
 43
0
 10
25.009650735
 20
128.157267157
 10
24.653492647
 20
129.159616013
  0
LINE
  5
F5E
330
A02
100
AcDbEntity
  8
ShapeString006
100
AcDbLine
 10
24.653492647
 20
129.159616013
 30
0.000000000
 11
24.653492647
 21
131.160228758
 31
0.000000000
  0
LINE
  5
F5F
330
A02
100
AcDbEntity
  8
ShapeString006
100
AcDbLine
 10
24.653492647
 20
131.160228758
 30
0.000000000
 11
23.577359069
 21
131.160228758
 31
0.000000000
  0
LINE
  5
F60
330
A02
100
AcDbEntity
  8
ShapeString006
100
AcDbLine
 10
23.577359069
 20
131.160228758
 30
0.000000000
 11
23.577359069
 21
131.719869281
 31
0.000000000
  0
LINE
  5
F61
330
A02
100
AcDbEntity
  8
ShapeString006
100
AcDbLine
 10
23.577359069
 20
131.719869281
 30
0.000000000
 11
24.653492647
 21
131.719869281
 31
0.000000000
  0
LINE
  5
F62
330
A02
100
AcDbEntity
  8
ShapeString006
100
AcDbLine
 10
24.653492647
 20
131.719869281
 30
0.000000000
 11
24.653492647
 21
132.773535539
 31
0.000000000
  0
LINE
  5
F63
330
A02
100
AcDbEntity
  8
ShapeString006
100
AcDbLine
 10
24.653492647
 20
132.773535539
 30
0.000000000
 11
25.319852941
 21
132.945359477
 31
0.000000000
  0
LINE
  5
F64
330
A02
100
AcDbEntity
  8
ShapeString006
100
AcDbLine
 10
25.319852941
 20
132.945359477
 30
0.000000000
 11
25.319852941
 21
131.719869281
 31
0.000000000
  0
LINE
  5
F65
330
A02
100
AcDbEntity
  8
ShapeString006
100
AcDbLine
 10
25.319852941
 20
131.719869281
 30
0.000000000
 11
27.047028186
 21
131.719869281
 31
0.000000000
  0
LINE
  5
F66
330
A02
100
AcDbEntity
  8
ShapeString006
100
AcDbLine
 10
27.047028186
 20
131.719869281
 30
0.000000000
 11
27.047028186
 21
131.160228758
 31
0.000000000
  0
LINE
  5
F67
330
A02
100
AcDbEntity
  8
ShapeString006
100
AcDbLine
 10
27.047028186
 20
131.160228758
 30
0.000000000
 11
25.319852941
 21
131.160228758
 31
0.000000000
  0
LINE
  5
F68
330
A02
100
AcDbEntity
  8
ShapeString006
100
AcDbLine
 10
25.319852941
 20
131.160228758
 30
0.000000000
 11
25.319852941
 21
129.214763072
 31
0.000000000
  0
LWPOLYLINE
  5
F69
330
A02
100
AcDbEntity
100
AcDbPolyline
  8
ShapeString006
 90
2
 70
0
 43
0
 10
25.319852941
 20
129.214763072
 10
25.539930556
 20
128.598698938
  0
LWPOLYLINE
  5
F6A
330
A02
100
AcDbEntity
100
AcDbPolyline
  8
ShapeString006
 90
2
 70
0
 43
0
 10
25.539930556
 20
128.598698938
 10
26.189185049
 20
128.394705882
  0
LWPOLYLINE
  5
F6B
330
A02
100
AcDbEntity
100
AcDbPolyline
  8
ShapeString006
 90
2
 70
0
 43
0
 10
26.189185049
 20
128.394705882
 10
26.591299020
 20
128.422279412
  0
LWPOLYLINE
  5
F6C
330
A02
100
AcDbEntity
100
AcDbPolyline
  8
ShapeString006
 90
2
 70
0
 43
0
 10
26.591299020
 20
128.422279412
 10
27.047028186
 20
128.509084967
  0
LINE
  5
F6D
330
A02
100
AcDbEntity
  8
ShapeString006
100
AcDbLine
 10
27.047028186
 20
128.509084967
 30
0.000000000
 11
27.047028186
 21
127.933104575
 31
0.000000000
  0
LINE
  5
F6E
330
A02
100
AcDbEntity
  8
ShapeString006
100
AcDbLine
 10
36.260416667
 20
132.880000000
 30
0.000000000
 11
34.560049020
 21
127.880000000
 31
0.000000000
  0
LINE
  5
F6F
330
A02
100
AcDbEntity
  8
ShapeString006
100
AcDbLine
 10
34.560049020
 20
127.880000000
 30
0.000000000
 11
33.640931373
 21
127.880000000
 31
0.000000000
  0
LINE
  5
F70
330
A02
100
AcDbEntity
  8
ShapeString006
100
AcDbLine
 10
33.640931373
 20
127.880000000
 30
0.000000000
 11
31.978860294
 21
132.880000000
 31
0.000000000
  0
LINE
  5
F71
330
A02
100
AcDbEntity
  8
ShapeString006
100
AcDbLine
 10
31.978860294
 20
132.880000000
 30
0.000000000
 11
32.748621324
 21
132.880000000
 31
0.000000000
  0
LINE
  5
F72
330
A02
100
AcDbEntity
  8
ShapeString006
100
AcDbLine
 10
32.748621324
 20
132.880000000
 30
0.000000000
 11
33.828584559
 21
129.509646650
 31
0.000000000
  0
LINE
  5
F73
330
A02
100
AcDbEntity
  8
ShapeString006
100
AcDbLine
 10
33.828584559
 20
129.509646650
 30
0.000000000
 11
34.134957108
 21
128.522616422
 31
0.000000000
  0
LINE
  5
F74
330
A02
100
AcDbEntity
  8
ShapeString006
100
AcDbLine
 10
34.134957108
 20
128.522616422
 30
0.000000000
 11
34.448988971
 21
129.509646650
 31
0.000000000
  0
LINE
  5
F75
330
A02
100
AcDbEntity
  8
ShapeString006
100
AcDbLine
 10
34.448988971
 20
129.509646650
 30
0.000000000
 11
35.532781863
 21
132.880000000
 31
0.000000000
  0
LINE
  5
F76
330
A02
100
AcDbEntity
  8
ShapeString006
100
AcDbLine
 10
35.532781863
 20
132.880000000
 30
0.000000000
 11
36.260416667
 21
132.880000000
 31
0.000000000
  0
LWPOLYLINE
  5
F77
330
A02
100
AcDbEntity
100
AcDbPolyline
  8
ShapeString006
 90
2
 70
0
 43
0
 10
40.237132353
 20
129.838741830
 10
40.110753676
 20
129.016386846
  0
LWPOLYLINE
  5
F78
330
A02
100
AcDbEntity
100
AcDbPolyline
  8
ShapeString006
 90
2
 70
0
 43
0
 10
40.110753676
 20
129.016386846
 10
39.746936275
 20
128.376068219
  0
LWPOLYLINE
  5
F79
330
A02
100
AcDbEntity
100
AcDbPolyline
  8
ShapeString006
 90
2
 70
0
 43
0
 10
39.746936275
 20
128.376068219
 10
39.168658088
 20
127.962209967
  0
LWPOLYLINE
  5
F7A
330
A02
100
AcDbEntity
100
AcDbPolyline
  8
ShapeString006
 90
2
 70
0
 43
0
 10
39.168658088
 20
127.962209967
 10
38.395067402
 20
127.814640523
  0
LWPOLYLINE
  5
F7B
330
A02
100
AcDbEntity
100
AcDbPolyline
  8
ShapeString006
 90
2
 70
0
 43
0
 10
38.395067402
 20
127.814640523
 10
37.653901144
 20
127.943061683
  0
LWPOLYLINE
  5
F7C
330
A02
100
AcDbEntity
100
AcDbPolyline
  8
ShapeString006
 90
2
 70
0
 43
0
 10
37.653901144
 20
127.943061683
 10
37.098600899
 20
128.320665850
  0
LWPOLYLINE
  5
F7D
330
A02
100
AcDbEntity
100
AcDbPolyline
  8
ShapeString006
 90
2
 70
0
 43
0
 10
37.098600899
 20
128.320665850
 10
36.750102124
 20
128.937751225
  0
LWPOLYLINE
  5
F7E
330
A02
100
AcDbEntity
100
AcDbPolyline
  8
ShapeString006
 90
2
 70
0
 43
0
 10
36.750102124
 20
128.937751225
 10
36.629595588
 20
129.785126634
  0
LWPOLYLINE
  5
F7F
330
A02
100
AcDbEntity
100
AcDbPolyline
  8
ShapeString006
 90
2
 70
0
 43
0
 10
36.629595588
 20
129.785126634
 10
36.755974265
 20
130.603651961
  0
LWPOLYLINE
  5
F80
330
A02
100
AcDbEntity
100
AcDbPolyline
  8
ShapeString006
 90
2
 70
0
 43
0
 10
36.755974265
 20
130.603651961
 10
37.119791667
 20
131.239885621
  0
LWPOLYLINE
  5
F81
330
A02
100
AcDbEntity
100
AcDbPolyline
  8
ShapeString006
 90
2
 70
0
 43
0
 10
37.119791667
 20
131.239885621
 10
37.698069853
 20
131.653999183
  0
LWPOLYLINE
  5
F82
330
A02
100
AcDbEntity
100
AcDbPolyline
  8
ShapeString006
 90
2
 70
0
 43
0
 10
37.698069853
 20
131.653999183
 10
38.471660539
 20
131.801568627
  0
LWPOLYLINE
  5
F83
330
A02
100
AcDbEntity
100
AcDbPolyline
  8
ShapeString006
 90
2
 70
0
 43
0
 10
38.471660539
 20
131.801568627
 10
39.212571487
 20
131.673147467
  0
LWPOLYLINE
  5
F84
330
A02
100
AcDbEntity
100
AcDbPolyline
  8
ShapeString006
 90
2
 70
0
 43
0
 10
39.212571487
 20
131.673147467
 10
39.767871732
 20
131.297330474
  0
LWPOLYLINE
  5
F85
330
A02
100
AcDbEntity
100
AcDbPolyline
  8
ShapeString006
 90
2
 70
0
 43
0
 10
39.767871732
 20
131.297330474
 10
40.116370507
 20
130.682032271
  0
LWPOLYLINE
  5
F86
330
A02
100
AcDbEntity
100
AcDbPolyline
  8
ShapeString006
 90
2
 70
0
 43
0
 10
40.116370507
 20
130.682032271
 10
40.237132353
 20
129.838741830
  0
LWPOLYLINE
  5
F87
330
A02
100
AcDbEntity
100
AcDbPolyline
  8
ShapeString006
 90
2
 70
0
 43
0
 10
39.555453431
 20
129.808104575
 10
39.476817810
 20
130.430806781
  0
LWPOLYLINE
  5
F88
330
A02
100
AcDbEntity
100
AcDbPolyline
  8
ShapeString006
 90
2
 70
0
 43
0
 10
39.476817810
 20
130.430806781
 10
39.252910539
 20
130.875302288
  0
LWPOLYLINE
  5
F89
330
A02
100
AcDbEntity
100
AcDbPolyline
  8
ShapeString006
 90
2
 70
0
 43
0
 10
39.252910539
 20
130.875302288
 10
38.898539624
 20
131.143633578
  0
LWPOLYLINE
  5
F8A
330
A02
100
AcDbEntity
100
AcDbPolyline
  8
ShapeString006
 90
2
 70
0
 43
0
 10
38.898539624
 20
131.143633578
 10
38.433363971
 20
131.233758170
  0
LWPOLYLINE
  5
F8B
330
A02
100
AcDbEntity
100
AcDbPolyline
  8
ShapeString006
 90
2
 70
0
 43
0
 10
38.433363971
 20
131.233758170
 10
37.921977124
 20
131.116825980
  0
LWPOLYLINE
  5
F8C
330
A02
100
AcDbEntity
100
AcDbPolyline
  8
ShapeString006
 90
2
 70
0
 43
0
 10
37.921977124
 20
131.116825980
 10
37.573478350
 20
130.804325980
  0
LWPOLYLINE
  5
F8D
330
A02
100
AcDbEntity
100
AcDbPolyline
  8
ShapeString006
 90
2
 70
0
 43
0
 10
37.573478350
 20
130.804325980
 10
37.374336193
 20
130.350128676
  0
LWPOLYLINE
  5
F8E
330
A02
100
AcDbEntity
100
AcDbPolyline
  8
ShapeString006
 90
2
 70
0
 43
0
 10
37.374336193
 20
130.350128676
 10
37.311274510
 20
129.808104575
  0
LWPOLYLINE
  5
F8F
330
A02
100
AcDbEntity
100
AcDbPolyline
  8
ShapeString006
 90
2
 70
0
 43
0
 10
37.311274510
 20
129.808104575
 10
37.389654820
 20
129.183104575
  0
LWPOLYLINE
  5
F90
330
A02
100
AcDbEntity
100
AcDbPolyline
  8
ShapeString006
 90
2
 70
0
 43
0
 10
37.389654820
 20
129.183104575
 10
37.613817402
 20
128.736821895
  0
LWPOLYLINE
  5
F91
330
A02
100
AcDbEntity
100
AcDbPolyline
  8
ShapeString006
 90
2
 70
0
 43
0
 10
37.613817402
 20
128.736821895
 10
37.966145833
 20
128.468490605
  0
LWPOLYLINE
  5
F92
330
A02
100
AcDbEntity
100
AcDbPolyline
  8
ShapeString006
 90
2
 70
0
 43
0
 10
37.966145833
 20
128.468490605
 10
38.433363971
 20
128.378366013
  0
LWPOLYLINE
  5
F93
330
A02
100
AcDbEntity
100
AcDbPolyline
  8
ShapeString006
 90
2
 70
0
 43
0
 10
38.433363971
 20
128.378366013
 10
38.944495507
 20
128.495298203
  0
LWPOLYLINE
  5
F94
330
A02
100
AcDbEntity
100
AcDbPolyline
  8
ShapeString006
 90
2
 70
0
 43
0
 10
38.944495507
 20
128.495298203
 10
39.292994281
 20
128.807542892
  0
LWPOLYLINE
  5
F95
330
A02
100
AcDbEntity
100
AcDbPolyline
  8
ShapeString006
 90
2
 70
0
 43
0
 10
39.292994281
 20
128.807542892
 10
39.492136438
 20
129.261740196
  0
LWPOLYLINE
  5
F96
330
A02
100
AcDbEntity
100
AcDbPolyline
  8
ShapeString006
 90
2
 70
0
 43
0
 10
39.492136438
 20
129.261740196
 10
39.555453431
 20
129.808104575
  0
LINE
  5
F97
330
A02
100
AcDbEntity
  8
ShapeString006
100
AcDbLine
 10
42.513480392
 20
132.741111111
 30
0.000000000
 11
41.376072304
 21
132.741111111
 31
0.000000000
  0
LINE
  5
F98
330
A02
100
AcDbEntity
  8
ShapeString006
100
AcDbLine
 10
41.376072304
 20
132.741111111
 30
0.000000000
 11
41.376072304
 21
133.288496732
 31
0.000000000
  0
LINE
  5
F99
330
A02
100
AcDbEntity
  8
ShapeString006
100
AcDbLine
 10
41.376072304
 20
133.288496732
 30
0.000000000
 11
43.187500000
 21
133.288496732
 31
0.000000000
  0
LINE
  5
F9A
330
A02
100
AcDbEntity
  8
ShapeString006
100
AcDbLine
 10
43.187500000
 20
133.288496732
 30
0.000000000
 11
43.187500000
 21
128.435555556
 31
0.000000000
  0
LINE
  5
F9B
330
A02
100
AcDbEntity
  8
ShapeString006
100
AcDbLine
 10
43.187500000
 20
128.435555556
 30
0.000000000
 11
44.332567402
 21
128.435555556
 31
0.000000000
  0
LINE
  5
F9C
330
A02
100
AcDbEntity
  8
ShapeString006
100
AcDbLine
 10
44.332567402
 20
128.435555556
 30
0.000000000
 11
44.332567402
 21
127.880000000
 31
0.000000000
  0
LINE
  5
F9D
330
A02
100
AcDbEntity
  8
ShapeString006
100
AcDbLine
 10
44.332567402
 20
127.880000000
 30
0.000000000
 11
41.249693627
 21
127.880000000
 31
0.000000000
  0
LINE
  5
F9E
330
A02
100
AcDbEntity
  8
ShapeString006
100
AcDbLine
 10
41.249693627
 20
127.880000000
 30
0.000000000
 11
41.249693627
 21
128.435555556
 31
0.000000000
  0
LINE
  5
F9F
330
A02
100
AcDbEntity
  8
ShapeString006
100
AcDbLine
 10
41.249693627
 20
128.435555556
 30
0.000000000
 11
42.513480392
 21
128.435555556
 31
0.000000000
  0
LINE
  5
FA0
330
A02
100
AcDbEntity
  8
ShapeString006
100
AcDbLine
 10
42.513480392
 20
128.435555556
 30
0.000000000
 11
42.513480392
 21
132.741111111
 31
0.000000000
  0
LWPOLYLINE
  5
FA1
330
A02
100
AcDbEntity
100
AcDbPolyline
  8
ShapeString006
 90
2
 70
0
 43
0
 10
48.615655637
 20
127.933104575
 10
48.148437500
 20
127.854724265
  0
LWPOLYLINE
  5
FA2
330
A02
100
AcDbEntity
100
AcDbPolyline
  8
ShapeString006
 90
2
 70
0
 43
0
 10
48.148437500
 20
127.854724265
 10
47.658241422
 20
127.830980392
  0
LWPOLYLINE
  5
FA3
330
A02
100
AcDbEntity
100
AcDbPolyline
  8
ShapeString006
 90
2
 70
0
 43
0
 10
47.658241422
 20
127.830980392
 10
46.578278186
 20
128.157267157
  0
LWPOLYLINE
  5
FA4
330
A02
100
AcDbEntity
100
AcDbPolyline
  8
ShapeString006
 90
2
 70
0
 43
0
 10
46.578278186
 20
128.157267157
 10
46.222120098
 20
129.159616013
  0
LINE
  5
FA5
330
A02
100
AcDbEntity
  8
ShapeString006
100
AcDbLine
 10
46.222120098
 20
129.159616013
 30
0.000000000
 11
46.222120098
 21
131.160228758
 31
0.000000000
  0
LINE
  5
FA6
330
A02
100
AcDbEntity
  8
ShapeString006
100
AcDbLine
 10
46.222120098
 20
131.160228758
 30
0.000000000
 11
45.145986520
 21
131.160228758
 31
0.000000000
  0
LINE
  5
FA7
330
A02
100
AcDbEntity
  8
ShapeString006
100
AcDbLine
 10
45.145986520
 20
131.160228758
 30
0.000000000
 11
45.145986520
 21
131.719869281
 31
0.000000000
  0
LINE
  5
FA8
330
A02
100
AcDbEntity
  8
ShapeString006
100
AcDbLine
 10
45.145986520
 20
131.719869281
 30
0.000000000
 11
46.222120098
 21
131.719869281
 31
0.000000000
  0
LINE
  5
FA9
330
A02
100
AcDbEntity
  8
ShapeString006
100
AcDbLine
 10
46.222120098
 20
131.719869281
 30
0.000000000
 11
46.222120098
 21
132.773535539
 31
0.000000000
  0
LINE
  5
FAA
330
A02
100
AcDbEntity
  8
ShapeString006
100
AcDbLine
 10
46.222120098
 20
132.773535539
 30
0.000000000
 11
46.888480392
 21
132.945359477
 31
0.000000000
  0
LINE
  5
FAB
330
A02
100
AcDbEntity
  8
ShapeString006
100
AcDbLine
 10
46.888480392
 20
132.945359477
 30
0.000000000
 11
46.888480392
 21
131.719869281
 31
0.000000000
  0
LINE
  5
FAC
330
A02
100
AcDbEntity
  8
ShapeString006
100
AcDbLine
 10
46.888480392
 20
131.719869281
 30
0.000000000
 11
48.615655637
 21
131.719869281
 31
0.000000000
  0
LINE
  5
FAD
330
A02
100
AcDbEntity
  8
ShapeString006
100
AcDbLine
 10
48.615655637
 20
131.719869281
 30
0.000000000
 11
48.615655637
 21
131.160228758
 31
0.000000000
  0
LINE
  5
FAE
330
A02
100
AcDbEntity
  8
ShapeString006
100
AcDbLine
 10
48.615655637
 20
131.160228758
 30
0.000000000
 11
46.888480392
 21
131.160228758
 31
0.000000000
  0
LINE
  5
FAF
330
A02
100
AcDbEntity
  8
ShapeString006
100
AcDbLine
 10
46.888480392
 20
131.160228758
 30
0.000000000
 11
46.888480392
 21
129.214763072
 31
0.000000000
  0
LWPOLYLINE
  5
FB0
330
A02
100
AcDbEntity
100
AcDbPolyline
  8
ShapeString006
 90
2
 70
0
 43
0
 10
46.888480392
 20
129.214763072
 10
47.108558007
 20
128.598698938
  0
LWPOLYLINE
  5
FB1
330
A02
100
AcDbEntity
100
AcDbPolyline
  8
ShapeString006
 90
2
 70
0
 43
0
 10
47.108558007
 20
128.598698938
 10
47.757812500
 20
128.394705882
  0
LWPOLYLINE
  5
FB2
330
A02
100
AcDbEntity
100
AcDbPolyline
  8
ShapeString006
 90
2
 70
0
 43
0
 10
47.757812500
 20
128.394705882
 10
48.159926471
 20
128.422279412
  0
LWPOLYLINE
  5
FB3
330
A02
100
AcDbEntity
100
AcDbPolyline
  8
ShapeString006
 90
2
 70
0
 43
0
 10
48.159926471
 20
128.422279412
 10
48.615655637
 20
128.509084967
  0
LINE
  5
FB4
330
A02
100
AcDbEntity
  8
ShapeString006
100
AcDbLine
 10
48.615655637
 20
128.509084967
 30
0.000000000
 11
48.615655637
 21
127.933104575
 31
0.000000000
  0
LWPOLYLINE
  5
FB5
330
A02
100
AcDbEntity
100
AcDbPolyline
  8
ShapeString006
 90
2
 70
0
 43
0
 10
52.875765931
 20
128.934176879
 10
52.806832108
 20
128.569848856
  0
LWPOLYLINE
  5
FB6
330
A02
100
AcDbEntity
100
AcDbPolyline
  8
ShapeString006
 90
2
 70
0
 43
0
 10
52.806832108
 20
128.569848856
 10
52.619178922
 20
128.284156454
  0
LWPOLYLINE
  5
FB7
330
A02
100
AcDbEntity
100
AcDbPolyline
  8
ShapeString006
 90
2
 70
0
 43
0
 10
52.619178922
 20
128.284156454
 10
52.343443627
 20
128.071482843
  0
LWPOLYLINE
  5
FB8
330
A02
100
AcDbEntity
100
AcDbPolyline
  8
ShapeString006
 90
2
 70
0
 43
0
 10
52.343443627
 20
128.071482843
 10
52.008220997
 20
127.925700572
  0
LWPOLYLINE
  5
FB9
330
A02
100
AcDbEntity
100
AcDbPolyline
  8
ShapeString006
 90
2
 70
0
 43
0
 10
52.008220997
 20
127.925700572
 10
51.642616422
 20
127.841448121
  0
LWPOLYLINE
  5
FBA
330
A02
100
AcDbEntity
100
AcDbPolyline
  8
ShapeString006
 90
2
 70
0
 43
0
 10
51.642616422
 20
127.841448121
 10
51.274969363
 20
127.814640523
  0
LWPOLYLINE
  5
FBB
330
A02
100
AcDbEntity
100
AcDbPolyline
  8
ShapeString006
 90
2
 70
0
 43
0
 10
51.274969363
 20
127.814640523
 10
50.556781046
 20
127.849107435
  0
LWPOLYLINE
  5
FBC
330
A02
100
AcDbEntity
100
AcDbPolyline
  8
ShapeString006
 90
2
 70
0
 43
0
 10
50.556781046
 20
127.849107435
 10
49.915441176
 20
127.960422794
  0
LINE
  5
FBD
330
A02
100
AcDbEntity
  8
ShapeString006
100
AcDbLine
 10
49.915441176
 20
127.960422794
 30
0.000000000
 11
49.915441176
 21
128.573678513
 31
0.000000000
  0
LWPOLYLINE
  5
FBE
330
A02
100
AcDbEntity
100
AcDbPolyline
  8
ShapeString006
 90
2
 70
0
 43
0
 10
49.915441176
 20
128.573678513
 10
50.585631127
 20
128.428151552
  0
LWPOLYLINE
  5
FBF
330
A02
100
AcDbEntity
100
AcDbPolyline
  8
ShapeString006
 90
2
 70
0
 43
0
 10
50.585631127
 20
128.428151552
 10
51.248161765
 20
128.378366013
  0
LWPOLYLINE
  5
FC0
330
A02
100
AcDbEntity
100
AcDbPolyline
  8
ShapeString006
 90
2
 70
0
 43
0
 10
51.248161765
 20
128.378366013
 10
51.956648284
 20
128.508574346
  0
LWPOLYLINE
  5
FC1
330
A02
100
AcDbEntity
100
AcDbPolyline
  8
ShapeString006
 90
2
 70
0
 43
0
 10
51.956648284
 20
128.508574346
 10
52.186427696
 20
128.880306373
  0
LWPOLYLINE
  5
FC2
330
A02
100
AcDbEntity
100
AcDbPolyline
  8
ShapeString006
 90
2
 70
0
 43
0
 10
52.186427696
 20
128.880306373
 10
52.149918301
 20
129.066172386
  0
LWPOLYLINE
  5
FC3
330
A02
100
AcDbEntity
100
AcDbPolyline
  8
ShapeString006
 90
2
 70
0
 43
0
 10
52.149918301
 20
129.066172386
 10
52.017922794
 20
129.223443627
  0
LWPOLYLINE
  5
FC4
330
A02
100
AcDbEntity
100
AcDbPolyline
  8
ShapeString006
 90
2
 70
0
 43
0
 10
52.017922794
 20
129.223443627
 10
51.720996732
 20
129.378672386
  0
LWPOLYLINE
  5
FC5
330
A02
100
AcDbEntity
100
AcDbPolyline
  8
ShapeString006
 90
2
 70
0
 43
0
 10
51.720996732
 20
129.378672386
 10
51.171568627
 20
129.562751225
  0
LWPOLYLINE
  5
FC6
330
A02
100
AcDbEntity
100
AcDbPolyline
  8
ShapeString006
 90
2
 70
0
 43
0
 10
51.171568627
 20
129.562751225
 10
50.690819036
 20
129.737128268
  0
LWPOLYLINE
  5
FC7
330
A02
100
AcDbEntity
100
AcDbPolyline
  8
ShapeString006
 90
2
 70
0
 43
0
 10
50.690819036
 20
129.737128268
 10
50.309895833
 20
129.968950163
  0
LWPOLYLINE
  5
FC8
330
A02
100
AcDbEntity
100
AcDbPolyline
  8
ShapeString006
 90
2
 70
0
 43
0
 10
50.309895833
 20
129.968950163
 10
50.057138480
 20
130.283492647
  0
LWPOLYLINE
  5
FC9
330
A02
100
AcDbEntity
100
AcDbPolyline
  8
ShapeString006
 90
2
 70
0
 43
0
 10
50.057138480
 20
130.283492647
 10
49.965226716
 20
130.709095180
  0
LWPOLYLINE
  5
FCA
330
A02
100
AcDbEntity
100
AcDbPolyline
  8
ShapeString006
 90
2
 70
0
 43
0
 10
49.965226716
 20
130.709095180
 10
50.039777369
 20
131.061678922
  0
LWPOLYLINE
  5
FCB
330
A02
100
AcDbEntity
100
AcDbPolyline
  8
ShapeString006
 90
2
 70
0
 43
0
 10
50.039777369
 20
131.061678922
 10
50.294577206
 20
131.418092320
  0
LWPOLYLINE
  5
FCC
330
A02
100
AcDbEntity
100
AcDbPolyline
  8
ShapeString006
 90
2
 70
0
 43
0
 10
50.294577206
 20
131.418092320
 10
50.780943627
 20
131.692295752
  0
LWPOLYLINE
  5
FCD
330
A02
100
AcDbEntity
100
AcDbPolyline
  8
ShapeString006
 90
2
 70
0
 43
0
 10
50.780943627
 20
131.692295752
 10
51.546875000
 20
131.801568627
  0
LWPOLYLINE
  5
FCE
330
A02
100
AcDbEntity
100
AcDbPolyline
  8
ShapeString006
 90
2
 70
0
 43
0
 10
51.546875000
 20
131.801568627
 10
52.048560049
 20
131.776548203
  0
LWPOLYLINE
  5
FCF
330
A02
100
AcDbEntity
100
AcDbPolyline
  8
ShapeString006
 90
2
 70
0
 43
0
 10
52.048560049
 20
131.776548203
 10
52.623008578
 20
131.690508578
  0
LINE
  5
FD0
330
A02
100
AcDbEntity
  8
ShapeString006
100
AcDbLine
 10
52.623008578
 20
131.690508578
 30
0.000000000
 11
52.623008578
 21
131.096656454
 31
0.000000000
  0
LWPOLYLINE
  5
FD1
330
A02
100
AcDbEntity
100
AcDbPolyline
  8
ShapeString006
 90
2
 70
0
 43
0
 10
52.623008578
 20
131.096656454
 10
52.027369281
 20
131.209503676
  0
LWPOLYLINE
  5
FD2
330
A02
100
AcDbEntity
100
AcDbPolyline
  8
ShapeString006
 90
2
 70
0
 43
0
 10
52.027369281
 20
131.209503676
 10
51.539215686
 20
131.246013072
  0
LWPOLYLINE
  5
FD3
330
A02
100
AcDbEntity
100
AcDbPolyline
  8
ShapeString006
 90
2
 70
0
 43
0
 10
51.539215686
 20
131.246013072
 10
51.119740605
 20
131.207716503
  0
LWPOLYLINE
  5
FD4
330
A02
100
AcDbEntity
100
AcDbPolyline
  8
ShapeString006
 90
2
 70
0
 43
0
 10
51.119740605
 20
131.207716503
 10
50.844005310
 20
131.102273284
  0
LWPOLYLINE
  5
FD5
330
A02
100
AcDbEntity
100
AcDbPolyline
  8
ShapeString006
 90
2
 70
0
 43
0
 10
50.844005310
 20
131.102273284
 10
50.692861520
 20
130.945002042
  0
LWPOLYLINE
  5
FD6
330
A02
100
AcDbEntity
100
AcDbPolyline
  8
ShapeString006
 90
2
 70
0
 43
0
 10
50.692861520
 20
130.945002042
 10
50.646905637
 20
130.751221405
  0
LWPOLYLINE
  5
FD7
330
A02
100
AcDbEntity
100
AcDbPolyline
  8
ShapeString006
 90
2
 70
0
 43
0
 10
50.646905637
 20
130.751221405
 10
50.686989379
 20
130.563312908
  0
LWPOLYLINE
  5
FD8
330
A02
100
AcDbEntity
100
AcDbPolyline
  8
ShapeString006
 90
2
 70
0
 43
0
 10
50.686989379
 20
130.563312908
 10
50.836345997
 20
130.400424837
  0
LWPOLYLINE
  5
FD9
330
A02
100
AcDbEntity
100
AcDbPolyline
  8
ShapeString006
 90
2
 70
0
 43
0
 10
50.836345997
 20
130.400424837
 10
51.140931373
 20
130.243153595
  0
LWPOLYLINE
  5
FDA
330
A02
100
AcDbEntity
100
AcDbPolyline
  8
ShapeString006
 90
2
 70
0
 43
0
 10
51.140931373
 20
130.243153595
 10
51.650275735
 20
130.072606209
  0
LWPOLYLINE
  5
FDB
330
A02
100
AcDbEntity
100
AcDbPolyline
  8
ShapeString006
 90
2
 70
0
 43
0
 10
51.650275735
 20
130.072606209
 10
52.224724265
 20
129.863762255
  0
LWPOLYLINE
  5
FDC
330
A02
100
AcDbEntity
100
AcDbPolyline
  8
ShapeString006
 90
2
 70
0
 43
0
 10
52.224724265
 20
129.863762255
 10
52.603860294
 20
129.620196078
  0
LWPOLYLINE
  5
FDD
330
A02
100
AcDbEntity
100
AcDbPolyline
  8
ShapeString006
 90
2
 70
0
 43
0
 10
52.603860294
 20
129.620196078
 10
52.812448938
 20
129.317397876
  0
LWPOLYLINE
  5
FDE
330
A02
100
AcDbEntity
100
AcDbPolyline
  8
ShapeString006
 90
2
 70
0
 43
0
 10
52.812448938
 20
129.317397876
 10
52.875765931
 20
128.934176879
  0
LWPOLYLINE
  5
FDF
330
A02
100
AcDbEntity
100
AcDbPolyline
  8
ShapeString007
 90
2
 70
0
 43
0
 10
63.383272159
 20
60.420849673
 10
63.224213744
 20
59.255612745
  0
LWPOLYLINE
  5
FE0
330
A02
100
AcDbEntity
100
AcDbPolyline
  8
ShapeString007
 90
2
 70
0
 43
0
 10
63.224213744
 20
59.255612745
 10
62.795292175
 20
58.445002042
  0
LWPOLYLINE
  5
FE1
330
A02
100
AcDbEntity
100
AcDbPolyline
  8
ShapeString007
 90
2
 70
0
 43
0
 10
62.795292175
 20
58.445002042
 10
62.163398793
 20
57.969869281
  0
LWPOLYLINE
  5
FE2
330
A02
100
AcDbEntity
100
AcDbPolyline
  8
ShapeString007
 90
2
 70
0
 43
0
 10
62.163398793
 20
57.969869281
 10
61.399509904
 20
57.814640523
  0
LWPOLYLINE
  5
FE3
330
A02
100
AcDbEntity
100
AcDbPolyline
  8
ShapeString007
 90
2
 70
0
 43
0
 10
61.399509904
 20
57.814640523
 10
60.558772567
 20
57.989017565
  0
LWPOLYLINE
  5
FE4
330
A02
100
AcDbEntity
100
AcDbPolyline
  8
ShapeString007
 90
2
 70
0
 43
0
 10
60.558772567
 20
57.989017565
 10
59.965175754
 20
58.493000408
  0
LWPOLYLINE
  5
FE5
330
A02
100
AcDbEntity
100
AcDbPolyline
  8
ShapeString007
 90
2
 70
0
 43
0
 10
59.965175754
 20
58.493000408
 10
59.614889806
 20
59.295951797
  0
LWPOLYLINE
  5
FE6
330
A02
100
AcDbEntity
100
AcDbPolyline
  8
ShapeString007
 90
2
 70
0
 43
0
 10
59.614889806
 20
59.295951797
 10
59.500000100
 20
60.363149510
  0
LWPOLYLINE
  5
FE7
330
A02
100
AcDbEntity
100
AcDbPolyline
  8
ShapeString007
 90
2
 70
0
 43
0
 10
59.500000100
 20
60.363149510
 10
59.657016031
 20
61.520471814
  0
LWPOLYLINE
  5
FE8
330
A02
100
AcDbEntity
100
AcDbPolyline
  8
ShapeString007
 90
2
 70
0
 43
0
 10
59.657016031
 20
61.520471814
 10
60.083895116
 20
62.331082516
  0
LWPOLYLINE
  5
FE9
330
A02
100
AcDbEntity
100
AcDbPolyline
  8
ShapeString007
 90
2
 70
0
 43
0
 10
60.083895116
 20
62.331082516
 10
60.714001325
 20
62.806470588
  0
LWPOLYLINE
  5
FEA
330
A02
100
AcDbEntity
100
AcDbPolyline
  8
ShapeString007
 90
2
 70
0
 43
0
 10
60.714001325
 20
62.806470588
 10
61.476103041
 20
62.961699346
  0
LWPOLYLINE
  5
FEB
330
A02
100
AcDbEntity
100
AcDbPolyline
  8
ShapeString007
 90
2
 70
0
 43
0
 10
61.476103041
 20
62.961699346
 10
62.316585067
 20
62.785279820
  0
LWPOLYLINE
  5
FEC
330
A02
100
AcDbEntity
100
AcDbPolyline
  8
ShapeString007
 90
2
 70
0
 43
0
 10
62.316585067
 20
62.785279820
 10
62.912224365
 20
62.281296977
  0
LWPOLYLINE
  5
FED
330
A02
100
AcDbEntity
100
AcDbPolyline
  8
ShapeString007
 90
2
 70
0
 43
0
 10
62.912224365
 20
62.281296977
 10
63.266339969
 20
61.482175245
  0
LWPOLYLINE
  5
FEE
330
A02
100
AcDbEntity
100
AcDbPolyline
  8
ShapeString007
 90
2
 70
0
 43
0
 10
63.266339969
 20
61.482175245
 10
63.383272159
 20
60.420849673
  0
LWPOLYLINE
  5
FEF
330
A02
100
AcDbEntity
100
AcDbPolyline
  8
ShapeString007
 90
2
 70
0
 43
0
 10
62.674785639
 20
60.370808824
 10
62.607638989
 20
61.178100490
  0
LWPOLYLINE
  5
FF0
330
A02
100
AcDbEntity
100
AcDbPolyline
  8
ShapeString007
 90
2
 70
0
 43
0
 10
62.607638989
 20
61.178100490
 10
62.391391031
 20
61.808972631
  0
LWPOLYLINE
  5
FF1
330
A02
100
AcDbEntity
100
AcDbPolyline
  8
ShapeString007
 90
2
 70
0
 43
0
 10
62.391391031
 20
61.808972631
 10
62.006382861
 20
62.219511846
  0
LWPOLYLINE
  5
FF2
330
A02
100
AcDbEntity
100
AcDbPolyline
  8
ShapeString007
 90
2
 70
0
 43
0
 10
62.006382861
 20
62.219511846
 10
61.437806473
 20
62.365294118
  0
LWPOLYLINE
  5
FF3
330
A02
100
AcDbEntity
100
AcDbPolyline
  8
ShapeString007
 90
2
 70
0
 43
0
 10
61.437806473
 20
62.365294118
 10
60.884293401
 20
62.209810049
  0
LWPOLYLINE
  5
FF4
330
A02
100
AcDbEntity
100
AcDbPolyline
  8
ShapeString007
 90
2
 70
0
 43
0
 10
60.884293401
 20
62.209810049
 10
60.503370198
 20
61.788037173
  0
LWPOLYLINE
  5
FF5
330
A02
100
AcDbEntity
100
AcDbPolyline
  8
ShapeString007
 90
2
 70
0
 43
0
 10
60.503370198
 20
61.788037173
 10
60.281250100
 20
61.162781863
  0
LWPOLYLINE
  5
FF6
330
A02
100
AcDbEntity
100
AcDbPolyline
  8
ShapeString007
 90
2
 70
0
 43
0
 10
60.281250100
 20
61.162781863
 10
60.208486620
 20
60.401446078
  0
LWPOLYLINE
  5
FF7
330
A02
100
AcDbEntity
100
AcDbPolyline
  8
ShapeString007
 90
2
 70
0
 43
0
 10
60.208486620
 20
60.401446078
 10
60.277420443
 20
59.590069444
  0
LWPOLYLINE
  5
FF8
330
A02
100
AcDbEntity
100
AcDbPolyline
  8
ShapeString007
 90
2
 70
0
 43
0
 10
60.277420443
 20
59.590069444
 10
60.493668401
 20
58.961239788
  0
LWPOLYLINE
  5
FF9
330
A02
100
AcDbEntity
100
AcDbPolyline
  8
ShapeString007
 90
2
 70
0
 43
0
 10
60.493668401
 20
58.961239788
 10
60.874846914
 20
58.552743056
  0
LWPOLYLINE
  5
FFA
330
A02
100
AcDbEntity
100
AcDbPolyline
  8
ShapeString007
 90
2
 70
0
 43
0
 10
60.874846914
 20
58.552743056
 10
61.437806473
 20
58.406960784
  0
LWPOLYLINE
  5
FFB
330
A02
100
AcDbEntity
100
AcDbPolyline
  8
ShapeString007
 90
2
 70
0
 43
0
 10
61.437806473
 20
58.406960784
 10
61.993106718
 20
58.562189542
  0
LWPOLYLINE
  5
FFC
330
A02
100
AcDbEntity
100
AcDbPolyline
  8
ShapeString007
 90
2
 70
0
 43
0
 10
61.993106718
 20
58.562189542
 10
62.377859577
 20
58.984217729
  0
LWPOLYLINE
  5
FFD
330
A02
100
AcDbEntity
100
AcDbPolyline
  8
ShapeString007
 90
2
 70
0
 43
0
 10
62.377859577
 20
58.984217729
 10
62.602022159
 20
59.607430556
  0
LWPOLYLINE
  5
FFE
330
A02
100
AcDbEntity
100
AcDbPolyline
  8
ShapeString007
 90
2
 70
0
 43
0
 10
62.602022159
 20
59.607430556
 10
62.674785639
 20
60.370808824
  0
LINE
  5
FFF
330
A02
100
AcDbEntity
  8
ShapeString007
100
AcDbLine
 10
67.455729267
 20
57.880000000
 30
0.000000000
 11
66.567248875
 21
57.880000000
 31
0.000000000
  0
LINE
  5
1000
330
A02
100
AcDbEntity
  8
ShapeString007
100
AcDbLine
 10
66.567248875
 20
57.880000000
 30
0.000000000
 11
65.108149610
 21
61.008319036
 31
0.000000000
  0
LINE
  5
1001
330
A02
100
AcDbEntity
  8
ShapeString007
100
AcDbLine
 10
65.108149610
 20
61.008319036
 30
0.000000000
 11
64.686887355
 21
62.013986928
 31
0.000000000
  0
LINE
  5
1002
330
A02
100
AcDbEntity
  8
ShapeString007
100
AcDbLine
 10
64.686887355
 20
62.013986928
 30
0.000000000
 11
64.686887355
 21
59.484370915
 31
0.000000000
  0
LINE
  5
1003
330
A02
100
AcDbEntity
  8
ShapeString007
100
AcDbLine
 10
64.686887355
 20
59.484370915
 30
0.000000000
 11
64.686887355
 21
57.880000000
 31
0.000000000
  0
LINE
  5
1004
330
A02
100
AcDbEntity
  8
ShapeString007
100
AcDbLine
 10
64.686887355
 20
57.880000000
 30
0.000000000
 11
64.051164316
 21
57.880000000
 31
0.000000000
  0
LINE
  5
1005
330
A02
100
AcDbEntity
  8
ShapeString007
100
AcDbLine
 10
64.051164316
 20
57.880000000
 30
0.000000000
 11
64.051164316
 21
62.880000000
 31
0.000000000
  0
LINE
  5
1006
330
A02
100
AcDbEntity
  8
ShapeString007
100
AcDbLine
 10
64.051164316
 20
62.880000000
 30
0.000000000
 11
64.928155737
 21
62.880000000
 31
0.000000000
  0
LINE
  5
1007
330
A02
100
AcDbEntity
  8
ShapeString007
100
AcDbLine
 10
64.928155737
 20
62.880000000
 30
0.000000000
 11
66.318321178
 21
59.923760212
 31
0.000000000
  0
LINE
  5
1008
330
A02
100
AcDbEntity
  8
ShapeString007
100
AcDbLine
 10
66.318321178
 20
59.923760212
 30
0.000000000
 11
66.820006227
 21
58.778692810
 31
0.000000000
  0
LINE
  5
1009
330
A02
100
AcDbEntity
  8
ShapeString007
100
AcDbLine
 10
66.820006227
 20
58.778692810
 30
0.000000000
 11
66.820006227
 21
61.459197304
 31
0.000000000
  0
LINE
  5
100A
330
A02
100
AcDbEntity
  8
ShapeString007
100
AcDbLine
 10
66.820006227
 20
61.459197304
 30
0.000000000
 11
66.820006227
 21
62.880000000
 31
0.000000000
  0
LINE
  5
100B
330
A02
100
AcDbEntity
  8
ShapeString007
100
AcDbLine
 10
66.820006227
 20
62.880000000
 30
0.000000000
 11
67.455729267
 21
62.880000000
 31
0.000000000
  0
LINE
  5
100C
330
A02
100
AcDbEntity
  8
ShapeString007
100
AcDbLine
 10
67.455729267
 20
62.880000000
 30
0.000000000
 11
67.455729267
 21
57.880000000
 31
0.000000000
  0
LINE
  5
100D
330
A02
100
AcDbEntity
  8
laser_sketch001
100
AcDbLine
 10
0.000000000
 20
0.000000000
 30
0.000000000
 11
13.800000000
 21
0.000000000
 31
0.000000000
  0
LINE
  5
100E
330
A02
100
AcDbEntity
  8
laser_sketch001
100
AcDbLine
 10
13.800000000
 20
0.000000000
 30
0.000000000
 11
13.800000000
 21
3.300000000
 31
0.000000000
  0
LINE
  5
100F
330
A02
100
AcDbEntity
  8
laser_sketch001
100
AcDbLine
 10
13.800000000
 20
3.300000000
 30
0.000000000
 11
21.800000000
 21
3.300000000
 31
0.000000000
  0
LINE
  5
1010
330
A02
100
AcDbEntity
  8
laser_sketch001
100
AcDbLine
 10
21.800000000
 20
0.000000000
 30
0.000000000
 11
21.800000000
 21
3.300000000
 31
0.000000000
  0
LINE
  5
1011
330
A02
100
AcDbEntity
  8
laser_sketch001
100
AcDbLine
 10
21.800000000
 20
0.000000000
 30
0.000000000
 11
29.800000000
 21
0.000000000
 31
0.000000000
  0
LINE
  5
1012
330
A02
100
AcDbEntity
  8
laser_sketch001
100
AcDbLine
 10
29.800000000
 20
0.000000000
 30
0.000000000
 11
29.800000000
 21
3.300000000
 31
0.000000000
  0
LINE
  5
1013
330
A02
100
AcDbEntity
  8
laser_sketch001
100
AcDbLine
 10
29.800000000
 20
3.300000000
 30
0.000000000
 11
37.800000000
 21
3.300000000
 31
0.000000000
  0
LINE
  5
1014
330
A02
100
AcDbEntity
  8
laser_sketch001
100
AcDbLine
 10
37.800000000
 20
0.000000000
 30
0.000000000
 11
37.800000000
 21
3.300000000
 31
0.000000000
  0
LINE
  5
1015
330
A02
100
AcDbEntity
  8
laser_sketch001
100
AcDbLine
 10
37.800000000
 20
0.000000000
 30
0.000000000
 11
45.800000000
 21
0.000000000
 31
0.000000000
  0
LINE
  5
1016
330
A02
100
AcDbEntity
  8
laser_sketch001
100
AcDbLine
 10
45.800000000
 20
0.000000000
 30
0.000000000
 11
45.800000000
 21
3.300000000
 31
0.000000000
  0
LINE
  5
1017
330
A02
100
AcDbEntity
  8
laser_sketch001
100
AcDbLine
 10
45.800000000
 20
3.300000000
 30
0.000000000
 11
53.800000000
 21
3.300000000
 31
0.000000000
  0
LINE
  5
1018
330
A02
100
AcDbEntity
  8
laser_sketch001
100
AcDbLine
 10
53.800000000
 20
0.000000000
 30
0.000000000
 11
53.800000000
 21
3.300000000
 31
0.000000000
  0
LINE
  5
1019
330
A02
100
AcDbEntity
  8
laser_sketch001
100
AcDbLine
 10
53.800000000
 20
0.000000000
 30
0.000000000
 11
61.800000000
 21
0.000000000
 31
0.000000000
  0
LINE
  5
101A
330
A02
100
AcDbEntity
  8
laser_sketch001
100
AcDbLine
 10
61.800000000
 20
0.000000000
 30
0.000000000
 11
61.800000000
 21
3.300000000
 31
0.000000000
  0
LINE
  5
101B
330
A02
100
AcDbEntity
  8
laser_sketch001
100
AcDbLine
 10
61.800000000
 20
3.300000000
 30
0.000000000
 11
69.800000000
 21
3.300000000
 31
0.000000000
  0
LINE
  5
101C
330
A02
100
AcDbEntity
  8
laser_sketch001
100
AcDbLine
 10
69.800000000
 20
0.000000000
 30
0.000000000
 11
69.800000000
 21
3.300000000
 31
0.000000000
  0
LINE
  5
101D
330
A02
100
AcDbEntity
  8
laser_sketch001
100
AcDbLine
 10
69.800000000
 20
0.000000000
 30
0.000000000
 11
77.800000000
 21
0.000000000
 31
0.000000000
  0
LINE
  5
101E
330
A02
100
AcDbEntity
  8
laser_sketch001
100
AcDbLine
 10
77.800000000
 20
0.000000000
 30
0.000000000
 11
77.800000000
 21
3.300000000
 31
0.000000000
  0
LINE
  5
101F
330
A02
100
AcDbEntity
  8
laser_sketch001
100
AcDbLine
 10
77.800000000
 20
3.300000000
 30
0.000000000
 11
85.800000000
 21
3.300000000
 31
0.000000000
  0
LINE
  5
1020
330
A02
100
AcDbEntity
  8
laser_sketch001
100
AcDbLine
 10
85.800000000
 20
0.000000000
 30
0.000000000
 11
85.800000000
 21
3.300000000
 31
0.000000000
  0
LINE
  5
1021
330
A02
100
AcDbEntity
  8
laser_sketch001
100
AcDbLine
 10
85.800000000
 20
0.000000000
 30
0.000000000
 11
93.800000000
 21
0.000000000
 31
0.000000000
  0
LINE
  5
1022
330
A02
100
AcDbEntity
  8
laser_sketch001
100
AcDbLine
 10
93.800000000
 20
0.000000000
 30
0.000000000
 11
93.800000000
 21
3.300000000
 31
0.000000000
  0
LINE
  5
1023
330
A02
100
AcDbEntity
  8
laser_sketch001
100
AcDbLine
 10
93.800000000
 20
3.300000000
 30
0.000000000
 11
101.800000000
 21
3.300000000
 31
0.000000000
  0
LINE
  5
1024
330
A02
100
AcDbEntity
  8
laser_sketch001
100
AcDbLine
 10
101.800000000
 20
0.000000000
 30
0.000000000
 11
101.800000000
 21
3.300000000
 31
0.000000000
  0
LINE
  5
1025
330
A02
100
AcDbEntity
  8
laser_sketch001
100
AcDbLine
 10
101.800000000
 20
0.000000000
 30
0.000000000
 11
109.800000000
 21
0.000000000
 31
0.000000000
  0
LINE
  5
1026
330
A02
100
AcDbEntity
  8
laser_sketch001
100
AcDbLine
 10
109.800000000
 20
0.000000000
 30
0.000000000
 11
109.800000000
 21
3.300000000
 31
0.000000000
  0
LINE
  5
1027
330
A02
100
AcDbEntity
  8
laser_sketch001
100
AcDbLine
 10
109.800000000
 20
3.300000000
 30
0.000000000
 11
117.800000000
 21
3.300000000
 31
0.000000000
  0
LINE
  5
1028
330
A02
100
AcDbEntity
  8
laser_sketch001
100
AcDbLine
 10
117.800000000
 20
0.000000000
 30
0.000000000
 11
117.800000000
 21
3.300000000
 31
0.000000000
  0
LINE
  5
1029
330
A02
100
AcDbEntity
  8
laser_sketch001
100
AcDbLine
 10
117.800000000
 20
0.000000000
 30
0.000000000
 11
131.600000000
 21
0.000000000
 31
0.000000000
  0
LINE
  5
102A
330
A02
100
AcDbEntity
  8
laser_sketch001
100
AcDbLine
 10
131.600000000
 20
0.000000000
 30
0.000000000
 11
131.600000000
 21
10.800000000
 31
0.000000000
  0
LINE
  5
102B
330
A02
100
AcDbEntity
  8
laser_sketch001
100
AcDbLine
 10
131.600000000
 20
10.800000000
 30
0.000000000
 11
128.300000000
 21
10.800000000
 31
0.000000000
  0
LINE
  5
102C
330
A02
100
AcDbEntity
  8
laser_sketch001
100
AcDbLine
 10
128.300000000
 20
10.800000000
 30
0.000000000
 11
128.300000000
 21
18.800000000
 31
0.000000000
  0
LINE
  5
102D
330
A02
100
AcDbEntity
  8
laser_sketch001
100
AcDbLine
 10
131.600000000
 20
18.800000000
 30
0.000000000
 11
128.300000000
 21
18.800000000
 31
0.000000000
  0
LINE
  5
102E
330
A02
100
AcDbEntity
  8
laser_sketch001
100
AcDbLine
 10
131.600000000
 20
18.800000000
 30
0.000000000
 11
131.600000000
 21
26.800000000
 31
0.000000000
  0
LINE
  5
102F
330
A02
100
AcDbEntity
  8
laser_sketch001
100
AcDbLine
 10
131.600000000
 20
26.800000000
 30
0.000000000
 11
128.300000000
 21
26.800000000
 31
0.000000000
  0
LINE
  5
1030
330
A02
100
AcDbEntity
  8
laser_sketch001
100
AcDbLine
 10
128.300000000
 20
26.800000000
 30
0.000000000
 11
128.300000000
 21
34.800000000
 31
0.000000000
  0
LINE
  5
1031
330
A02
100
AcDbEntity
  8
laser_sketch001
100
AcDbLine
 10
131.600000000
 20
34.800000000
 30
0.000000000
 11
128.300000000
 21
34.800000000
 31
0.000000000
  0
LINE
  5
1032
330
A02
100
AcDbEntity
  8
laser_sketch001
100
AcDbLine
 10
131.600000000
 20
34.800000000
 30
0.000000000
 11
131.600000000
 21
42.800000000
 31
0.000000000
  0
LINE
  5
1033
330
A02
100
AcDbEntity
  8
laser_sketch001
100
AcDbLine
 10
131.600000000
 20
42.800000000
 30
0.000000000
 11
128.300000000
 21
42.800000000
 31
0.000000000
  0
LINE
  5
1034
330
A02
100
AcDbEntity
  8
laser_sketch001
100
AcDbLine
 10
128.300000000
 20
42.800000000
 30
0.000000000
 11
128.300000000
 21
50.800000000
 31
0.000000000
  0
LINE
  5
1035
330
A02
100
AcDbEntity
  8
laser_sketch001
100
AcDbLine
 10
131.600000000
 20
50.800000000
 30
0.000000000
 11
128.300000000
 21
50.800000000
 31
0.000000000
  0
LINE
  5
1036
330
A02
100
AcDbEntity
  8
laser_sketch001
100
AcDbLine
 10
131.600000000
 20
50.800000000
 30
0.000000000
 11
131.600000000
 21
58.800000000
 31
0.000000000
  0
LINE
  5
1037
330
A02
100
AcDbEntity
  8
laser_sketch001
100
AcDbLine
 10
131.600000000
 20
58.800000000
 30
0.000000000
 11
128.300000000
 21
58.800000000
 31
0.000000000
  0
LINE
  5
1038
330
A02
100
AcDbEntity
  8
laser_sketch001
100
AcDbLine
 10
128.300000000
 20
58.800000000
 30
0.000000000
 11
128.300000000
 21
66.800000000
 31
0.000000000
  0
LINE
  5
1039
330
A02
100
AcDbEntity
  8
laser_sketch001
100
AcDbLine
 10
131.600000000
 20
66.800000000
 30
0.000000000
 11
128.300000000
 21
66.800000000
 31
0.000000000
  0
LINE
  5
103A
330
A02
100
AcDbEntity
  8
laser_sketch001
100
AcDbLine
 10
131.600000000
 20
66.800000000
 30
0.000000000
 11
131.600000000
 21
74.800000000
 31
0.000000000
  0
LINE
  5
103B
330
A02
100
AcDbEntity
  8
laser_sketch001
100
AcDbLine
 10
131.600000000
 20
74.800000000
 30
0.000000000
 11
128.300000000
 21
74.800000000
 31
0.000000000
  0
LINE
  5
103C
330
A02
100
AcDbEntity
  8
laser_sketch001
100
AcDbLine
 10
128.300000000
 20
74.800000000
 30
0.000000000
 11
128.300000000
 21
82.800000000
 31
0.000000000
  0
LINE
  5
103D
330
A02
100
AcDbEntity
  8
laser_sketch001
100
AcDbLine
 10
131.600000000
 20
82.800000000
 30
0.000000000
 11
128.300000000
 21
82.800000000
 31
0.000000000
  0
LINE
  5
103E
330
A02
100
AcDbEntity
  8
laser_sketch001
100
AcDbLine
 10
131.600000000
 20
82.800000000
 30
0.000000000
 11
131.600000000
 21
90.800000000
 31
0.000000000
  0
LINE
  5
103F
330
A02
100
AcDbEntity
  8
laser_sketch001
100
AcDbLine
 10
131.600000000
 20
90.800000000
 30
0.000000000
 11
128.300000000
 21
90.800000000
 31
0.000000000
  0
LINE
  5
1040
330
A02
100
AcDbEntity
  8
laser_sketch001
100
AcDbLine
 10
128.300000000
 20
90.800000000
 30
0.000000000
 11
128.300000000
 21
98.800000000
 31
0.000000000
  0
LINE
  5
1041
330
A02
100
AcDbEntity
  8
laser_sketch001
100
AcDbLine
 10
131.600000000
 20
98.800000000
 30
0.000000000
 11
128.300000000
 21
98.800000000
 31
0.000000000
  0
LINE
  5
1042
330
A02
100
AcDbEntity
  8
laser_sketch001
100
AcDbLine
 10
131.600000000
 20
98.800000000
 30
0.000000000
 11
131.600000000
 21
106.800000000
 31
0.000000000
  0
LINE
  5
1043
330
A02
100
AcDbEntity
  8
laser_sketch001
100
AcDbLine
 10
131.600000000
 20
106.800000000
 30
0.000000000
 11
128.300000000
 21
106.800000000
 31
0.000000000
  0
LINE
  5
1044
330
A02
100
AcDbEntity
  8
laser_sketch001
100
AcDbLine
 10
128.300000000
 20
106.800000000
 30
0.000000000
 11
128.300000000
 21
114.800000000
 31
0.000000000
  0
LINE
  5
1045
330
A02
100
AcDbEntity
  8
laser_sketch001
100
AcDbLine
 10
131.600000000
 20
114.800000000
 30
0.000000000
 11
128.300000000
 21
114.800000000
 31
0.000000000
  0
LINE
  5
1046
330
A02
100
AcDbEntity
  8
laser_sketch001
100
AcDbLine
 10
131.600000000
 20
114.800000000
 30
0.000000000
 11
131.600000000
 21
122.800000000
 31
0.000000000
  0
LINE
  5
1047
330
A02
100
AcDbEntity
  8
laser_sketch001
100
AcDbLine
 10
131.600000000
 20
122.800000000
 30
0.000000000
 11
128.300000000
 21
122.800000000
 31
0.000000000
  0
LINE
  5
1048
330
A02
100
AcDbEntity
  8
laser_sketch001
100
AcDbLine
 10
128.300000000
 20
122.800000000
 30
0.000000000
 11
128.300000000
 21
130.800000000
 31
0.000000000
  0
LINE
  5
1049
330
A02
100
AcDbEntity
  8
laser_sketch001
100
AcDbLine
 10
131.600000000
 20
130.800000000
 30
0.000000000
 11
128.300000000
 21
130.800000000
 31
0.000000000
  0
LINE
  5
104A
330
A02
100
AcDbEntity
  8
laser_sketch001
100
AcDbLine
 10
131.600000000
 20
130.800000000
 30
0.000000000
 11
131.600000000
 21
141.600000000
 31
0.000000000
  0
LINE
  5
104B
330
A02
100
AcDbEntity
  8
laser_sketch001
100
AcDbLine
 10
117.800000000
 20
141.600000000
 30
0.000000000
 11
131.600000000
 21
141.600000000
 31
0.000000000
  0
LINE
  5
104C
330
A02
100
AcDbEntity
  8
laser_sketch001
100
AcDbLine
 10
117.800000000
 20
141.600000000
 30
0.000000000
 11
117.800000000
 21
138.300000000
 31
0.000000000
  0
LINE
  5
104D
330
A02
100
AcDbEntity
  8
laser_sketch001
100
AcDbLine
 10
109.800000000
 20
138.300000000
 30
0.000000000
 11
117.800000000
 21
138.300000000
 31
0.000000000
  0
LINE
  5
104E
330
A02
100
AcDbEntity
  8
laser_sketch001
100
AcDbLine
 10
109.800000000
 20
141.600000000
 30
0.000000000
 11
109.800000000
 21
138.300000000
 31
0.000000000
  0
LINE
  5
104F
330
A02
100
AcDbEntity
  8
laser_sketch001
100
AcDbLine
 10
101.800000000
 20
141.600000000
 30
0.000000000
 11
109.800000000
 21
141.600000000
 31
0.000000000
  0
LINE
  5
1050
330
A02
100
AcDbEntity
  8
laser_sketch001
100
AcDbLine
 10
101.800000000
 20
141.600000000
 30
0.000000000
 11
101.800000000
 21
138.300000000
 31
0.000000000
  0
LINE
  5
1051
330
A02
100
AcDbEntity
  8
laser_sketch001
100
AcDbLine
 10
93.800000000
 20
138.300000000
 30
0.000000000
 11
101.800000000
 21
138.300000000
 31
0.000000000
  0
LINE
  5
1052
330
A02
100
AcDbEntity
  8
laser_sketch001
100
AcDbLine
 10
93.800000000
 20
141.600000000
 30
0.000000000
 11
93.800000000
 21
138.300000000
 31
0.000000000
  0
LINE
  5
1053
330
A02
100
AcDbEntity
  8
laser_sketch001
100
AcDbLine
 10
85.800000000
 20
141.600000000
 30
0.000000000
 11
93.800000000
 21
141.600000000
 31
0.000000000
  0
LINE
  5
1054
330
A02
100
AcDbEntity
  8
laser_sketch001
100
AcDbLine
 10
85.800000000
 20
141.600000000
 30
0.000000000
 11
85.800000000
 21
138.300000000
 31
0.000000000
  0
LINE
  5
1055
330
A02
100
AcDbEntity
  8
laser_sketch001
100
AcDbLine
 10
77.800000000
 20
138.300000000
 30
0.000000000
 11
85.800000000
 21
138.300000000
 31
0.000000000
  0
LINE
  5
1056
330
A02
100
AcDbEntity
  8
laser_sketch001
100
AcDbLine
 10
77.800000000
 20
141.600000000
 30
0.000000000
 11
77.800000000
 21
138.300000000
 31
0.000000000
  0
LINE
  5
1057
330
A02
100
AcDbEntity
  8
laser_sketch001
100
AcDbLine
 10
69.800000000
 20
141.600000000
 30
0.000000000
 11
77.800000000
 21
141.600000000
 31
0.000000000
  0
LINE
  5
1058
330
A02
100
AcDbEntity
  8
laser_sketch001
100
AcDbLine
 10
69.800000000
 20
141.600000000
 30
0.000000000
 11
69.800000000
 21
138.300000000
 31
0.000000000
  0
LINE
  5
1059
330
A02
100
AcDbEntity
  8
laser_sketch001
100
AcDbLine
 10
61.800000000
 20
138.300000000
 30
0.000000000
 11
69.800000000
 21
138.300000000
 31
0.000000000
  0
LINE
  5
105A
330
A02
100
AcDbEntity
  8
laser_sketch001
100
AcDbLine
 10
61.800000000
 20
141.600000000
 30
0.000000000
 11
61.800000000
 21
138.300000000
 31
0.000000000
  0
LINE
  5
105B
330
A02
100
AcDbEntity
  8
laser_sketch001
100
AcDbLine
 10
53.800000000
 20
141.600000000
 30
0.000000000
 11
61.800000000
 21
141.600000000
 31
0.000000000
  0
LINE
  5
105C
330
A02
100
AcDbEntity
  8
laser_sketch001
100
AcDbLine
 10
53.800000000
 20
141.600000000
 30
0.000000000
 11
53.800000000
 21
138.300000000
 31
0.000000000
  0
LINE
  5
105D
330
A02
100
AcDbEntity
  8
laser_sketch001
100
AcDbLine
 10
45.800000000
 20
138.300000000
 30
0.000000000
 11
53.800000000
 21
138.300000000
 31
0.000000000
  0
LINE
  5
105E
330
A02
100
AcDbEntity
  8
laser_sketch001
100
AcDbLine
 10
45.800000000
 20
141.600000000
 30
0.000000000
 11
45.800000000
 21
138.300000000
 31
0.000000000
  0
LINE
  5
105F
330
A02
100
AcDbEntity
  8
laser_sketch001
100
AcDbLine
 10
37.800000000
 20
141.600000000
 30
0.000000000
 11
45.800000000
 21
141.600000000
 31
0.000000000
  0
LINE
  5
1060
330
A02
100
AcDbEntity
  8
laser_sketch001
100
AcDbLine
 10
37.800000000
 20
141.600000000
 30
0.000000000
 11
37.800000000
 21
138.300000000
 31
0.000000000
  0
LINE
  5
1061
330
A02
100
AcDbEntity
  8
laser_sketch001
100
AcDbLine
 10
29.800000000
 20
138.300000000
 30
0.000000000
 11
37.800000000
 21
138.300000000
 31
0.000000000
  0
LINE
  5
1062
330
A02
100
AcDbEntity
  8
laser_sketch001
100
AcDbLine
 10
29.800000000
 20
141.600000000
 30
0.000000000
 11
29.800000000
 21
138.300000000
 31
0.000000000
  0
LINE
  5
1063
330
A02
100
AcDbEntity
  8
laser_sketch001
100
AcDbLine
 10
21.800000000
 20
141.600000000
 30
0.000000000
 11
29.800000000
 21
141.600000000
 31
0.000000000
  0
LINE
  5
1064
330
A02
100
AcDbEntity
  8
laser_sketch001
100
AcDbLine
 10
21.800000000
 20
141.600000000
 30
0.000000000
 11
21.800000000
 21
138.300000000
 31
0.000000000
  0
LINE
  5
1065
330
A02
100
AcDbEntity
  8
laser_sketch001
100
AcDbLine
 10
13.800000000
 20
138.300000000
 30
0.000000000
 11
21.800000000
 21
138.300000000
 31
0.000000000
  0
LINE
  5
1066
330
A02
100
AcDbEntity
  8
laser_sketch001
100
AcDbLine
 10
13.800000000
 20
141.600000000
 30
0.000000000
 11
13.800000000
 21
138.300000000
 31
0.000000000
  0
LINE
  5
1067
330
A02
100
AcDbEntity
  8
laser_sketch001
100
AcDbLine
 10
0.000000000
 20
141.600000000
 30
0.000000000
 11
13.800000000
 21
141.600000000
 31
0.000000000
  0
LINE
  5
1068
330
A02
100
AcDbEntity
  8
laser_sketch001
100
AcDbLine
 10
0.000000000
 20
130.800000000
 30
0.000000000
 11
0.000000000
 21
141.600000000
 31
0.000000000
  0
LINE
  5
1069
330
A02
100
AcDbEntity
  8
laser_sketch001
100
AcDbLine
 10
0.000000000
 20
130.800000000
 30
0.000000000
 11
3.300000000
 21
130.800000000
 31
0.000000000
  0
LINE
  5
106A
330
A02
100
AcDbEntity
  8
laser_sketch001
100
AcDbLine
 10
3.300000000
 20
122.800000000
 30
0.000000000
 11
3.300000000
 21
130.800000000
 31
0.000000000
  0
LINE
  5
106B
330
A02
100
AcDbEntity
  8
laser_sketch001
100
AcDbLine
 10
0.000000000
 20
122.800000000
 30
0.000000000
 11
3.300000000
 21
122.800000000
 31
0.000000000
  0
LINE
  5
106C
330
A02
100
AcDbEntity
  8
laser_sketch001
100
AcDbLine
 10
0.000000000
 20
114.800000000
 30
0.000000000
 11
0.000000000
 21
122.800000000
 31
0.000000000
  0
LINE
  5
106D
330
A02
100
AcDbEntity
  8
laser_sketch001
100
AcDbLine
 10
0.000000000
 20
114.800000000
 30
0.000000000
 11
3.300000000
 21
114.800000000
 31
0.000000000
  0
LINE
  5
106E
330
A02
100
AcDbEntity
  8
laser_sketch001
100
AcDbLine
 10
3.300000000
 20
106.800000000
 30
0.000000000
 11
3.300000000
 21
114.800000000
 31
0.000000000
  0
LINE
  5
106F
330
A02
100
AcDbEntity
  8
laser_sketch001
100
AcDbLine
 10
0.000000000
 20
106.800000000
 30
0.000000000
 11
3.300000000
 21
106.800000000
 31
0.000000000
  0
LINE
  5
1070
330
A02
100
AcDbEntity
  8
laser_sketch001
100
AcDbLine
 10
0.000000000
 20
98.800000000
 30
0.000000000
 11
0.000000000
 21
106.800000000
 31
0.000000000
  0
LINE
  5
1071
330
A02
100
AcDbEntity
  8
laser_sketch001
100
AcDbLine
 10
0.000000000
 20
98.800000000
 30
0.000000000
 11
3.300000000
 21
98.800000000
 31
0.000000000
  0
LINE
  5
1072
330
A02
100
AcDbEntity
  8
laser_sketch001
100
AcDbLine
 10
3.300000000
 20
90.800000000
 30
0.000000000
 11
3.300000000
 21
98.800000000
 31
0.000000000
  0
LINE
  5
1073
330
A02
100
AcDbEntity
  8
laser_sketch001
100
AcDbLine
 10
0.000000000
 20
90.800000000
 30
0.000000000
 11
3.300000000
 21
90.800000000
 31
0.000000000
  0
LINE
  5
1074
330
A02
100
AcDbEntity
  8
laser_sketch001
100
AcDbLine
 10
0.000000000
 20
82.800000000
 30
0.000000000
 11
0.000000000
 21
90.800000000
 31
0.000000000
  0
LINE
  5
1075
330
A02
100
AcDbEntity
  8
laser_sketch001
100
AcDbLine
 10
0.000000000
 20
82.800000000
 30
0.000000000
 11
3.300000000
 21
82.800000000
 31
0.000000000
  0
LINE
  5
1076
330
A02
100
AcDbEntity
  8
laser_sketch001
100
AcDbLine
 10
3.300000000
 20
74.800000000
 30
0.000000000
 11
3.300000000
 21
82.800000000
 31
0.000000000
  0
LINE
  5
1077
330
A02
100
AcDbEntity
  8
laser_sketch001
100
AcDbLine
 10
0.000000000
 20
74.800000000
 30
0.000000000
 11
3.300000000
 21
74.800000000
 31
0.000000000
  0
LINE
  5
1078
330
A02
100
AcDbEntity
  8
laser_sketch001
100
AcDbLine
 10
0.000000000
 20
66.800000000
 30
0.000000000
 11
0.000000000
 21
74.800000000
 31
0.000000000
  0
LINE
  5
1079
330
A02
100
AcDbEntity
  8
laser_sketch001
100
AcDbLine
 10
0.000000000
 20
66.800000000
 30
0.000000000
 11
3.300000000
 21
66.800000000
 31
0.000000000
  0
LINE
  5
107A
330
A02
100
AcDbEntity
  8
laser_sketch001
100
AcDbLine
 10
3.300000000
 20
58.800000000
 30
0.000000000
 11
3.300000000
 21
66.800000000
 31
0.000000000
  0
LINE
  5
107B
330
A02
100
AcDbEntity
  8
laser_sketch001
100
AcDbLine
 10
0.000000000
 20
58.800000000
 30
0.000000000
 11
3.300000000
 21
58.800000000
 31
0.000000000
  0
LINE
  5
107C
330
A02
100
AcDbEntity
  8
laser_sketch001
100
AcDbLine
 10
0.000000000
 20
50.800000000
 30
0.000000000
 11
0.000000000
 21
58.800000000
 31
0.000000000
  0
LINE
  5
107D
330
A02
100
AcDbEntity
  8
laser_sketch001
100
AcDbLine
 10
0.000000000
 20
50.800000000
 30
0.000000000
 11
3.300000000
 21
50.800000000
 31
0.000000000
  0
LINE
  5
107E
330
A02
100
AcDbEntity
  8
laser_sketch001
100
AcDbLine
 10
3.300000000
 20
42.800000000
 30
0.000000000
 11
3.300000000
 21
50.800000000
 31
0.000000000
  0
LINE
  5
107F
330
A02
100
AcDbEntity
  8
laser_sketch001
100
AcDbLine
 10
0.000000000
 20
42.800000000
 30
0.000000000
 11
3.300000000
 21
42.800000000
 31
0.000000000
  0
LINE
  5
1080
330
A02
100
AcDbEntity
  8
laser_sketch001
100
AcDbLine
 10
0.000000000
 20
34.800000000
 30
0.000000000
 11
0.000000000
 21
42.800000000
 31
0.000000000
  0
LINE
  5
1081
330
A02
100
AcDbEntity
  8
laser_sketch001
100
AcDbLine
 10
0.000000000
 20
34.800000000
 30
0.000000000
 11
3.300000000
 21
34.800000000
 31
0.000000000
  0
LINE
  5
1082
330
A02
100
AcDbEntity
  8
laser_sketch001
100
AcDbLine
 10
3.300000000
 20
26.800000000
 30
0.000000000
 11
3.300000000
 21
34.800000000
 31
0.000000000
  0
LINE
  5
1083
330
A02
100
AcDbEntity
  8
laser_sketch001
100
AcDbLine
 10
0.000000000
 20
26.800000000
 30
0.000000000
 11
3.300000000
 21
26.800000000
 31
0.000000000
  0
LINE
  5
1084
330
A02
100
AcDbEntity
  8
laser_sketch001
100
AcDbLine
 10
0.000000000
 20
18.800000000
 30
0.000000000
 11
0.000000000
 21
26.800000000
 31
0.000000000
  0
LINE
  5
1085
330
A02
100
AcDbEntity
  8
laser_sketch001
100
AcDbLine
 10
0.000000000
 20
18.800000000
 30
0.000000000
 11
3.300000000
 21
18.800000000
 31
0.000000000
  0
LINE
  5
1086
330
A02
100
AcDbEntity
  8
laser_sketch001
100
AcDbLine
 10
3.300000000
 20
10.800000000
 30
0.000000000
 11
3.300000000
 21
18.800000000
 31
0.000000000
  0
LINE
  5
1087
330
A02
100
AcDbEntity
  8
laser_sketch001
100
AcDbLine
 10
0.000000000
 20
10.800000000
 30
0.000000000
 11
3.300000000
 21
10.800000000
 31
0.000000000
  0
LINE
  5
1088
330
A02
100
AcDbEntity
  8
laser_sketch001
100
AcDbLine
 10
0.000000000
 20
0.000000000
 30
0.000000000
 11
0.000000000
 21
10.800000000
 31
0.000000000
  0
LINE
  5
1089
330
A02
100
AcDbEntity
  8
laser_sketch001
100
AcDbLine
 10
-25.300000000
 20
0.000000000
 30
0.000000000
 11
-25.300000000
 21
3.300000000
 31
0.000000000
  0
LINE
  5
108A
330
A02
100
AcDbEntity
  8
laser_sketch001
100
AcDbLine
 10
-13.300000000
 20
3.300000000
 30
0.000000000
 11
-25.300000000
 21
3.300000000
 31
0.000000000
  0
LINE
  5
108B
330
A02
100
AcDbEntity
  8
laser_sketch001
100
AcDbLine
 10
-13.300000000
 20
3.300000000
 30
0.000000000
 11
-13.300000000
 21
10.800000000
 31
0.000000000
  0
LINE
  5
108C
330
A02
100
AcDbEntity
  8
laser_sketch001
100
AcDbLine
 10
-10.000000000
 20
10.800000000
 30
0.000000000
 11
-13.300000000
 21
10.800000000
 31
0.000000000
  0
LINE
  5
108D
330
A02
100
AcDbEntity
  8
laser_sketch001
100
AcDbLine
 10
-10.000000000
 20
10.800000000
 30
0.000000000
 11
-10.000000000
 21
18.800000000
 31
0.000000000
  0
LINE
  5
108E
330
A02
100
AcDbEntity
  8
laser_sketch001
100
AcDbLine
 10
-10.000000000
 20
18.800000000
 30
0.000000000
 11
-13.300000000
 21
18.800000000
 31
0.000000000
  0
LINE
  5
108F
330
A02
100
AcDbEntity
  8
laser_sketch001
100
AcDbLine
 10
-13.300000000
 20
18.800000000
 30
0.000000000
 11
-13.300000000
 21
26.800000000
 31
0.000000000
  0
LINE
  5
1090
330
A02
100
AcDbEntity
  8
laser_sketch001
100
AcDbLine
 10
-10.000000000
 20
26.800000000
 30
0.000000000
 11
-13.300000000
 21
26.800000000
 31
0.000000000
  0
LINE
  5
1091
330
A02
100
AcDbEntity
  8
laser_sketch001
100
AcDbLine
 10
-10.000000000
 20
26.800000000
 30
0.000000000
 11
-10.000000000
 21
34.800000000
 31
0.000000000
  0
LINE
  5
1092
330
A02
100
AcDbEntity
  8
laser_sketch001
100
AcDbLine
 10
-10.000000000
 20
34.800000000
 30
0.000000000
 11
-13.300000000
 21
34.800000000
 31
0.000000000
  0
LINE
  5
1093
330
A02
100
AcDbEntity
  8
laser_sketch001
100
AcDbLine
 10
-13.300000000
 20
34.800000000
 30
0.000000000
 11
-13.300000000
 21
42.800000000
 31
0.000000000
  0
LINE
  5
1094
330
A02
100
AcDbEntity
  8
laser_sketch001
100
AcDbLine
 10
-10.000000000
 20
42.800000000
 30
0.000000000
 11
-13.300000000
 21
42.800000000
 31
0.000000000
  0
LINE
  5
1095
330
A02
100
AcDbEntity
  8
laser_sketch001
100
AcDbLine
 10
-10.000000000
 20
42.800000000
 30
0.000000000
 11
-10.000000000
 21
50.800000000
 31
0.000000000
  0
LINE
  5
1096
330
A02
100
AcDbEntity
  8
laser_sketch001
100
AcDbLine
 10
-10.000000000
 20
50.800000000
 30
0.000000000
 11
-13.300000000
 21
50.800000000
 31
0.000000000
  0
LINE
  5
1097
330
A02
100
AcDbEntity
  8
laser_sketch001
100
AcDbLine
 10
-13.300000000
 20
50.800000000
 30
0.000000000
 11
-13.300000000
 21
58.800000000
 31
0.000000000
  0
LINE
  5
1098
330
A02
100
AcDbEntity
  8
laser_sketch001
100
AcDbLine
 10
-10.000000000
 20
58.800000000
 30
0.000000000
 11
-13.300000000
 21
58.800000000
 31
0.000000000
  0
LINE
  5
1099
330
A02
100
AcDbEntity
  8
laser_sketch001
100
AcDbLine
 10
-10.000000000
 20
58.800000000
 30
0.000000000
 11
-10.000000000
 21
66.800000000
 31
0.000000000
  0
LINE
  5
109A
330
A02
100
AcDbEntity
  8
laser_sketch001
100
AcDbLine
 10
-10.000000000
 20
66.800000000
 30
0.000000000
 11
-13.300000000
 21
66.800000000
 31
0.000000000
  0
LINE
  5
109B
330
A02
100
AcDbEntity
  8
laser_sketch001
100
AcDbLine
 10
-13.300000000
 20
66.800000000
 30
0.000000000
 11
-13.300000000
 21
74.800000000
 31
0.000000000
  0
LINE
  5
109C
330
A02
100
AcDbEntity
  8
laser_sketch001
100
AcDbLine
 10
-10.000000000
 20
74.800000000
 30
0.000000000
 11
-13.300000000
 21
74.800000000
 31
0.000000000
  0
LINE
  5
109D
330
A02
100
AcDbEntity
  8
laser_sketch001
100
AcDbLine
 10
-10.000000000
 20
74.800000000
 30
0.000000000
 11
-10.000000000
 21
82.800000000
 31
0.000000000
  0
LINE
  5
109E
330
A02
100
AcDbEntity
  8
laser_sketch001
100
AcDbLine
 10
-10.000000000
 20
82.800000000
 30
0.000000000
 11
-13.300000000
 21
82.800000000
 31
0.000000000
  0
LINE
  5
109F
330
A02
100
AcDbEntity
  8
laser_sketch001
100
AcDbLine
 10
-13.300000000
 20
82.800000000
 30
0.000000000
 11
-13.300000000
 21
90.800000000
 31
0.000000000
  0
LINE
  5
10A0
330
A02
100
AcDbEntity
  8
laser_sketch001
100
AcDbLine
 10
-10.000000000
 20
90.800000000
 30
0.000000000
 11
-13.300000000
 21
90.800000000
 31
0.000000000
  0
LINE
  5
10A1
330
A02
100
AcDbEntity
  8
laser_sketch001
100
AcDbLine
 10
-10.000000000
 20
90.800000000
 30
0.000000000
 11
-10.000000000
 21
98.800000000
 31
0.000000000
  0
LINE
  5
10A2
330
A02
100
AcDbEntity
  8
laser_sketch001
100
AcDbLine
 10
-10.000000000
 20
98.800000000
 30
0.000000000
 11
-13.300000000
 21
98.800000000
 31
0.000000000
  0
LINE
  5
10A3
330
A02
100
AcDbEntity
  8
laser_sketch001
100
AcDbLine
 10
-13.300000000
 20
98.800000000
 30
0.000000000
 11
-13.300000000
 21
106.800000000
 31
0.000000000
  0
LINE
  5
10A4
330
A02
100
AcDbEntity
  8
laser_sketch001
100
AcDbLine
 10
-10.000000000
 20
106.800000000
 30
0.000000000
 11
-13.300000000
 21
106.800000000
 31
0.000000000
  0
LINE
  5
10A5
330
A02
100
AcDbEntity
  8
laser_sketch001
100
AcDbLine
 10
-10.000000000
 20
106.800000000
 30
0.000000000
 11
-10.000000000
 21
114.800000000
 31
0.000000000
  0
LINE
  5
10A6
330
A02
100
AcDbEntity
  8
laser_sketch001
100
AcDbLine
 10
-10.000000000
 20
114.800000000
 30
0.000000000
 11
-13.300000000
 21
114.800000000
 31
0.000000000
  0
LINE
  5
10A7
330
A02
100
AcDbEntity
  8
laser_sketch001
100
AcDbLine
 10
-13.300000000
 20
114.800000000
 30
0.000000000
 11
-13.300000000
 21
122.800000000
 31
0.000000000
  0
LINE
  5
10A8
330
A02
100
AcDbEntity
  8
laser_sketch001
100
AcDbLine
 10
-10.000000000
 20
122.800000000
 30
0.000000000
 11
-13.300000000
 21
122.800000000
 31
0.000000000
  0
LINE
  5
10A9
330
A02
100
AcDbEntity
  8
laser_sketch001
100
AcDbLine
 10
-10.000000000
 20
122.800000000
 30
0.000000000
 11
-10.000000000
 21
130.800000000
 31
0.000000000
  0
LINE
  5
10AA
330
A02
100
AcDbEntity
  8
laser_sketch001
100
AcDbLine
 10
-10.000000000
 20
130.800000000
 30
0.000000000
 11
-13.300000000
 21
130.800000000
 31
0.000000000
  0
LINE
  5
10AB
330
A02
100
AcDbEntity
  8
laser_sketch001
100
AcDbLine
 10
-13.300000000
 20
130.800000000
 30
0.000000000
 11
-13.300000000
 21
138.300000000
 31
0.000000000
  0
LINE
  5
10AC
330
A02
100
AcDbEntity
  8
laser_sketch001
100
AcDbLine
 10
-13.300000000
 20
138.300000000
 30
0.000000000
 11
-25.300000000
 21
138.300000000
 31
0.000000000
  0
LINE
  5
10AD
330
A02
100
AcDbEntity
  8
laser_sketch001
100
AcDbLine
 10
-25.300000000
 20
141.600000000
 30
0.000000000
 11
-25.300000000
 21
138.300000000
 31
0.000000000
  0
LINE
  5
10AE
330
A02
100
AcDbEntity
  8
laser_sketch001
100
AcDbLine
 10
-25.300000000
 20
141.600000000
 30
0.000000000
 11
-33.300000000
 21
141.600000000
 31
0.000000000
  0
LINE
  5
10AF
330
A02
100
AcDbEntity
  8
laser_sketch001
100
AcDbLine
 10
-33.300000000
 20
141.600000000
 30
0.000000000
 11
-33.300000000
 21
138.300000000
 31
0.000000000
  0
LINE
  5
10B0
330
A02
100
AcDbEntity
  8
laser_sketch001
100
AcDbLine
 10
-33.300000000
 20
138.300000000
 30
0.000000000
 11
-41.300000000
 21
138.300000000
 31
0.000000000
  0
LINE
  5
10B1
330
A02
100
AcDbEntity
  8
laser_sketch001
100
AcDbLine
 10
-41.300000000
 20
141.600000000
 30
0.000000000
 11
-41.300000000
 21
138.300000000
 31
0.000000000
  0
LINE
  5
10B2
330
A02
100
AcDbEntity
  8
laser_sketch001
100
AcDbLine
 10
-41.300000000
 20
141.600000000
 30
0.000000000
 11
-49.300000000
 21
141.600000000
 31
0.000000000
  0
LINE
  5
10B3
330
A02
100
AcDbEntity
  8
laser_sketch001
100
AcDbLine
 10
-49.300000000
 20
141.600000000
 30
0.000000000
 11
-49.300000000
 21
138.300000000
 31
0.000000000
  0
LINE
  5
10B4
330
A02
100
AcDbEntity
  8
laser_sketch001
100
AcDbLine
 10
-49.300000000
 20
138.300000000
 30
0.000000000
 11
-57.300000000
 21
138.300000000
 31
0.000000000
  0
LINE
  5
10B5
330
A02
100
AcDbEntity
  8
laser_sketch001
100
AcDbLine
 10
-57.300000000
 20
141.600000000
 30
0.000000000
 11
-57.300000000
 21
138.300000000
 31
0.000000000
  0
LINE
  5
10B6
330
A02
100
AcDbEntity
  8
laser_sketch001
100
AcDbLine
 10
-57.300000000
 20
141.600000000
 30
0.000000000
 11
-65.300000000
 21
141.600000000
 31
0.000000000
  0
LINE
  5
10B7
330
A02
100
AcDbEntity
  8
laser_sketch001
100
AcDbLine
 10
-65.300000000
 20
141.600000000
 30
0.000000000
 11
-65.300000000
 21
138.300000000
 31
0.000000000
  0
LINE
  5
10B8
330
A02
100
AcDbEntity
  8
laser_sketch001
100
AcDbLine
 10
-65.300000000
 20
138.300000000
 30
0.000000000
 11
-73.300000000
 21
138.300000000
 31
0.000000000
  0
LINE
  5
10B9
330
A02
100
AcDbEntity
  8
laser_sketch001
100
AcDbLine
 10
-73.300000000
 20
141.600000000
 30
0.000000000
 11
-73.300000000
 21
138.300000000
 31
0.000000000
  0
LINE
  5
10BA
330
A02
100
AcDbEntity
  8
laser_sketch001
100
AcDbLine
 10
-73.300000000
 20
141.600000000
 30
0.000000000
 11
-81.300000000
 21
141.600000000
 31
0.000000000
  0
LINE
  5
10BB
330
A02
100
AcDbEntity
  8
laser_sketch001
100
AcDbLine
 10
-81.300000000
 20
141.600000000
 30
0.000000000
 11
-81.300000000
 21
138.300000000
 31
0.000000000
  0
LINE
  5
10BC
330
A02
100
AcDbEntity
  8
laser_sketch001
100
AcDbLine
 10
-81.300000000
 20
138.300000000
 30
0.000000000
 11
-93.300000000
 21
138.300000000
 31
0.000000000
  0
LINE
  5
10BD
330
A02
100
AcDbEntity
  8
laser_sketch001
100
AcDbLine
 10
-93.300000000
 20
3.300000000
 30
0.000000000
 11
-93.300000000
 21
138.300000000
 31
0.000000000
  0
LINE
  5
10BE
330
A02
100
AcDbEntity
  8
laser_sketch001
100
AcDbLine
 10
-81.300000000
 20
3.300000000
 30
0.000000000
 11
-93.300000000
 21
3.300000000
 31
0.000000000
  0
LINE
  5
10BF
330
A02
100
AcDbEntity
  8
laser_sketch001
100
AcDbLine
 10
-81.300000000
 20
0.000000000
 30
0.000000000
 11
-81.300000000
 21
3.300000000
 31
0.000000000
  0
LINE
  5
10C0
330
A02
100
AcDbEntity
  8
laser_sketch001
100
AcDbLine
 10
-73.300000000
 20
0.000000000
 30
0.000000000
 11
-81.300000000
 21
0.000000000
 31
0.000000000
  0
LINE
  5
10C1
330
A02
100
AcDbEntity
  8
laser_sketch001
100
AcDbLine
 10
-73.300000000
 20
0.000000000
 30
0.000000000
 11
-73.300000000
 21
3.300000000
 31
0.000000000
  0
LINE
  5
10C2
330
A02
100
AcDbEntity
  8
laser_sketch001
100
AcDbLine
 10
-65.300000000
 20
3.300000000
 30
0.000000000
 11
-73.300000000
 21
3.300000000
 31
0.000000000
  0
LINE
  5
10C3
330
A02
100
AcDbEntity
  8
laser_sketch001
100
AcDbLine
 10
-65.300000000
 20
0.000000000
 30
0.000000000
 11
-65.300000000
 21
3.300000000
 31
0.000000000
  0
LINE
  5
10C4
330
A02
100
AcDbEntity
  8
laser_sketch001
100
AcDbLine
 10
-57.300000000
 20
0.000000000
 30
0.000000000
 11
-65.300000000
 21
0.000000000
 31
0.000000000
  0
LINE
  5
10C5
330
A02
100
AcDbEntity
  8
laser_sketch001
100
AcDbLine
 10
-57.300000000
 20
0.000000000
 30
0.000000000
 11
-57.300000000
 21
3.300000000
 31
0.000000000
  0
LINE
  5
10C6
330
A02
100
AcDbEntity
  8
laser_sketch001
100
AcDbLine
 10
-49.300000000
 20
3.300000000
 30
0.000000000
 11
-57.300000000
 21
3.300000000
 31
0.000000000
  0
LINE
  5
10C7
330
A02
100
AcDbEntity
  8
laser_sketch001
100
AcDbLine
 10
-49.300000000
 20
0.000000000
 30
0.000000000
 11
-49.300000000
 21
3.300000000
 31
0.000000000
  0
LINE
  5
10C8
330
A02
100
AcDbEntity
  8
laser_sketch001
100
AcDbLine
 10
-41.300000000
 20
0.000000000
 30
0.000000000
 11
-49.300000000
 21
0.000000000
 31
0.000000000
  0
LINE
  5
10C9
330
A02
100
AcDbEntity
  8
laser_sketch001
100
AcDbLine
 10
-41.300000000
 20
0.000000000
 30
0.000000000
 11
-41.300000000
 21
3.300000000
 31
0.000000000
  0
LINE
  5
10CA
330
A02
100
AcDbEntity
  8
laser_sketch001
100
AcDbLine
 10
-33.300000000
 20
3.300000000
 30
0.000000000
 11
-41.300000000
 21
3.300000000
 31
0.000000000
  0
LINE
  5
10CB
330
A02
100
AcDbEntity
  8
laser_sketch001
100
AcDbLine
 10
-33.300000000
 20
0.000000000
 30
0.000000000
 11
-33.300000000
 21
3.300000000
 31
0.000000000
  0
LINE
  5
10CC
330
A02
100
AcDbEntity
  8
laser_sketch001
100
AcDbLine
 10
-25.300000000
 20
0.000000000
 30
0.000000000
 11
-33.300000000
 21
0.000000000
 31
0.000000000
  0
LINE
  5
10CD
330
A02
100
AcDbEntity
  8
laser_sketch001
100
AcDbLine
 10
0.000000000
 20
-248.200000000
 30
0.000000000
 11
0.000000000
 21
-106.600000000
 31
0.000000000
  0
LINE
  5
10CE
330
A02
100
AcDbEntity
  8
laser_sketch001
100
AcDbLine
 10
0.000000000
 20
-248.200000000
 30
0.000000000
 11
131.600000000
 21
-248.200000000
 31
0.000000000
  0
LINE
  5
10CF
330
A02
100
AcDbEntity
  8
laser_sketch001
100
AcDbLine
 10
131.600000000
 20
-248.200000000
 30
0.000000000
 11
131.600000000
 21
-106.600000000
 31
0.000000000
  0
LINE
  5
10D0
330
A02
100
AcDbEntity
  8
laser_sketch001
100
AcDbLine
 10
0.000000000
 20
-106.600000000
 30
0.000000000
 11
131.600000000
 21
-106.600000000
 31
0.000000000
  0
LINE
  5
10D1
330
A02
100
AcDbEntity
  8
laser_sketch001
100
AcDbLine
 10
212.900000000
 20
-0.000000000
 30
0.000000000
 11
212.900000000
 21
3.300000000
 31
0.000000000
  0
LINE
  5
10D2
330
A02
100
AcDbEntity
  8
laser_sketch001
100
AcDbLine
 10
224.900000000
 20
3.300000000
 30
0.000000000
 11
212.900000000
 21
3.300000000
 31
0.000000000
  0
LINE
  5
10D3
330
A02
100
AcDbEntity
  8
laser_sketch001
100
AcDbLine
 10
224.900000000
 20
3.300000000
 30
0.000000000
 11
224.900000000
 21
10.800000000
 31
0.000000000
  0
LINE
  5
10D4
330
A02
100
AcDbEntity
  8
laser_sketch001
100
AcDbLine
 10
228.200000000
 20
10.800000000
 30
0.000000000
 11
224.900000000
 21
10.800000000
 31
0.000000000
  0
LINE
  5
10D5
330
A02
100
AcDbEntity
  8
laser_sketch001
100
AcDbLine
 10
228.200000000
 20
10.800000000
 30
0.000000000
 11
228.200000000
 21
18.800000000
 31
0.000000000
  0
LINE
  5
10D6
330
A02
100
AcDbEntity
  8
laser_sketch001
100
AcDbLine
 10
228.200000000
 20
18.800000000
 30
0.000000000
 11
224.900000000
 21
18.800000000
 31
0.000000000
  0
LINE
  5
10D7
330
A02
100
AcDbEntity
  8
laser_sketch001
100
AcDbLine
 10
224.900000000
 20
18.800000000
 30
0.000000000
 11
224.900000000
 21
26.800000000
 31
0.000000000
  0
LINE
  5
10D8
330
A02
100
AcDbEntity
  8
laser_sketch001
100
AcDbLine
 10
228.200000000
 20
26.800000000
 30
0.000000000
 11
224.900000000
 21
26.800000000
 31
0.000000000
  0
LINE
  5
10D9
330
A02
100
AcDbEntity
  8
laser_sketch001
100
AcDbLine
 10
228.200000000
 20
26.800000000
 30
0.000000000
 11
228.200000000
 21
34.800000000
 31
0.000000000
  0
LINE
  5
10DA
330
A02
100
AcDbEntity
  8
laser_sketch001
100
AcDbLine
 10
228.200000000
 20
34.800000000
 30
0.000000000
 11
224.900000000
 21
34.800000000
 31
0.000000000
  0
LINE
  5
10DB
330
A02
100
AcDbEntity
  8
laser_sketch001
100
AcDbLine
 10
224.900000000
 20
34.800000000
 30
0.000000000
 11
224.900000000
 21
42.800000000
 31
0.000000000
  0
LINE
  5
10DC
330
A02
100
AcDbEntity
  8
laser_sketch001
100
AcDbLine
 10
228.200000000
 20
42.800000000
 30
0.000000000
 11
224.900000000
 21
42.800000000
 31
0.000000000
  0
LINE
  5
10DD
330
A02
100
AcDbEntity
  8
laser_sketch001
100
AcDbLine
 10
228.200000000
 20
42.800000000
 30
0.000000000
 11
228.200000000
 21
50.800000000
 31
0.000000000
  0
LINE
  5
10DE
330
A02
100
AcDbEntity
  8
laser_sketch001
100
AcDbLine
 10
228.200000000
 20
50.800000000
 30
0.000000000
 11
224.900000000
 21
50.800000000
 31
0.000000000
  0
LINE
  5
10DF
330
A02
100
AcDbEntity
  8
laser_sketch001
100
AcDbLine
 10
224.900000000
 20
50.800000000
 30
0.000000000
 11
224.900000000
 21
58.800000000
 31
0.000000000
  0
LINE
  5
10E0
330
A02
100
AcDbEntity
  8
laser_sketch001
100
AcDbLine
 10
228.200000000
 20
58.800000000
 30
0.000000000
 11
224.900000000
 21
58.800000000
 31
0.000000000
  0
LINE
  5
10E1
330
A02
100
AcDbEntity
  8
laser_sketch001
100
AcDbLine
 10
228.200000000
 20
58.800000000
 30
0.000000000
 11
228.200000000
 21
66.800000000
 31
0.000000000
  0
LINE
  5
10E2
330
A02
100
AcDbEntity
  8
laser_sketch001
100
AcDbLine
 10
228.200000000
 20
66.800000000
 30
0.000000000
 11
224.900000000
 21
66.800000000
 31
0.000000000
  0
LINE
  5
10E3
330
A02
100
AcDbEntity
  8
laser_sketch001
100
AcDbLine
 10
224.900000000
 20
66.800000000
 30
0.000000000
 11
224.900000000
 21
74.800000000
 31
0.000000000
  0
LINE
  5
10E4
330
A02
100
AcDbEntity
  8
laser_sketch001
100
AcDbLine
 10
228.200000000
 20
74.800000000
 30
0.000000000
 11
224.900000000
 21
74.800000000
 31
0.000000000
  0
LINE
  5
10E5
330
A02
100
AcDbEntity
  8
laser_sketch001
100
AcDbLine
 10
228.200000000
 20
74.800000000
 30
0.000000000
 11
228.200000000
 21
82.800000000
 31
0.000000000
  0
LINE
  5
10E6
330
A02
100
AcDbEntity
  8
laser_sketch001
100
AcDbLine
 10
228.200000000
 20
82.800000000
 30
0.000000000
 11
224.900000000
 21
82.800000000
 31
0.000000000
  0
LINE
  5
10E7
330
A02
100
AcDbEntity
  8
laser_sketch001
100
AcDbLine
 10
224.900000000
 20
82.800000000
 30
0.000000000
 11
224.900000000
 21
90.800000000
 31
0.000000000
  0
LINE
  5
10E8
330
A02
100
AcDbEntity
  8
laser_sketch001
100
AcDbLine
 10
228.200000000
 20
90.800000000
 30
0.000000000
 11
224.900000000
 21
90.800000000
 31
0.000000000
  0
LINE
  5
10E9
330
A02
100
AcDbEntity
  8
laser_sketch001
100
AcDbLine
 10
228.200000000
 20
90.800000000
 30
0.000000000
 11
228.200000000
 21
98.800000000
 31
0.000000000
  0
LINE
  5
10EA
330
A02
100
AcDbEntity
  8
laser_sketch001
100
AcDbLine
 10
228.200000000
 20
98.800000000
 30
0.000000000
 11
224.900000000
 21
98.800000000
 31
0.000000000
  0
LINE
  5
10EB
330
A02
100
AcDbEntity
  8
laser_sketch001
100
AcDbLine
 10
224.900000000
 20
98.800000000
 30
0.000000000
 11
224.900000000
 21
106.800000000
 31
0.000000000
  0
LINE
  5
10EC
330
A02
100
AcDbEntity
  8
laser_sketch001
100
AcDbLine
 10
228.200000000
 20
106.800000000
 30
0.000000000
 11
224.900000000
 21
106.800000000
 31
0.000000000
  0
LINE
  5
10ED
330
A02
100
AcDbEntity
  8
laser_sketch001
100
AcDbLine
 10
228.200000000
 20
106.800000000
 30
0.000000000
 11
228.200000000
 21
114.800000000
 31
0.000000000
  0
LINE
  5
10EE
330
A02
100
AcDbEntity
  8
laser_sketch001
100
AcDbLine
 10
228.200000000
 20
114.800000000
 30
0.000000000
 11
224.900000000
 21
114.800000000
 31
0.000000000
  0
LINE
  5
10EF
330
A02
100
AcDbEntity
  8
laser_sketch001
100
AcDbLine
 10
224.900000000
 20
114.800000000
 30
0.000000000
 11
224.900000000
 21
122.800000000
 31
0.000000000
  0
LINE
  5
10F0
330
A02
100
AcDbEntity
  8
laser_sketch001
100
AcDbLine
 10
228.200000000
 20
122.800000000
 30
0.000000000
 11
224.900000000
 21
122.800000000
 31
0.000000000
  0
LINE
  5
10F1
330
A02
100
AcDbEntity
  8
laser_sketch001
100
AcDbLine
 10
228.200000000
 20
122.800000000
 30
0.000000000
 11
228.200000000
 21
130.800000000
 31
0.000000000
  0
LINE
  5
10F2
330
A02
100
AcDbEntity
  8
laser_sketch001
100
AcDbLine
 10
228.200000000
 20
130.800000000
 30
0.000000000
 11
224.900000000
 21
130.800000000
 31
0.000000000
  0
LINE
  5
10F3
330
A02
100
AcDbEntity
  8
laser_sketch001
100
AcDbLine
 10
224.900000000
 20
130.800000000
 30
0.000000000
 11
224.900000000
 21
138.300000000
 31
0.000000000
  0
LINE
  5
10F4
330
A02
100
AcDbEntity
  8
laser_sketch001
100
AcDbLine
 10
224.900000000
 20
138.300000000
 30
0.000000000
 11
212.900000000
 21
138.300000000
 31
0.000000000
  0
LINE
  5
10F5
330
A02
100
AcDbEntity
  8
laser_sketch001
100
AcDbLine
 10
212.900000000
 20
141.600000000
 30
0.000000000
 11
212.900000000
 21
138.300000000
 31
0.000000000
  0
LINE
  5
10F6
330
A02
100
AcDbEntity
  8
laser_sketch001
100
AcDbLine
 10
212.900000000
 20
141.600000000
 30
0.000000000
 11
204.900000000
 21
141.600000000
 31
0.000000000
  0
LINE
  5
10F7
330
A02
100
AcDbEntity
  8
laser_sketch001
100
AcDbLine
 10
204.900000000
 20
141.600000000
 30
0.000000000
 11
204.900000000
 21
138.300000000
 31
0.000000000
  0
LINE
  5
10F8
330
A02
100
AcDbEntity
  8
laser_sketch001
100
AcDbLine
 10
204.900000000
 20
138.300000000
 30
0.000000000
 11
196.900000000
 21
138.300000000
 31
0.000000000
  0
LINE
  5
10F9
330
A02
100
AcDbEntity
  8
laser_sketch001
100
AcDbLine
 10
196.900000000
 20
141.600000000
 30
0.000000000
 11
196.900000000
 21
138.300000000
 31
0.000000000
  0
LINE
  5
10FA
330
A02
100
AcDbEntity
  8
laser_sketch001
100
AcDbLine
 10
196.900000000
 20
141.600000000
 30
0.000000000
 11
188.900000000
 21
141.600000000
 31
0.000000000
  0
LINE
  5
10FB
330
A02
100
AcDbEntity
  8
laser_sketch001
100
AcDbLine
 10
188.900000000
 20
141.600000000
 30
0.000000000
 11
188.900000000
 21
138.300000000
 31
0.000000000
  0
LINE
  5
10FC
330
A02
100
AcDbEntity
  8
laser_sketch001
100
AcDbLine
 10
188.900000000
 20
138.300000000
 30
0.000000000
 11
180.900000000
 21
138.300000000
 31
0.000000000
  0
LINE
  5
10FD
330
A02
100
AcDbEntity
  8
laser_sketch001
100
AcDbLine
 10
180.900000000
 20
141.600000000
 30
0.000000000
 11
180.900000000
 21
138.300000000
 31
0.000000000
  0
LINE
  5
10FE
330
A02
100
AcDbEntity
  8
laser_sketch001
100
AcDbLine
 10
180.900000000
 20
141.600000000
 30
0.000000000
 11
172.900000000
 21
141.600000000
 31
0.000000000
  0
LINE
  5
10FF
330
A02
100
AcDbEntity
  8
laser_sketch001
100
AcDbLine
 10
172.900000000
 20
141.600000000
 30
0.000000000
 11
172.900000000
 21
138.300000000
 31
0.000000000
  0
LINE
  5
1100
330
A02
100
AcDbEntity
  8
laser_sketch001
100
AcDbLine
 10
172.900000000
 20
138.300000000
 30
0.000000000
 11
164.900000000
 21
138.300000000
 31
0.000000000
  0
LINE
  5
1101
330
A02
100
AcDbEntity
  8
laser_sketch001
100
AcDbLine
 10
164.900000000
 20
141.600000000
 30
0.000000000
 11
164.900000000
 21
138.300000000
 31
0.000000000
  0
LINE
  5
1102
330
A02
100
AcDbEntity
  8
laser_sketch001
100
AcDbLine
 10
164.900000000
 20
141.600000000
 30
0.000000000
 11
156.900000000
 21
141.600000000
 31
0.000000000
  0
LINE
  5
1103
330
A02
100
AcDbEntity
  8
laser_sketch001
100
AcDbLine
 10
156.900000000
 20
141.600000000
 30
0.000000000
 11
156.900000000
 21
138.300000000
 31
0.000000000
  0
LINE
  5
1104
330
A02
100
AcDbEntity
  8
laser_sketch001
100
AcDbLine
 10
156.900000000
 20
138.300000000
 30
0.000000000
 11
144.900000000
 21
138.300000000
 31
0.000000000
  0
LINE
  5
1105
330
A02
100
AcDbEntity
  8
laser_sketch001
100
AcDbLine
 10
144.900000000
 20
3.300000000
 30
0.000000000
 11
144.900000000
 21
138.300000000
 31
0.000000000
  0
LINE
  5
1106
330
A02
100
AcDbEntity
  8
laser_sketch001
100
AcDbLine
 10
156.900000000
 20
3.300000000
 30
0.000000000
 11
144.900000000
 21
3.300000000
 31
0.000000000
  0
LINE
  5
1107
330
A02
100
AcDbEntity
  8
laser_sketch001
100
AcDbLine
 10
156.900000000
 20
-0.000000000
 30
0.000000000
 11
156.900000000
 21
3.300000000
 31
0.000000000
  0
LINE
  5
1108
330
A02
100
AcDbEntity
  8
laser_sketch001
100
AcDbLine
 10
164.900000000
 20
-0.000000000
 30
0.000000000
 11
156.900000000
 21
-0.000000000
 31
0.000000000
  0
LINE
  5
1109
330
A02
100
AcDbEntity
  8
laser_sketch001
100
AcDbLine
 10
164.900000000
 20
-0.000000000
 30
0.000000000
 11
164.900000000
 21
3.300000000
 31
0.000000000
  0
LINE
  5
110A
330
A02
100
AcDbEntity
  8
laser_sketch001
100
AcDbLine
 10
172.900000000
 20
3.300000000
 30
0.000000000
 11
164.900000000
 21
3.300000000
 31
0.000000000
  0
LINE
  5
110B
330
A02
100
AcDbEntity
  8
laser_sketch001
100
AcDbLine
 10
172.900000000
 20
-0.000000000
 30
0.000000000
 11
172.900000000
 21
3.300000000
 31
0.000000000
  0
LINE
  5
110C
330
A02
100
AcDbEntity
  8
laser_sketch001
100
AcDbLine
 10
180.900000000
 20
-0.000000000
 30
0.000000000
 11
172.900000000
 21
-0.000000000
 31
0.000000000
  0
LINE
  5
110D
330
A02
100
AcDbEntity
  8
laser_sketch001
100
AcDbLine
 10
180.900000000
 20
-0.000000000
 30
0.000000000
 11
180.900000000
 21
3.300000000
 31
0.000000000
  0
LINE
  5
110E
330
A02
100
AcDbEntity
  8
laser_sketch001
100
AcDbLine
 10
188.900000000
 20
3.300000000
 30
0.000000000
 11
180.900000000
 21
3.300000000
 31
0.000000000
  0
LINE
  5
110F
330
A02
100
AcDbEntity
  8
laser_sketch001
100
AcDbLine
 10
188.900000000
 20
-0.000000000
 30
0.000000000
 11
188.900000000
 21
3.300000000
 31
0.000000000
  0
LINE
  5
1110
330
A02
100
AcDbEntity
  8
laser_sketch001
100
AcDbLine
 10
196.900000000
 20
-0.000000000
 30
0.000000000
 11
188.900000000
 21
-0.000000000
 31
0.000000000
  0
LINE
  5
1111
330
A02
100
AcDbEntity
  8
laser_sketch001
100
AcDbLine
 10
196.900000000
 20
-0.000000000
 30
0.000000000
 11
196.900000000
 21
3.300000000
 31
0.000000000
  0
LINE
  5
1112
330
A02
100
AcDbEntity
  8
laser_sketch001
100
AcDbLine
 10
204.900000000
 20
3.300000000
 30
0.000000000
 11
196.900000000
 21
3.300000000
 31
0.000000000
  0
LINE
  5
1113
330
A02
100
AcDbEntity
  8
laser_sketch001
100
AcDbLine
 10
204.900000000
 20
-0.000000000
 30
0.000000000
 11
204.900000000
 21
3.300000000
 31
0.000000000
  0
LINE
  5
1114
330
A02
100
AcDbEntity
  8
laser_sketch001
100
AcDbLine
 10
212.900000000
 20
-0.000000000
 30
0.000000000
 11
204.900000000
 21
-0.000000000
 31
0.000000000
  0
LINE
  5
1115
330
A02
100
AcDbEntity
  8
laser_sketch001
100
AcDbLine
 10
0.000000000
 20
-93.300000000
 30
0.000000000
 11
0.000000000
 21
-81.300000000
 31
0.000000000
  0
LINE
  5
1116
330
A02
100
AcDbEntity
  8
laser_sketch001
100
AcDbLine
 10
0.000000000
 20
-93.300000000
 30
0.000000000
 11
13.800000000
 21
-93.300000000
 31
0.000000000
  0
LINE
  5
1117
330
A02
100
AcDbEntity
  8
laser_sketch001
100
AcDbLine
 10
13.800000000
 20
-96.600000000
 30
0.000000000
 11
13.800000000
 21
-93.300000000
 31
0.000000000
  0
LINE
  5
1118
330
A02
100
AcDbEntity
  8
laser_sketch001
100
AcDbLine
 10
13.800000000
 20
-96.600000000
 30
0.000000000
 11
21.800000000
 21
-96.600000000
 31
0.000000000
  0
LINE
  5
1119
330
A02
100
AcDbEntity
  8
laser_sketch001
100
AcDbLine
 10
21.800000000
 20
-96.600000000
 30
0.000000000
 11
21.800000000
 21
-93.300000000
 31
0.000000000
  0
LINE
  5
111A
330
A02
100
AcDbEntity
  8
laser_sketch001
100
AcDbLine
 10
21.800000000
 20
-93.300000000
 30
0.000000000
 11
29.800000000
 21
-93.300000000
 31
0.000000000
  0
LINE
  5
111B
330
A02
100
AcDbEntity
  8
laser_sketch001
100
AcDbLine
 10
29.800000000
 20
-96.600000000
 30
0.000000000
 11
29.800000000
 21
-93.300000000
 31
0.000000000
  0
LINE
  5
111C
330
A02
100
AcDbEntity
  8
laser_sketch001
100
AcDbLine
 10
29.800000000
 20
-96.600000000
 30
0.000000000
 11
37.800000000
 21
-96.600000000
 31
0.000000000
  0
LINE
  5
111D
330
A02
100
AcDbEntity
  8
laser_sketch001
100
AcDbLine
 10
37.800000000
 20
-96.600000000
 30
0.000000000
 11
37.800000000
 21
-93.300000000
 31
0.000000000
  0
LINE
  5
111E
330
A02
100
AcDbEntity
  8
laser_sketch001
100
AcDbLine
 10
37.800000000
 20
-93.300000000
 30
0.000000000
 11
45.800000000
 21
-93.300000000
 31
0.000000000
  0
LINE
  5
111F
330
A02
100
AcDbEntity
  8
laser_sketch001
100
AcDbLine
 10
45.800000000
 20
-96.600000000
 30
0.000000000
 11
45.800000000
 21
-93.300000000
 31
0.000000000
  0
LINE
  5
1120
330
A02
100
AcDbEntity
  8
laser_sketch001
100
AcDbLine
 10
45.800000000
 20
-96.600000000
 30
0.000000000
 11
53.800000000
 21
-96.600000000
 31
0.000000000
  0
LINE
  5
1121
330
A02
100
AcDbEntity
  8
laser_sketch001
100
AcDbLine
 10
53.800000000
 20
-96.600000000
 30
0.000000000
 11
53.800000000
 21
-93.300000000
 31
0.000000000
  0
LINE
  5
1122
330
A02
100
AcDbEntity
  8
laser_sketch001
100
AcDbLine
 10
53.800000000
 20
-93.300000000
 30
0.000000000
 11
61.800000000
 21
-93.300000000
 31
0.000000000
  0
LINE
  5
1123
330
A02
100
AcDbEntity
  8
laser_sketch001
100
AcDbLine
 10
61.800000000
 20
-96.600000000
 30
0.000000000
 11
61.800000000
 21
-93.300000000
 31
0.000000000
  0
LINE
  5
1124
330
A02
100
AcDbEntity
  8
laser_sketch001
100
AcDbLine
 10
61.800000000
 20
-96.600000000
 30
0.000000000
 11
69.800000000
 21
-96.600000000
 31
0.000000000
  0
LINE
  5
1125
330
A02
100
AcDbEntity
  8
laser_sketch001
100
AcDbLine
 10
69.800000000
 20
-96.600000000
 30
0.000000000
 11
69.800000000
 21
-93.300000000
 31
0.000000000
  0
LINE
  5
1126
330
A02
100
AcDbEntity
  8
laser_sketch001
100
AcDbLine
 10
69.800000000
 20
-93.300000000
 30
0.000000000
 11
77.800000000
 21
-93.300000000
 31
0.000000000
  0
LINE
  5
1127
330
A02
100
AcDbEntity
  8
laser_sketch001
100
AcDbLine
 10
77.800000000
 20
-96.600000000
 30
0.000000000
 11
77.800000000
 21
-93.300000000
 31
0.000000000
  0
LINE
  5
1128
330
A02
100
AcDbEntity
  8
laser_sketch001
100
AcDbLine
 10
77.800000000
 20
-96.600000000
 30
0.000000000
 11
85.800000000
 21
-96.600000000
 31
0.000000000
  0
LINE
  5
1129
330
A02
100
AcDbEntity
  8
laser_sketch001
100
AcDbLine
 10
85.800000000
 20
-96.600000000
 30
0.000000000
 11
85.800000000
 21
-93.300000000
 31
0.000000000
  0
LINE
  5
112A
330
A02
100
AcDbEntity
  8
laser_sketch001
100
AcDbLine
 10
85.800000000
 20
-93.300000000
 30
0.000000000
 11
93.800000000
 21
-93.300000000
 31
0.000000000
  0
LINE
  5
112B
330
A02
100
AcDbEntity
  8
laser_sketch001
100
AcDbLine
 10
93.800000000
 20
-96.600000000
 30
0.000000000
 11
93.800000000
 21
-93.300000000
 31
0.000000000
  0
LINE
  5
112C
330
A02
100
AcDbEntity
  8
laser_sketch001
100
AcDbLine
 10
93.800000000
 20
-96.600000000
 30
0.000000000
 11
101.800000000
 21
-96.600000000
 31
0.000000000
  0
LINE
  5
112D
330
A02
100
AcDbEntity
  8
laser_sketch001
100
AcDbLine
 10
101.800000000
 20
-96.600000000
 30
0.000000000
 11
101.800000000
 21
-93.300000000
 31
0.000000000
  0
LINE
  5
112E
330
A02
100
AcDbEntity
  8
laser_sketch001
100
AcDbLine
 10
101.800000000
 20
-93.300000000
 30
0.000000000
 11
109.800000000
 21
-93.300000000
 31
0.000000000
  0
LINE
  5
112F
330
A02
100
AcDbEntity
  8
laser_sketch001
100
AcDbLine
 10
109.800000000
 20
-96.600000000
 30
0.000000000
 11
109.800000000
 21
-93.300000000
 31
0.000000000
  0
LINE
  5
1130
330
A02
100
AcDbEntity
  8
laser_sketch001
100
AcDbLine
 10
109.800000000
 20
-96.600000000
 30
0.000000000
 11
117.800000000
 21
-96.600000000
 31
0.000000000
  0
LINE
  5
1131
330
A02
100
AcDbEntity
  8
laser_sketch001
100
AcDbLine
 10
117.800000000
 20
-96.600000000
 30
0.000000000
 11
117.800000000
 21
-93.300000000
 31
0.000000000
  0
LINE
  5
1132
330
A02
100
AcDbEntity
  8
laser_sketch001
100
AcDbLine
 10
117.800000000
 20
-93.300000000
 30
0.000000000
 11
131.600000000
 21
-93.300000000
 31
0.000000000
  0
LINE
  5
1133
330
A02
100
AcDbEntity
  8
laser_sketch001
100
AcDbLine
 10
131.600000000
 20
-93.300000000
 30
0.000000000
 11
131.600000000
 21
-81.300000000
 31
0.000000000
  0
LINE
  5
1134
330
A02
100
AcDbEntity
  8
laser_sketch001
100
AcDbLine
 10
131.600000000
 20
-81.300000000
 30
0.000000000
 11
128.300000000
 21
-81.300000000
 31
0.000000000
  0
LINE
  5
1135
330
A02
100
AcDbEntity
  8
laser_sketch001
100
AcDbLine
 10
128.300000000
 20
-81.300000000
 30
0.000000000
 11
128.300000000
 21
-73.300000000
 31
0.000000000
  0
LINE
  5
1136
330
A02
100
AcDbEntity
  8
laser_sketch001
100
AcDbLine
 10
131.600000000
 20
-73.300000000
 30
0.000000000
 11
128.300000000
 21
-73.300000000
 31
0.000000000
  0
LINE
  5
1137
330
A02
100
AcDbEntity
  8
laser_sketch001
100
AcDbLine
 10
131.600000000
 20
-73.300000000
 30
0.000000000
 11
131.600000000
 21
-65.300000000
 31
0.000000000
  0
LINE
  5
1138
330
A02
100
AcDbEntity
  8
laser_sketch001
100
AcDbLine
 10
131.600000000
 20
-65.300000000
 30
0.000000000
 11
128.300000000
 21
-65.300000000
 31
0.000000000
  0
LINE
  5
1139
330
A02
100
AcDbEntity
  8
laser_sketch001
100
AcDbLine
 10
128.300000000
 20
-65.300000000
 30
0.000000000
 11
128.300000000
 21
-57.300000000
 31
0.000000000
  0
LINE
  5
113A
330
A02
100
AcDbEntity
  8
laser_sketch001
100
AcDbLine
 10
131.600000000
 20
-57.300000000
 30
0.000000000
 11
128.300000000
 21
-57.300000000
 31
0.000000000
  0
LINE
  5
113B
330
A02
100
AcDbEntity
  8
laser_sketch001
100
AcDbLine
 10
131.600000000
 20
-57.300000000
 30
0.000000000
 11
131.600000000
 21
-49.300000000
 31
0.000000000
  0
LINE
  5
113C
330
A02
100
AcDbEntity
  8
laser_sketch001
100
AcDbLine
 10
131.600000000
 20
-49.300000000
 30
0.000000000
 11
128.300000000
 21
-49.300000000
 31
0.000000000
  0
LINE
  5
113D
330
A02
100
AcDbEntity
  8
laser_sketch001
100
AcDbLine
 10
128.300000000
 20
-49.300000000
 30
0.000000000
 11
128.300000000
 21
-41.300000000
 31
0.000000000
  0
LINE
  5
113E
330
A02
100
AcDbEntity
  8
laser_sketch001
100
AcDbLine
 10
131.600000000
 20
-41.300000000
 30
0.000000000
 11
128.300000000
 21
-41.300000000
 31
0.000000000
  0
LINE
  5
113F
330
A02
100
AcDbEntity
  8
laser_sketch001
100
AcDbLine
 10
131.600000000
 20
-41.300000000
 30
0.000000000
 11
131.600000000
 21
-33.300000000
 31
0.000000000
  0
LINE
  5
1140
330
A02
100
AcDbEntity
  8
laser_sketch001
100
AcDbLine
 10
131.600000000
 20
-33.300000000
 30
0.000000000
 11
128.300000000
 21
-33.300000000
 31
0.000000000
  0
LINE
  5
1141
330
A02
100
AcDbEntity
  8
laser_sketch001
100
AcDbLine
 10
128.300000000
 20
-33.300000000
 30
0.000000000
 11
128.300000000
 21
-25.300000000
 31
0.000000000
  0
LINE
  5
1142
330
A02
100
AcDbEntity
  8
laser_sketch001
100
AcDbLine
 10
131.600000000
 20
-25.300000000
 30
0.000000000
 11
128.300000000
 21
-25.300000000
 31
0.000000000
  0
LINE
  5
1143
330
A02
100
AcDbEntity
  8
laser_sketch001
100
AcDbLine
 10
131.600000000
 20
-25.300000000
 30
0.000000000
 11
131.600000000
 21
-13.300000000
 31
0.000000000
  0
LINE
  5
1144
330
A02
100
AcDbEntity
  8
laser_sketch001
100
AcDbLine
 10
0.000000000
 20
-13.300000000
 30
0.000000000
 11
131.600000000
 21
-13.300000000
 31
0.000000000
  0
LINE
  5
1145
330
A02
100
AcDbEntity
  8
laser_sketch001
100
AcDbLine
 10
0.000000000
 20
-25.300000000
 30
0.000000000
 11
0.000000000
 21
-13.300000000
 31
0.000000000
  0
LINE
  5
1146
330
A02
100
AcDbEntity
  8
laser_sketch001
100
AcDbLine
 10
0.000000000
 20
-25.300000000
 30
0.000000000
 11
3.300000000
 21
-25.300000000
 31
0.000000000
  0
LINE
  5
1147
330
A02
100
AcDbEntity
  8
laser_sketch001
100
AcDbLine
 10
3.300000000
 20
-33.300000000
 30
0.000000000
 11
3.300000000
 21
-25.300000000
 31
0.000000000
  0
LINE
  5
1148
330
A02
100
AcDbEntity
  8
laser_sketch001
100
AcDbLine
 10
0.000000000
 20
-33.300000000
 30
0.000000000
 11
3.300000000
 21
-33.300000000
 31
0.000000000
  0
LINE
  5
1149
330
A02
100
AcDbEntity
  8
laser_sketch001
100
AcDbLine
 10
0.000000000
 20
-41.300000000
 30
0.000000000
 11
0.000000000
 21
-33.300000000
 31
0.000000000
  0
LINE
  5
114A
330
A02
100
AcDbEntity
  8
laser_sketch001
100
AcDbLine
 10
0.000000000
 20
-41.300000000
 30
0.000000000
 11
3.300000000
 21
-41.300000000
 31
0.000000000
  0
LINE
  5
114B
330
A02
100
AcDbEntity
  8
laser_sketch001
100
AcDbLine
 10
3.300000000
 20
-49.300000000
 30
0.000000000
 11
3.300000000
 21
-41.300000000
 31
0.000000000
  0
LINE
  5
114C
330
A02
100
AcDbEntity
  8
laser_sketch001
100
AcDbLine
 10
0.000000000
 20
-49.300000000
 30
0.000000000
 11
3.300000000
 21
-49.300000000
 31
0.000000000
  0
LINE
  5
114D
330
A02
100
AcDbEntity
  8
laser_sketch001
100
AcDbLine
 10
0.000000000
 20
-57.300000000
 30
0.000000000
 11
0.000000000
 21
-49.300000000
 31
0.000000000
  0
LINE
  5
114E
330
A02
100
AcDbEntity
  8
laser_sketch001
100
AcDbLine
 10
0.000000000
 20
-57.300000000
 30
0.000000000
 11
3.300000000
 21
-57.300000000
 31
0.000000000
  0
LINE
  5
114F
330
A02
100
AcDbEntity
  8
laser_sketch001
100
AcDbLine
 10
3.300000000
 20
-65.300000000
 30
0.000000000
 11
3.300000000
 21
-57.300000000
 31
0.000000000
  0
LINE
  5
1150
330
A02
100
AcDbEntity
  8
laser_sketch001
100
AcDbLine
 10
0.000000000
 20
-65.300000000
 30
0.000000000
 11
3.300000000
 21
-65.300000000
 31
0.000000000
  0
LINE
  5
1151
330
A02
100
AcDbEntity
  8
laser_sketch001
100
AcDbLine
 10
0.000000000
 20
-73.300000000
 30
0.000000000
 11
0.000000000
 21
-65.300000000
 31
0.000000000
  0
LINE
  5
1152
330
A02
100
AcDbEntity
  8
laser_sketch001
100
AcDbLine
 10
0.000000000
 20
-73.300000000
 30
0.000000000
 11
3.300000000
 21
-73.300000000
 31
0.000000000
  0
LINE
  5
1153
330
A02
100
AcDbEntity
  8
laser_sketch001
100
AcDbLine
 10
3.300000000
 20
-81.300000000
 30
0.000000000
 11
3.300000000
 21
-73.300000000
 31
0.000000000
  0
LINE
  5
1154
330
A02
100
AcDbEntity
  8
laser_sketch001
100
AcDbLine
 10
0.000000000
 20
-81.300000000
 30
0.000000000
 11
3.300000000
 21
-81.300000000
 31
0.000000000
  0
LINE
  5
1155
330
A02
100
AcDbEntity
  8
laser_sketch001
100
AcDbLine
 10
0.000000000
 20
154.900000000
 30
0.000000000
 11
0.000000000
 21
166.900000000
 31
0.000000000
  0
LINE
  5
1156
330
A02
100
AcDbEntity
  8
laser_sketch001
100
AcDbLine
 10
0.000000000
 20
154.900000000
 30
0.000000000
 11
13.800000000
 21
154.900000000
 31
0.000000000
  0
LINE
  5
1157
330
A02
100
AcDbEntity
  8
laser_sketch001
100
AcDbLine
 10
13.800000000
 20
151.600000000
 30
0.000000000
 11
13.800000000
 21
154.900000000
 31
0.000000000
  0
LINE
  5
1158
330
A02
100
AcDbEntity
  8
laser_sketch001
100
AcDbLine
 10
13.800000000
 20
151.600000000
 30
0.000000000
 11
21.800000000
 21
151.600000000
 31
0.000000000
  0
LINE
  5
1159
330
A02
100
AcDbEntity
  8
laser_sketch001
100
AcDbLine
 10
21.800000000
 20
151.600000000
 30
0.000000000
 11
21.800000000
 21
154.900000000
 31
0.000000000
  0
LINE
  5
115A
330
A02
100
AcDbEntity
  8
laser_sketch001
100
AcDbLine
 10
21.800000000
 20
154.900000000
 30
0.000000000
 11
29.800000000
 21
154.900000000
 31
0.000000000
  0
LINE
  5
115B
330
A02
100
AcDbEntity
  8
laser_sketch001
100
AcDbLine
 10
29.800000000
 20
151.600000000
 30
0.000000000
 11
29.800000000
 21
154.900000000
 31
0.000000000
  0
LINE
  5
115C
330
A02
100
AcDbEntity
  8
laser_sketch001
100
AcDbLine
 10
29.800000000
 20
151.600000000
 30
0.000000000
 11
37.800000000
 21
151.600000000
 31
0.000000000
  0
LINE
  5
115D
330
A02
100
AcDbEntity
  8
laser_sketch001
100
AcDbLine
 10
37.800000000
 20
151.600000000
 30
0.000000000
 11
37.800000000
 21
154.900000000
 31
0.000000000
  0
LINE
  5
115E
330
A02
100
AcDbEntity
  8
laser_sketch001
100
AcDbLine
 10
37.800000000
 20
154.900000000
 30
0.000000000
 11
45.800000000
 21
154.900000000
 31
0.000000000
  0
LINE
  5
115F
330
A02
100
AcDbEntity
  8
laser_sketch001
100
AcDbLine
 10
45.800000000
 20
151.600000000
 30
0.000000000
 11
45.800000000
 21
154.900000000
 31
0.000000000
  0
LINE
  5
1160
330
A02
100
AcDbEntity
  8
laser_sketch001
100
AcDbLine
 10
45.800000000
 20
151.600000000
 30
0.000000000
 11
53.800000000
 21
151.600000000
 31
0.000000000
  0
LINE
  5
1161
330
A02
100
AcDbEntity
  8
laser_sketch001
100
AcDbLine
 10
53.800000000
 20
151.600000000
 30
0.000000000
 11
53.800000000
 21
154.900000000
 31
0.000000000
  0
LINE
  5
1162
330
A02
100
AcDbEntity
  8
laser_sketch001
100
AcDbLine
 10
53.800000000
 20
154.900000000
 30
0.000000000
 11
61.800000000
 21
154.900000000
 31
0.000000000
  0
LINE
  5
1163
330
A02
100
AcDbEntity
  8
laser_sketch001
100
AcDbLine
 10
61.800000000
 20
151.600000000
 30
0.000000000
 11
61.800000000
 21
154.900000000
 31
0.000000000
  0
LINE
  5
1164
330
A02
100
AcDbEntity
  8
laser_sketch001
100
AcDbLine
 10
61.800000000
 20
151.600000000
 30
0.000000000
 11
69.800000000
 21
151.600000000
 31
0.000000000
  0
LINE
  5
1165
330
A02
100
AcDbEntity
  8
laser_sketch001
100
AcDbLine
 10
69.800000000
 20
151.600000000
 30
0.000000000
 11
69.800000000
 21
154.900000000
 31
0.000000000
  0
LINE
  5
1166
330
A02
100
AcDbEntity
  8
laser_sketch001
100
AcDbLine
 10
69.800000000
 20
154.900000000
 30
0.000000000
 11
77.800000000
 21
154.900000000
 31
0.000000000
  0
LINE
  5
1167
330
A02
100
AcDbEntity
  8
laser_sketch001
100
AcDbLine
 10
77.800000000
 20
151.600000000
 30
0.000000000
 11
77.800000000
 21
154.900000000
 31
0.000000000
  0
LINE
  5
1168
330
A02
100
AcDbEntity
  8
laser_sketch001
100
AcDbLine
 10
77.800000000
 20
151.600000000
 30
0.000000000
 11
85.800000000
 21
151.600000000
 31
0.000000000
  0
LINE
  5
1169
330
A02
100
AcDbEntity
  8
laser_sketch001
100
AcDbLine
 10
85.800000000
 20
151.600000000
 30
0.000000000
 11
85.800000000
 21
154.900000000
 31
0.000000000
  0
LINE
  5
116A
330
A02
100
AcDbEntity
  8
laser_sketch001
100
AcDbLine
 10
85.800000000
 20
154.900000000
 30
0.000000000
 11
93.800000000
 21
154.900000000
 31
0.000000000
  0
LINE
  5
116B
330
A02
100
AcDbEntity
  8
laser_sketch001
100
AcDbLine
 10
93.800000000
 20
151.600000000
 30
0.000000000
 11
93.800000000
 21
154.900000000
 31
0.000000000
  0
LINE
  5
116C
330
A02
100
AcDbEntity
  8
laser_sketch001
100
AcDbLine
 10
93.800000000
 20
151.600000000
 30
0.000000000
 11
101.800000000
 21
151.600000000
 31
0.000000000
  0
LINE
  5
116D
330
A02
100
AcDbEntity
  8
laser_sketch001
100
AcDbLine
 10
101.800000000
 20
151.600000000
 30
0.000000000
 11
101.800000000
 21
154.900000000
 31
0.000000000
  0
LINE
  5
116E
330
A02
100
AcDbEntity
  8
laser_sketch001
100
AcDbLine
 10
101.800000000
 20
154.900000000
 30
0.000000000
 11
109.800000000
 21
154.900000000
 31
0.000000000
  0
LINE
  5
116F
330
A02
100
AcDbEntity
  8
laser_sketch001
100
AcDbLine
 10
109.800000000
 20
151.600000000
 30
0.000000000
 11
109.800000000
 21
154.900000000
 31
0.000000000
  0
LINE
  5
1170
330
A02
100
AcDbEntity
  8
laser_sketch001
100
AcDbLine
 10
109.800000000
 20
151.600000000
 30
0.000000000
 11
117.800000000
 21
151.600000000
 31
0.000000000
  0
LINE
  5
1171
330
A02
100
AcDbEntity
  8
laser_sketch001
100
AcDbLine
 10
117.800000000
 20
151.600000000
 30
0.000000000
 11
117.800000000
 21
154.900000000
 31
0.000000000
  0
LINE
  5
1172
330
A02
100
AcDbEntity
  8
laser_sketch001
100
AcDbLine
 10
117.800000000
 20
154.900000000
 30
0.000000000
 11
131.600000000
 21
154.900000000
 31
0.000000000
  0
LINE
  5
1173
330
A02
100
AcDbEntity
  8
laser_sketch001
100
AcDbLine
 10
131.600000000
 20
154.900000000
 30
0.000000000
 11
131.600000000
 21
166.900000000
 31
0.000000000
  0
LINE
  5
1174
330
A02
100
AcDbEntity
  8
laser_sketch001
100
AcDbLine
 10
131.600000000
 20
166.900000000
 30
0.000000000
 11
128.300000000
 21
166.900000000
 31
0.000000000
  0
LINE
  5
1175
330
A02
100
AcDbEntity
  8
laser_sketch001
100
AcDbLine
 10
128.300000000
 20
166.900000000
 30
0.000000000
 11
128.300000000
 21
174.900000000
 31
0.000000000
  0
LINE
  5
1176
330
A02
100
AcDbEntity
  8
laser_sketch001
100
AcDbLine
 10
131.600000000
 20
174.900000000
 30
0.000000000
 11
128.300000000
 21
174.900000000
 31
0.000000000
  0
LINE
  5
1177
330
A02
100
AcDbEntity
  8
laser_sketch001
100
AcDbLine
 10
131.600000000
 20
174.900000000
 30
0.000000000
 11
131.600000000
 21
182.900000000
 31
0.000000000
  0
LINE
  5
1178
330
A02
100
AcDbEntity
  8
laser_sketch001
100
AcDbLine
 10
131.600000000
 20
182.900000000
 30
0.000000000
 11
128.300000000
 21
182.900000000
 31
0.000000000
  0
LINE
  5
1179
330
A02
100
AcDbEntity
  8
laser_sketch001
100
AcDbLine
 10
128.300000000
 20
182.900000000
 30
0.000000000
 11
128.300000000
 21
190.900000000
 31
0.000000000
  0
LINE
  5
117A
330
A02
100
AcDbEntity
  8
laser_sketch001
100
AcDbLine
 10
131.600000000
 20
190.900000000
 30
0.000000000
 11
128.300000000
 21
190.900000000
 31
0.000000000
  0
LINE
  5
117B
330
A02
100
AcDbEntity
  8
laser_sketch001
100
AcDbLine
 10
131.600000000
 20
190.900000000
 30
0.000000000
 11
131.600000000
 21
198.900000000
 31
0.000000000
  0
LINE
  5
117C
330
A02
100
AcDbEntity
  8
laser_sketch001
100
AcDbLine
 10
131.600000000
 20
198.900000000
 30
0.000000000
 11
128.300000000
 21
198.900000000
 31
0.000000000
  0
LINE
  5
117D
330
A02
100
AcDbEntity
  8
laser_sketch001
100
AcDbLine
 10
128.300000000
 20
198.900000000
 30
0.000000000
 11
128.300000000
 21
206.900000000
 31
0.000000000
  0
LINE
  5
117E
330
A02
100
AcDbEntity
  8
laser_sketch001
100
AcDbLine
 10
131.600000000
 20
206.900000000
 30
0.000000000
 11
128.300000000
 21
206.900000000
 31
0.000000000
  0
LINE
  5
117F
330
A02
100
AcDbEntity
  8
laser_sketch001
100
AcDbLine
 10
131.600000000
 20
206.900000000
 30
0.000000000
 11
131.600000000
 21
214.900000000
 31
0.000000000
  0
LINE
  5
1180
330
A02
100
AcDbEntity
  8
laser_sketch001
100
AcDbLine
 10
131.600000000
 20
214.900000000
 30
0.000000000
 11
128.300000000
 21
214.900000000
 31
0.000000000
  0
LINE
  5
1181
330
A02
100
AcDbEntity
  8
laser_sketch001
100
AcDbLine
 10
128.300000000
 20
214.900000000
 30
0.000000000
 11
128.300000000
 21
222.900000000
 31
0.000000000
  0
LINE
  5
1182
330
A02
100
AcDbEntity
  8
laser_sketch001
100
AcDbLine
 10
131.600000000
 20
222.900000000
 30
0.000000000
 11
128.300000000
 21
222.900000000
 31
0.000000000
  0
LINE
  5
1183
330
A02
100
AcDbEntity
  8
laser_sketch001
100
AcDbLine
 10
131.600000000
 20
222.900000000
 30
0.000000000
 11
131.600000000
 21
234.900000000
 31
0.000000000
  0
LINE
  5
1184
330
A02
100
AcDbEntity
  8
laser_sketch001
100
AcDbLine
 10
0.000000000
 20
234.900000000
 30
0.000000000
 11
131.600000000
 21
234.900000000
 31
0.000000000
  0
LINE
  5
1185
330
A02
100
AcDbEntity
  8
laser_sketch001
100
AcDbLine
 10
0.000000000
 20
222.900000000
 30
0.000000000
 11
0.000000000
 21
234.900000000
 31
0.000000000
  0
LINE
  5
1186
330
A02
100
AcDbEntity
  8
laser_sketch001
100
AcDbLine
 10
0.000000000
 20
222.900000000
 30
0.000000000
 11
3.300000000
 21
222.900000000
 31
0.000000000
  0
LINE
  5
1187
330
A02
100
AcDbEntity
  8
laser_sketch001
100
AcDbLine
 10
3.300000000
 20
214.900000000
 30
0.000000000
 11
3.300000000
 21
222.900000000
 31
0.000000000
  0
LINE
  5
1188
330
A02
100
AcDbEntity
  8
laser_sketch001
100
AcDbLine
 10
0.000000000
 20
214.900000000
 30
0.000000000
 11
3.300000000
 21
214.900000000
 31
0.000000000
  0
LINE
  5
1189
330
A02
100
AcDbEntity
  8
laser_sketch001
100
AcDbLine
 10
0.000000000
 20
206.900000000
 30
0.000000000
 11
0.000000000
 21
214.900000000
 31
0.000000000
  0
LINE
  5
118A
330
A02
100
AcDbEntity
  8
laser_sketch001
100
AcDbLine
 10
0.000000000
 20
206.900000000
 30
0.000000000
 11
3.300000000
 21
206.900000000
 31
0.000000000
  0
LINE
  5
118B
330
A02
100
AcDbEntity
  8
laser_sketch001
100
AcDbLine
 10
3.300000000
 20
198.900000000
 30
0.000000000
 11
3.300000000
 21
206.900000000
 31
0.000000000
  0
LINE
  5
118C
330
A02
100
AcDbEntity
  8
laser_sketch001
100
AcDbLine
 10
0.000000000
 20
198.900000000
 30
0.000000000
 11
3.300000000
 21
198.900000000
 31
0.000000000
  0
LINE
  5
118D
330
A02
100
AcDbEntity
  8
laser_sketch001
100
AcDbLine
 10
0.000000000
 20
190.900000000
 30
0.000000000
 11
0.000000000
 21
198.900000000
 31
0.000000000
  0
LINE
  5
118E
330
A02
100
AcDbEntity
  8
laser_sketch001
100
AcDbLine
 10
0.000000000
 20
190.900000000
 30
0.000000000
 11
3.300000000
 21
190.900000000
 31
0.000000000
  0
LINE
  5
118F
330
A02
100
AcDbEntity
  8
laser_sketch001
100
AcDbLine
 10
3.300000000
 20
182.900000000
 30
0.000000000
 11
3.300000000
 21
190.900000000
 31
0.000000000
  0
LINE
  5
1190
330
A02
100
AcDbEntity
  8
laser_sketch001
100
AcDbLine
 10
0.000000000
 20
182.900000000
 30
0.000000000
 11
3.300000000
 21
182.900000000
 31
0.000000000
  0
LINE
  5
1191
330
A02
100
AcDbEntity
  8
laser_sketch001
100
AcDbLine
 10
0.000000000
 20
174.900000000
 30
0.000000000
 11
0.000000000
 21
182.900000000
 31
0.000000000
  0
LINE
  5
1192
330
A02
100
AcDbEntity
  8
laser_sketch001
100
AcDbLine
 10
0.000000000
 20
174.900000000
 30
0.000000000
 11
3.300000000
 21
174.900000000
 31
0.000000000
  0
LINE
  5
1193
330
A02
100
AcDbEntity
  8
laser_sketch001
100
AcDbLine
 10
3.300000000
 20
166.900000000
 30
0.000000000
 11
3.300000000
 21
174.900000000
 31
0.000000000
  0
LINE
  5
1194
330
A02
100
AcDbEntity
  8
laser_sketch001
100
AcDbLine
 10
0.000000000
 20
166.900000000
 30
0.000000000
 11
3.300000000
 21
166.900000000
 31
0.000000000
  0
ENDSEC
  0
SECTION
  2
OBJECTS
  0
DICTIONARY
  5
F000
330
0
100
AcDbDictionary
  3
ACAD_GROUP
350
F001
  0
DICTIONARY
  5
F001
330
F000
100
AcDbDictionary
  0
ENDSEC
  0
EOF