  0
SECTION
  2
HEADER
  9
$ACADVER
  1
AC1024
  9
$ACADMAINTVER
 70
     6
  9
$DWGCODEPAGE
  3
ANSI_1252
  9
$INSBASE
 10
0.0
 20
0.0
 30
0.0
  9
$EXTMIN
 10
-0.0635
 20
-0.0635
 30
0.0
  9
$EXTMAX
 10
2440.0635
 20
1220.0635
 30
0.0
  9
$LIMMIN
 10
-0.0635
 20
-0.0635
  9
$LIMMAX
 10
2440.0635
 20
1220.0635
  9
$ORTHOMODE
 70
     0
  9
$REGENMODE
 70
     1
  9
$FILLMODE
 70
     1
  9
$QTEXTMODE
 70
     0
  9
$MIRRTEXT
 70
     1
  9
$LTSCALE
 40
1.0
  9
$ATTMODE
 70
     1
  9
$TEXTSIZE
 40
0.2
  9
$TRACEWID
 40
0.05
  9
$TEXTSTYLE
  7
STANDARD
  9
$CLAYER
  8
default
  9
$CELTYPE
  6
BYLAYER
  9
$CECOLOR
 62
   256
  9
$CELTSCALE
 40
1.0
  9
$DISPSILH
 70
     0
  9
$DIMSCALE
 40
1.0
  9
$DIMASZ
 40
0.18
  9
$DIMEXO
 40
0.0625
  9
$DIMDLI
 40
0.38
  9
$DIMRND
 40
0.0
  9
$DIMDLE
 40
0.0
  9
$DIMEXE
 40
0.18
  9
$DIMTP
 40
0.0
  9
$DIMTM
 40
0.0
  9
$DIMTXT
 40
0.18
  9
$DIMCEN
 40
0.09
  9
$DIMTSZ
 40
0.0
  9
$DIMTOL
 70
     0
  9
$DIMLIM
 70
     0
  9
$DIMTIH
 70
     1
  9
$DIMTOH
 70
     1
  9
$DIMSE1
 70
     0
  9
$DIMSE2
 70
     0
  9
$DIMTAD
 70
     0
  9
$DIMZIN
 70
     0
  9
$DIMBLK
  1

  9
$DIMASO
 70
     1
  9
$DIMSHO
 70
     1
  9
$DIMPOST
  1

  9
$DIMAPOST
  1

  9
$DIMALT
 70
     0
  9
$DIMALTD
 70
     2
  9
$DIMALTF
 40
25.4
  9
$DIMLFAC
 40
1.0
  9
$DIMTOFL
 70
     0
  9
$DIMTVP
 40
0.0
  9
$DIMTIX
 70
     0
  9
$DIMSOXD
 70
     0
  9
$DIMSAH
 70
     0
  9
$DIMBLK1
  1

  9
$DIMBLK2
  1

  9
$DIMSTYLE
  2
STANDARD
  9
$DIMCLRD
 70
     0
  9
$DIMCLRE
 70
     0
  9
$DIMCLRT
 70
     0
  9
$DIMTFAC
 40
1.0
  9
$DIMGAP
 40
0.09
  9
$DIMJUST
 70
     0
  9
$DIMSD1
 70
     0
  9
$DIMSD2
 70
     0
  9
$DIMTOLJ
 70
     1
  9
$DIMTZIN
 70
     0
  9
$DIMALTZ
 70
     0
  9
$DIMALTTZ
 70
     0
  9
$DIMUPT
 70
     0
  9
$DIMDEC
 70
     4
  9
$DIMTDEC
 70
     4
  9
$DIMALTU
 70
     2
  9
$DIMALTTD
 70
     2
  9
$DIMTXSTY
  7
STANDARD
  9
$DIMAUNIT
 70
     0
  9
$DIMADEC
 70
     0
  9
$DIMALTRND
 40
0.0
  9
$DIMAZIN
 70
     0
  9
$DIMDSEP
 70
    46
  9
$DIMATFIT
 70
     3
  9
$DIMFRAC
 70
     0
  9
$DIMLDRBLK
  1

  9
$DIMLUNIT
 70
     2
  9
$DIMLWD
 70
    -2
  9
$DIMLWE
 70
    -2
  9
$DIMTMOVE
 70
     2
  9
$DIMFXL
 40
1.0
  9
$DIMFXLON
 70
     0
  9
$DIMJOGANG
 40
0.7853981633974483
  9
$DIMTFILL
 70
     0
  9
$DIMTFILLCLR
 70
     0
  9
$DIMARCSYM
 70
     0
  9
$DIMLTYPE
  6

  9
$DIMLTEX1
  6

  9
$DIMLTEX2
  6

  9
$DIMTXTDIRECTION
 70
     0
  9
$LUNITS
 70
     2
  9
$LUPREC
 70
     6
  9
$SKETCHINC
 40
0.1
  9
$FILLETRAD
 40
0.5
  9
$AUNITS
 70
     0
  9
$AUPREC
 70
     0
  9
$MENU
  1
.
  9
$ELEVATION
 40
0.0
  9
$PELEVATION
 40
0.0
  9
$THICKNESS
 40
0.0
  9
$LIMCHECK
 70
     0
  9
$CHAMFERA
 40
0.5
  9
$CHAMFERB
 40
0.5
  9
$CHAMFERC
 40
1.0
  9
$CHAMFERD
 40
0.0
  9
$SKPOLY
 70
     0
  9
$TDCREATE
 40
2457901.504976852
  9
$TDUCREATE
 40
2457901.171643518
  9
$TDUPDATE
 40
2457901.504980301
  9
$TDUUPDATE
 40
2457901.171646968
  9
$TDINDWG
 40
0.0
  9
$TDUSRTIMER
 40
0.0
  9
$USRTIMER
 70
     1
  9
$ANGBASE
 50
0.0
  9
$ANGDIR
 70
     0
  9
$PDMODE
 70
     0
  9
$PDSIZE
 40
0.0
  9
$PLINEWID
 40
0.0
  9
$SPLFRAME
 70
     0
  9
$SPLINETYPE
 70
     6
  9
$SPLINESEGS
 70
     8
  9
$HANDSEED
  5
1DD
  9
$SURFTAB1
 70
     6
  9
$SURFTAB2
 70
     6
  9
$SURFTYPE
 70
     6
  9
$SURFU
 70
     6
  9
$SURFV
 70
     6
  9
$UCSBASE
  2

  9
$UCSNAME
  2

  9
$UCSORG
 10
0.0
 20
0.0
 30
0.0
  9
$UCSXDIR
 10
1.0
 20
0.0
 30
0.0
  9
$UCSYDIR
 10
0.0
 20
1.0
 30
0.0
  9
$UCSORTHOREF
  2

  9
$UCSORTHOVIEW
 70
     0
  9
$UCSORGTOP
 10
0.0
 20
0.0
 30
0.0
  9
$UCSORGBOTTOM
 10
0.0
 20
0.0
 30
0.0
  9
$UCSORGLEFT
 10
0.0
 20
0.0
 30
0.0
  9
$UCSORGRIGHT
 10
0.0
 20
0.0
 30
0.0
  9
$UCSORGFRONT
 10
0.0
 20
0.0
 30
0.0
  9
$UCSORGBACK
 10
0.0
 20
0.0
 30
0.0
  9
$PUCSBASE
  2

  9
$PUCSNAME
  2

  9
$PUCSORG
 10
0.0
 20
0.0
 30
0.0
  9
$PUCSXDIR
 10
1.0
 20
0.0
 30
0.0
  9
$PUCSYDIR
 10
0.0
 20
1.0
 30
0.0
  9
$PUCSORTHOREF
  2

  9
$PUCSORTHOVIEW
 70
     0
  9
$PUCSORGTOP
 10
0.0
 20
0.0
 30
0.0
  9
$PUCSORGBOTTOM
 10
0.0
 20
0.0
 30
0.0
  9
$PUCSORGLEFT
 10
0.0
 20
0.0
 30
0.0
  9
$PUCSORGRIGHT
 10
0.0
 20
0.0
 30
0.0
  9
$PUCSORGFRONT
 10
0.0
 20
0.0
 30
0.0
  9
$PUCSORGBACK
 10
0.0
 20
0.0
 30
0.0
  9
$USERI1
 70
     0
  9
$USERI2
 70
     0
  9
$USERI3
 70
     0
  9
$USERI4
 70
     0
  9
$USERI5
 70
     0
  9
$USERR1
 40
0.0
  9
$USERR2
 40
0.0
  9
$USERR3
 40
0.0
  9
$USERR4
 40
0.0
  9
$USERR5
 40
0.0
  9
$WORLDVIEW
 70
     1
  9
$SHADEDGE
 70
     3
  9
$SHADEDIF
 70
    70
  9
$TILEMODE
 70
     1
  9
$MAXACTVP
 70
    48
  9
$PINSBASE
 10
0.0
 20
0.0
 30
0.0
  9
$PLIMCHECK
 70
     0
  9
$PEXTMIN
 10
1.000000000000000E+20
 20
1.000000000000000E+20
 30
1.000000000000000E+20
  9
$PEXTMAX
 10
-1.000000000000000E+20
 20
-1.000000000000000E+20
 30
-1.000000000000000E+20
  9
$PLIMMIN
 10
0.0
 20
0.0
  9
$PLIMMAX
 10
12.0
 20
9.0
  9
$UNITMODE
 70
     0
  9
$VISRETAIN
 70
     1
  9
$PLINEGEN
 70
     0
  9
$PSLTSCALE
 70
     1
  9
$TREEDEPTH
 70
  3020
  9
$CMLSTYLE
  2
STANDARD
  9
$CMLJUST
 70
     0
  9
$CMLSCALE
 40
1.0
  9
$PROXYGRAPHICS
 70
     1
  9
$MEASUREMENT
 70
     1
  9
$CELWEIGHT
370
    -1
  9
$ENDCAPS
280
     0
  9
$JOINSTYLE
280
     0
  9
$LWDISPLAY
290
     0
  9
$INSUNITS
 70
     4
  9
$HYPERLINKBASE
  1

  9
$STYLESHEET
  1

  9
$XEDIT
290
     1
  9
$CEPSNTYPE
380
     0
  9
$PSTYLEMODE
290
     1
  9
$FINGERPRINTGUID
  2
{E835D8D2-A484-4C3F-90DA-FE3F9453B837}
  9
$VERSIONGUID
  2
{FAEB1C32-E019-11D5-929B-00C0DF256EC4}
  9
$EXTNAMES
290
     1
  9
$PSVPSCALE
 40
0.0
  9
$OLESTARTUP
290
     0
  9
$SORTENTS
280
   127
  9
$INDEXCTL
280
     0
  9
$HIDETEXT
280
     1
  9
$XCLIPFRAME
280
     2
  9
$HALOGAP
280
     0
  9
$OBSCOLOR
 70
   257
  9
$OBSLTYPE
280
     0
  9
$INTERSECTIONDISPLAY
280
     0
  9
$INTERSECTIONCOLOR
 70
   257
  9
$DIMASSOC
280
     2
  9
$PROJECTNAME
  1

  9
$CAMERADISPLAY
290
     0
  9
$LENSLENGTH
 40
50.0
  9
$CAMERAHEIGHT
 40
0.0
  9
$STEPSPERSEC
 40
2.0
  9
$STEPSIZE
 40
6.0
  9
$3DDWFPREC
 40
2.0
  9
$PSOLWIDTH
 40
0.25
  9
$PSOLHEIGHT
 40
4.0
  9
$LOFTANG1
 40
1.570796326794897
  9
$LOFTANG2
 40
1.570796326794897
  9
$LOFTMAG1
 40
0.0
  9
$LOFTMAG2
 40
0.0
  9
$LOFTPARAM
 70
     7
  9
$LOFTNORMALS
280
     1
  9
$LATITUDE
 40
37.795
  9
$LONGITUDE
 40
-122.394
  9
$NORTHDIRECTION
 40
0.0
  9
$TIMEZONE
 70
 -8000
  9
$LIGHTGLYPHDISPLAY
280
     1
  9
$TILEMODELIGHTSYNCH
280
     1
  9
$SOLIDHIST
280
     1
  9
$SHOWHIST
280
     1
  9
$DWFFRAME
280
     2
  9
$DGNFRAME
280
     2
  9
$REALWORLDSCALE
290
     1
  9
$INTERFERECOLOR
 62
   256
  9
$CSHADOW
280
     0
  9
$SHADOWPLANELOCATION
 40
0.0
  0
ENDSEC
  0
SECTION
  2
CLASSES
  0
CLASS
  1
SCALE
  2
AcDbScale
  3
ObjectDBX Classes
 90
     1153
 91
        4
280
     0
281
     0
  0
CLASS
  1
VISUALSTYLE
  2
AcDbVisualStyle
  3
ObjectDBX Classes
 90
     4095
 91
        4
280
     0
281
     0
  0
CLASS
  1
MATERIAL
  2
AcDbMaterial
  3
ObjectDBX Classes
 90
     1153
 91
        4
280
     0
281
     0
  0
CLASS
  1
DICTIONARYVAR
  2
AcDbDictionaryVar
  3
ObjectDBX Classes
 90
        0
 91
        4
280
     0
281
     0
  0
ENDSEC
  0
SECTION
  2
TABLES
  0
TABLE
  2
VPORT
  5
8
330
0
100
AcDbSymbolTable
 70
     1
  0
VPORT
  5
1E
330
8
100
AcDbSymbolTableRecord
100
AcDbViewportTableRecord
  2
*ACTIVE
 70
     0
 10
0.0
 20
0.0
 11
1.0
 21
1.0
 12
1220.0
 22
610.0
 13
0.0
 23
0.0
 14
0.25
 24
0.25
 15
0.25
 25
0.25
 16
0.0
 26
0.0
 36
1.0
 17
0.0
 27
0.0
 37
0.0
 40
1220.127
 41
1.999896
 42
50.0
 43
0.0
 44
0.0
 50
0.0
 51
0.0
 71
     0
 72
   100
 73
     1
 74
     1
 75
     0
 76
     0
 77
     0
 78
     0
281
     0
 65
     1
110
0.0
120
0.0
130
0.0
111
1.0
121
0.0
131
0.0
112
0.0
122
1.0
132
0.0
 79
     0
146
0.0
348
18E
 60
     3
 61
     5
292
     1
282
     1
141
0.0
142
0.0
 63
   256
  0
ENDTAB
  0
TABLE
  2
LTYPE
  5
5
330
0
100
AcDbSymbolTable
 70
     2
  0
LTYPE
  5
12
330
5
100
AcDbSymbolTableRecord
100
AcDbLinetypeTableRecord
  2
BYBLOCK
 70
     0
  3

 72
    65
 73
     0
 40
0.0
  0
LTYPE
  5
13
330
5
100
AcDbSymbolTableRecord
100
AcDbLinetypeTableRecord
  2
BYLAYER
 70
     0
  3

 72
    65
 73
     0
 40
0.0
  0
LTYPE
  5
14
330
5
100
AcDbSymbolTableRecord
100
AcDbLinetypeTableRecord
  2
CONTINUOUS
 70
     0
  3
Solid line
 72
    65
 73
     0
 40
0.0
  0
LTYPE
  5
20
330
5
100
AcDbSymbolTableRecord
100
AcDbLinetypeTableRecord
  2
DOT
 70
     0
  3
...............................................
 72
    65
 73
     2
 40
0.25
 49
0.0
 74
     0
 49
-0.25
 74
     0
  0
ENDTAB
  0
TABLE
  2
LAYER
  5
2
330
0
100
AcDbSymbolTable
 70
    10
  0
LAYER
  5
E
330
2
100
AcDbSymbolTableRecord
100
AcDbLayerTableRecord
  2
0
 70
     0
 62
     7
  6
CONTINUOUS
370
    -3
390
0
347
1A5
  0
LAYER
  5
21
330
2
100
AcDbSymbolTableRecord
100
AcDbLayerTableRecord
  2
default
 70
     0
 62
     7
  6
CONTINUOUS
370
    -3
390
0
347
1A5
  0
LAYER
  5
22
330
2
100
AcDbSymbolTableRecord
100
AcDbLayerTableRecord
  2
ISOMETRIC
 70
     0
 62
     7
  6
CONTINUOUS
370
    -3
390
0
347
1A5
  0
LAYER
  5
23
330
2
100
AcDbSymbolTableRecord
100
AcDbLayerTableRecord
  2
PLAN
 70
     0
 62
     7
  6
CONTINUOUS
370
    -3
390
0
347
1A5
  0
LAYER
  5
24
330
2
100
AcDbSymbolTableRecord
100
AcDbLayerTableRecord
  2
LONG
 70
     0
 62
     7
  6
CONTINUOUS
370
    -3
390
0
347
1A5
  0
LAYER
  5
25
330
2
100
AcDbSymbolTableRecord
100
AcDbLayerTableRecord
  2
FRONT
 70
     0
 62
     7
  6
CONTINUOUS
370
    -3
390
0
347
1A5
  0
LAYER
  5
26
330
2
100
AcDbSymbolTableRecord
100
AcDbLayerTableRecord
  2
UNFOLD
 70
     0
 62
     7
  6
CONTINUOUS
370
    -3
390
0
347
1A5
  0
LAYER
  5
27
330
2
100
AcDbSymbolTableRecord
100
AcDbLayerTableRecord
  2
PLAN_SECTIONS
 70
     0
 62
     7
  6
CONTINUOUS
370
    -3
390
0
347
1A5
  0
LAYER
  5
28
330
2
100
AcDbSymbolTableRecord
100
AcDbLayerTableRecord
  2
CROSS_SECTIONS
 70
     0
 62
     7
  6
CONTINUOUS
370
    -3
390
0
347
1A5
  0
LAYER
  5
29
330
2
100
AcDbSymbolTableRecord
100
AcDbLayerTableRecord
  2
LONG_SECTIONS
 70
     0
 62
     7
  6
CONTINUOUS
370
    -3
390
0
347
1A5
  0
ENDTAB
  0
TABLE
  2
STYLE
  5
3
330
0
100
AcDbSymbolTable
 70
     1
  0
STYLE
  5
F
330
3
100
AcDbSymbolTableRecord
100
AcDbTextStyleTableRecord
  2
STANDARD
 70
     0
 40
0.0
 41
1.0
 50
0.0
 71
     0
 42
0.2
  3
txt
  4

  0
ENDTAB
  0
TABLE
  2
VIEW
  5
6
330
0
100
AcDbSymbolTable
 70
     0
  0
ENDTAB
  0
TABLE
  2
UCS
  5
7
330
0
100
AcDbSymbolTable
 70
     0
  0
ENDTAB
  0
TABLE
  2
APPID
  5
9
330
0
100
AcDbSymbolTable
 70
     1
  0
APPID
  5
10
330
9
100
AcDbSymbolTableRecord
100
AcDbRegAppTableRecord
  2
ACAD
 70
     0
  0
ENDTAB
  0
TABLE
  2
DIMSTYLE
  5
A
330
0
100
AcDbSymbolTable
 70
     1
100
AcDbDimStyleTable
  0
DIMSTYLE
105
1D
330
A
100
AcDbSymbolTableRecord
100
AcDbDimStyleTableRecord
  2
STANDARD
 70
     0
178
     0
340
F
  0
ENDTAB
  0
TABLE
  2
BLOCK_RECORD
  5
1
330
0
100
AcDbSymbolTable
 70
     0
  0
BLOCK_RECORD
  5
18
330
1
100
AcDbSymbolTableRecord
100
AcDbBlockTableRecord
  2
*MODEL_SPACE
340
187
 70
     0
280
     1
281
     0
  0
BLOCK_RECORD
  5
15
330
1
100
AcDbSymbolTableRecord
100
AcDbBlockTableRecord
  2
*PAPER_SPACE
340
188
 70
     0
280
     1
281
     0
  0
ENDTAB
  0
ENDSEC
  0
SECTION
  2
BLOCKS
  0
BLOCK
  5
19
330
18
100
AcDbEntity
  8
0
100
AcDbBlockBegin
  2
*MODEL_SPACE
 70
     0
 10
0.0
 20
0.0
 30
0.0
  3
*MODEL_SPACE
  1
     0
  0
ENDBLK
  5
1A
330
18
100
AcDbEntity
  8
0
100
AcDbBlockEnd
  0
BLOCK
  5
16
330
15
100
AcDbEntity
 67
     1
  8
0
100
AcDbBlockBegin
  2
*PAPER_SPACE
 70
     0
 10
0.0
 20
0.0
 30
0.0
  3
*PAPER_SPACE
  1
     0
  0
ENDBLK
  5
17
330
15
100
AcDbEntity
 67
     1
  8
0
100
AcDbBlockEnd
  0
ENDSEC
  0
SECTION
  2
ENTITIES
  0
POINT
  5
2A
330
18
100
AcDbEntity
  8
default
 62
     1
100
AcDbPoint
 10
0.0
 20
0.0
 30
0.0
  0
LINE
  5
2B
330
18
100
AcDbEntity
  8
default
  6
DOT
100
AcDbLine
 10
100.0
 20
0.0
 30
0.0
 11
100.0
 21
1220.0
 31
0.0
  0
LINE
  5
2C
330
18
100
AcDbEntity
  8
default
  6
DOT
100
AcDbLine
 10
200.0
 20
0.0
 30
0.0
 11
200.0
 21
1220.0
 31
0.0
  0
LINE
  5
2D
330
18
100
AcDbEntity
  8
default
  6
DOT
100
AcDbLine
 10
300.0
 20
0.0
 30
0.0
 11
300.0
 21
1220.0
 31
0.0
  0
LINE
  5
2E
330
18
100
AcDbEntity
  8
default
  6
DOT
100
AcDbLine
 10
400.0
 20
0.0
 30
0.0
 11
400.0
 21
1220.0
 31
0.0
  0
LINE
  5
2F
330
18
100
AcDbEntity
  8
default
  6
DOT
100
AcDbLine
 10
500.0
 20
0.0
 30
0.0
 11
500.0
 21
1220.0
 31
0.0
  0
LINE
  5
30
330
18
100
AcDbEntity
  8
default
  6
DOT
100
AcDbLine
 10
600.0
 20
0.0
 30
0.0
 11
600.0
 21
1220.0
 31
0.0
  0
LINE
  5
31
330
18
100
AcDbEntity
  8
default
  6
DOT
100
AcDbLine
 10
700.0
 20
0.0
 30
0.0
 11
700.0
 21
1220.0
 31
0.0
  0
LINE
  5
32
330
18
100
AcDbEntity
  8
default
  6
DOT
100
AcDbLine
 10
800.0
 20
0.0
 30
0.0
 11
800.0
 21
1220.0
 31
0.0
  0
LINE
  5
33
330
18
100
AcDbEntity
  8
default
  6
DOT
100
AcDbLine
 10
900.0
 20
0.0
 30
0.0
 11
900.0
 21
1220.0
 31
0.0
  0
LINE
  5
34
330
18
100
AcDbEntity
  8
default
  6
DOT
100
AcDbLine
 10
1000.0
 20
0.0
 30
0.0
 11
1000.0
 21
1220.0
 31
0.0
  0
LINE
  5
35
330
18
100
AcDbEntity
  8
default
  6
DOT
100
AcDbLine
 10
1100.0
 20
0.0
 30
0.0
 11
1100.0
 21
1220.0
 31
0.0
  0
LINE
  5
36
330
18
100
AcDbEntity
  8
default
  6
DOT
100
AcDbLine
 10
1200.0
 20
0.0
 30
0.0
 11
1200.0
 21
1220.0
 31
0.0
  0
LINE
  5
37
330
18
100
AcDbEntity
  8
default
  6
DOT
100
AcDbLine
 10
1300.0
 20
0.0
 30
0.0
 11
1300.0
 21
1220.0
 31
0.0
  0
LINE
  5
38
330
18
100
AcDbEntity
  8
default
  6
DOT
100
AcDbLine
 10
1400.0
 20
0.0
 30
0.0
 11
1400.0
 21
1220.0
 31
0.0
  0
LINE
  5
39
330
18
100
AcDbEntity
  8
default
  6
DOT
100
AcDbLine
 10
1500.0
 20
0.0
 30
0.0
 11
1500.0
 21
1220.0
 31
0.0
  0
LINE
  5
3A
330
18
100
AcDbEntity
  8
default
  6
DOT
100
AcDbLine
 10
1600.0
 20
0.0
 30
0.0
 11
1600.0
 21
1220.0
 31
0.0
  0
LINE
  5
3B
330
18
100
AcDbEntity
  8
default
  6
DOT
100
AcDbLine
 10
1700.0
 20
0.0
 30
0.0
 11
1700.0
 21
1220.0
 31
0.0
  0
LINE
  5
3C
330
18
100
AcDbEntity
  8
default
  6
DOT
100
AcDbLine
 10
1800.0
 20
0.0
 30
0.0
 11
1800.0
 21
1220.0
 31
0.0
  0
LINE
  5
3D
330
18
100
AcDbEntity
  8
default
  6
DOT
100
AcDbLine
 10
1900.0
 20
0.0
 30
0.0
 11
1900.0
 21
1220.0
 31
0.0
  0
LINE
  5
3E
330
18
100
AcDbEntity
  8
default
  6
DOT
100
AcDbLine
 10
2000.0
 20
0.0
 30
0.0
 11
2000.0
 21
1220.0
 31
0.0
  0
LINE
  5
3F
330
18
100
AcDbEntity
  8
default
  6
DOT
100
AcDbLine
 10
2100.0
 20
0.0
 30
0.0
 11
2100.0
 21
1220.0
 31
0.0
  0
LINE
  5
40
330
18
100
AcDbEntity
  8
default
  6
DOT
100
AcDbLine
 10
2200.0
 20
0.0
 30
0.0
 11
2200.0
 21
1220.0
 31
0.0
  0
LINE
  5
41
330
18
100
AcDbEntity
  8
default
  6
DOT
100
AcDbLine
 10
2300.0
 20
0.0
 30
0.0
 11
2300.0
 21
1220.0
 31
0.0
  0
LINE
  5
42
330
18
100
AcDbEntity
  8
default
  6
DOT
100
AcDbLine
 10
2400.0
 20
0.0
 30
0.0
 11
2400.0
 21
1220.0
 31
0.0
  0
LINE
  5
43
330
18
100
AcDbEntity
  8
default
 62
     1
100
AcDbLine
 10
2300.0
 20
203.458339
 30
0.0
 11
2394.068714
 21
211.452203
 31
0.0
  0
LINE
  5
44
330
18
100
AcDbEntity
  8
default
 62
     1
100
AcDbLine
 10
2200.0
 20
194.960441
 30
0.0
 11
2300.0
 21
203.458339
 31
0.0
  0
LINE
  5
45
330
18
100
AcDbEntity
  8
default
 62
     1
100
AcDbLine
 10
2100.0
 20
186.462542
 30
0.0
 11
2200.0
 21
194.960441
 31
0.0
  0
LINE
  5
46
330
18
100
AcDbEntity
  8
default
 62
     1
100
AcDbLine
 10
2000.0
 20
179.720004
 30
0.0
 11
2100.0
 21
186.462542
 31
0.0
  0
LINE
  5
47
330
18
100
AcDbEntity
  8
default
 62
     1
100
AcDbLine
 10
1900.0
 20
174.314035
 30
0.0
 11
2000.0
 21
179.720004
 31
0.0
  0
LINE
  5
48
330
18
100
AcDbEntity
  8
default
 62
     1
100
AcDbLine
 10
1800.0
 20
169.424046
 30
0.0
 11
1900.0
 21
174.314035
 31
0.0
  0
LINE
  5
49
330
18
100
AcDbEntity
  8
default
 62
     1
100
AcDbLine
 10
1700.0
 20
165.647144
 30
0.0
 11
1800.0
 21
169.424046
 31
0.0
  0
LINE
  5
4A
330
18
100
AcDbEntity
  8
default
 62
     1
100
AcDbLine
 10
1600.0
 20
162.748869
 30
0.0
 11
1700.0
 21
165.647144
 31
0.0
  0
LINE
  5
4B
330
18
100
AcDbEntity
  8
default
 62
     1
100
AcDbLine
 10
1500.0
 20
160.668179
 30
0.0
 11
1600.0
 21
162.748869
 31
0.0
  0
LINE
  5
4C
330
18
100
AcDbEntity
  8
default
 62
     1
100
AcDbLine
 10
1400.0
 20
159.617382
 30
0.0
 11
1500.0
 21
160.668179
 31
0.0
  0
LINE
  5
4D
330
18
100
AcDbEntity
  8
default
 62
     1
100
AcDbLine
 10
1300.0
 20
159.252484
 30
0.0
 11
1400.0
 21
159.617382
 31
0.0
  0
LINE
  5
4E
330
18
100
AcDbEntity
  8
default
 62
     1
100
AcDbLine
 10
1200.0
 20
160.272509
 30
0.0
 11
1300.0
 21
159.252484
 31
0.0
  0
LINE
  5
4F
330
18
100
AcDbEntity
  8
default
 62
     1
100
AcDbLine
 10
1100.0
 20
161.544959
 30
0.0
 11
1200.0
 21
160.272509
 31
0.0
  0
LINE
  5
50
330
18
100
AcDbEntity
  8
default
 62
     1
100
AcDbLine
 10
1000.0
 20
164.455228
 30
0.0
 11
1100.0
 21
161.544959
 31
0.0
  0
LINE
  5
51
330
18
100
AcDbEntity
  8
default
 62
     1
100
AcDbLine
 10
900.0
 20
167.798205
 30
0.0
 11
1000.0
 21
164.455228
 31
0.0
  0
LINE
  5
52
330
18
100
AcDbEntity
  8
default
 62
     1
100
AcDbLine
 10
800.0
 20
172.753821
 30
0.0
 11
900.0
 21
167.798205
 31
0.0
  0
LINE
  5
53
330
18
100
AcDbEntity
  8
default
 62
     1
100
AcDbLine
 10
700.0
 20
177.752333
 30
0.0
 11
800.0
 21
172.753821
 31
0.0
  0
LINE
  5
54
330
18
100
AcDbEntity
  8
default
 62
     1
100
AcDbLine
 10
600.0
 20
184.843565
 30
0.0
 11
700.0
 21
177.752333
 31
0.0
  0
LINE
  5
55
330
18
100
AcDbEntity
  8
default
 62
     1
100
AcDbLine
 10
500.0
 20
191.934797
 30
0.0
 11
600.0
 21
184.843565
 31
0.0
  0
LINE
  5
56
330
18
100
AcDbEntity
  8
default
 62
     1
100
AcDbLine
 10
400.0
 20
200.977685
 30
0.0
 11
500.0
 21
191.934797
 31
0.0
  0
LINE
  5
57
330
18
100
AcDbEntity
  8
default
 62
     1
100
AcDbLine
 10
300.0
 20
210.164596
 30
0.0
 11
400.0
 21
200.977685
 31
0.0
  0
LINE
  5
58
330
18
100
AcDbEntity
  8
default
 62
     1
100
AcDbLine
 10
200.0
 20
221.285341
 30
0.0
 11
300.0
 21
210.164596
 31
0.0
  0
LINE
  5
59
330
18
100
AcDbEntity
  8
default
 62
     1
100
AcDbLine
 10
100.0
 20
232.751918
 30
0.0
 11
200.0
 21
221.285341
 31
0.0
  0
LINE
  5
5A
330
18
100
AcDbEntity
  8
default
 62
     1
100
AcDbLine
 10
77.15587
 20
235.371358
 30
0.0
 11
100.0
 21
232.751918
 31
0.0
  0
LINE
  5
5B
330
18
100
AcDbEntity
  8
default
 62
     1
100
AcDbLine
 10
53.366535
 20
56.670302
 30
0.0
 11
77.15587
 21
235.371358
 31
0.0
  0
LINE
  5
5C
330
18
100
AcDbEntity
  8
default
 62
     1
100
AcDbLine
 10
100.0
 20
51.485553
 30
0.0
 11
53.366535
 21
56.670302
 31
0.0
  0
LINE
  5
5D
330
18
100
AcDbEntity
  8
default
 62
     1
100
AcDbLine
 10
200.0
 20
40.367466
 30
0.0
 11
100.0
 21
51.485553
 31
0.0
  0
LINE
  5
5E
330
18
100
AcDbEntity
  8
default
 62
     1
100
AcDbLine
 10
300.0
 20
30.482445
 30
0.0
 11
200.0
 21
40.367466
 31
0.0
  0
LINE
  5
5F
330
18
100
AcDbEntity
  8
default
 62
     1
100
AcDbLine
 10
400.0
 20
22.543561
 30
0.0
 11
300.0
 21
30.482445
 31
0.0
  0
LINE
  5
60
330
18
100
AcDbEntity
  8
default
 62
     1
100
AcDbLine
 10
500.0
 20
15.510975
 30
0.0
 11
400.0
 21
22.543561
 31
0.0
  0
LINE
  5
61
330
18
100
AcDbEntity
  8
default
 62
     1
100
AcDbLine
 10
600.0
 20
10.588964
 30
0.0
 11
500.0
 21
15.510975
 31
0.0
  0
LINE
  5
62
330
18
100
AcDbEntity
  8
default
 62
     1
100
AcDbLine
 10
700.0
 20
6.257652
 30
0.0
 11
600.0
 21
10.588964
 31
0.0
  0
LINE
  5
63
330
18
100
AcDbEntity
  8
default
 62
     1
100
AcDbLine
 10
800.0
 20
4.223088
 30
0.0
 11
700.0
 21
6.257652
 31
0.0
  0
LINE
  5
64
330
18
100
AcDbEntity
  8
default
 62
     1
100
AcDbLine
 10
900.0
 20
2.453828
 30
0.0
 11
800.0
 21
4.223088
 31
0.0
  0
LINE
  5
65
330
18
100
AcDbEntity
  8
default
 62
     1
100
AcDbLine
 10
1000.0
 20
3.050056
 30
0.0
 11
900.0
 21
2.453828
 31
0.0
  0
LINE
  5
66
330
18
100
AcDbEntity
  8
default
 62
     1
100
AcDbLine
 10
1100.0
 20
4.046631
 30
0.0
 11
1000.0
 21
3.050056
 31
0.0
  0
LINE
  5
67
330
18
100
AcDbEntity
  8
default
 62
     1
100
AcDbLine
 10
1200.0
 20
7.631513
 30
0.0
 11
1100.0
 21
4.046631
 31
0.0
  0
LINE
  5
68
330
18
100
AcDbEntity
  8
default
 62
     1
100
AcDbLine
 10
1300.0
 20
11.238203
 30
0.0
 11
1200.0
 21
7.631513
 31
0.0
  0
LINE
  5
69
330
18
100
AcDbEntity
  8
default
 62
     1
100
AcDbLine
 10
1400.0
 20
18.416974
 30
0.0
 11
1300.0
 21
11.238203
 31
0.0
  0
LINE
  5
6A
330
18
100
AcDbEntity
  8
default
 62
     1
100
AcDbLine
 10
1500.0
 20
26.173896
 30
0.0
 11
1400.0
 21
18.416974
 31
0.0
  0
LINE
  5
6B
330
18
100
AcDbEntity
  8
default
 62
     1
100
AcDbLine
 10
1600.0
 20
37.329702
 30
0.0
 11
1500.0
 21
26.173896
 31
0.0
  0
LINE
  5
6C
330
18
100
AcDbEntity
  8
default
 62
     1
100
AcDbLine
 10
1700.0
 20
49.737892
 30
0.0
 11
1600.0
 21
37.329702
 31
0.0
  0
LINE
  5
6D
330
18
100
AcDbEntity
  8
default
 62
     1
100
AcDbLine
 10
1800.0
 20
65.311488
 30
0.0
 11
1700.0
 21
49.737892
 31
0.0
  0
LINE
  5
6E
330
18
100
AcDbEntity
  8
default
 62
     1
100
AcDbLine
 10
1900.0
 20
83.104562
 30
0.0
 11
1800.0
 21
65.311488
 31
0.0
  0
LINE
  5
6F
330
18
100
AcDbEntity
  8
default
 62
     1
100
AcDbLine
 10
2000.0
 20
102.870265
 30
0.0
 11
1900.0
 21
83.104562
 31
0.0
  0
LINE
  5
70
330
18
100
AcDbEntity
  8
default
 62
     1
100
AcDbLine
 10
2100.0
 20
126.574323
 30
0.0
 11
2000.0
 21
102.870265
 31
0.0
  0
LINE
  5
71
330
18
100
AcDbEntity
  8
default
 62
     1
100
AcDbLine
 10
2200.0
 20
155.437604
 30
0.0
 11
2100.0
 21
126.574323
 31
0.0
  0
LINE
  5
72
330
18
100
AcDbEntity
  8
default
 62
     1
100
AcDbLine
 10
2300.0
 20
184.300885
 30
0.0
 11
2200.0
 21
155.437604
 31
0.0
  0
LINE
  5
73
330
18
100
AcDbEntity
  8
default
 62
     1
100
AcDbLine
 10
2394.068714
 20
211.452203
 30
0.0
 11
2300.0
 21
184.300885
 31
0.0
  0
LINE
  5
74
330
18
100
AcDbEntity
  8
default
 62
     3
100
AcDbLine
 10
100.0
 20
249.800095
 30
0.0
 11
76.956808
 21
251.545747
 31
0.0
  0
LINE
  5
75
330
18
100
AcDbEntity
  8
default
 62
     3
100
AcDbLine
 10
200.0
 20
242.224529
 30
0.0
 11
100.0
 21
249.800095
 31
0.0
  0
LINE
  5
76
330
18
100
AcDbEntity
  8
default
 62
     3
100
AcDbLine
 10
300.0
 20
234.648964
 30
0.0
 11
200.0
 21
242.224529
 31
0.0
  0
LINE
  5
77
330
18
100
AcDbEntity
  8
default
 62
     3
100
AcDbLine
 10
400.0
 20
228.2895
 30
0.0
 11
300.0
 21
234.648964
 31
0.0
  0
LINE
  5
78
330
18
100
AcDbEntity
  8
default
 62
     3
100
AcDbLine
 10
500.0
 20
222.283847
 30
0.0
 11
400.0
 21
228.2895
 31
0.0
  0
LINE
  5
79
330
18
100
AcDbEntity
  8
default
 62
     3
100
AcDbLine
 10
600.0
 20
216.773935
 30
0.0
 11
500.0
 21
222.283847
 31
0.0
  0
LINE
  5
7A
330
18
100
AcDbEntity
  8
default
 62
     3
100
AcDbLine
 10
700.0
 20
211.460987
 30
0.0
 11
600.0
 21
216.773935
 31
0.0
  0
LINE
  5
7B
330
18
100
AcDbEntity
  8
default
 62
     3
100
AcDbLine
 10
800.0
 20
206.997717
 30
0.0
 11
700.0
 21
211.460987
 31
0.0
  0
LINE
  5
7C
330
18
100
AcDbEntity
  8
default
 62
     3
100
AcDbLine
 10
900.0
 20
203.310961
 30
0.0
 11
800.0
 21
206.997717
 31
0.0
  0
LINE
  5
7D
330
18
100
AcDbEntity
  8
default
 62
     3
100
AcDbLine
 10
1000.0
 20
200.110507
 30
0.0
 11
900.0
 21
203.310961
 31
0.0
  0
LINE
  5
7E
330
18
100
AcDbEntity
  8
default
 62
     3
100
AcDbLine
 10
1100.0
 20
198.583117
 30
0.0
 11
1000.0
 21
200.110507
 31
0.0
  0
LINE
  5
7F
330
18
100
AcDbEntity
  8
default
 62
     3
100
AcDbLine
 10
1200.0
 20
197.411052
 30
0.0
 11
1100.0
 21
198.583117
 31
0.0
  0
LINE
  5
80
330
18
100
AcDbEntity
  8
default
 62
     3
100
AcDbLine
 10
1300.0
 20
197.438842
 30
0.0
 11
1200.0
 21
197.411052
 31
0.0
  0
LINE
  5
81
330
18
100
AcDbEntity
  8
default
 62
     3
100
AcDbLine
 10
1400.0
 20
197.577269
 30
0.0
 11
1300.0
 21
197.438842
 31
0.0
  0
LINE
  5
82
330
18
100
AcDbEntity
  8
default
 62
     3
100
AcDbLine
 10
1500.0
 20
198.993264
 30
0.0
 11
1400.0
 21
197.577269
 31
0.0
  0
LINE
  5
83
330
18
100
AcDbEntity
  8
default
 62
     3
100
AcDbLine
 10
1600.0
 20
200.553892
 30
0.0
 11
1500.0
 21
198.993264
 31
0.0
  0
LINE
  5
84
330
18
100
AcDbEntity
  8
default
 62
     3
100
AcDbLine
 10
1700.0
 20
202.993697
 30
0.0
 11
1600.0
 21
200.553892
 31
0.0
  0
LINE
  5
85
330
18
100
AcDbEntity
  8
default
 62
     3
100
AcDbLine
 10
1800.0
 20
205.444996
 30
0.0
 11
1700.0
 21
202.993697
 31
0.0
  0
LINE
  5
86
330
18
100
AcDbEntity
  8
default
 62
     3
100
AcDbLine
 10
1900.0
 20
208.396313
 30
0.0
 11
1800.0
 21
205.444996
 31
0.0
  0
LINE
  5
87
330
18
100
AcDbEntity
  8
default
 62
     3
100
AcDbLine
 10
2000.0
 20
211.413523
 30
0.0
 11
1900.0
 21
208.396313
 31
0.0
  0
LINE
  5
88
330
18
100
AcDbEntity
  8
default
 62
     3
100
AcDbLine
 10
2100.0
 20
214.548999
 30
0.0
 11
2000.0
 21
211.413523
 31
0.0
  0
LINE
  5
89
330
18
100
AcDbEntity
  8
default
 62
     3
100
AcDbLine
 10
2200.0
 20
217.716646
 30
0.0
 11
2100.0
 21
214.548999
 31
0.0
  0
LINE
  5
8A
330
18
100
AcDbEntity
  8
default
 62
     3
100
AcDbLine
 10
2300.0
 20
220.689448
 30
0.0
 11
2200.0
 21
217.716646
 31
0.0
  0
LINE
  5
8B
330
18
100
AcDbEntity
  8
default
 62
     3
100
AcDbLine
 10
2400.0
 20
223.576008
 30
0.0
 11
2300.0
 21
220.689448
 31
0.0
  0
LINE
  5
8C
330
18
100
AcDbEntity
  8
default
 62
     3
100
AcDbLine
 10
2439.723434
 20
224.722648
 30
0.0
 11
2400.0
 21
223.576008
 31
0.0
  0
LINE
  5
8D
330
18
100
AcDbEntity
  8
default
 62
     3
100
AcDbLine
 10
2439.446868
 20
405.0
 30
0.0
 11
2439.723434
 21
224.722648
 31
0.0
  0
LINE
  5
8E
330
18
100
AcDbEntity
  8
default
 62
     3
100
AcDbLine
 10
2400.0
 20
405.290718
 30
0.0
 11
2439.446868
 21
405.0
 31
0.0
  0
LINE
  5
8F
330
18
100
AcDbEntity
  8
default
 62
     3
100
AcDbLine
 10
2300.0
 20
406.027704
 30
0.0
 11
2400.0
 21
405.290718
 31
0.0
  0
LINE
  5
90
330
18
100
AcDbEntity
  8
default
 62
     3
100
AcDbLine
 10
2200.0
 20
407.300284
 30
0.0
 11
2300.0
 21
406.027704
 31
0.0
  0
LINE
  5
91
330
18
100
AcDbEntity
  8
default
 62
     3
100
AcDbLine
 10
2100.0
 20
409.796721
 30
0.0
 11
2200.0
 21
407.300284
 31
0.0
  0
LINE
  5
92
330
18
100
AcDbEntity
  8
default
 62
     3
100
AcDbLine
 10
2000.0
 20
412.69019
 30
0.0
 11
2100.0
 21
409.796721
 31
0.0
  0
LINE
  5
93
330
18
100
AcDbEntity
  8
default
 62
     3
100
AcDbLine
 10
1900.0
 20
417.041479
 30
0.0
 11
2000.0
 21
412.69019
 31
0.0
  0
LINE
  5
94
330
18
100
AcDbEntity
  8
default
 62
     3
100
AcDbLine
 10
1800.0
 20
421.606856
 30
0.0
 11
1900.0
 21
417.041479
 31
0.0
  0
LINE
  5
95
330
18
100
AcDbEntity
  8
default
 62
     3
100
AcDbLine
 10
1700.0
 20
427.696767
 30
0.0
 11
1800.0
 21
421.606856
 31
0.0
  0
LINE
  5
96
330
18
100
AcDbEntity
  8
default
 62
     3
100
AcDbLine
 10
1600.0
 20
433.836864
 30
0.0
 11
1700.0
 21
427.696767
 31
0.0
  0
LINE
  5
97
330
18
100
AcDbEntity
  8
default
 62
     3
100
AcDbLine
 10
1500.0
 20
441.520395
 30
0.0
 11
1600.0
 21
433.836864
 31
0.0
  0
LINE
  5
98
330
18
100
AcDbEntity
  8
default
 62
     3
100
AcDbLine
 10
1400.0
 20
449.494877
 30
0.0
 11
1500.0
 21
441.520395
 31
0.0
  0
LINE
  5
99
330
18
100
AcDbEntity
  8
default
 62
     3
100
AcDbLine
 10
1300.0
 20
459.018092
 30
0.0
 11
1400.0
 21
449.494877
 31
0.0
  0
LINE
  5
9A
330
18
100
AcDbEntity
  8
default
 62
     3
100
AcDbLine
 10
1200.0
 20
468.612714
 30
0.0
 11
1300.0
 21
459.018092
 31
0.0
  0
LINE
  5
9B
330
18
100
AcDbEntity
  8
default
 62
     3
100
AcDbLine
 10
1100.0
 20
479.631565
 30
0.0
 11
1200.0
 21
468.612714
 31
0.0
  0
LINE
  5
9C
330
18
100
AcDbEntity
  8
default
 62
     3
100
AcDbLine
 10
1000.0
 20
490.933048
 30
0.0
 11
1100.0
 21
479.631565
 31
0.0
  0
LINE
  5
9D
330
18
100
AcDbEntity
  8
default
 62
     3
100
AcDbLine
 10
900.0
 20
503.641456
 30
0.0
 11
1000.0
 21
490.933048
 31
0.0
  0
LINE
  5
9E
330
18
100
AcDbEntity
  8
default
 62
     3
100
AcDbLine
 10
800.0
 20
516.349864
 30
0.0
 11
900.0
 21
503.641456
 31
0.0
  0
LINE
  5
9F
330
18
100
AcDbEntity
  8
default
 62
     3
100
AcDbLine
 10
700.0
 20
530.430468
 30
0.0
 11
800.0
 21
516.349864
 31
0.0
  0
LINE
  5
A0
330
18
100
AcDbEntity
  8
default
 62
     3
100
AcDbLine
 10
600.0
 20
545.281281
 30
0.0
 11
700.0
 21
530.430468
 31
0.0
  0
LINE
  5
A1
330
18
100
AcDbEntity
  8
default
 62
     3
100
AcDbLine
 10
500.0
 20
560.784633
 30
0.0
 11
600.0
 21
545.281281
 31
0.0
  0
LINE
  5
A2
330
18
100
AcDbEntity
  8
default
 62
     3
100
AcDbLine
 10
435.386229
 20
571.160125
 30
0.0
 11
500.0
 21
560.784633
 31
0.0
  0
LINE
  5
A3
330
18
100
AcDbEntity
  8
default
 62
     3
100
AcDbLine
 10
400.0
 20
539.594367
 30
0.0
 11
435.386229
 21
571.160125
 31
0.0
  0
LINE
  5
A4
330
18
100
AcDbEntity
  8
default
 62
     3
100
AcDbLine
 10
300.0
 20
450.403373
 30
0.0
 11
400.0
 21
539.594367
 31
0.0
  0
LINE
  5
A5
330
18
100
AcDbEntity
  8
default
 62
     3
100
AcDbLine
 10
200.0
 20
361.246818
 30
0.0
 11
300.0
 21
450.403373
 31
0.0
  0
LINE
  5
A6
330
18
100
AcDbEntity
  8
default
 62
     3
100
AcDbLine
 10
100.0
 20
272.090263
 30
0.0
 11
200.0
 21
361.246818
 31
0.0
  0
LINE
  5
A7
330
18
100
AcDbEntity
  8
default
 62
     3
100
AcDbLine
 10
76.956808
 20
251.545747
 30
0.0
 11
100.0
 21
272.090263
 31
0.0
  0
LINE
  5
A8
330
18
100
AcDbEntity
  8
default
 62
     5
100
AcDbLine
 10
600.0
 20
579.52595
 30
0.0
 11
500.0
 21
598.248587
 31
0.0
  0
LINE
  5
A9
330
18
100
AcDbEntity
  8
default
 62
     5
100
AcDbLine
 10
700.0
 20
561.726907
 30
0.0
 11
600.0
 21
579.52595
 31
0.0
  0
LINE
  5
AA
330
18
100
AcDbEntity
  8
default
 62
     5
100
AcDbLine
 10
800.0
 20
544.650299
 30
0.0
 11
700.0
 21
561.726907
 31
0.0
  0
LINE
  5
AB
330
18
100
AcDbEntity
  8
default
 62
     5
100
AcDbLine
 10
900.0
 20
529.004366
 30
0.0
 11
800.0
 21
544.650299
 31
0.0
  0
LINE
  5
AC
330
18
100
AcDbEntity
  8
default
 62
     5
100
AcDbLine
 10
1000.0
 20
513.670487
 30
0.0
 11
900.0
 21
529.004366
 31
0.0
  0
LINE
  5
AD
330
18
100
AcDbEntity
  8
default
 62
     5
100
AcDbLine
 10
1100.0
 20
499.98193
 30
0.0
 11
1000.0
 21
513.670487
 31
0.0
  0
LINE
  5
AE
330
18
100
AcDbEntity
  8
default
 62
     5
100
AcDbLine
 10
1200.0
 20
487.007687
 30
0.0
 11
1100.0
 21
499.98193
 31
0.0
  0
LINE
  5
AF
330
18
100
AcDbEntity
  8
default
 62
     5
100
AcDbLine
 10
1300.0
 20
475.483877
 30
0.0
 11
1200.0
 21
487.007687
 31
0.0
  0
LINE
  5
B0
330
18
100
AcDbEntity
  8
default
 62
     5
100
AcDbLine
 10
1400.0
 20
464.032346
 30
0.0
 11
1300.0
 21
475.483877
 31
0.0
  0
LINE
  5
B1
330
18
100
AcDbEntity
  8
default
 62
     5
100
AcDbLine
 10
1500.0
 20
454.424681
 30
0.0
 11
1400.0
 21
464.032346
 31
0.0
  0
LINE
  5
B2
330
18
100
AcDbEntity
  8
default
 62
     5
100
AcDbLine
 10
1600.0
 20
445.217364
 30
0.0
 11
1500.0
 21
454.424681
 31
0.0
  0
LINE
  5
B3
330
18
100
AcDbEntity
  8
default
 62
     5
100
AcDbLine
 10
1700.0
 20
437.877954
 30
0.0
 11
1600.0
 21
445.217364
 31
0.0
  0
LINE
  5
B4
330
18
100
AcDbEntity
  8
default
 62
     5
100
AcDbLine
 10
1800.0
 20
430.605227
 30
0.0
 11
1700.0
 21
437.877954
 31
0.0
  0
LINE
  5
B5
330
18
100
AcDbEntity
  8
default
 62
     5
100
AcDbLine
 10
1900.0
 20
425.09194
 30
0.0
 11
1800.0
 21
430.605227
 31
0.0
  0
LINE
  5
B6
330
18
100
AcDbEntity
  8
default
 62
     5
100
AcDbLine
 10
2000.0
 20
419.828783
 30
0.0
 11
1900.0
 21
425.09194
 31
0.0
  0
LINE
  5
B7
330
18
100
AcDbEntity
  8
default
 62
     5
100
AcDbLine
 10
2100.0
 20
416.25696
 30
0.0
 11
2000.0
 21
419.828783
 31
0.0
  0
LINE
  5
B8
330
18
100
AcDbEntity
  8
default
 62
     5
100
AcDbLine
 10
2200.0
 20
413.146912
 30
0.0
 11
2100.0
 21
416.25696
 31
0.0
  0
LINE
  5
B9
330
18
100
AcDbEntity
  8
default
 62
     5
100
AcDbLine
 10
2300.0
 20
411.467862
 30
0.0
 11
2200.0
 21
413.146912
 31
0.0
  0
LINE
  5
BA
330
18
100
AcDbEntity
  8
default
 62
     5
100
AcDbLine
 10
2400.0
 20
410.41523
 30
0.0
 11
2300.0
 21
411.467862
 31
0.0
  0
LINE
  5
BB
330
18
100
AcDbEntity
  8
default
 62
     5
100
AcDbLine
 10
2439.446868
 20
410.0
 30
0.0
 11
2400.0
 21
410.41523
 31
0.0
  0
LINE
  5
BC
330
18
100
AcDbEntity
  8
default
 62
     5
100
AcDbLine
 10
2439.446868
 20
610.0
 30
0.0
 11
2439.446868
 21
410.0
 31
0.0
  0
LINE
  5
BD
330
18
100
AcDbEntity
  8
default
 62
     5
100
AcDbLine
 10
2439.446868
 20
810.0
 30
0.0
 11
2439.446868
 21
610.0
 31
0.0
  0
LINE
  5
BE
330
18
100
AcDbEntity
  8
default
 62
     5
100
AcDbLine
 10
2400.0
 20
809.58477
 30
0.0
 11
2439.446868
 21
810.0
 31
0.0
  0
LINE
  5
BF
330
18
100
AcDbEntity
  8
default
 62
     5
100
AcDbLine
 10
2300.0
 20
808.532138
 30
0.0
 11
2400.0
 21
809.58477
 31
0.0
  0
LINE
  5
C0
330
18
100
AcDbEntity
  8
default
 62
     5
100
AcDbLine
 10
2200.0
 20
806.853088
 30
0.0
 11
2300.0
 21
808.532138
 31
0.0
  0
LINE
  5
C1
330
18
100
AcDbEntity
  8
default
 62
     5
100
AcDbLine
 10
2100.0
 20
803.74304
 30
0.0
 11
2200.0
 21
806.853088
 31
0.0
  0
LINE
  5
C2
330
18
100
AcDbEntity
  8
default
 62
     5
100
AcDbLine
 10
2000.0
 20
800.171217
 30
0.0
 11
2100.0
 21
803.74304
 31
0.0
  0
LINE
  5
C3
330
18
100
AcDbEntity
  8
default
 62
     5
100
AcDbLine
 10
1900.0
 20
794.90806
 30
0.0
 11
2000.0
 21
800.171217
 31
0.0
  0
LINE
  5
C4
330
18
100
AcDbEntity
  8
default
 62
     5
100
AcDbLine
 10
1800.0
 20
789.394773
 30
0.0
 11
1900.0
 21
794.90806
 31
0.0
  0
LINE
  5
C5
330
18
100
AcDbEntity
  8
default
 62
     5
100
AcDbLine
 10
1700.0
 20
782.122046
 30
0.0
 11
1800.0
 21
789.394773
 31
0.0
  0
LINE
  5
C6
330
18
100
AcDbEntity
  8
default
 62
     5
100
AcDbLine
 10
1600.0
 20
774.782636
 30
0.0
 11
1700.0
 21
782.122046
 31
0.0
  0
LINE
  5
C7
330
18
100
AcDbEntity
  8
default
 62
     5
100
AcDbLine
 10
1500.0
 20
765.575319
 30
0.0
 11
1600.0
 21
774.782636
 31
0.0
  0
LINE
  5
C8
330
18
100
AcDbEntity
  8
default
 62
     5
100
AcDbLine
 10
1400.0
 20
755.967654
 30
0.0
 11
1500.0
 21
765.575319
 31
0.0
  0
LINE
  5
C9
330
18
100
AcDbEntity
  8
default
 62
     5
100
AcDbLine
 10
1300.0
 20
744.516123
 30
0.0
 11
1400.0
 21
755.967654
 31
0.0
  0
LINE
  5
CA
330
18
100
AcDbEntity
  8
default
 62
     5
100
AcDbLine
 10
1200.0
 20
732.992313
 30
0.0
 11
1300.0
 21
744.516123
 31
0.0
  0
LINE
  5
CB
330
18
100
AcDbEntity
  8
default
 62
     5
100
AcDbLine
 10
1100.0
 20
720.01807
 30
0.0
 11
1200.0
 21
732.992313
 31
0.0
  0
LINE
  5
CC
330
18
100
AcDbEntity
  8
default
 62
     5
100
AcDbLine
 10
1000.0
 20
706.329513
 30
0.0
 11
1100.0
 21
720.01807
 31
0.0
  0
LINE
  5
CD
330
18
100
AcDbEntity
  8
default
 62
     5
100
AcDbLine
 10
900.0
 20
690.995634
 30
0.0
 11
1000.0
 21
706.329513
 31
0.0
  0
LINE
  5
CE
330
18
100
AcDbEntity
  8
default
 62
     5
100
AcDbLine
 10
800.0
 20
675.349701
 30
0.0
 11
900.0
 21
690.995634
 31
0.0
  0
LINE
  5
CF
330
18
100
AcDbEntity
  8
default
 62
     5
100
AcDbLine
 10
700.0
 20
658.273093
 30
0.0
 11
800.0
 21
675.349701
 31
0.0
  0
LINE
  5
D0
330
18
100
AcDbEntity
  8
default
 62
     5
100
AcDbLine
 10
600.0
 20
640.47405
 30
0.0
 11
700.0
 21
658.273093
 31
0.0
  0
LINE
  5
D1
330
18
100
AcDbEntity
  8
default
 62
     5
100
AcDbLine
 10
500.0
 20
621.751413
 30
0.0
 11
600.0
 21
640.47405
 31
0.0
  0
LINE
  5
D2
330
18
100
AcDbEntity
  8
default
 62
     5
100
AcDbLine
 10
439.446868
 20
610.0
 30
0.0
 11
500.0
 21
621.751413
 31
0.0
  0
LINE
  5
D3
330
18
100
AcDbEntity
  8
default
 62
     5
100
AcDbLine
 10
500.0
 20
598.248587
 30
0.0
 11
439.446868
 21
610.0
 31
0.0
  0
LINE
  5
D4
330
18
100
AcDbEntity
  8
default
 62
     6
100
AcDbLine
 10
308.998415
 20
712.000169
 30
0.0
 11
308.999939
 21
609.999623
 31
0.0
  0
LINE
  5
D5
330
18
100
AcDbEntity
  8
default
 62
     6
100
AcDbLine
 10
300.0
 20
718.622333
 30
0.0
 11
308.998415
 21
712.000169
 31
0.0
  0
LINE
  5
D6
330
18
100
AcDbEntity
  8
default
 62
     6
100
AcDbLine
 10
200.0
 20
792.2149
 30
0.0
 11
300.0
 21
718.622333
 31
0.0
  0
LINE
  5
D7
330
18
100
AcDbEntity
  8
default
 62
     6
100
AcDbLine
 10
100.0
 20
865.807468
 30
0.0
 11
200.0
 21
792.2149
 31
0.0
  0
LINE
  5
D8
330
18
100
AcDbEntity
  8
default
 62
     6
100
AcDbLine
 10
77.9995
 20
881.9982
 30
0.0
 11
100.0
 21
865.807468
 31
0.0
  0
LINE
  5
D9
330
18
100
AcDbEntity
  8
default
 62
     6
100
AcDbLine
 10
0.0
 20
766.997834
 30
0.0
 11
77.9995
 21
881.9982
 31
0.0
  0
LINE
  5
DA
330
18
100
AcDbEntity
  8
default
 62
     6
100
AcDbLine
 10
0.0
 20
610.0
 30
0.0
 11
0.0
 21
766.997834
 31
0.0
  0
LINE
  5
DB
330
18
100
AcDbEntity
  8
default
 62
     6
100
AcDbLine
 10
0.0
 20
452.999873
 30
0.0
 11
0.0
 21
610.0
 31
0.0
  0
LINE
  5
DC
330
18
100
AcDbEntity
  8
default
 62
     6
100
AcDbLine
 10
77.9995
 20
337.999507
 30
0.0
 11
0.0
 21
452.999873
 31
0.0
  0
LINE
  5
DD
330
18
100
AcDbEntity
  8
default
 62
     6
100
AcDbLine
 10
100.0
 20
354.19024
 30
0.0
 11
77.9995
 21
337.999507
 31
0.0
  0
LINE
  5
DE
330
18
100
AcDbEntity
  8
default
 62
     6
100
AcDbLine
 10
200.0
 20
427.782807
 30
0.0
 11
100.0
 21
354.19024
 31
0.0
  0
LINE
  5
DF
330
18
100
AcDbEntity
  8
default
 62
     6
100
AcDbLine
 10
300.0
 20
501.375374
 30
0.0
 11
200.0
 21
427.782807
 31
0.0
  0
LINE
  5
E0
330
18
100
AcDbEntity
  8
default
 62
     6
100
AcDbLine
 10
308.998415
 20
507.997539
 30
0.0
 11
300.0
 21
501.375374
 31
0.0
  0
LINE
  5
E1
330
18
100
AcDbEntity
  8
default
 62
     6
100
AcDbLine
 10
308.999939
 20
609.999623
 30
0.0
 11
308.998415
 21
507.997539
 31
0.0
  0
LINE
  5
E2
330
18
100
AcDbEntity
  8
default
 62
     3
100
AcDbLine
 10
200.0
 20
858.753182
 30
0.0
 11
100.0
 21
947.909737
 31
0.0
  0
LINE
  5
E3
330
18
100
AcDbEntity
  8
default
 62
     3
100
AcDbLine
 10
300.0
 20
769.596627
 30
0.0
 11
200.0
 21
858.753182
 31
0.0
  0
LINE
  5
E4
330
18
100
AcDbEntity
  8
default
 62
     3
100
AcDbLine
 10
400.0
 20
680.405633
 30
0.0
 11
300.0
 21
769.596627
 31
0.0
  0
LINE
  5
E5
330
18
100
AcDbEntity
  8
default
 62
     3
100
AcDbLine
 10
435.386229
 20
648.839875
 30
0.0
 11
400.0
 21
680.405633
 31
0.0
  0
LINE
  5
E6
330
18
100
AcDbEntity
  8
default
 62
     3
100
AcDbLine
 10
500.0
 20
659.215367
 30
0.0
 11
435.386229
 21
648.839875
 31
0.0
  0
LINE
  5
E7
330
18
100
AcDbEntity
  8
default
 62
     3
100
AcDbLine
 10
600.0
 20
674.718719
 30
0.0
 11
500.0
 21
659.215367
 31
0.0
  0
LINE
  5
E8
330
18
100
AcDbEntity
  8
default
 62
     3
100
AcDbLine
 10
700.0
 20
689.569532
 30
0.0
 11
600.0
 21
674.718719
 31
0.0
  0
LINE
  5
E9
330
18
100
AcDbEntity
  8
default
 62
     3
100
AcDbLine
 10
800.0
 20
703.650136
 30
0.0
 11
700.0
 21
689.569532
 31
0.0
  0
LINE
  5
EA
330
18
100
AcDbEntity
  8
default
 62
     3
100
AcDbLine
 10
900.0
 20
716.358544
 30
0.0
 11
800.0
 21
703.650136
 31
0.0
  0
LINE
  5
EB
330
18
100
AcDbEntity
  8
default
 62
     3
100
AcDbLine
 10
1000.0
 20
729.066952
 30
0.0
 11
900.0
 21
716.358544
 31
0.0
  0
LINE
  5
EC
330
18
100
AcDbEntity
  8
default
 62
     3
100
AcDbLine
 10
1100.0
 20
740.368435
 30
0.0
 11
1000.0
 21
729.066952
 31
0.0
  0
LINE
  5
ED
330
18
100
AcDbEntity
  8
default
 62
     3
100
AcDbLine
 10
1200.0
 20
751.387286
 30
0.0
 11
1100.0
 21
740.368435
 31
0.0
  0
LINE
  5
EE
330
18
100
AcDbEntity
  8
default
 62
     3
100
AcDbLine
 10
1300.0
 20
760.981908
 30
0.0
 11
1200.0
 21
751.387286
 31
0.0
  0
LINE
  5
EF
330
18
100
AcDbEntity
  8
default
 62
     3
100
AcDbLine
 10
1400.0
 20
770.505123
 30
0.0
 11
1300.0
 21
760.981908
 31
0.0
  0
LINE
  5
F0
330
18
100
AcDbEntity
  8
default
 62
     3
100
AcDbLine
 10
1500.0
 20
778.479605
 30
0.0
 11
1400.0
 21
770.505123
 31
0.0
  0
LINE
  5
F1
330
18
100
AcDbEntity
  8
default
 62
     3
100
AcDbLine
 10
1600.0
 20
786.163136
 30
0.0
 11
1500.0
 21
778.479605
 31
0.0
  0
LINE
  5
F2
330
18
100
AcDbEntity
  8
default
 62
     3
100
AcDbLine
 10
1700.0
 20
792.303233
 30
0.0
 11
1600.0
 21
786.163136
 31
0.0
  0
LINE
  5
F3
330
18
100
AcDbEntity
  8
default
 62
     3
100
AcDbLine
 10
1800.0
 20
798.393144
 30
0.0
 11
1700.0
 21
792.303233
 31
0.0
  0
LINE
  5
F4
330
18
100
AcDbEntity
  8
default
 62
     3
100
AcDbLine
 10
1900.0
 20
802.958521
 30
0.0
 11
1800.0
 21
798.393144
 31
0.0
  0
LINE
  5
F5
330
18
100
AcDbEntity
  8
default
 62
     3
100
AcDbLine
 10
2000.0
 20
807.30981
 30
0.0
 11
1900.0
 21
802.958521
 31
0.0
  0
LINE
  5
F6
330
18
100
AcDbEntity
  8
default
 62
     3
100
AcDbLine
 10
2100.0
 20
810.203279
 30
0.0
 11
2000.0
 21
807.30981
 31
0.0
  0
LINE
  5
F7
330
18
100
AcDbEntity
  8
default
 62
     3
100
AcDbLine
 10
2200.0
 20
812.699716
 30
0.0
 11
2100.0
 21
810.203279
 31
0.0
  0
LINE
  5
F8
330
18
100
AcDbEntity
  8
default
 62
     3
100
AcDbLine
 10
2300.0
 20
813.972296
 30
0.0
 11
2200.0
 21
812.699716
 31
0.0
  0
LINE
  5
F9
330
18
100
AcDbEntity
  8
default
 62
     3
100
AcDbLine
 10
2400.0
 20
814.709282
 30
0.0
 11
2300.0
 21
813.972296
 31
0.0
  0
LINE
  5
FA
330
18
100
AcDbEntity
  8
default
 62
     3
100
AcDbLine
 10
2439.446868
 20
815.0
 30
0.0
 11
2400.0
 21
814.709282
 31
0.0
  0
LINE
  5
FB
330
18
100
AcDbEntity
  8
default
 62
     3
100
AcDbLine
 10
2439.723434
 20
995.277352
 30
0.0
 11
2439.446868
 21
815.0
 31
0.0
  0
LINE
  5
FC
330
18
100
AcDbEntity
  8
default
 62
     3
100
AcDbLine
 10
2400.0
 20
996.423992
 30
0.0
 11
2439.723434
 21
995.277352
 31
0.0
  0
LINE
  5
FD
330
18
100
AcDbEntity
  8
default
 62
     3
100
AcDbLine
 10
2300.0
 20
999.310552
 30
0.0
 11
2400.0
 21
996.423992
 31
0.0
  0
LINE
  5
FE
330
18
100
AcDbEntity
  8
default
 62
     3
100
AcDbLine
 10
2200.0
 20
1002.283354
 30
0.0
 11
2300.0
 21
999.310552
 31
0.0
  0
LINE
  5
FF
330
18
100
AcDbEntity
  8
default
 62
     3
100
AcDbLine
 10
2100.0
 20
1005.451001
 30
0.0
 11
2200.0
 21
1002.283354
 31
0.0
  0
LINE
  5
100
330
18
100
AcDbEntity
  8
default
 62
     3
100
AcDbLine
 10
2000.0
 20
1008.586477
 30
0.0
 11
2100.0
 21
1005.451001
 31
0.0
  0
LINE
  5
101
330
18
100
AcDbEntity
  8
default
 62
     3
100
AcDbLine
 10
1900.0
 20
1011.603687
 30
0.0
 11
2000.0
 21
1008.586477
 31
0.0
  0
LINE
  5
102
330
18
100
AcDbEntity
  8
default
 62
     3
100
AcDbLine
 10
1800.0
 20
1014.555004
 30
0.0
 11
1900.0
 21
1011.603687
 31
0.0
  0
LINE
  5
103
330
18
100
AcDbEntity
  8
default
 62
     3
100
AcDbLine
 10
1700.0
 20
1017.006303
 30
0.0
 11
1800.0
 21
1014.555004
 31
0.0
  0
LINE
  5
104
330
18
100
AcDbEntity
  8
default
 62
     3
100
AcDbLine
 10
1600.0
 20
1019.446108
 30
0.0
 11
1700.0
 21
1017.006303
 31
0.0
  0
LINE
  5
105
330
18
100
AcDbEntity
  8
default
 62
     3
100
AcDbLine
 10
1500.0
 20
1021.006736
 30
0.0
 11
1600.0
 21
1019.446108
 31
0.0
  0
LINE
  5
106
330
18
100
AcDbEntity
  8
default
 62
     3
100
AcDbLine
 10
1400.0
 20
1022.422731
 30
0.0
 11
1500.0
 21
1021.006736
 31
0.0
  0
LINE
  5
107
330
18
100
AcDbEntity
  8
default
 62
     3
100
AcDbLine
 10
1300.0
 20
1022.561158
 30
0.0
 11
1400.0
 21
1022.422731
 31
0.0
  0
LINE
  5
108
330
18
100
AcDbEntity
  8
default
 62
     3
100
AcDbLine
 10
1200.0
 20
1022.588948
 30
0.0
 11
1300.0
 21
1022.561158
 31
0.0
  0
LINE
  5
109
330
18
100
AcDbEntity
  8
default
 62
     3
100
AcDbLine
 10
1100.0
 20
1021.416883
 30
0.0
 11
1200.0
 21
1022.588948
 31
0.0
  0
LINE
  5
10A
330
18
100
AcDbEntity
  8
default
 62
     3
100
AcDbLine
 10
1000.0
 20
1019.889493
 30
0.0
 11
1100.0
 21
1021.416883
 31
0.0
  0
LINE
  5
10B
330
18
100
AcDbEntity
  8
default
 62
     3
100
AcDbLine
 10
900.0
 20
1016.689039
 30
0.0
 11
1000.0
 21
1019.889493
 31
0.0
  0
LINE
  5
10C
330
18
100
AcDbEntity
  8
default
 62
     3
100
AcDbLine
 10
800.0
 20
1013.002283
 30
0.0
 11
900.0
 21
1016.689039
 31
0.0
  0
LINE
  5
10D
330
18
100
AcDbEntity
  8
default
 62
     3
100
AcDbLine
 10
700.0
 20
1008.539013
 30
0.0
 11
800.0
 21
1013.002283
 31
0.0
  0
LINE
  5
10E
330
18
100
AcDbEntity
  8
default
 62
     3
100
AcDbLine
 10
600.0
 20
1003.226065
 30
0.0
 11
700.0
 21
1008.539013
 31
0.0
  0
LINE
  5
10F
330
18
100
AcDbEntity
  8
default
 62
     3
100
AcDbLine
 10
500.0
 20
997.716153
 30
0.0
 11
600.0
 21
1003.226065
 31
0.0
  0
LINE
  5
110
330
18
100
AcDbEntity
  8
default
 62
     3
100
AcDbLine
 10
400.0
 20
991.7105
 30
0.0
 11
500.0
 21
997.716153
 31
0.0
  0
LINE
  5
111
330
18
100
AcDbEntity
  8
default
 62
     3
100
AcDbLine
 10
300.0
 20
985.351036
 30
0.0
 11
400.0
 21
991.7105
 31
0.0
  0
LINE
  5
112
330
18
100
AcDbEntity
  8
default
 62
     3
100
AcDbLine
 10
200.0
 20
977.775471
 30
0.0
 11
300.0
 21
985.351036
 31
0.0
  0
LINE
  5
113
330
18
100
AcDbEntity
  8
default
 62
     3
100
AcDbLine
 10
100.0
 20
970.199905
 30
0.0
 11
200.0
 21
977.775471
 31
0.0
  0
LINE
  5
114
330
18
100
AcDbEntity
  8
default
 62
     3
100
AcDbLine
 10
76.956808
 20
968.454253
 30
0.0
 11
100.0
 21
970.199905
 31
0.0
  0
LINE
  5
115
330
18
100
AcDbEntity
  8
default
 62
     3
100
AcDbLine
 10
100.0
 20
947.909737
 30
0.0
 11
76.956808
 21
968.454253
 31
0.0
  0
LINE
  5
116
330
18
100
AcDbEntity
  8
default
 62
     1
100
AcDbLine
 10
2200.0
 20
1064.562396
 30
0.0
 11
2300.0
 21
1035.699115
 31
0.0
  0
LINE
  5
117
330
18
100
AcDbEntity
  8
default
 62
     1
100
AcDbLine
 10
2100.0
 20
1093.425677
 30
0.0
 11
2200.0
 21
1064.562396
 31
0.0
  0
LINE
  5
118
330
18
100
AcDbEntity
  8
default
 62
     1
100
AcDbLine
 10
2000.0
 20
1117.129735
 30
0.0
 11
2100.0
 21
1093.425677
 31
0.0
  0
LINE
  5
119
330
18
100
AcDbEntity
  8
default
 62
     1
100
AcDbLine
 10
1900.0
 20
1136.895438
 30
0.0
 11
2000.0
 21
1117.129735
 31
0.0
  0
LINE
  5
11A
330
18
100
AcDbEntity
  8
default
 62
     1
100
AcDbLine
 10
1800.0
 20
1154.688512
 30
0.0
 11
1900.0
 21
1136.895438
 31
0.0
  0
LINE
  5
11B
330
18
100
AcDbEntity
  8
default
 62
     1
100
AcDbLine
 10
1700.0
 20
1170.262108
 30
0.0
 11
1800.0
 21
1154.688512
 31
0.0
  0
LINE
  5
11C
330
18
100
AcDbEntity
  8
default
 62
     1
100
AcDbLine
 10
1600.0
 20
1182.670298
 30
0.0
 11
1700.0
 21
1170.262108
 31
0.0
  0
LINE
  5
11D
330
18
100
AcDbEntity
  8
default
 62
     1
100
AcDbLine
 10
1500.0
 20
1193.826104
 30
0.0
 11
1600.0
 21
1182.670298
 31
0.0
  0
LINE
  5
11E
330
18
100
AcDbEntity
  8
default
 62
     1
100
AcDbLine
 10
1400.0
 20
1201.583026
 30
0.0
 11
1500.0
 21
1193.826104
 31
0.0
  0
LINE
  5
11F
330
18
100
AcDbEntity
  8
default
 62
     1
100
AcDbLine
 10
1300.0
 20
1208.761797
 30
0.0
 11
1400.0
 21
1201.583026
 31
0.0
  0
LINE
  5
120
330
18
100
AcDbEntity
  8
default
 62
     1
100
AcDbLine
 10
1200.0
 20
1212.368487
 30
0.0
 11
1300.0
 21
1208.761797
 31
0.0
  0
LINE
  5
121
330
18
100
AcDbEntity
  8
default
 62
     1
100
AcDbLine
 10
1100.0
 20
1215.953369
 30
0.0
 11
1200.0
 21
1212.368487
 31
0.0
  0
LINE
  5
122
330
18
100
AcDbEntity
  8
default
 62
     1
100
AcDbLine
 10
1000.0
 20
1216.949944
 30
0.0
 11
1100.0
 21
1215.953369
 31
0.0
  0
LINE
  5
123
330
18
100
AcDbEntity
  8
default
 62
     1
100
AcDbLine
 10
900.0
 20
1217.546172
 30
0.0
 11
1000.0
 21
1216.949944
 31
0.0
  0
LINE
  5
124
330
18
100
AcDbEntity
  8
default
 62
     1
100
AcDbLine
 10
800.0
 20
1215.776912
 30
0.0
 11
900.0
 21
1217.546172
 31
0.0
  0
LINE
  5
125
330
18
100
AcDbEntity
  8
default
 62
     1
100
AcDbLine
 10
700.0
 20
1213.742348
 30
0.0
 11
800.0
 21
1215.776912
 31
0.0
  0
LINE
  5
126
330
18
100
AcDbEntity
  8
default
 62
     1
100
AcDbLine
 10
600.0
 20
1209.411036
 30
0.0
 11
700.0
 21
1213.742348
 31
0.0
  0
LINE
  5
127
330
18
100
AcDbEntity
  8
default
 62
     1
100
AcDbLine
 10
500.0
 20
1204.489025
 30
0.0
 11
600.0
 21
1209.411036
 31
0.0
  0
LINE
  5
128
330
18
100
AcDbEntity
  8
default
 62
     1
100
AcDbLine
 10
400.0
 20
1197.456439
 30
0.0
 11
500.0
 21
1204.489025
 31
0.0
  0
LINE
  5
129
330
18
100
AcDbEntity
  8
default
 62
     1
100
AcDbLine
 10
300.0
 20
1189.517555
 30
0.0
 11
400.0
 21
1197.456439
 31
0.0
  0
LINE
  5
12A
330
18
100
AcDbEntity
  8
default
 62
     1
100
AcDbLine
 10
200.0
 20
1179.632534
 30
0.0
 11
300.0
 21
1189.517555
 31
0.0
  0
LINE
  5
12B
330
18
100
AcDbEntity
  8
default
 62
     1
100
AcDbLine
 10
100.0
 20
1168.514447
 30
0.0
 11
200.0
 21
1179.632534
 31
0.0
  0
LINE
  5
12C
330
18
100
AcDbEntity
  8
default
 62
     1
100
AcDbLine
 10
53.366535
 20
1163.329698
 30
0.0
 11
100.0
 21
1168.514447
 31
0.0
  0
LINE
  5
12D
330
18
100
AcDbEntity
  8
default
 62
     1
100
AcDbLine
 10
77.15587
 20
984.628642
 30
0.0
 11
53.366535
 21
1163.329698
 31
0.0
  0
LINE
  5
12E
330
18
100
AcDbEntity
  8
default
 62
     1
100
AcDbLine
 10
100.0
 20
987.248082
 30
0.0
 11
77.15587
 21
984.628642
 31
0.0
  0
LINE
  5
12F
330
18
100
AcDbEntity
  8
default
 62
     1
100
AcDbLine
 10
200.0
 20
998.714659
 30
0.0
 11
100.0
 21
987.248082
 31
0.0
  0
LINE
  5
130
330
18
100
AcDbEntity
  8
default
 62
     1
100
AcDbLine
 10
300.0
 20
1009.835404
 30
0.0
 11
200.0
 21
998.714659
 31
0.0
  0
LINE
  5
131
330
18
100
AcDbEntity
  8
default
 62
     1
100
AcDbLine
 10
400.0
 20
1019.022315
 30
0.0
 11
300.0
 21
1009.835404
 31
0.0
  0
LINE
  5
132
330
18
100
AcDbEntity
  8
default
 62
     1
100
AcDbLine
 10
500.0
 20
1028.065203
 30
0.0
 11
400.0
 21
1019.022315
 31
0.0
  0
LINE
  5
133
330
18
100
AcDbEntity
  8
default
 62
     1
100
AcDbLine
 10
600.0
 20
1035.156435
 30
0.0
 11
500.0
 21
1028.065203
 31
0.0
  0
LINE
  5
134
330
18
100
AcDbEntity
  8
default
 62
     1
100
AcDbLine
 10
700.0
 20
1042.247667
 30
0.0
 11
600.0
 21
1035.156435
 31
0.0
  0
LINE
  5
135
330
18
100
AcDbEntity
  8
default
 62
     1
100
AcDbLine
 10
800.0
 20
1047.246179
 30
0.0
 11
700.0
 21
1042.247667
 31
0.0
  0
LINE
  5
136
330
18
100
AcDbEntity
  8
default
 62
     1
100
AcDbLine
 10
900.0
 20
1052.201795
 30
0.0
 11
800.0
 21
1047.246179
 31
0.0
  0
LINE
  5
137
330
18
100
AcDbEntity
  8
default
 62
     1
100
AcDbLine
 10
1000.0
 20
1055.544772
 30
0.0
 11
900.0
 21
1052.201795
 31
0.0
  0
LINE
  5
138
330
18
100
AcDbEntity
  8
default
 62
     1
100
AcDbLine
 10
1100.0
 20
1058.455041
 30
0.0
 11
1000.0
 21
1055.544772
 31
0.0
  0
LINE
  5
139
330
18
100
AcDbEntity
  8
default
 62
     1
100
AcDbLine
 10
1200.0
 20
1059.727491
 30
0.0
 11
1100.0
 21
1058.455041
 31
0.0
  0
LINE
  5
13A
330
18
100
AcDbEntity
  8
default
 62
     1
100
AcDbLine
 10
1300.0
 20
1060.747516
 30
0.0
 11
1200.0
 21
1059.727491
 31
0.0
  0
LINE
  5
13B
330
18
100
AcDbEntity
  8
default
 62
     1
100
AcDbLine
 10
1400.0
 20
1060.382618
 30
0.0
 11
1300.0
 21
1060.747516
 31
0.0
  0
LINE
  5
13C
330
18
100
AcDbEntity
  8
default
 62
     1
100
AcDbLine
 10
1500.0
 20
1059.331821
 30
0.0
 11
1400.0
 21
1060.382618
 31
0.0
  0
LINE
  5
13D
330
18
100
AcDbEntity
  8
default
 62
     1
100
AcDbLine
 10
1600.0
 20
1057.251131
 30
0.0
 11
1500.0
 21
1059.331821
 31
0.0
  0
LINE
  5
13E
330
18
100
AcDbEntity
  8
default
 62
     1
100
AcDbLine
 10
1700.0
 20
1054.352856
 30
0.0
 11
1600.0
 21
1057.251131
 31
0.0
  0
LINE
  5
13F
330
18
100
AcDbEntity
  8
default
 62
     1
100
AcDbLine
 10
1800.0
 20
1050.575954
 30
0.0
 11
1700.0
 21
1054.352856
 31
0.0
  0
LINE
  5
140
330
18
100
AcDbEntity
  8
default
 62
     1
100
AcDbLine
 10
1900.0
 20
1045.685965
 30
0.0
 11
1800.0
 21
1050.575954
 31
0.0
  0
LINE
  5
141
330
18
100
AcDbEntity
  8
default
 62
     1
100
AcDbLine
 10
2000.0
 20
1040.279996
 30
0.0
 11
1900.0
 21
1045.685965
 31
0.0
  0
LINE
  5
142
330
18
100
AcDbEntity
  8
default
 62
     1
100
AcDbLine
 10
2100.0
 20
1033.537458
 30
0.0
 11
2000.0
 21
1040.279996
 31
0.0
  0
LINE
  5
143
330
18
100
AcDbEntity
  8
default
 62
     1
100
AcDbLine
 10
2200.0
 20
1025.039559
 30
0.0
 11
2100.0
 21
1033.537458
 31
0.0
  0
LINE
  5
144
330
18
100
AcDbEntity
  8
default
 62
     1
100
AcDbLine
 10
2300.0
 20
1016.541661
 30
0.0
 11
2200.0
 21
1025.039559
 31
0.0
  0
LINE
  5
145
330
18
100
AcDbEntity
  8
default
 62
     1
100
AcDbLine
 10
2394.068714
 20
1008.547797
 30
0.0
 11
2300.0
 21
1016.541661
 31
0.0
  0
LINE
  5
146
330
18
100
AcDbEntity
  8
default
 62
     1
100
AcDbLine
 10
2300.0
 20
1035.699115
 30
0.0
 11
2394.068714
 21
1008.547797
 31
0.0
  0
LINE
  5
147
330
18
100
AcDbEntity
  8
default
  6
DOT
100
AcDbLine
 10
-0.00000000311308
 20
610.0
 30
0.0
 11
2440.0
 21
610.0
 31
0.0
  0
LINE
  5
148
330
18
100
AcDbEntity
  8
default
  6
DOT
100
AcDbLine
 10
0.0
 20
1220.0
 30
0.0
 11
0.0
 21
0.0
 31
0.0
  0
LINE
  5
149
330
18
100
AcDbEntity
  8
default
  6
DOT
100
AcDbLine
 10
2440.0
 20
1220.0
 30
0.0
 11
2440.0
 21
0.0
 31
0.0
  0
LINE
  5
14A
330
18
100
AcDbEntity
  8
default
  6
DOT
100
AcDbLine
 10
0.0
 20
1220.0
 30
0.0
 11
2440.0
 21
1220.0
 31
0.0
  0
LINE
  5
14B
330
18
100
AcDbEntity
  8
default
  6
DOT
100
AcDbLine
 10
0.0
 20
0.0
 30
0.0
 11
2440.0
 21
0.0
 31
0.0
  0
LINE
  5
14C
330
18
100
AcDbEntity
  8
default
 62
    14
100
AcDbLine
 10
2400.0
 20
151.648661
 30
0.0
 11
2439.446868
 21
157.0
 31
0.0
  0
LINE
  5
14D
330
18
100
AcDbEntity
  8
default
 62
    14
100
AcDbLine
 10
2300.0
 20
137.225666
 30
0.0
 11
2400.0
 21
151.648661
 31
0.0
  0
LINE
  5
14E
330
18
100
AcDbEntity
  8
default
 62
    14
100
AcDbLine
 10
2200.0
 20
122.521776
 30
0.0
 11
2300.0
 21
137.225666
 31
0.0
  0
LINE
  5
14F
330
18
100
AcDbEntity
  8
default
 62
    14
100
AcDbLine
 10
2100.0
 20
106.532656
 30
0.0
 11
2200.0
 21
122.521776
 31
0.0
  0
LINE
  5
150
330
18
100
AcDbEntity
  8
default
 62
    14
100
AcDbLine
 10
2000.0
 20
89.876933
 30
0.0
 11
2100.0
 21
106.532656
 31
0.0
  0
LINE
  5
151
330
18
100
AcDbEntity
  8
default
 62
    14
100
AcDbLine
 10
1900.0
 20
72.321653
 30
0.0
 11
2000.0
 21
89.876933
 31
0.0
  0
LINE
  5
152
330
18
100
AcDbEntity
  8
default
 62
    14
100
AcDbLine
 10
1800.0
 20
53.677724
 30
0.0
 11
1900.0
 21
72.321653
 31
0.0
  0
LINE
  5
153
330
18
100
AcDbEntity
  8
default
 62
    14
100
AcDbLine
 10
1700.0
 20
33.734452
 30
0.0
 11
1800.0
 21
53.677724
 31
0.0
  0
LINE
  5
154
330
18
100
AcDbEntity
  8
default
 62
    14
100
AcDbLine
 10
1600.0
 20
13.036459
 30
0.0
 11
1700.0
 21
33.734452
 31
0.0
  0
LINE
  5
155
330
18
100
AcDbEntity
  8
default
 62
    14
100
AcDbLine
 10
1537.015831
 20
0.0000000000009095
 30
0.0
 11
1600.0
 21
13.036459
 31
0.0
  0
LINE
  5
156
330
18
100
AcDbEntity
  8
default
 62
    14
100
AcDbLine
 10
2439.446868
 20
0.0
 30
0.0
 11
1537.015831
 21
0.0000000000009095
 31
0.0
  0
LINE
  5
157
330
18
100
AcDbEntity
  8
default
 62
    14
100
AcDbLine
 10
2439.446868
 20
157.0
 30
0.0
 11
2439.446868
 21
0.0
 31
0.0
  0
LINE
  5
158
330
18
100
AcDbEntity
  8
default
 62
    14
100
AcDbLine
 10
1537.015831
 20
1220.0
 30
0.0
 11
2439.446868
 21
1220.0
 31
0.0
  0
LINE
  5
159
330
18
100
AcDbEntity
  8
default
 62
    14
100
AcDbLine
 10
1600.0
 20
1206.963541
 30
0.0
 11
1537.015831
 21
1220.0
 31
0.0
  0
LINE
  5
15A
330
18
100
AcDbEntity
  8
default
 62
    14
100
AcDbLine
 10
1700.0
 20
1186.265548
 30
0.0
 11
1600.0
 21
1206.963541
 31
0.0
  0
LINE
  5
15B
330
18
100
AcDbEntity
  8
default
 62
    14
100
AcDbLine
 10
1800.0
 20
1166.322276
 30
0.0
 11
1700.0
 21
1186.265548
 31
0.0
  0
LINE
  5
15C
330
18
100
AcDbEntity
  8
default
 62
    14
100
AcDbLine
 10
1900.0
 20
1147.678347
 30
0.0
 11
1800.0
 21
1166.322276
 31
0.0
  0
LINE
  5
15D
330
18
100
AcDbEntity
  8
default
 62
    14
100
AcDbLine
 10
2000.0
 20
1130.123067
 30
0.0
 11
1900.0
 21
1147.678347
 31
0.0
  0
LINE
  5
15E
330
18
100
AcDbEntity
  8
default
 62
    14
100
AcDbLine
 10
2100.0
 20
1113.467344
 30
0.0
 11
2000.0
 21
1130.123067
 31
0.0
  0
LINE
  5
15F
330
18
100
AcDbEntity
  8
default
 62
    14
100
AcDbLine
 10
2200.0
 20
1097.478224
 30
0.0
 11
2100.0
 21
1113.467344
 31
0.0
  0
LINE
  5
160
330
18
100
AcDbEntity
  8
default
 62
    14
100
AcDbLine
 10
2300.0
 20
1082.774334
 30
0.0
 11
2200.0
 21
1097.478224
 31
0.0
  0
LINE
  5
161
330
18
100
AcDbEntity
  8
default
 62
    14
100
AcDbLine
 10
2400.0
 20
1068.351339
 30
0.0
 11
2300.0
 21
1082.774334
 31
0.0
  0
LINE
  5
162
330
18
100
AcDbEntity
  8
default
 62
    14
100
AcDbLine
 10
2439.446868
 20
1063.0
 30
0.0
 11
2400.0
 21
1068.351339
 31
0.0
  0
LINE
  5
163
330
18
100
AcDbEntity
  8
default
 62
    14
100
AcDbLine
 10
2439.446868
 20
1220.0
 30
0.0
 11
2439.446868
 21
1063.0
 31
0.0
  0
ENDSEC
  0
SECTION
  2
OBJECTS
  0
DICTIONARY
  5
C
330
0
100
AcDbDictionary
281
     1
  3
ACAD_DETAILVIEWSTYLE
350
1DB
  3
ACAD_GROUP
350
D
  3
ACAD_LAYOUT
350
186
  3
ACAD_MATERIAL
350
1A2
  3
ACAD_MLEADERSTYLE
350
1D9
  3
ACAD_MLINESTYLE
350
1B
  3
ACAD_SCALELIST
350
164
  3
ACAD_SECTIONVIEWSTYLE
350
1DC
  3
ACAD_TABLESTYLE
350
1D8
  3
ACAD_VISUALSTYLE
350
189
  3
AcDbVariableDictionary
350
1A6
  0
DICTIONARY
  5
1DB
102
{ACAD_REACTORS
330
C
102
}
330
C
100
AcDbDictionary
281
     1
  0
DICTIONARY
  5
D
102
{ACAD_REACTORS
330
C
102
}
330
C
100
AcDbDictionary
281
     1
  0
DICTIONARY
  5
186
102
{ACAD_REACTORS
330
C
102
}
330
C
100
AcDbDictionary
281
     1
  3
Layout1
350
188
  3
Model
350
187
  0
DICTIONARY
  5
1A2
102
{ACAD_REACTORS
330
C
102
}
330
C
100
AcDbDictionary
281
     1
  3
ByBlock
350
1A4
  3
ByLayer
350
1A3
  3
Global
350
1A5
  0
DICTIONARY
  5
1D9
102
{ACAD_REACTORS
330
C
102
}
330
C
100
AcDbDictionary
281
     1
  0
DICTIONARY
  5
1B
102
{ACAD_REACTORS
330
C
102
}
330
C
100
AcDbDictionary
281
     1
  3
STANDARD
350
1C
  0
DICTIONARY
  5
164
102
{ACAD_REACTORS
330
C
102
}
330
C
100
AcDbDictionary
281
     1
  3
A0
350
165
  3
A1
350
166
  3
A2
350
167
  3
A3
350
168
  3
A4
350
169
  3
A5
350
16A
  3
A6
350
16B
  3
A7
350
16C
  3
A8
350
16D
  3
A9
350
16E
  3
B0
350
16F
  3
B1
350
170
  3
B2
350
171
  3
B3
350
172
  3
B4
350
173
  3
B5
350
174
  3
B6
350
175
  3
B7
350
176
  3
B8
350
177
  3
B9
350
178
  3
C0
350
179
  3
C1
350
17A
  3
C2
350
17B
  3
C3
350
17C
  3
C4
350
17D
  3
C5
350
17E
  3
C6
350
17F
  3
C7
350
180
  3
C8
350
181
  3
C9
350
182
  3
D0
350
183
  3
D1
350
184
  3
D2
350
185
  0
DICTIONARY
  5
1DC
102
{ACAD_REACTORS
330
C
102
}
330
C
100
AcDbDictionary
281
     1
  0
DICTIONARY
  5
1D8
102
{ACAD_REACTORS
330
C
102
}
330
C
100
AcDbDictionary
281
     1
  0
DICTIONARY
  5
189
102
{ACAD_REACTORS
330
C
102
}
330
C
100
AcDbDictionary
281
     1
  3
2dWireframe
350
18E
  3
Basic
350
191
  3
Brighten
350
195
  3
ColorChange
350
199
  3
Conceptual
350
193
  3
Dim
350
194
  3
EdgeColorOff
350
19C
  3
Facepattern
350
198
  3
Flat
350
18A
  3
FlatWithEdges
350
18B
  3
Gouraud
350
18C
  3
GouraudWithEdges
350
18D
  3
Hidden
350
190
  3
JitterOff
350
19A
  3
Linepattern
350
197
  3
OverhangOff
350
19B
  3
Realistic
350
192
  3
Shaded
350
1A1
  3
Shaded with edges
350
1A0
  3
Shades of Gray
350
19D
  3
Sketchy
350
19E
  3
Thicken
350
196
  3
Wireframe
350
18F
  3
X-Ray
350
19F
  0
DICTIONARY
  5
1A6
102
{ACAD_REACTORS
330
C
102
}
330
C
100
AcDbDictionary
281
     1
  3
CANNOSCALE
350
1A7
  3
MSLTSCALE
350
1DA
  0
LAYOUT
  5
188
102
{ACAD_REACTORS
330
186
102
}
330
186
100
AcDbPlotSettings
  1

  2
none_device
  4

  6

 40
0.0
 41
0.0
 42
0.0
 43
0.0
 44
0.0
 45
0.0
 46
0.0
 47
0.0
 48
0.0
 49
0.0
140
0.0
141
0.0
142
1.0
143
1.0
 70
   688
 72
     1
 73
     0
 74
     5
  7

 75
    16
 76
     0
 77
     2
 78
   300
147
1.0
148
0.0
149
0.0
100
AcDbLayout
  1
Layout1
 70
     1
 71
     1
 10
0.0
 20
0.0
 11
12.0
 21
9.0
 12
0.0
 22
0.0
 32
0.0
 14
1.000000000000000E+20
 24
1.000000000000000E+20
 34
1.000000000000000E+20
 15
-1.000000000000000E+20
 25
-1.000000000000000E+20
 35
-1.000000000000000E+20
146
0.0
 13
0.0
 23
0.0
 33
0.0
 16
1.0
 26
0.0
 36
0.0
 17
0.0
 27
1.0
 37
0.0
 76
     0
330
15
  0
LAYOUT
  5
187
102
{ACAD_REACTORS
330
186
102
}
330
186
100
AcDbPlotSettings
  1

  2
none_device
  4
Letter_(8.50_x_11.00_Inches)
  6

 40
6.35
 41
6.35
 42
6.35000508
 43
6.35000508
 44
215.9
 45
279.4
 46
0.0
 47
0.0
 48
0.0
 49
0.0
140
0.0
141
0.0
142
1.0
143
12.00849984151171
 70
  1712
 72
     1
 73
     0
 74
     0
  7

 75
     0
 76
     0
 77
     2
 78
   300
147
0.0832743484363584
148
0.0635533959998611
149
0.0634999999999764
100
AcDbLayout
  1
Model
 70
     1
 71
     0
 10
0.0
 20
0.0
 11
2440.0635
 21
1220.0635
 12
0.0
 22
0.0
 32
0.0
 14
-0.0635
 24
-0.0635
 34
0.0
 15
2440.0635
 25
1220.0635
 35
0.0
146
0.0
 13
0.0
 23
0.0
 33
0.0
 16
1.0
 26
0.0
 36
0.0
 17
0.0
 27
1.0
 37
0.0
 76
     0
330
18
331
1E
  0
MATERIAL
  5
1A4
102
{ACAD_REACTORS
330
1A2
102
}
330
1A2
100
AcDbMaterial
  1
ByBlock
 72
     1
 94
      127
  0
MATERIAL
  5
1A3
102
{ACAD_REACTORS
330
1A2
102
}
330
1A2
100
AcDbMaterial
  1
ByLayer
 72
     1
 94
      127
  0
MATERIAL
  5
1A5
102
{ACAD_REACTORS
330
1A2
102
}
330
1A2
100
AcDbMaterial
  1
Global
 72
     1
 94
      127
  0
MLINESTYLE
  5
1C
102
{ACAD_REACTORS
330
1B
102
}
330
1B
100
AcDbMlineStyle
  2
STANDARD
 70
     0
  3

 62
   256
 51
90.0
 52
90.0
 71
     2
 49
0.5
 62
   256
  6
BYLAYER
 49
-0.5
 62
   256
  6
BYLAYER
  0
SCALE
  5
165
102
{ACAD_REACTORS
330
164
102
}
330
164
100
AcDbScale
 70
     0
300
1:1
140
1.0
141
1.0
290
     1
  0
SCALE
  5
166
102
{ACAD_REACTORS
330
164
102
}
330
164
100
AcDbScale
 70
     0
300
1:2
140
1.0
141
2.0
290
     0
  0
SCALE
  5
167
102
{ACAD_REACTORS
330
164
102
}
330
164
100
AcDbScale
 70
     0
300
1:4
140
1.0
141
4.0
290
     0
  0
SCALE
  5
168
102
{ACAD_REACTORS
330
164
102
}
330
164
100
AcDbScale
 70
     0
300
1:5
140
1.0
141
5.0
290
     0
  0
SCALE
  5
169
102
{ACAD_REACTORS
330
164
102
}
330
164
100
AcDbScale
 70
     0
300
1:8
140
1.0
141
8.0
290
     0
  0
SCALE
  5
16A
102
{ACAD_REACTORS
330
164
102
}
330
164
100
AcDbScale
 70
     0
300
1:10
140
1.0
141
10.0
290
     0
  0
SCALE
  5
16B
102
{ACAD_REACTORS
330
164
102
}
330
164
100
AcDbScale
 70
     0
300
1:16
140
1.0
141
16.0
290
     0
  0
SCALE
  5
16C
102
{ACAD_REACTORS
330
164
102
}
330
164
100
AcDbScale
 70
     0
300
1:20
140
1.0
141
20.0
290
     0
  0
SCALE
  5
16D
102
{ACAD_REACTORS
330
164
102
}
330
164
100
AcDbScale
 70
     0
300
1:30
140
1.0
141
30.0
290
     0
  0
SCALE
  5
16E
102
{ACAD_REACTORS
330
164
102
}
330
164
100
AcDbScale
 70
     0
300
1:40
140
1.0
141
40.0
290
     0
  0
SCALE
  5
16F
102
{ACAD_REACTORS
330
164
102
}
330
164
100
AcDbScale
 70
     0
300
1:50
140
1.0
141
50.0
290
     0
  0
SCALE
  5
170
102
{ACAD_REACTORS
330
164
102
}
330
164
100
AcDbScale
 70
     0
300
1:100
140
1.0
141
100.0
290
     0
  0
SCALE
  5
171
102
{ACAD_REACTORS
330
164
102
}
330
164
100
AcDbScale
 70
     0
300
2:1
140
2.0
141
1.0
290
     0
  0
SCALE
  5
172
102
{ACAD_REACTORS
330
164
102
}
330
164
100
AcDbScale
 70
     0
300
4:1
140
4.0
141
1.0
290
     0
  0
SCALE
  5
173
102
{ACAD_REACTORS
330
164
102
}
330
164
100
AcDbScale
 70
     0
300
8:1
140
8.0
141
1.0
290
     0
  0
SCALE
  5
174
102
{ACAD_REACTORS
330
164
102
}
330
164
100
AcDbScale
 70
     0
300
10:1
140
10.0
141
1.0
290
     0
  0
SCALE
  5
175
102
{ACAD_REACTORS
330
164
102
}
330
164
100
AcDbScale
 70
     0
300
100:1
140
100.0
141
1.0
290
     0
  0
SCALE
  5
176
102
{ACAD_REACTORS
330
164
102
}
330
164
100
AcDbScale
 70
     0
300
1/128" = 1'-0"
140
0.0078125
141
12.0
290
     0
  0
SCALE
  5
177
102
{ACAD_REACTORS
330
164
102
}
330
164
100
AcDbScale
 70
     0
300
1/64" = 1'-0"
140
0.015625
141
12.0
290
     0
  0
SCALE
  5
178
102
{ACAD_REACTORS
330
164
102
}
330
164
100
AcDbScale
 70
     0
300
1/32" = 1'-0"
140
0.03125
141
12.0
290
     0
  0
SCALE
  5
179
102
{ACAD_REACTORS
330
164
102
}
330
164
100
AcDbScale
 70
     0
300
1/16" = 1'-0"
140
0.0625
141
12.0
290
     0
  0
SCALE
  5
17A
102
{ACAD_REACTORS
330
164
102
}
330
164
100
AcDbScale
 70
     0
300
3/32" = 1'-0"
140
0.09375
141
12.0
290
     0
  0
SCALE
  5
17B
102
{ACAD_REACTORS
330
164
102
}
330
164
100
AcDbScale
 70
     0
300
1/8" = 1'-0"
140
0.125
141
12.0
290
     0
  0
SCALE
  5
17C
102
{ACAD_REACTORS
330
164
102
}
330
164
100
AcDbScale
 70
     0
300
3/16" = 1'-0"
140
0.1875
141
12.0
290
     0
  0
SCALE
  5
17D
102
{ACAD_REACTORS
330
164
102
}
330
164
100
AcDbScale
 70
     0
300
1/4" = 1'-0"
140
0.25
141
12.0
290
     0
  0
SCALE
  5
17E
102
{ACAD_REACTORS
330
164
102
}
330
164
100
AcDbScale
 70
     0
300
3/8" = 1'-0"
140
0.375
141
12.0
290
     0
  0
SCALE
  5
17F
102
{ACAD_REACTORS
330
164
102
}
330
164
100
AcDbScale
 70
     0
300
1/2" = 1'-0"
140
0.5
141
12.0
290
     0
  0
SCALE
  5
180
102
{ACAD_REACTORS
330
164
102
}
330
164
100
AcDbScale
 70
     0
300
3/4" = 1'-0"
140
0.75
141
12.0
290
     0
  0
SCALE
  5
181
102
{ACAD_REACTORS
330
164
102
}
330
164
100
AcDbScale
 70
     0
300
1" = 1'-0"
140
1.0
141
12.0
290
     0
  0
SCALE
  5
182
102
{ACAD_REACTORS
330
164
102
}
330
164
100
AcDbScale
 70
     0
300
1-1/2" = 1'-0"
140
1.5
141
12.0
290
     0
  0
SCALE
  5
183
102
{ACAD_REACTORS
330
164
102
}
330
164
100
AcDbScale
 70
     0
300
3" = 1'-0"
140
3.0
141
12.0
290
     0
  0
SCALE
  5
184
102
{ACAD_REACTORS
330
164
102
}
330
164
100
AcDbScale
 70
     0
300
6" = 1'-0"
140
6.0
141
12.0
290
     0
  0
SCALE
  5
185
102
{ACAD_REACTORS
330
164
102
}
330
164
100
AcDbScale
 70
     0
300
1'-0" = 1'-0"
140
12.0
141
12.0
290
     0
  0
VISUALSTYLE
  5
18E
102
{ACAD_REACTORS
330
189
102
}
102
{ACAD_XDICTIONARY
360
1B0
102
}
330
189
100
AcDbVisualStyle
  2
2dWireframe
 70
     4
177
     2
291
     0
 71
     0
176
     1
 72
     2
176
     1
 73
     0
176
     1
 90
        0
176
     1
 40
0.6
176
     1
 41
30.0
176
     1
 62
     5
 63
     7
421
 16777215
176
     1
 74
     1
176
     1
 91
        4
176
     1
 64
     7
176
     1
 65
   257
176
     1
 75
     1
176
     1
175
     1
176
     1
 42
1.0
176
     1
 92
        0
176
     1
 66
   257
176
     1
 43
1.0
176
     1
 76
     1
176
     1
 77
     6
176
     1
 78
     2
176
     1
 67
     7
176
     1
 79
     5
176
     1
170
     0
176
     1
171
     0
176
     1
290
     0
176
     1
 93
        1
176
     1
 44
0.0
176
     1
173
     0
176
     1
  0
VISUALSTYLE
  5
191
102
{ACAD_REACTORS
330
189
102
}
102
{ACAD_XDICTIONARY
360
1B6
102
}
330
189
100
AcDbVisualStyle
  2
Basic
 70
     7
177
     2
291
     1
 71
     1
176
     1
 72
     0
176
     1
 73
     1
176
     1
 90
        0
176
     1
 40
0.6
176
     1
 41
30.0
176
     1
 62
     5
 63
     7
421
 16777215
176
     1
 74
     0
176
     1
 91
        4
176
     1
 64
     7
176
     1
 65
   257
176
     1
 75
     1
176
     1
175
     1
176
     1
 42
1.0
176
     1
 92
        8
176
     1
 66
     7
176
     1
 43
1.0
176
     1
 76
     1
176
     1
 77
     6
176
     1
 78
     2
176
     1
 67
     7
176
     1
 79
     5
176
     1
170
     0
176
     1
171
     0
176
     1
290
     0
176
     1
 93
        1
176
     1
 44
0.0
176
     1
173
     0
176
     1
  0
VISUALSTYLE
  5
195
102
{ACAD_REACTORS
330
189
102
}
102
{ACAD_XDICTIONARY
360
1BE
102
}
330
189
100
AcDbVisualStyle
  2
Brighten
 70
    12
177
     2
291
     1
 71
     2
176
     1
 72
     2
176
     1
 73
     0
176
     1
 90
        0
176
     1
 40
0.6
176
     1
 41
30.0
176
     1
 62
     5
 63
     7
421
 16777215
176
     1
 74
     1
176
     1
 91
        4
176
     1
 64
     7
176
     1
 65
   257
176
     1
 75
     1
176
     1
175
     1
176
     1
 42
1.0
176
     1
 92
        8
176
     1
 66
     7
176
     1
 43
1.0
176
     1
 76
     1
176
     1
 77
     6
176
     1
 78
     2
176
     1
 67
     7
176
     1
 79
     5
176
     1
170
     0
176
     1
171
     0
176
     1
290
     0
176
     1
 93
        1
176
     1
 44
50.0
176
     1
173
     0
176
     1
  0
VISUALSTYLE
  5
199
102
{ACAD_REACTORS
330
189
102
}
102
{ACAD_XDICTIONARY
360
1C6
102
}
330
189
100
AcDbVisualStyle
  2
ColorChange
 70
    16
177
     2
291
     1
 71
     2
176
     1
 72
     2
176
     1
 73
     3
176
     1
 90
        0
176
     1
 40
0.6
176
     1
 41
30.0
176
     1
 62
     5
 63
     8
421
  8421504
176
     1
 74
     1
176
     1
 91
        4
176
     1
 64
     7
176
     1
 65
   257
176
     1
 75
     1
176
     1
175
     1
176
     1
 42
1.0
176
     1
 92
        8
176
     1
 66
     8
424
  8421504
176
     1
 43
1.0
176
     1
 76
     1
176
     1
 77
     6
176
     1
 78
     2
176
     1
 67
     7
176
     1
 79
     5
176
     1
170
     0
176
     1
171
     0
176
     1
290
     0
176
     1
 93
        1
176
     1
 44
0.0
176
     1
173
     0
176
     1
  0
VISUALSTYLE
  5
193
102
{ACAD_REACTORS
330
189
102
}
102
{ACAD_XDICTIONARY
360
1BA
102
}
330
189
100
AcDbVisualStyle
  2
Conceptual
 70
     9
177
     2
291
     0
 71
     3
176
     1
 72
     2
176
     1
 73
     0
176
     1
 90
        0
176
     1
 40
0.6
176
     1
 41
30.0
176
     1
 62
     5
 63
     7
421
 16777215
176
     1
 74
     2
176
     1
 91
        2
176
     1
 64
     7
176
     1
 65
   257
176
     1
 75
     1
176
     1
175
     1
176
     1
 42
179.0
176
     1
 92
        8
176
     1
 66
     7
176
     1
 43
1.0
176
     1
 76
     1
176
     1
 77
     6
176
     1
 78
     2
176
     1
 67
     7
176
     1
 79
     3
176
     1
170
     0
176
     1
171
     0
176
     1
290
     0
176
     1
 93
        1
176
     1
 44
0.0
176
     1
173
     0
176
     1
  0
VISUALSTYLE
  5
194
102
{ACAD_REACTORS
330
189
102
}
102
{ACAD_XDICTIONARY
360
1BC
102
}
330
189
100
AcDbVisualStyle
  2
Dim
 70
    11
177
     2
291
     1
 71
     2
176
     1
 72
     2
176
     1
 73
     0
176
     1
 90
        0
176
     1
 40
0.6
176
     1
 41
30.0
176
     1
 62
     5
 63
     7
421
 16777215
176
     1
 74
     1
176
     1
 91
        4
176
     1
 64
     7
176
     1
 65
   257
176
     1
 75
     1
176
     1
175
     1
176
     1
 42
1.0
176
     1
 92
        8
176
     1
 66
     7
176
     1
 43
1.0
176
     1
 76
     1
176
     1
 77
     6
176
     1
 78
     2
176
     1
 67
     7
176
     1
 79
     5
176
     1
170
     0
176
     1
171
     0
176
     1
290
     0
176
     1
 93
        1
176
     1
 44
-50.0
176
     1
173
     0
176
     1
  0
VISUALSTYLE
  5
19C
102
{ACAD_REACTORS
330
189
102
}
102
{ACAD_XDICTIONARY
360
1CC
102
}
330
189
100
AcDbVisualStyle
  2
EdgeColorOff
 70
    22
177
     2
291
     1
 71
     2
176
     0
 72
     2
176
     0
 73
     0
176
     0
 90
        0
176
     0
 40
0.6
176
     0
 41
30.0
176
     0
 62
     5
 63
     7
421
 16777215
176
     0
 74
     1
176
     0
 91
        4
176
     0
 64
     7
176
     0
 65
   257
176
     0
 75
     1
176
     0
175
     1
176
     0
 42
1.0
176
     0
 92
        8
176
     2
 66
     7
176
     0
 43
1.0
176
     0
 76
     1
176
     0
 77
     6
176
     0
 78
     2
176
     0
 67
     7
176
     0
 79
     5
176
     0
170
     0
176
     0
171
     0
176
     0
290
     0
176
     0
 93
        1
176
     0
 44
0.0
176
     0
173
     0
176
     0
  0
VISUALSTYLE
  5
198
102
{ACAD_REACTORS
330
189
102
}
102
{ACAD_XDICTIONARY
360
1C4
102
}
330
189
100
AcDbVisualStyle
  2
Facepattern
 70
    15
177
     2
291
     1
 71
     2
176
     1
 72
     2
176
     1
 73
     0
176
     1
 90
        0
176
     1
 40
0.6
176
     1
 41
30.0
176
     1
 62
     5
 63
     7
421
 16777215
176
     1
 74
     1
176
     1
 91
        4
176
     1
 64
     7
176
     1
 65
   257
176
     1
 75
     1
176
     1
175
     1
176
     1
 42
1.0
176
     1
 92
        8
176
     1
 66
     7
176
     1
 43
1.0
176
     1
 76
     1
176
     1
 77
     6
176
     1
 78
     2
176
     1
 67
     7
176
     1
 79
     5
176
     1
170
     0
176
     1
171
     0
176
     1
290
     0
176
     1
 93
        1
176
     1
 44
0.0
176
     1
173
     0
176
     1
  0
VISUALSTYLE
  5
18A
102
{ACAD_REACTORS
330
189
102
}
102
{ACAD_XDICTIONARY
360
1A8
102
}
330
189
100
AcDbVisualStyle
  2
Flat
 70
     0
177
     2
291
     1
 71
     2
176
     1
 72
     1
176
     1
 73
     1
176
     1
 90
        2
176
     1
 40
0.6
176
     1
 41
30.0
176
     1
 62
     5
 63
     7
421
 16777215
176
     1
 74
     0
176
     1
 91
        0
176
     1
 64
     7
176
     1
 65
   257
176
     1
 75
     1
176
     1
175
     1
176
     1
 42
1.0
176
     1
 92
        8
176
     1
 66
     7
176
     1
 43
1.0
176
     1
 76
     1
176
     1
 77
     6
176
     1
 78
     2
176
     1
 67
     7
176
     1
 79
     5
176
     1
170
     0
176
     1
171
     0
176
     1
290
     0
176
     1
 93
       13
176
     1
 44
0.0
176
     1
173
     0
176
     1
  0
VISUALSTYLE
  5
18B
102
{ACAD_REACTORS
330
189
102
}
102
{ACAD_XDICTIONARY
360
1AA
102
}
330
189
100
AcDbVisualStyle
  2
FlatWithEdges
 70
     1
177
     2
291
     1
 71
     2
176
     1
 72
     1
176
     1
 73
     1
176
     1
 90
        2
176
     1
 40
0.6
176
     1
 41
30.0
176
     1
 62
     5
 63
     7
421
 16777215
176
     1
 74
     1
176
     1
 91
        0
176
     1
 64
     7
176
     1
 65
   257
176
     1
 75
     1
176
     1
175
     1
176
     1
 42
1.0
176
     1
 92
        0
176
     1
 66
   257
176
     1
 43
1.0
176
     1
 76
     1
176
     1
 77
     6
176
     1
 78
     2
176
     1
 67
     7
176
     1
 79
     5
176
     1
170
     0
176
     1
171
     0
176
     1
290
     0
176
     1
 93
       13
176
     1
 44
0.0
176
     1
173
     0
176
     1
  0
VISUALSTYLE
  5
18C
102
{ACAD_REACTORS
330
189
102
}
102
{ACAD_XDICTIONARY
360
1AC
102
}
330
189
100
AcDbVisualStyle
  2
Gouraud
 70
     2
177
     2
291
     1
 71
     2
176
     1
 72
     2
176
     1
 73
     1
176
     1
 90
        2
176
     1
 40
0.6
176
     1
 41
30.0
176
     1
 62
     5
 63
     7
421
 16777215
176
     1
 74
     0
176
     1
 91
        0
176
     1
 64
     7
176
     1
 65
   257
176
     1
 75
     1
176
     1
175
     1
176
     1
 42
1.0
176
     1
 92
        0
176
     1
 66
     7
176
     1
 43
1.0
176
     1
 76
     1
176
     1
 77
     6
176
     1
 78
     2
176
     1
 67
     7
176
     1
 79
     5
176
     1
170
     0
176
     1
171
     0
176
     1
290
     0
176
     1
 93
       13
176
     1
 44
0.0
176
     1
173
     0
176
     1
  0
VISUALSTYLE
  5
18D
102
{ACAD_REACTORS
330
189
102
}
102
{ACAD_XDICTIONARY
360
1AE
102
}
330
189
100
AcDbVisualStyle
  2
GouraudWithEdges
 70
     3
177
     2
291
     1
 71
     2
176
     1
 72
     2
176
     1
 73
     1
176
     1
 90
        2
176
     1
 40
0.6
176
     1
 41
30.0
176
     1
 62
     5
 63
     7
421
 16777215
176
     1
 74
     1
176
     1
 91
        0
176
     1
 64
     7
176
     1
 65
   257
176
     1
 75
     1
176
     1
175
     1
176
     1
 42
1.0
176
     1
 92
        0
176
     1
 66
   257
176
     1
 43
1.0
176
     1
 76
     1
176
     1
 77
     6
176
     1
 78
     2
176
     1
 67
     7
176
     1
 79
     5
176
     1
170
     0
176
     1
171
     0
176
     1
290
     0
176
     1
 93
       13
176
     1
 44
0.0
176
     1
173
     0
176
     1
  0
VISUALSTYLE
  5
190
102
{ACAD_REACTORS
330
189
102
}
102
{ACAD_XDICTIONARY
360
1B4
102
}
330
189
100
AcDbVisualStyle
  2
Hidden
 70
     6
177
     2
291
     0
 71
     1
176
     1
 72
     2
176
     1
 73
     2
176
     1
 90
        0
176
     1
 40
0.6
176
     1
 41
30.0
176
     1
 62
     5
 63
     7
421
 16777215
176
     1
 74
     2
176
     1
 91
        2
176
     1
 64
     7
176
     1
 65
   257
176
     1
 75
     2
176
     1
175
     1
176
     1
 42
40.0
176
     1
 92
        0
176
     1
 66
   257
176
     1
 43
1.0
176
     1
 76
     1
176
     1
 77
     6
176
     1
 78
     2
176
     1
 67
     7
176
     1
 79
     3
176
     1
170
     0
176
     1
171
     0
176
     1
290
     0
176
     1
 93
        1
176
     1
 44
0.0
176
     1
173
     0
176
     1
  0
VISUALSTYLE
  5
19A
102
{ACAD_REACTORS
330
189
102
}
102
{ACAD_XDICTIONARY
360
1C8
102
}
330
189
100
AcDbVisualStyle
  2
JitterOff
 70
    20
177
     2
291
     1
 71
     2
176
     0
 72
     2
176
     0
 73
     0
176
     0
 90
        0
176
     0
 40
0.6
176
     0
 41
30.0
176
     0
 62
     5
 63
     7
421
 16777215
176
     0
 74
     1
176
     0
 91
        4
176
     0
 64
     7
176
     0
 65
   257
176
     0
 75
     1
176
     0
175
     1
176
     0
 42
1.0
176
     0
 92
       10
176
     2
 66
     7
176
     0
 43
1.0
176
     0
 76
     1
176
     0
 77
     6
176
     0
 78
     2
176
     0
 67
     7
176
     0
 79
     5
176
     0
170
     0
176
     0
171
     0
176
     0
290
     0
176
     0
 93
        1
176
     0
 44
0.0
176
     0
173
     0
176
     0
  0
VISUALSTYLE
  5
197
102
{ACAD_REACTORS
330
189
102
}
102
{ACAD_XDICTIONARY
360
1C2
102
}
330
189
100
AcDbVisualStyle
  2
Linepattern
 70
    14
177
     2
291
     1
 71
     2
176
     1
 72
     2
176
     1
 73
     0
176
     1
 90
        0
176
     1
 40
0.6
176
     1
 41
30.0
176
     1
 62
     5
 63
     7
421
 16777215
176
     1
 74
     1
176
     1
 91
        4
176
     1
 64
     7
176
     1
 65
   257
176
     1
 75
     7
176
     1
175
     7
176
     1
 42
1.0
176
     1
 92
        8
176
     1
 66
     7
176
     1
 43
1.0
176
     1
 76
     1
176
     1
 77
     6
176
     1
 78
     2
176
     1
 67
     7
176
     1
 79
     5
176
     1
170
     0
176
     1
171
     0
176
     1
290
     0
176
     1
 93
        1
176
     1
 44
0.0
176
     1
173
     0
176
     1
  0
VISUALSTYLE
  5
19B
102
{ACAD_REACTORS
330
189
102
}
102
{ACAD_XDICTIONARY
360
1CA
102
}
330
189
100
AcDbVisualStyle
  2
OverhangOff
 70
    21
177
     2
291
     1
 71
     2
176
     0
 72
     2
176
     0
 73
     0
176
     0
 90
        0
176
     0
 40
0.6
176
     0
 41
30.0
176
     0
 62
     5
 63
     7
421
 16777215
176
     0
 74
     1
176
     0
 91
        4
176
     0
 64
     7
176
     0
 65
   257
176
     0
 75
     1
176
     0
175
     1
176
     0
 42
1.0
176
     0
 92
        9
176
     2
 66
     7
176
     0
 43
1.0
176
     0
 76
     1
176
     0
 77
     6
176
     0
 78
     2
176
     0
 67
     7
176
     0
 79
     5
176
     0
170
     0
176
     0
171
     0
176
     0
290
     0
176
     0
 93
        1
176
     0
 44
0.0
176
     0
173
     0
176
     0
  0
VISUALSTYLE
  5
192
102
{ACAD_REACTORS
330
189
102
}
102
{ACAD_XDICTIONARY
360
1B8
102
}
330
189
100
AcDbVisualStyle
  2
Realistic
 70
     8
177
     2
291
     0
 71
     2
176
     1
 72
     3
176
     1
 73
     0
176
     1
 90
        2
176
     1
 40
0.6
176
     1
 41
30.0
176
     1
 62
     5
 63
     7
421
 16777215
176
     1
 74
     0
176
     1
 91
        0
176
     1
 64
     7
176
     1
 65
   257
176
     1
 75
     1
176
     1
175
     1
176
     1
 42
1.0
176
     1
 92
        8
176
     1
 66
   257
176
     1
 43
1.0
176
     1
 76
     1
176
     1
 77
     6
176
     1
 78
     2
176
     1
 67
     7
176
     1
 79
     3
176
     1
170
     0
176
     1
171
     0
176
     1
290
     0
176
     1
 93
       13
176
     1
 44
0.0
176
     1
173
     0
176
     1
  0
VISUALSTYLE
  5
1A1
102
{ACAD_REACTORS
330
189
102
}
102
{ACAD_XDICTIONARY
360
1D6
102
}
330
189
100
AcDbVisualStyle
  2
Shaded
 70
    27
177
     2
291
     0
 71
     2
176
     1
 72
     2
176
     1
 73
     1
176
     1
 90
        2
176
     1
 40
0.6
176
     1
 41
30.0
176
     1
 62
     5
 63
     7
421
 16777215
176
     1
 74
     0
176
     1
 91
        4
176
     1
 64
     7
176
     1
 65
   257
176
     1
 75
     1
176
     1
175
     1
176
     1
 42
1.0
176
     1
 92
        8
176
     1
 66
   257
176
     1
 43
1.0
176
     1
 76
     1
176
     1
 77
     6
176
     1
 78
     2
176
     1
 67
     8
425
  7895160
176
     1
 79
     3
176
     1
170
     0
176
     1
171
     0
176
     1
290
     0
176
     1
 93
        5
176
     1
 44
0.0
176
     1
173
     0
176
     1
  0
VISUALSTYLE
  5
1A0
102
{ACAD_REACTORS
330
189
102
}
102
{ACAD_XDICTIONARY
360
1D4
102
}
330
189
100
AcDbVisualStyle
  2
Shaded with edges
 70
    26
177
     2
291
     0
 71
     2
176
     1
 72
     2
176
     1
 73
     1
176
     1
 90
        2
176
     1
 40
0.6
176
     1
 41
30.0
176
     1
 62
     5
 63
     7
421
 16777215
176
     1
 74
     1
176
     1
 91
       10
176
     1
 64
     7
176
     1
 65
   257
176
     1
 75
     2
176
     1
175
     1
176
     1
 42
1.0
176
     1
 92
        8
176
     1
 66
   257
176
     1
 43
1.0
176
     1
 76
     1
176
     1
 77
     6
176
     1
 78
     2
176
     1
 67
     7
176
     1
 79
     3
176
     1
170
     0
176
     1
171
     0
176
     1
290
     0
176
     1
 93
        5
176
     1
 44
0.0
176
     1
173
     0
176
     1
  0
VISUALSTYLE
  5
19D
102
{ACAD_REACTORS
330
189
102
}
102
{ACAD_XDICTIONARY
360
1CE
102
}
330
189
100
AcDbVisualStyle
  2
Shades of Gray
 70
    23
177
     2
291
     0
 71
     2
176
     1
 72
     2
176
     1
 73
     3
176
     1
 90
        0
176
     1
 40
0.6
176
     1
 41
30.0
176
     1
 62
     5
 63
     7
421
 16777215
176
     1
 74
     2
176
     1
 91
        2
176
     1
 64
     7
176
     1
 65
     7
176
     1
 75
     1
176
     1
175
     1
176
     1
 42
40.0
176
     1
 92
        8
176
     1
 66
     7
176
     1
 43
1.0
176
     1
 76
     1
176
     1
 77
     6
176
     1
 78
     2
176
     1
 67
     7
176
     1
 79
     3
176
     1
170
     0
176
     1
171
     0
176
     1
290
     0
176
     1
 93
        1
176
     1
 44
0.0
176
     1
173
     0
176
     1
  0
VISUALSTYLE
  5
19E
102
{ACAD_REACTORS
330
189
102
}
102
{ACAD_XDICTIONARY
360
1D0
102
}
330
189
100
AcDbVisualStyle
  2
Sketchy
 70
    24
177
     2
291
     0
 71
     1
176
     1
 72
     2
176
     1
 73
     2
176
     1
 90
        0
176
     1
 40
0.6
176
     1
 41
30.0
176
     1
 62
     5
 63
     7
421
 16777215
176
     1
 74
     2
176
     1
 91
        2
176
     1
 64
     7
176
     1
 65
     7
176
     1
 75
     1
176
     1
175
     1
176
     1
 42
40.0
176
     1
 92
       11
176
     1
 66
     7
176
     1
 43
1.0
176
     1
 76
     1
176
     1
 77
     6
176
     1
 78
     2
176
     1
 67
     7
176
     1
 79
     6
176
     1
170
     0
176
     1
171
     0
176
     1
290
     0
176
     1
 93
        1
176
     1
 44
0.0
176
     1
173
     0
176
     1
  0
VISUALSTYLE
  5
196
102
{ACAD_REACTORS
330
189
102
}
102
{ACAD_XDICTIONARY
360
1C0
102
}
330
189
100
AcDbVisualStyle
  2
Thicken
 70
    13
177
     2
291
     1
 71
     2
176
     1
 72
     2
176
     1
 73
     0
176
     1
 90
        0
176
     1
 40
0.6
176
     1
 41
30.0
176
     1
 62
     5
 63
     7
421
 16777215
176
     1
 74
     1
176
     1
 91
        4
176
     1
 64
     7
176
     1
 65
   257
176
     1
 75
     1
176
     1
175
     1
176
     1
 42
1.0
176
     1
 92
       12
176
     1
 66
     7
176
     1
 43
1.0
176
     1
 76
     1
176
     1
 77
     6
176
     1
 78
     2
176
     1
 67
     7
176
     1
 79
     5
176
     1
170
     0
176
     1
171
     0
176
     1
290
     0
176
     1
 93
        1
176
     1
 44
0.0
176
     1
173
     0
176
     1
  0
VISUALSTYLE
  5
18F
102
{ACAD_REACTORS
330
189
102
}
102
{ACAD_XDICTIONARY
360
1B2
102
}
330
189
100
AcDbVisualStyle
  2
Wireframe
 70
     5
177
     2
291
     0
 71
     0
176
     1
 72
     2
176
     1
 73
     0
176
     1
 90
        0
176
     1
 40
0.6
176
     1
 41
30.0
176
     1
 62
     5
 63
     7
421
 16777215
176
     1
 74
     1
176
     1
 91
        4
176
     1
 64
     7
176
     1
 65
   257
176
     1
 75
     1
176
     1
175
     1
176
     1
 42
1.0
176
     1
 92
        0
176
     1
 66
   257
176
     1
 43
1.0
176
     1
 76
     1
176
     1
 77
     6
176
     1
 78
     2
176
     1
 67
     7
176
     1
 79
     3
176
     1
170
     0
176
     1
171
     0
176
     1
290
     0
176
     1
 93
        1
176
     1
 44
0.0
176
     1
173
     0
176
     1
  0
VISUALSTYLE
  5
19F
102
{ACAD_REACTORS
330
189
102
}
102
{ACAD_XDICTIONARY
360
1D2
102
}
330
189
100
AcDbVisualStyle
  2
X-Ray
 70
    25
177
     2
291
     0
 71
     2
176
     1
 72
     2
176
     1
 73
     1
176
     1
 90
        1
176
     1
 40
0.5
176
     1
 41
30.0
176
     1
 62
     5
 63
     7
421
 16777215
176
     1
 74
     1
176
     1
 91
        0
176
     1
 64
     7
176
     1
 65
   257
176
     1
 75
     1
176
     1
175
     1
176
     1
 42
1.0
176
     1
 92
        8
176
     1
 66
     7
176
     1
 43
1.0
176
     1
 76
     1
176
     1
 77
     6
176
     1
 78
     2
176
     1
 67
     7
176
     1
 79
     3
176
     1
170
     0
176
     1
171
     0
176
     1
290
     0
176
     1
 93
       13
176
     1
 44
0.0
176
     1
173
     0
176
     1
  0
DICTIONARYVAR
  5
1A7
102
{ACAD_REACTORS
330
1A6
102
}
330
1A6
100
DictionaryVariables
280
     0
  1
1:1
  0
DICTIONARYVAR
  5
1DA
102
{ACAD_REACTORS
330
1A6
102
}
330
1A6
100
DictionaryVariables
280
     0
  1
0
  0
DICTIONARY
  5
1B0
330
18E
100
AcDbDictionary
280
     1
281
     1
  3
ACAD_XREC_ROUNDTRIP
360
1B1
  0
DICTIONARY
  5
1B6
330
191
100
AcDbDictionary
280
     1
281
     1
  3
ACAD_XREC_ROUNDTRIP
360
1B7
  0
DICTIONARY
  5
1BE
330
195
100
AcDbDictionary
280
     1
281
     1
  3
ACAD_XREC_ROUNDTRIP
360
1BF
  0
DICTIONARY
  5
1C6
330
199
100
AcDbDictionary
280
     1
281
     1
  3
ACAD_XREC_ROUNDTRIP
360
1C7
  0
DICTIONARY
  5
1BA
330
193
100
AcDbDictionary
280
     1
281
     1
  3
ACAD_XREC_ROUNDTRIP
360
1BB
  0
DICTIONARY
  5
1BC
330
194
100
AcDbDictionary
280
     1
281
     1
  3
ACAD_XREC_ROUNDTRIP
360
1BD
  0
DICTIONARY
  5
1CC
330
19C
100
AcDbDictionary
280
     1
281
     1
  3
ACAD_XREC_ROUNDTRIP
360
1CD
  0
DICTIONARY
  5
1C4
330
198
100
AcDbDictionary
280
     1
281
     1
  3
ACAD_XREC_ROUNDTRIP
360
1C5
  0
DICTIONARY
  5
1A8
330
18A
100
AcDbDictionary
280
     1
281
     1
  3
ACAD_XREC_ROUNDTRIP
360
1A9
  0
DICTIONARY
  5
1AA
330
18B
100
AcDbDictionary
280
     1
281
     1
  3
ACAD_XREC_ROUNDTRIP
360
1AB
  0
DICTIONARY
  5
1AC
330
18C
100
AcDbDictionary
280
     1
281
     1
  3
ACAD_XREC_ROUNDTRIP
360
1AD
  0
DICTIONARY
  5
1AE
330
18D
100
AcDbDictionary
280
     1
281
     1
  3
ACAD_XREC_ROUNDTRIP
360
1AF
  0
DICTIONARY
  5
1B4
330
190
100
AcDbDictionary
280
     1
281
     1
  3
ACAD_XREC_ROUNDTRIP
360
1B5
  0
DICTIONARY
  5
1C8
330
19A
100
AcDbDictionary
280
     1
281
     1
  3
ACAD_XREC_ROUNDTRIP
360
1C9
  0
DICTIONARY
  5
1C2
330
197
100
AcDbDictionary
280
     1
281
     1
  3
ACAD_XREC_ROUNDTRIP
360
1C3
  0
DICTIONARY
  5
1CA
330
19B
100
AcDbDictionary
280
     1
281
     1
  3
ACAD_XREC_ROUNDTRIP
360
1CB
  0
DICTIONARY
  5
1B8
330
192
100
AcDbDictionary
280
     1
281
     1
  3
ACAD_XREC_ROUNDTRIP
360
1B9
  0
DICTIONARY
  5
1D6
330
1A1
100
AcDbDictionary
280
     1
281
     1
  3
ACAD_XREC_ROUNDTRIP
360
1D7
  0
DICTIONARY
  5
1D4
330
1A0
100
AcDbDictionary
280
     1
281
     1
  3
ACAD_XREC_ROUNDTRIP
360
1D5
  0
DICTIONARY
  5
1CE
330
19D
100
AcDbDictionary
280
     1
281
     1
  3
ACAD_XREC_ROUNDTRIP
360
1CF
  0
DICTIONARY
  5
1D0
330
19E
100
AcDbDictionary
280
     1
281
     1
  3
ACAD_XREC_ROUNDTRIP
360
1D1
  0
DICTIONARY
  5
1C0
330
196
100
AcDbDictionary
280
     1
281
     1
  3
ACAD_XREC_ROUNDTRIP
360
1C1
  0
DICTIONARY
  5
1B2
330
18F
100
AcDbDictionary
280
     1
281
     1
  3
ACAD_XREC_ROUNDTRIP
360
1B3
  0
DICTIONARY
  5
1D2
330
19F
100
AcDbDictionary
280
     1
281
     1
  3
ACAD_XREC_ROUNDTRIP
360
1D3
  0
XRECORD
  5
1B1
102
{ACAD_REACTORS
330
1B0
102
}
330
1B0
100
AcDbXrecord
280
     1
102
RTVSPost2010Prop28
280
     1
102
RTVSPost2010PropOp28
 70
     1
102
RTVSPost2010Prop29
280
     1
102
RTVSPost2010PropOp29
 70
     1
102
RTVSPost2010Prop30
280
     0
102
RTVSPost2010PropOp30
 70
     1
102
RTVSPost2010Prop31
280
     0
102
RTVSPost2010PropOp31
 70
     1
102
RTVSPost2010Prop32
280
     0
102
RTVSPost2010PropOp32
 70
     1
102
RTVSPost2010Prop33
280
     0
102
RTVSPost2010PropOp33
 70
     1
102
RTVSPost2010Prop34
280
     0
102
RTVSPost2010PropOp34
 70
     1
102
RTVSPost2010Prop35
280
     0
102
RTVSPost2010PropOp35
 70
     1
102
RTVSPost2010Prop36
280
     0
102
RTVSPost2010PropOp36
 70
     1
102
RTVSPost2010Prop37
 90
       50
102
RTVSPost2010PropOp37
 70
     1
102
RTVSPost2010Prop38
140
0.0
102
RTVSPost2010PropOp38
 70
     1
102
RTVSPost2010Prop39
140
1.0
102
RTVSPost2010PropOp39
 70
     1
102
RTVSPost2010Prop40
 90
        0
102
RTVSPost2010PropOp40
 70
     1
102
RTVSPost2010Prop41ColorIndex
 90
       18
102
RTVSPost2010Prop41ColorRGB
 90
        0
102
RTVSPost2010PropOp41
 70
     1
102
RTVSPost2010Prop42
 90
       50
102
RTVSPost2010PropOp42
 70
     1
102
RTVSPost2010Prop43
 90
        3
102
RTVSPost2010PropOp43
 70
     1
102
RTVSPost2010Prop44ColorIndex
 90
        5
102
RTVSPost2010Prop44ColorRGB
 90
      255
102
RTVSPost2010PropOp44
 70
     1
102
RTVSPost2010Prop45
280
     0
102
RTVSPost2010PropOp45
 70
     1
102
RTVSPost2010Prop46
 90
       50
102
RTVSPost2010PropOp46
 70
     1
102
RTVSPost2010Prop47
 90
       50
102
RTVSPost2010PropOp47
 70
     1
102
RTVSPost2010Prop48
 90
       50
102
RTVSPost2010PropOp48
 70
     1
102
RTVSPost2010Prop49
280
     0
102
RTVSPost2010PropOp49
 70
     1
102
RTVSPost2010Prop50
 90
       50
102
RTVSPost2010PropOp50
 70
     1
102
RTVSPost2010Prop51ColorIndex
 90
      256
102
RTVSPost2010Prop51ColorRGB
 90
-16777216
102
RTVSPost2010PropOp51
 70
     0
102
RTVSPost2010Prop52
140
1.0
102
RTVSPost2010PropOp52
 70
     0
102
RTVSPost2010Prop53
 90
        2
102
RTVSPost2010PropOp53
 70
     1
102
RTVSPost2010Prop54
  1
strokes_ogs.tif
102
RTVSPost2010PropOp54
 70
     1
102
RTVSPost2010Prop55
280
     0
102
RTVSPost2010PropOp55
 70
     1
102
RTVSPost2010Prop56
140
1.0
102
RTVSPost2010PropOp56
 70
     1
102
RTVSPost2010Prop57
140
1.0
102
RTVSPost2010PropOp57
 70
     1
  0
XRECORD
  5
1B7
102
{ACAD_REACTORS
330
1B6
102
}
330
1B6
100
AcDbXrecord
280
     1
102
RTVSPost2010Prop28
280
     0
102
RTVSPost2010PropOp28
 70
     1
102
RTVSPost2010Prop29
280
     1
102
RTVSPost2010PropOp29
 70
     1
102
RTVSPost2010Prop30
280
     1
102
RTVSPost2010PropOp30
 70
     1
102
RTVSPost2010Prop31
280
     0
102
RTVSPost2010PropOp31
 70
     1
102
RTVSPost2010Prop32
280
     0
102
RTVSPost2010PropOp32
 70
     1
102
RTVSPost2010Prop33
280
     0
102
RTVSPost2010PropOp33
 70
     1
102
RTVSPost2010Prop34
280
     0
102
RTVSPost2010PropOp34
 70
     1
102
RTVSPost2010Prop35
280
     0
102
RTVSPost2010PropOp35
 70
     1
102
RTVSPost2010Prop36
280
     0
102
RTVSPost2010PropOp36
 70
     1
102
RTVSPost2010Prop37
 90
       50
102
RTVSPost2010PropOp37
 70
     1
102
RTVSPost2010Prop38
140
0.0
102
RTVSPost2010PropOp38
 70
     1
102
RTVSPost2010Prop39
140
1.0
102
RTVSPost2010PropOp39
 70
     1
102
RTVSPost2010Prop40
 90
        0
102
RTVSPost2010PropOp40
 70
     1
102
RTVSPost2010Prop41ColorIndex
 90
       18
102
RTVSPost2010Prop41ColorRGB
 90
        0
102
RTVSPost2010PropOp41
 70
     1
102
RTVSPost2010Prop42
 90
       50
102
RTVSPost2010PropOp42
 70
     1
102
RTVSPost2010Prop43
 90
        3
102
RTVSPost2010PropOp43
 70
     1
102
RTVSPost2010Prop44ColorIndex
 90
        5
102
RTVSPost2010Prop44ColorRGB
 90
      255
102
RTVSPost2010PropOp44
 70
     1
102
RTVSPost2010Prop45
280
     0
102
RTVSPost2010PropOp45
 70
     1
102
RTVSPost2010Prop46
 90
       50
102
RTVSPost2010PropOp46
 70
     1
102
RTVSPost2010Prop47
 90
       50
102
RTVSPost2010PropOp47
 70
     1
102
RTVSPost2010Prop48
 90
       50
102
RTVSPost2010PropOp48
 70
     1
102
RTVSPost2010Prop49
280
     0
102
RTVSPost2010PropOp49
 70
     1
102
RTVSPost2010Prop50
 90
       50
102
RTVSPost2010PropOp50
 70
     1
102
RTVSPost2010Prop51ColorIndex
 90
      256
102
RTVSPost2010Prop51ColorRGB
 90
-16777216
102
RTVSPost2010PropOp51
 70
     0
102
RTVSPost2010Prop52
140
1.0
102
RTVSPost2010PropOp52
 70
     0
102
RTVSPost2010Prop53
 90
        2
102
RTVSPost2010PropOp53
 70
     1
102
RTVSPost2010Prop54
  1
strokes_ogs.tif
102
RTVSPost2010PropOp54
 70
     1
102
RTVSPost2010Prop55
280
     0
102
RTVSPost2010PropOp55
 70
     1
102
RTVSPost2010Prop56
140
1.0
102
RTVSPost2010PropOp56
 70
     1
102
RTVSPost2010Prop57
140
1.0
102
RTVSPost2010PropOp57
 70
     1
  0
XRECORD
  5
1BF
102
{ACAD_REACTORS
330
1BE
102
}
330
1BE
100
AcDbXrecord
280
     1
102
RTVSPost2010Prop28
280
     0
102
RTVSPost2010PropOp28
 70
     1
102
RTVSPost2010Prop29
280
     1
102
RTVSPost2010PropOp29
 70
     1
102
RTVSPost2010Prop30
280
     1
102
RTVSPost2010PropOp30
 70
     1
102
RTVSPost2010Prop31
280
     0
102
RTVSPost2010PropOp31
 70
     1
102
RTVSPost2010Prop32
280
     0
102
RTVSPost2010PropOp32
 70
     1
102
RTVSPost2010Prop33
280
     0
102
RTVSPost2010PropOp33
 70
     1
102
RTVSPost2010Prop34
280
     0
102
RTVSPost2010PropOp34
 70
     1
102
RTVSPost2010Prop35
280
     0
102
RTVSPost2010PropOp35
 70
     1
102
RTVSPost2010Prop36
280
     0
102
RTVSPost2010PropOp36
 70
     1
102
RTVSPost2010Prop37
 90
       50
102
RTVSPost2010PropOp37
 70
     1
102
RTVSPost2010Prop38
140
0.0
102
RTVSPost2010PropOp38
 70
     1
102
RTVSPost2010Prop39
140
1.0
102
RTVSPost2010PropOp39
 70
     1
102
RTVSPost2010Prop40
 90
        0
102
RTVSPost2010PropOp40
 70
     1
102
RTVSPost2010Prop41ColorIndex
 90
       18
102
RTVSPost2010Prop41ColorRGB
 90
        0
102
RTVSPost2010PropOp41
 70
     1
102
RTVSPost2010Prop42
 90
       50
102
RTVSPost2010PropOp42
 70
     1
102
RTVSPost2010Prop43
 90
        3
102
RTVSPost2010PropOp43
 70
     1
102
RTVSPost2010Prop44ColorIndex
 90
        5
102
RTVSPost2010Prop44ColorRGB
 90
      255
102
RTVSPost2010PropOp44
 70
     1
102
RTVSPost2010Prop45
280
     0
102
RTVSPost2010PropOp45
 70
     1
102
RTVSPost2010Prop46
 90
       50
102
RTVSPost2010PropOp46
 70
     1
102
RTVSPost2010Prop47
 90
       50
102
RTVSPost2010PropOp47
 70
     1
102
RTVSPost2010Prop48
 90
       50
102
RTVSPost2010PropOp48
 70
     1
102
RTVSPost2010Prop49
280
     0
102
RTVSPost2010PropOp49
 70
     1
102
RTVSPost2010Prop50
 90
       50
102
RTVSPost2010PropOp50
 70
     1
102
RTVSPost2010Prop51ColorIndex
 90
      256
102
RTVSPost2010Prop51ColorRGB
 90
-16777216
102
RTVSPost2010PropOp51
 70
     0
102
RTVSPost2010Prop52
140
1.0
102
RTVSPost2010PropOp52
 70
     0
102
RTVSPost2010Prop53
 90
        2
102
RTVSPost2010PropOp53
 70
     1
102
RTVSPost2010Prop54
  1
strokes_ogs.tif
102
RTVSPost2010PropOp54
 70
     1
102
RTVSPost2010Prop55
280
     0
102
RTVSPost2010PropOp55
 70
     1
102
RTVSPost2010Prop56
140
1.0
102
RTVSPost2010PropOp56
 70
     1
102
RTVSPost2010Prop57
140
1.0
102
RTVSPost2010PropOp57
 70
     1
  0
XRECORD
  5
1C7
102
{ACAD_REACTORS
330
1C6
102
}
330
1C6
100
AcDbXrecord
280
     1
102
RTVSPost2010Prop28
280
     0
102
RTVSPost2010PropOp28
 70
     1
102
RTVSPost2010Prop29
280
     1
102
RTVSPost2010PropOp29
 70
     1
102
RTVSPost2010Prop30
280
     1
102
RTVSPost2010PropOp30
 70
     1
102
RTVSPost2010Prop31
280
     0
102
RTVSPost2010PropOp31
 70
     1
102
RTVSPost2010Prop32
280
     0
102
RTVSPost2010PropOp32
 70
     1
102
RTVSPost2010Prop33
280
     0
102
RTVSPost2010PropOp33
 70
     1
102
RTVSPost2010Prop34
280
     0
102
RTVSPost2010PropOp34
 70
     1
102
RTVSPost2010Prop35
280
     0
102
RTVSPost2010PropOp35
 70
     1
102
RTVSPost2010Prop36
280
     0
102
RTVSPost2010PropOp36
 70
     1
102
RTVSPost2010Prop37
 90
       50
102
RTVSPost2010PropOp37
 70
     1
102
RTVSPost2010Prop38
140
0.0
102
RTVSPost2010PropOp38
 70
     1
102
RTVSPost2010Prop39
140
1.0
102
RTVSPost2010PropOp39
 70
     1
102
RTVSPost2010Prop40
 90
        0
102
RTVSPost2010PropOp40
 70
     1
102
RTVSPost2010Prop41ColorIndex
 90
       18
102
RTVSPost2010Prop41ColorRGB
 90
        0
102
RTVSPost2010PropOp41
 70
     1
102
RTVSPost2010Prop42
 90
       50
102
RTVSPost2010PropOp42
 70
     1
102
RTVSPost2010Prop43
 90
        3
102
RTVSPost2010PropOp43
 70
     1
102
RTVSPost2010Prop44ColorIndex
 90
        5
102
RTVSPost2010Prop44ColorRGB
 90
      255
102
RTVSPost2010PropOp44
 70
     1
102
RTVSPost2010Prop45
280
     0
102
RTVSPost2010PropOp45
 70
     1
102
RTVSPost2010Prop46
 90
       50
102
RTVSPost2010PropOp46
 70
     1
102
RTVSPost2010Prop47
 90
       50
102
RTVSPost2010PropOp47
 70
     1
102
RTVSPost2010Prop48
 90
       50
102
RTVSPost2010PropOp48
 70
     1
102
RTVSPost2010Prop49
280
     0
102
RTVSPost2010PropOp49
 70
     1
102
RTVSPost2010Prop50
 90
       50
102
RTVSPost2010PropOp50
 70
     1
102
RTVSPost2010Prop51ColorIndex
 90
      256
102
RTVSPost2010Prop51ColorRGB
 90
-16777216
102
RTVSPost2010PropOp51
 70
     0
102
RTVSPost2010Prop52
140
1.0
102
RTVSPost2010PropOp52
 70
     0
102
RTVSPost2010Prop53
 90
        2
102
RTVSPost2010PropOp53
 70
     1
102
RTVSPost2010Prop54
  1
strokes_ogs.tif
102
RTVSPost2010PropOp54
 70
     1
102
RTVSPost2010Prop55
280
     0
102
RTVSPost2010PropOp55
 70
     1
102
RTVSPost2010Prop56
140
1.0
102
RTVSPost2010PropOp56
 70
     1
102
RTVSPost2010Prop57
140
1.0
102
RTVSPost2010PropOp57
 70
     1
  0
XRECORD
  5
1BB
102
{ACAD_REACTORS
330
1BA
102
}
330
1BA
100
AcDbXrecord
280
     1
102
RTVSPost2010Prop28
280
     0
102
RTVSPost2010PropOp28
 70
     1
102
RTVSPost2010Prop29
280
     1
102
RTVSPost2010PropOp29
 70
     1
102
RTVSPost2010Prop30
280
     1
102
RTVSPost2010PropOp30
 70
     1
102
RTVSPost2010Prop31
280
     0
102
RTVSPost2010PropOp31
 70
     1
102
RTVSPost2010Prop32
280
     0
102
RTVSPost2010PropOp32
 70
     1
102
RTVSPost2010Prop33
280
     0
102
RTVSPost2010PropOp33
 70
     1
102
RTVSPost2010Prop34
280
     0
102
RTVSPost2010PropOp34
 70
     1
102
RTVSPost2010Prop35
280
     0
102
RTVSPost2010PropOp35
 70
     1
102
RTVSPost2010Prop36
280
     0
102
RTVSPost2010PropOp36
 70
     1
102
RTVSPost2010Prop37
 90
       50
102
RTVSPost2010PropOp37
 70
     1
102
RTVSPost2010Prop38
140
0.0
102
RTVSPost2010PropOp38
 70
     1
102
RTVSPost2010Prop39
140
1.0
102
RTVSPost2010PropOp39
 70
     1
102
RTVSPost2010Prop40
 90
        0
102
RTVSPost2010PropOp40
 70
     1
102
RTVSPost2010Prop41ColorIndex
 90
       18
102
RTVSPost2010Prop41ColorRGB
 90
        0
102
RTVSPost2010PropOp41
 70
     1
102
RTVSPost2010Prop42
 90
       50
102
RTVSPost2010PropOp42
 70
     1
102
RTVSPost2010Prop43
 90
        3
102
RTVSPost2010PropOp43
 70
     1
102
RTVSPost2010Prop44ColorIndex
 90
        5
102
RTVSPost2010Prop44ColorRGB
 90
      255
102
RTVSPost2010PropOp44
 70
     1
102
RTVSPost2010Prop45
280
     0
102
RTVSPost2010PropOp45
 70
     1
102
RTVSPost2010Prop46
 90
       50
102
RTVSPost2010PropOp46
 70
     1
102
RTVSPost2010Prop47
 90
       50
102
RTVSPost2010PropOp47
 70
     1
102
RTVSPost2010Prop48
 90
       50
102
RTVSPost2010PropOp48
 70
     1
102
RTVSPost2010Prop49
280
     0
102
RTVSPost2010PropOp49
 70
     1
102
RTVSPost2010Prop50
 90
       50
102
RTVSPost2010PropOp50
 70
     1
102
RTVSPost2010Prop51ColorIndex
 90
      256
102
RTVSPost2010Prop51ColorRGB
 90
-16777216
102
RTVSPost2010PropOp51
 70
     0
102
RTVSPost2010Prop52
140
1.0
102
RTVSPost2010PropOp52
 70
     0
102
RTVSPost2010Prop53
 90
        2
102
RTVSPost2010PropOp53
 70
     1
102
RTVSPost2010Prop54
  1
strokes_ogs.tif
102
RTVSPost2010PropOp54
 70
     1
102
RTVSPost2010Prop55
280
     0
102
RTVSPost2010PropOp55
 70
     1
102
RTVSPost2010Prop56
140
1.0
102
RTVSPost2010PropOp56
 70
     1
102
RTVSPost2010Prop57
140
1.0
102
RTVSPost2010PropOp57
 70
     1
  0
XRECORD
  5
1BD
102
{ACAD_REACTORS
330
1BC
102
}
330
1BC
100
AcDbXrecord
280
     1
102
RTVSPost2010Prop28
280
     0
102
RTVSPost2010PropOp28
 70
     1
102
RTVSPost2010Prop29
280
     1
102
RTVSPost2010PropOp29
 70
     1
102
RTVSPost2010Prop30
280
     1
102
RTVSPost2010PropOp30
 70
     1
102
RTVSPost2010Prop31
280
     0
102
RTVSPost2010PropOp31
 70
     1
102
RTVSPost2010Prop32
280
     0
102
RTVSPost2010PropOp32
 70
     1
102
RTVSPost2010Prop33
280
     0
102
RTVSPost2010PropOp33
 70
     1
102
RTVSPost2010Prop34
280
     0
102
RTVSPost2010PropOp34
 70
     1
102
RTVSPost2010Prop35
280
     0
102
RTVSPost2010PropOp35
 70
     1
102
RTVSPost2010Prop36
280
     0
102
RTVSPost2010PropOp36
 70
     1
102
RTVSPost2010Prop37
 90
       50
102
RTVSPost2010PropOp37
 70
     1
102
RTVSPost2010Prop38
140
0.0
102
RTVSPost2010PropOp38
 70
     1
102
RTVSPost2010Prop39
140
1.0
102
RTVSPost2010PropOp39
 70
     1
102
RTVSPost2010Prop40
 90
        0
102
RTVSPost2010PropOp40
 70
     1
102
RTVSPost2010Prop41ColorIndex
 90
       18
102
RTVSPost2010Prop41ColorRGB
 90
        0
102
RTVSPost2010PropOp41
 70
     1
102
RTVSPost2010Prop42
 90
       50
102
RTVSPost2010PropOp42
 70
     1
102
RTVSPost2010Prop43
 90
        3
102
RTVSPost2010PropOp43
 70
     1
102
RTVSPost2010Prop44ColorIndex
 90
        5
102
RTVSPost2010Prop44ColorRGB
 90
      255
102
RTVSPost2010PropOp44
 70
     1
102
RTVSPost2010Prop45
280
     0
102
RTVSPost2010PropOp45
 70
     1
102
RTVSPost2010Prop46
 90
       50
102
RTVSPost2010PropOp46
 70
     1
102
RTVSPost2010Prop47
 90
       50
102
RTVSPost2010PropOp47
 70
     1
102
RTVSPost2010Prop48
 90
       50
102
RTVSPost2010PropOp48
 70
     1
102
RTVSPost2010Prop49
280
     0
102
RTVSPost2010PropOp49
 70
     1
102
RTVSPost2010Prop50
 90
       50
102
RTVSPost2010PropOp50
 70
     1
102
RTVSPost2010Prop51ColorIndex
 90
      256
102
RTVSPost2010Prop51ColorRGB
 90
-16777216
102
RTVSPost2010PropOp51
 70
     0
102
RTVSPost2010Prop52
140
1.0
102
RTVSPost2010PropOp52
 70
     0
102
RTVSPost2010Prop53
 90
        2
102
RTVSPost2010PropOp53
 70
     1
102
RTVSPost2010Prop54
  1
strokes_ogs.tif
102
RTVSPost2010PropOp54
 70
     1
102
RTVSPost2010Prop55
280
     0
102
RTVSPost2010PropOp55
 70
     1
102
RTVSPost2010Prop56
140
1.0
102
RTVSPost2010PropOp56
 70
     1
102
RTVSPost2010Prop57
140
1.0
102
RTVSPost2010PropOp57
 70
     1
  0
XRECORD
  5
1CD
102
{ACAD_REACTORS
330
1CC
102
}
330
1CC
100
AcDbXrecord
280
     1
102
RTVSPost2010Prop28
280
     0
102
RTVSPost2010PropOp28
 70
     0
102
RTVSPost2010Prop29
280
     1
102
RTVSPost2010PropOp29
 70
     0
102
RTVSPost2010Prop30
280
     1
102
RTVSPost2010PropOp30
 70
     0
102
RTVSPost2010Prop31
280
     0
102
RTVSPost2010PropOp31
 70
     0
102
RTVSPost2010Prop32
280
     0
102
RTVSPost2010PropOp32
 70
     0
102
RTVSPost2010Prop33
280
     0
102
RTVSPost2010PropOp33
 70
     0
102
RTVSPost2010Prop34
280
     0
102
RTVSPost2010PropOp34
 70
     0
102
RTVSPost2010Prop35
280
     0
102
RTVSPost2010PropOp35
 70
     0
102
RTVSPost2010Prop36
280
     0
102
RTVSPost2010PropOp36
 70
     0
102
RTVSPost2010Prop37
 90
       50
102
RTVSPost2010PropOp37
 70
     0
102
RTVSPost2010Prop38
140
0.0
102
RTVSPost2010PropOp38
 70
     0
102
RTVSPost2010Prop39
140
1.0
102
RTVSPost2010PropOp39
 70
     0
102
RTVSPost2010Prop40
 90
        0
102
RTVSPost2010PropOp40
 70
     0
102
RTVSPost2010Prop41ColorIndex
 90
       18
102
RTVSPost2010Prop41ColorRGB
 90
        0
102
RTVSPost2010PropOp41
 70
     0
102
RTVSPost2010Prop42
 90
       50
102
RTVSPost2010PropOp42
 70
     0
102
RTVSPost2010Prop43
 90
        3
102
RTVSPost2010PropOp43
 70
     0
102
RTVSPost2010Prop44ColorIndex
 90
        5
102
RTVSPost2010Prop44ColorRGB
 90
      255
102
RTVSPost2010PropOp44
 70
     0
102
RTVSPost2010Prop45
280
     0
102
RTVSPost2010PropOp45
 70
     0
102
RTVSPost2010Prop46
 90
       50
102
RTVSPost2010PropOp46
 70
     0
102
RTVSPost2010Prop47
 90
       50
102
RTVSPost2010PropOp47
 70
     0
102
RTVSPost2010Prop48
 90
       50
102
RTVSPost2010PropOp48
 70
     0
102
RTVSPost2010Prop49
280
     0
102
RTVSPost2010PropOp49
 70
     0
102
RTVSPost2010Prop50
 90
       50
102
RTVSPost2010PropOp50
 70
     0
102
RTVSPost2010Prop51ColorIndex
 90
      256
102
RTVSPost2010Prop51ColorRGB
 90
-16777216
102
RTVSPost2010PropOp51
 70
     0
102
RTVSPost2010Prop52
140
1.0
102
RTVSPost2010PropOp52
 70
     0
102
RTVSPost2010Prop53
 90
        2
102
RTVSPost2010PropOp53
 70
     0
102
RTVSPost2010Prop54
  1
strokes_ogs.tif
102
RTVSPost2010PropOp54
 70
     0
102
RTVSPost2010Prop55
280
     0
102
RTVSPost2010PropOp55
 70
     0
102
RTVSPost2010Prop56
140
1.0
102
RTVSPost2010PropOp56
 70
     0
102
RTVSPost2010Prop57
140
1.0
102
RTVSPost2010PropOp57
 70
     0
  0
XRECORD
  5
1C5
102
{ACAD_REACTORS
330
1C4
102
}
330
1C4
100
AcDbXrecord
280
     1
102
RTVSPost2010Prop28
280
     0
102
RTVSPost2010PropOp28
 70
     1
102
RTVSPost2010Prop29
280
     1
102
RTVSPost2010PropOp29
 70
     1
102
RTVSPost2010Prop30
280
     1
102
RTVSPost2010PropOp30
 70
     1
102
RTVSPost2010Prop31
280
     0
102
RTVSPost2010PropOp31
 70
     1
102
RTVSPost2010Prop32
280
     0
102
RTVSPost2010PropOp32
 70
     1
102
RTVSPost2010Prop33
280
     0
102
RTVSPost2010PropOp33
 70
     1
102
RTVSPost2010Prop34
280
     0
102
RTVSPost2010PropOp34
 70
     1
102
RTVSPost2010Prop35
280
     0
102
RTVSPost2010PropOp35
 70
     1
102
RTVSPost2010Prop36
280
     0
102
RTVSPost2010PropOp36
 70
     1
102
RTVSPost2010Prop37
 90
       50
102
RTVSPost2010PropOp37
 70
     1
102
RTVSPost2010Prop38
140
0.0
102
RTVSPost2010PropOp38
 70
     1
102
RTVSPost2010Prop39
140
1.0
102
RTVSPost2010PropOp39
 70
     1
102
RTVSPost2010Prop40
 90
        0
102
RTVSPost2010PropOp40
 70
     1
102
RTVSPost2010Prop41ColorIndex
 90
       18
102
RTVSPost2010Prop41ColorRGB
 90
        0
102
RTVSPost2010PropOp41
 70
     1
102
RTVSPost2010Prop42
 90
       50
102
RTVSPost2010PropOp42
 70
     1
102
RTVSPost2010Prop43
 90
        3
102
RTVSPost2010PropOp43
 70
     1
102
RTVSPost2010Prop44ColorIndex
 90
        5
102
RTVSPost2010Prop44ColorRGB
 90
      255
102
RTVSPost2010PropOp44
 70
     1
102
RTVSPost2010Prop45
280
     0
102
RTVSPost2010PropOp45
 70
     1
102
RTVSPost2010Prop46
 90
       50
102
RTVSPost2010PropOp46
 70
     1
102
RTVSPost2010Prop47
 90
       50
102
RTVSPost2010PropOp47
 70
     1
102
RTVSPost2010Prop48
 90
       50
102
RTVSPost2010PropOp48
 70
     1
102
RTVSPost2010Prop49
280
     0
102
RTVSPost2010PropOp49
 70
     1
102
RTVSPost2010Prop50
 90
       50
102
RTVSPost2010PropOp50
 70
     1
102
RTVSPost2010Prop51ColorIndex
 90
      256
102
RTVSPost2010Prop51ColorRGB
 90
-16777216
102
RTVSPost2010PropOp51
 70
     0
102
RTVSPost2010Prop52
140
1.0
102
RTVSPost2010PropOp52
 70
     0
102
RTVSPost2010Prop53
 90
        2
102
RTVSPost2010PropOp53
 70
     1
102
RTVSPost2010Prop54
  1
strokes_ogs.tif
102
RTVSPost2010PropOp54
 70
     1
102
RTVSPost2010Prop55
280
     0
102
RTVSPost2010PropOp55
 70
     1
102
RTVSPost2010Prop56
140
1.0
102
RTVSPost2010PropOp56
 70
     1
102
RTVSPost2010Prop57
140
1.0
102
RTVSPost2010PropOp57
 70
     1
  0
XRECORD
  5
1A9
102
{ACAD_REACTORS
330
1A8
102
}
330
1A8
100
AcDbXrecord
280
     1
102
RTVSPost2010Prop28
280
     0
102
RTVSPost2010PropOp28
 70
     1
102
RTVSPost2010Prop29
280
     1
102
RTVSPost2010PropOp29
 70
     1
102
RTVSPost2010Prop30
280
     1
102
RTVSPost2010PropOp30
 70
     1
102
RTVSPost2010Prop31
280
     0
102
RTVSPost2010PropOp31
 70
     1
102
RTVSPost2010Prop32
280
     0
102
RTVSPost2010PropOp32
 70
     1
102
RTVSPost2010Prop33
280
     0
102
RTVSPost2010PropOp33
 70
     1
102
RTVSPost2010Prop34
280
     0
102
RTVSPost2010PropOp34
 70
     1
102
RTVSPost2010Prop35
280
     0
102
RTVSPost2010PropOp35
 70
     1
102
RTVSPost2010Prop36
280
     0
102
RTVSPost2010PropOp36
 70
     1
102
RTVSPost2010Prop37
 90
       50
102
RTVSPost2010PropOp37
 70
     1
102
RTVSPost2010Prop38
140
0.0
102
RTVSPost2010PropOp38
 70
     1
102
RTVSPost2010Prop39
140
1.0
102
RTVSPost2010PropOp39
 70
     1
102
RTVSPost2010Prop40
 90
        0
102
RTVSPost2010PropOp40
 70
     1
102
RTVSPost2010Prop41ColorIndex
 90
       18
102
RTVSPost2010Prop41ColorRGB
 90
        0
102
RTVSPost2010PropOp41
 70
     1
102
RTVSPost2010Prop42
 90
       50
102
RTVSPost2010PropOp42
 70
     1
102
RTVSPost2010Prop43
 90
        3
102
RTVSPost2010PropOp43
 70
     1
102
RTVSPost2010Prop44ColorIndex
 90
        5
102
RTVSPost2010Prop44ColorRGB
 90
      255
102
RTVSPost2010PropOp44
 70
     1
102
RTVSPost2010Prop45
280
     0
102
RTVSPost2010PropOp45
 70
     1
102
RTVSPost2010Prop46
 90
       50
102
RTVSPost2010PropOp46
 70
     1
102
RTVSPost2010Prop47
 90
       50
102
RTVSPost2010PropOp47
 70
     1
102
RTVSPost2010Prop48
 90
       50
102
RTVSPost2010PropOp48
 70
     1
102
RTVSPost2010Prop49
280
     0
102
RTVSPost2010PropOp49
 70
     1
102
RTVSPost2010Prop50
 90
       50
102
RTVSPost2010PropOp50
 70
     1
102
RTVSPost2010Prop51ColorIndex
 90
      256
102
RTVSPost2010Prop51ColorRGB
 90
-16777216
102
RTVSPost2010PropOp51
 70
     0
102
RTVSPost2010Prop52
140
1.0
102
RTVSPost2010PropOp52
 70
     0
102
RTVSPost2010Prop53
 90
        2
102
RTVSPost2010PropOp53
 70
     1
102
RTVSPost2010Prop54
  1
strokes_ogs.tif
102
RTVSPost2010PropOp54
 70
     1
102
RTVSPost2010Prop55
280
     0
102
RTVSPost2010PropOp55
 70
     1
102
RTVSPost2010Prop56
140
1.0
102
RTVSPost2010PropOp56
 70
     1
102
RTVSPost2010Prop57
140
1.0
102
RTVSPost2010PropOp57
 70
     1
  0
XRECORD
  5
1AB
102
{ACAD_REACTORS
330
1AA
102
}
330
1AA
100
AcDbXrecord
280
     1
102
RTVSPost2010Prop28
280
     0
102
RTVSPost2010PropOp28
 70
     1
102
RTVSPost2010Prop29
280
     1
102
RTVSPost2010PropOp29
 70
     1
102
RTVSPost2010Prop30
280
     1
102
RTVSPost2010PropOp30
 70
     1
102
RTVSPost2010Prop31
280
     0
102
RTVSPost2010PropOp31
 70
     1
102
RTVSPost2010Prop32
280
     0
102
RTVSPost2010PropOp32
 70
     1
102
RTVSPost2010Prop33
280
     0
102
RTVSPost2010PropOp33
 70
     1
102
RTVSPost2010Prop34
280
     0
102
RTVSPost2010PropOp34
 70
     1
102
RTVSPost2010Prop35
280
     0
102
RTVSPost2010PropOp35
 70
     1
102
RTVSPost2010Prop36
280
     0
102
RTVSPost2010PropOp36
 70
     1
102
RTVSPost2010Prop37
 90
       50
102
RTVSPost2010PropOp37
 70
     1
102
RTVSPost2010Prop38
140
0.0
102
RTVSPost2010PropOp38
 70
     1
102
RTVSPost2010Prop39
140
1.0
102
RTVSPost2010PropOp39
 70
     1
102
RTVSPost2010Prop40
 90
        0
102
RTVSPost2010PropOp40
 70
     1
102
RTVSPost2010Prop41ColorIndex
 90
       18
102
RTVSPost2010Prop41ColorRGB
 90
        0
102
RTVSPost2010PropOp41
 70
     1
102
RTVSPost2010Prop42
 90
       50
102
RTVSPost2010PropOp42
 70
     1
102
RTVSPost2010Prop43
 90
        3
102
RTVSPost2010PropOp43
 70
     1
102
RTVSPost2010Prop44ColorIndex
 90
        5
102
RTVSPost2010Prop44ColorRGB
 90
      255
102
RTVSPost2010PropOp44
 70
     1
102
RTVSPost2010Prop45
280
     0
102
RTVSPost2010PropOp45
 70
     1
102
RTVSPost2010Prop46
 90
       50
102
RTVSPost2010PropOp46
 70
     1
102
RTVSPost2010Prop47
 90
       50
102
RTVSPost2010PropOp47
 70
     1
102
RTVSPost2010Prop48
 90
       50
102
RTVSPost2010PropOp48
 70
     1
102
RTVSPost2010Prop49
280
     0
102
RTVSPost2010PropOp49
 70
     1
102
RTVSPost2010Prop50
 90
       50
102
RTVSPost2010PropOp50
 70
     1
102
RTVSPost2010Prop51ColorIndex
 90
      256
102
RTVSPost2010Prop51ColorRGB
 90
-16777216
102
RTVSPost2010PropOp51
 70
     0
102
RTVSPost2010Prop52
140
1.0
102
RTVSPost2010PropOp52
 70
     0
102
RTVSPost2010Prop53
 90
        2
102
RTVSPost2010PropOp53
 70
     1
102
RTVSPost2010Prop54
  1
strokes_ogs.tif
102
RTVSPost2010PropOp54
 70
     1
102
RTVSPost2010Prop55
280
     0
102
RTVSPost2010PropOp55
 70
     1
102
RTVSPost2010Prop56
140
1.0
102
RTVSPost2010PropOp56
 70
     1
102
RTVSPost2010Prop57
140
1.0
102
RTVSPost2010PropOp57
 70
     1
  0
XRECORD
  5
1AD
102
{ACAD_REACTORS
330
1AC
102
}
330
1AC
100
AcDbXrecord
280
     1
102
RTVSPost2010Prop28
280
     0
102
RTVSPost2010PropOp28
 70
     1
102
RTVSPost2010Prop29
280
     1
102
RTVSPost2010PropOp29
 70
     1
102
RTVSPost2010Prop30
280
     1
102
RTVSPost2010PropOp30
 70
     1
102
RTVSPost2010Prop31
280
     0
102
RTVSPost2010PropOp31
 70
     1
102
RTVSPost2010Prop32
280
     0
102
RTVSPost2010PropOp32
 70
     1
102
RTVSPost2010Prop33
280
     0
102
RTVSPost2010PropOp33
 70
     1
102
RTVSPost2010Prop34
280
     0
102
RTVSPost2010PropOp34
 70
     1
102
RTVSPost2010Prop35
280
     0
102
RTVSPost2010PropOp35
 70
     1
102
RTVSPost2010Prop36
280
     0
102
RTVSPost2010PropOp36
 70
     1
102
RTVSPost2010Prop37
 90
       50
102
RTVSPost2010PropOp37
 70
     1
102
RTVSPost2010Prop38
140
0.0
102
RTVSPost2010PropOp38
 70
     1
102
RTVSPost2010Prop39
140
1.0
102
RTVSPost2010PropOp39
 70
     1
102
RTVSPost2010Prop40
 90
        0
102
RTVSPost2010PropOp40
 70
     1
102
RTVSPost2010Prop41ColorIndex
 90
       18
102
RTVSPost2010Prop41ColorRGB
 90
        0
102
RTVSPost2010PropOp41
 70
     1
102
RTVSPost2010Prop42
 90
       50
102
RTVSPost2010PropOp42
 70
     1
102
RTVSPost2010Prop43
 90
        3
102
RTVSPost2010PropOp43
 70
     1
102
RTVSPost2010Prop44ColorIndex
 90
        5
102
RTVSPost2010Prop44ColorRGB
 90
      255
102
RTVSPost2010PropOp44
 70
     1
102
RTVSPost2010Prop45
280
     0
102
RTVSPost2010PropOp45
 70
     1
102
RTVSPost2010Prop46
 90
       50
102
RTVSPost2010PropOp46
 70
     1
102
RTVSPost2010Prop47
 90
       50
102
RTVSPost2010PropOp47
 70
     1
102
RTVSPost2010Prop48
 90
       50
102
RTVSPost2010PropOp48
 70
     1
102
RTVSPost2010Prop49
280
     0
102
RTVSPost2010PropOp49
 70
     1
102
RTVSPost2010Prop50
 90
       50
102
RTVSPost2010PropOp50
 70
     1
102
RTVSPost2010Prop51ColorIndex
 90
      256
102
RTVSPost2010Prop51ColorRGB
 90
-16777216
102
RTVSPost2010PropOp51
 70
     0
102
RTVSPost2010Prop52
140
1.0
102
RTVSPost2010PropOp52
 70
     0
102
RTVSPost2010Prop53
 90
        2
102
RTVSPost2010PropOp53
 70
     1
102
RTVSPost2010Prop54
  1
strokes_ogs.tif
102
RTVSPost2010PropOp54
 70
     1
102
RTVSPost2010Prop55
280
     0
102
RTVSPost2010PropOp55
 70
     1
102
RTVSPost2010Prop56
140
1.0
102
RTVSPost2010PropOp56
 70
     1
102
RTVSPost2010Prop57
140
1.0
102
RTVSPost2010PropOp57
 70
     1
  0
XRECORD
  5
1AF
102
{ACAD_REACTORS
330
1AE
102
}
330
1AE
100
AcDbXrecord
280
     1
102
RTVSPost2010Prop28
280
     0
102
RTVSPost2010PropOp28
 70
     1
102
RTVSPost2010Prop29
280
     1
102
RTVSPost2010PropOp29
 70
     1
102
RTVSPost2010Prop30
280
     1
102
RTVSPost2010PropOp30
 70
     1
102
RTVSPost2010Prop31
280
     0
102
RTVSPost2010PropOp31
 70
     1
102
RTVSPost2010Prop32
280
     0
102
RTVSPost2010PropOp32
 70
     1
102
RTVSPost2010Prop33
280
     0
102
RTVSPost2010PropOp33
 70
     1
102
RTVSPost2010Prop34
280
     0
102
RTVSPost2010PropOp34
 70
     1
102
RTVSPost2010Prop35
280
     0
102
RTVSPost2010PropOp35
 70
     1
102
RTVSPost2010Prop36
280
     0
102
RTVSPost2010PropOp36
 70
     1
102
RTVSPost2010Prop37
 90
       50
102
RTVSPost2010PropOp37
 70
     1
102
RTVSPost2010Prop38
140
0.0
102
RTVSPost2010PropOp38
 70
     1
102
RTVSPost2010Prop39
140
1.0
102
RTVSPost2010PropOp39
 70
     1
102
RTVSPost2010Prop40
 90
        0
102
RTVSPost2010PropOp40
 70
     1
102
RTVSPost2010Prop41ColorIndex
 90
       18
102
RTVSPost2010Prop41ColorRGB
 90
        0
102
RTVSPost2010PropOp41
 70
     1
102
RTVSPost2010Prop42
 90
       50
102
RTVSPost2010PropOp42
 70
     1
102
RTVSPost2010Prop43
 90
        3
102
RTVSPost2010PropOp43
 70
     1
102
RTVSPost2010Prop44ColorIndex
 90
        5
102
RTVSPost2010Prop44ColorRGB
 90
      255
102
RTVSPost2010PropOp44
 70
     1
102
RTVSPost2010Prop45
280
     0
102
RTVSPost2010PropOp45
 70
     1
102
RTVSPost2010Prop46
 90
       50
102
RTVSPost2010PropOp46
 70
     1
102
RTVSPost2010Prop47
 90
       50
102
RTVSPost2010PropOp47
 70
     1
102
RTVSPost2010Prop48
 90
       50
102
RTVSPost2010PropOp48
 70
     1
102
RTVSPost2010Prop49
280
     0
102
RTVSPost2010PropOp49
 70
     1
102
RTVSPost2010Prop50
 90
       50
102
RTVSPost2010PropOp50
 70
     1
102
RTVSPost2010Prop51ColorIndex
 90
      256
102
RTVSPost2010Prop51ColorRGB
 90
-16777216
102
RTVSPost2010PropOp51
 70
     0
102
RTVSPost2010Prop52
140
1.0
102
RTVSPost2010PropOp52
 70
     0
102
RTVSPost2010Prop53
 90
        2
102
RTVSPost2010PropOp53
 70
     1
102
RTVSPost2010Prop54
  1
strokes_ogs.tif
102
RTVSPost2010PropOp54
 70
     1
102
RTVSPost2010Prop55
280
     0
102
RTVSPost2010PropOp55
 70
     1
102
RTVSPost2010Prop56
140
1.0
102
RTVSPost2010PropOp56
 70
     1
102
RTVSPost2010Prop57
140
1.0
102
RTVSPost2010PropOp57
 70
     1
  0
XRECORD
  5
1B5
102
{ACAD_REACTORS
330
1B4
102
}
330
1B4
100
AcDbXrecord
280
     1
102
RTVSPost2010Prop28
280
     0
102
RTVSPost2010PropOp28
 70
     1
102
RTVSPost2010Prop29
280
     1
102
RTVSPost2010PropOp29
 70
     1
102
RTVSPost2010Prop30
280
     1
102
RTVSPost2010PropOp30
 70
     1
102
RTVSPost2010Prop31
280
     0
102
RTVSPost2010PropOp31
 70
     1
102
RTVSPost2010Prop32
280
     0
102
RTVSPost2010PropOp32
 70
     1
102
RTVSPost2010Prop33
280
     0
102
RTVSPost2010PropOp33
 70
     1
102
RTVSPost2010Prop34
280
     0
102
RTVSPost2010PropOp34
 70
     1
102
RTVSPost2010Prop35
280
     0
102
RTVSPost2010PropOp35
 70
     1
102
RTVSPost2010Prop36
280
     0
102
RTVSPost2010PropOp36
 70
     1
102
RTVSPost2010Prop37
 90
       50
102
RTVSPost2010PropOp37
 70
     1
102
RTVSPost2010Prop38
140
0.0
102
RTVSPost2010PropOp38
 70
     1
102
RTVSPost2010Prop39
140
1.0
102
RTVSPost2010PropOp39
 70
     1
102
RTVSPost2010Prop40
 90
        0
102
RTVSPost2010PropOp40
 70
     1
102
RTVSPost2010Prop41ColorIndex
 90
       18
102
RTVSPost2010Prop41ColorRGB
 90
        0
102
RTVSPost2010PropOp41
 70
     1
102
RTVSPost2010Prop42
 90
       50
102
RTVSPost2010PropOp42
 70
     1
102
RTVSPost2010Prop43
 90
        3
102
RTVSPost2010PropOp43
 70
     1
102
RTVSPost2010Prop44ColorIndex
 90
        5
102
RTVSPost2010Prop44ColorRGB
 90
      255
102
RTVSPost2010PropOp44
 70
     1
102
RTVSPost2010Prop45
280
     0
102
RTVSPost2010PropOp45
 70
     1
102
RTVSPost2010Prop46
 90
       50
102
RTVSPost2010PropOp46
 70
     1
102
RTVSPost2010Prop47
 90
       50
102
RTVSPost2010PropOp47
 70
     1
102
RTVSPost2010Prop48
 90
       50
102
RTVSPost2010PropOp48
 70
     1
102
RTVSPost2010Prop49
280
     0
102
RTVSPost2010PropOp49
 70
     1
102
RTVSPost2010Prop50
 90
       50
102
RTVSPost2010PropOp50
 70
     1
102
RTVSPost2010Prop51ColorIndex
 90
      256
102
RTVSPost2010Prop51ColorRGB
 90
-16777216
102
RTVSPost2010PropOp51
 70
     0
102
RTVSPost2010Prop52
140
1.0
102
RTVSPost2010PropOp52
 70
     0
102
RTVSPost2010Prop53
 90
        2
102
RTVSPost2010PropOp53
 70
     1
102
RTVSPost2010Prop54
  1
strokes_ogs.tif
102
RTVSPost2010PropOp54
 70
     1
102
RTVSPost2010Prop55
280
     0
102
RTVSPost2010PropOp55
 70
     1
102
RTVSPost2010Prop56
140
1.0
102
RTVSPost2010PropOp56
 70
     1
102
RTVSPost2010Prop57
140
1.0
102
RTVSPost2010PropOp57
 70
     1
  0
XRECORD
  5
1C9
102
{ACAD_REACTORS
330
1C8
102
}
330
1C8
100
AcDbXrecord
280
     1
102
RTVSPost2010Prop28
280
     0
102
RTVSPost2010PropOp28
 70
     0
102
RTVSPost2010Prop29
280
     1
102
RTVSPost2010PropOp29
 70
     0
102
RTVSPost2010Prop30
280
     1
102
RTVSPost2010PropOp30
 70
     0
102
RTVSPost2010Prop31
280
     0
102
RTVSPost2010PropOp31
 70
     0
102
RTVSPost2010Prop32
280
     0
102
RTVSPost2010PropOp32
 70
     0
102
RTVSPost2010Prop33
280
     0
102
RTVSPost2010PropOp33
 70
     0
102
RTVSPost2010Prop34
280
     0
102
RTVSPost2010PropOp34
 70
     0
102
RTVSPost2010Prop35
280
     0
102
RTVSPost2010PropOp35
 70
     0
102
RTVSPost2010Prop36
280
     0
102
RTVSPost2010PropOp36
 70
     0
102
RTVSPost2010Prop37
 90
       50
102
RTVSPost2010PropOp37
 70
     0
102
RTVSPost2010Prop38
140
0.0
102
RTVSPost2010PropOp38
 70
     0
102
RTVSPost2010Prop39
140
1.0
102
RTVSPost2010PropOp39
 70
     0
102
RTVSPost2010Prop40
 90
        0
102
RTVSPost2010PropOp40
 70
     0
102
RTVSPost2010Prop41ColorIndex
 90
       18
102
RTVSPost2010Prop41ColorRGB
 90
        0
102
RTVSPost2010PropOp41
 70
     0
102
RTVSPost2010Prop42
 90
       50
102
RTVSPost2010PropOp42
 70
     0
102
RTVSPost2010Prop43
 90
        3
102
RTVSPost2010PropOp43
 70
     0
102
RTVSPost2010Prop44ColorIndex
 90
        5
102
RTVSPost2010Prop44ColorRGB
 90
      255
102
RTVSPost2010PropOp44
 70
     0
102
RTVSPost2010Prop45
280
     0
102
RTVSPost2010PropOp45
 70
     0
102
RTVSPost2010Prop46
 90
       50
102
RTVSPost2010PropOp46
 70
     0
102
RTVSPost2010Prop47
 90
       50
102
RTVSPost2010PropOp47
 70
     0
102
RTVSPost2010Prop48
 90
       50
102
RTVSPost2010PropOp48
 70
     0
102
RTVSPost2010Prop49
280
     0
102
RTVSPost2010PropOp49
 70
     0
102
RTVSPost2010Prop50
 90
       50
102
RTVSPost2010PropOp50
 70
     0
102
RTVSPost2010Prop51ColorIndex
 90
      256
102
RTVSPost2010Prop51ColorRGB
 90
-16777216
102
RTVSPost2010PropOp51
 70
     0
102
RTVSPost2010Prop52
140
1.0
102
RTVSPost2010PropOp52
 70
     0
102
RTVSPost2010Prop53
 90
        2
102
RTVSPost2010PropOp53
 70
     0
102
RTVSPost2010Prop54
  1
strokes_ogs.tif
102
RTVSPost2010PropOp54
 70
     0
102
RTVSPost2010Prop55
280
     0
102
RTVSPost2010PropOp55
 70
     0
102
RTVSPost2010Prop56
140
1.0
102
RTVSPost2010PropOp56
 70
     0
102
RTVSPost2010Prop57
140
1.0
102
RTVSPost2010PropOp57
 70
     0
  0
XRECORD
  5
1C3
102
{ACAD_REACTORS
330
1C2
102
}
330
1C2
100
AcDbXrecord
280
     1
102
RTVSPost2010Prop28
280
     0
102
RTVSPost2010PropOp28
 70
     1
102
RTVSPost2010Prop29
280
     1
102
RTVSPost2010PropOp29
 70
     1
102
RTVSPost2010Prop30
280
     1
102
RTVSPost2010PropOp30
 70
     1
102
RTVSPost2010Prop31
280
     0
102
RTVSPost2010PropOp31
 70
     1
102
RTVSPost2010Prop32
280
     0
102
RTVSPost2010PropOp32
 70
     1
102
RTVSPost2010Prop33
280
     0
102
RTVSPost2010PropOp33
 70
     1
102
RTVSPost2010Prop34
280
     0
102
RTVSPost2010PropOp34
 70
     1
102
RTVSPost2010Prop35
280
     0
102
RTVSPost2010PropOp35
 70
     1
102
RTVSPost2010Prop36
280
     0
102
RTVSPost2010PropOp36
 70
     1
102
RTVSPost2010Prop37
 90
       50
102
RTVSPost2010PropOp37
 70
     1
102
RTVSPost2010Prop38
140
0.0
102
RTVSPost2010PropOp38
 70
     1
102
RTVSPost2010Prop39
140
1.0
102
RTVSPost2010PropOp39
 70
     1
102
RTVSPost2010Prop40
 90
        0
102
RTVSPost2010PropOp40
 70
     1
102
RTVSPost2010Prop41ColorIndex
 90
       18
102
RTVSPost2010Prop41ColorRGB
 90
        0
102
RTVSPost2010PropOp41
 70
     1
102
RTVSPost2010Prop42
 90
       50
102
RTVSPost2010PropOp42
 70
     1
102
RTVSPost2010Prop43
 90
        3
102
RTVSPost2010PropOp43
 70
     1
102
RTVSPost2010Prop44ColorIndex
 90
        5
102
RTVSPost2010Prop44ColorRGB
 90
      255
102
RTVSPost2010PropOp44
 70
     1
102
RTVSPost2010Prop45
280
     0
102
RTVSPost2010PropOp45
 70
     1
102
RTVSPost2010Prop46
 90
       50
102
RTVSPost2010PropOp46
 70
     1
102
RTVSPost2010Prop47
 90
       50
102
RTVSPost2010PropOp47
 70
     1
102
RTVSPost2010Prop48
 90
       50
102
RTVSPost2010PropOp48
 70
     1
102
RTVSPost2010Prop49
280
     0
102
RTVSPost2010PropOp49
 70
     1
102
RTVSPost2010Prop50
 90
       50
102
RTVSPost2010PropOp50
 70
     1
102
RTVSPost2010Prop51ColorIndex
 90
      256
102
RTVSPost2010Prop51ColorRGB
 90
-16777216
102
RTVSPost2010PropOp51
 70
     0
102
RTVSPost2010Prop52
140
1.0
102
RTVSPost2010PropOp52
 70
     0
102
RTVSPost2010Prop53
 90
        2
102
RTVSPost2010PropOp53
 70
     1
102
RTVSPost2010Prop54
  1
strokes_ogs.tif
102
RTVSPost2010PropOp54
 70
     1
102
RTVSPost2010Prop55
280
     0
102
RTVSPost2010PropOp55
 70
     1
102
RTVSPost2010Prop56
140
1.0
102
RTVSPost2010PropOp56
 70
     1
102
RTVSPost2010Prop57
140
1.0
102
RTVSPost2010PropOp57
 70
     1
  0
XRECORD
  5
1CB
102
{ACAD_REACTORS
330
1CA
102
}
330
1CA
100
AcDbXrecord
280
     1
102
RTVSPost2010Prop28
280
     0
102
RTVSPost2010PropOp28
 70
     0
102
RTVSPost2010Prop29
280
     1
102
RTVSPost2010PropOp29
 70
     0
102
RTVSPost2010Prop30
280
     1
102
RTVSPost2010PropOp30
 70
     0
102
RTVSPost2010Prop31
280
     0
102
RTVSPost2010PropOp31
 70
     0
102
RTVSPost2010Prop32
280
     0
102
RTVSPost2010PropOp32
 70
     0
102
RTVSPost2010Prop33
280
     0
102
RTVSPost2010PropOp33
 70
     0
102
RTVSPost2010Prop34
280
     0
102
RTVSPost2010PropOp34
 70
     0
102
RTVSPost2010Prop35
280
     0
102
RTVSPost2010PropOp35
 70
     0
102
RTVSPost2010Prop36
280
     0
102
RTVSPost2010PropOp36
 70
     0
102
RTVSPost2010Prop37
 90
       50
102
RTVSPost2010PropOp37
 70
     0
102
RTVSPost2010Prop38
140
0.0
102
RTVSPost2010PropOp38
 70
     0
102
RTVSPost2010Prop39
140
1.0
102
RTVSPost2010PropOp39
 70
     0
102
RTVSPost2010Prop40
 90
        0
102
RTVSPost2010PropOp40
 70
     0
102
RTVSPost2010Prop41ColorIndex
 90
       18
102
RTVSPost2010Prop41ColorRGB
 90
        0
102
RTVSPost2010PropOp41
 70
     0
102
RTVSPost2010Prop42
 90
       50
102
RTVSPost2010PropOp42
 70
     0
102
RTVSPost2010Prop43
 90
        3
102
RTVSPost2010PropOp43
 70
     0
102
RTVSPost2010Prop44ColorIndex
 90
        5
102
RTVSPost2010Prop44ColorRGB
 90
      255
102
RTVSPost2010PropOp44
 70
     0
102
RTVSPost2010Prop45
280
     0
102
RTVSPost2010PropOp45
 70
     0
102
RTVSPost2010Prop46
 90
       50
102
RTVSPost2010PropOp46
 70
     0
102
RTVSPost2010Prop47
 90
       50
102
RTVSPost2010PropOp47
 70
     0
102
RTVSPost2010Prop48
 90
       50
102
RTVSPost2010PropOp48
 70
     0
102
RTVSPost2010Prop49
280
     0
102
RTVSPost2010PropOp49
 70
     0
102
RTVSPost2010Prop50
 90
       50
102
RTVSPost2010PropOp50
 70
     0
102
RTVSPost2010Prop51ColorIndex
 90
      256
102
RTVSPost2010Prop51ColorRGB
 90
-16777216
102
RTVSPost2010PropOp51
 70
     0
102
RTVSPost2010Prop52
140
1.0
102
RTVSPost2010PropOp52
 70
     0
102
RTVSPost2010Prop53
 90
        2
102
RTVSPost2010PropOp53
 70
     0
102
RTVSPost2010Prop54
  1
strokes_ogs.tif
102
RTVSPost2010PropOp54
 70
     0
102
RTVSPost2010Prop55
280
     0
102
RTVSPost2010PropOp55
 70
     0
102
RTVSPost2010Prop56
140
1.0
102
RTVSPost2010PropOp56
 70
     0
102
RTVSPost2010Prop57
140
1.0
102
RTVSPost2010PropOp57
 70
     0
  0
XRECORD
  5
1B9
102
{ACAD_REACTORS
330
1B8
102
}
330
1B8
100
AcDbXrecord
280
     1
102
RTVSPost2010Prop28
280
     0
102
RTVSPost2010PropOp28
 70
     1
102
RTVSPost2010Prop29
280
     1
102
RTVSPost2010PropOp29
 70
     1
102
RTVSPost2010Prop30
280
     1
102
RTVSPost2010PropOp30
 70
     1
102
RTVSPost2010Prop31
280
     0
102
RTVSPost2010PropOp31
 70
     1
102
RTVSPost2010Prop32
280
     0
102
RTVSPost2010PropOp32
 70
     1
102
RTVSPost2010Prop33
280
     0
102
RTVSPost2010PropOp33
 70
     1
102
RTVSPost2010Prop34
280
     0
102
RTVSPost2010PropOp34
 70
     1
102
RTVSPost2010Prop35
280
     0
102
RTVSPost2010PropOp35
 70
     1
102
RTVSPost2010Prop36
280
     0
102
RTVSPost2010PropOp36
 70
     1
102
RTVSPost2010Prop37
 90
       50
102
RTVSPost2010PropOp37
 70
     1
102
RTVSPost2010Prop38
140
0.0
102
RTVSPost2010PropOp38
 70
     1
102
RTVSPost2010Prop39
140
1.0
102
RTVSPost2010PropOp39
 70
     1
102
RTVSPost2010Prop40
 90
        0
102
RTVSPost2010PropOp40
 70
     1
102
RTVSPost2010Prop41ColorIndex
 90
       18
102
RTVSPost2010Prop41ColorRGB
 90
        0
102
RTVSPost2010PropOp41
 70
     1
102
RTVSPost2010Prop42
 90
       50
102
RTVSPost2010PropOp42
 70
     1
102
RTVSPost2010Prop43
 90
        3
102
RTVSPost2010PropOp43
 70
     1
102
RTVSPost2010Prop44ColorIndex
 90
        5
102
RTVSPost2010Prop44ColorRGB
 90
      255
102
RTVSPost2010PropOp44
 70
     1
102
RTVSPost2010Prop45
280
     0
102
RTVSPost2010PropOp45
 70
     1
102
RTVSPost2010Prop46
 90
       50
102
RTVSPost2010PropOp46
 70
     1
102
RTVSPost2010Prop47
 90
       50
102
RTVSPost2010PropOp47
 70
     1
102
RTVSPost2010Prop48
 90
       50
102
RTVSPost2010PropOp48
 70
     1
102
RTVSPost2010Prop49
280
     0
102
RTVSPost2010PropOp49
 70
     1
102
RTVSPost2010Prop50
 90
       50
102
RTVSPost2010PropOp50
 70
     1
102
RTVSPost2010Prop51ColorIndex
 90
      256
102
RTVSPost2010Prop51ColorRGB
 90
-16777216
102
RTVSPost2010PropOp51
 70
     0
102
RTVSPost2010Prop52
140
1.0
102
RTVSPost2010PropOp52
 70
     0
102
RTVSPost2010Prop53
 90
        2
102
RTVSPost2010PropOp53
 70
     1
102
RTVSPost2010Prop54
  1
strokes_ogs.tif
102
RTVSPost2010PropOp54
 70
     1
102
RTVSPost2010Prop55
280
     0
102
RTVSPost2010PropOp55
 70
     1
102
RTVSPost2010Prop56
140
1.0
102
RTVSPost2010PropOp56
 70
     1
102
RTVSPost2010Prop57
140
1.0
102
RTVSPost2010PropOp57
 70
     1
  0
XRECORD
  5
1D7
102
{ACAD_REACTORS
330
1D6
102
}
330
1D6
100
AcDbXrecord
280
     1
102
RTVSPost2010Prop28
280
     0
102
RTVSPost2010PropOp28
 70
     1
102
RTVSPost2010Prop29
280
     1
102
RTVSPost2010PropOp29
 70
     1
102
RTVSPost2010Prop30
280
     1
102
RTVSPost2010PropOp30
 70
     1
102
RTVSPost2010Prop31
280
     0
102
RTVSPost2010PropOp31
 70
     1
102
RTVSPost2010Prop32
280
     0
102
RTVSPost2010PropOp32
 70
     1
102
RTVSPost2010Prop33
280
     0
102
RTVSPost2010PropOp33
 70
     1
102
RTVSPost2010Prop34
280
     0
102
RTVSPost2010PropOp34
 70
     1
102
RTVSPost2010Prop35
280
     0
102
RTVSPost2010PropOp35
 70
     1
102
RTVSPost2010Prop36
280
     0
102
RTVSPost2010PropOp36
 70
     1
102
RTVSPost2010Prop37
 90
       50
102
RTVSPost2010PropOp37
 70
     1
102
RTVSPost2010Prop38
140
0.0
102
RTVSPost2010PropOp38
 70
     1
102
RTVSPost2010Prop39
140
1.0
102
RTVSPost2010PropOp39
 70
     1
102
RTVSPost2010Prop40
 90
        0
102
RTVSPost2010PropOp40
 70
     1
102
RTVSPost2010Prop41ColorIndex
 90
       18
102
RTVSPost2010Prop41ColorRGB
 90
        0
102
RTVSPost2010PropOp41
 70
     1
102
RTVSPost2010Prop42
 90
       50
102
RTVSPost2010PropOp42
 70
     1
102
RTVSPost2010Prop43
 90
        3
102
RTVSPost2010PropOp43
 70
     1
102
RTVSPost2010Prop44ColorIndex
 90
        5
102
RTVSPost2010Prop44ColorRGB
 90
      255
102
RTVSPost2010PropOp44
 70
     1
102
RTVSPost2010Prop45
280
     0
102
RTVSPost2010PropOp45
 70
     1
102
RTVSPost2010Prop46
 90
       50
102
RTVSPost2010PropOp46
 70
     1
102
RTVSPost2010Prop47
 90
       50
102
RTVSPost2010PropOp47
 70
     1
102
RTVSPost2010Prop48
 90
       50
102
RTVSPost2010PropOp48
 70
     1
102
RTVSPost2010Prop49
280
     0
102
RTVSPost2010PropOp49
 70
     1
102
RTVSPost2010Prop50
 90
       50
102
RTVSPost2010PropOp50
 70
     1
102
RTVSPost2010Prop51ColorIndex
 90
      256
102
RTVSPost2010Prop51ColorRGB
 90
-16777216
102
RTVSPost2010PropOp51
 70
     0
102
RTVSPost2010Prop52
140
1.0
102
RTVSPost2010PropOp52
 70
     0
102
RTVSPost2010Prop53
 90
        2
102
RTVSPost2010PropOp53
 70
     1
102
RTVSPost2010Prop54
  1
strokes_ogs.tif
102
RTVSPost2010PropOp54
 70
     1
102
RTVSPost2010Prop55
280
     0
102
RTVSPost2010PropOp55
 70
     1
102
RTVSPost2010Prop56
140
1.0
102
RTVSPost2010PropOp56
 70
     1
102
RTVSPost2010Prop57
140
1.0
102
RTVSPost2010PropOp57
 70
     1
  0
XRECORD
  5
1D5
102
{ACAD_REACTORS
330
1D4
102
}
330
1D4
100
AcDbXrecord
280
     1
102
RTVSPost2010Prop28
280
     0
102
RTVSPost2010PropOp28
 70
     1
102
RTVSPost2010Prop29
280
     1
102
RTVSPost2010PropOp29
 70
     1
102
RTVSPost2010Prop30
280
     1
102
RTVSPost2010PropOp30
 70
     1
102
RTVSPost2010Prop31
280
     0
102
RTVSPost2010PropOp31
 70
     1
102
RTVSPost2010Prop32
280
     0
102
RTVSPost2010PropOp32
 70
     1
102
RTVSPost2010Prop33
280
     0
102
RTVSPost2010PropOp33
 70
     1
102
RTVSPost2010Prop34
280
     0
102
RTVSPost2010PropOp34
 70
     1
102
RTVSPost2010Prop35
280
     0
102
RTVSPost2010PropOp35
 70
     1
102
RTVSPost2010Prop36
280
     0
102
RTVSPost2010PropOp36
 70
     1
102
RTVSPost2010Prop37
 90
       50
102
RTVSPost2010PropOp37
 70
     1
102
RTVSPost2010Prop38
140
0.0
102
RTVSPost2010PropOp38
 70
     1
102
RTVSPost2010Prop39
140
1.0
102
RTVSPost2010PropOp39
 70
     1
102
RTVSPost2010Prop40
 90
        0
102
RTVSPost2010PropOp40
 70
     1
102
RTVSPost2010Prop41ColorIndex
 90
       18
102
RTVSPost2010Prop41ColorRGB
 90
        0
102
RTVSPost2010PropOp41
 70
     1
102
RTVSPost2010Prop42
 90
       50
102
RTVSPost2010PropOp42
 70
     1
102
RTVSPost2010Prop43
 90
        3
102
RTVSPost2010PropOp43
 70
     1
102
RTVSPost2010Prop44ColorIndex
 90
        5
102
RTVSPost2010Prop44ColorRGB
 90
      255
102
RTVSPost2010PropOp44
 70
     1
102
RTVSPost2010Prop45
280
     0
102
RTVSPost2010PropOp45
 70
     1
102
RTVSPost2010Prop46
 90
       50
102
RTVSPost2010PropOp46
 70
     1
102
RTVSPost2010Prop47
 90
       50
102
RTVSPost2010PropOp47
 70
     1
102
RTVSPost2010Prop48
 90
       50
102
RTVSPost2010PropOp48
 70
     1
102
RTVSPost2010Prop49
280
     0
102
RTVSPost2010PropOp49
 70
     1
102
RTVSPost2010Prop50
 90
       50
102
RTVSPost2010PropOp50
 70
     1
102
RTVSPost2010Prop51ColorIndex
 90
      256
102
RTVSPost2010Prop51ColorRGB
 90
-16777216
102
RTVSPost2010PropOp51
 70
     0
102
RTVSPost2010Prop52
140
1.0
102
RTVSPost2010PropOp52
 70
     0
102
RTVSPost2010Prop53
 90
        2
102
RTVSPost2010PropOp53
 70
     1
102
RTVSPost2010Prop54
  1
strokes_ogs.tif
102
RTVSPost2010PropOp54
 70
     1
102
RTVSPost2010Prop55
280
     0
102
RTVSPost2010PropOp55
 70
     1
102
RTVSPost2010Prop56
140
1.0
102
RTVSPost2010PropOp56
 70
     1
102
RTVSPost2010Prop57
140
1.0
102
RTVSPost2010PropOp57
 70
     1
  0
XRECORD
  5
1CF
102
{ACAD_REACTORS
330
1CE
102
}
330
1CE
100
AcDbXrecord
280
     1
102
RTVSPost2010Prop28
280
     0
102
RTVSPost2010PropOp28
 70
     1
102
RTVSPost2010Prop29
280
     1
102
RTVSPost2010PropOp29
 70
     1
102
RTVSPost2010Prop30
280
     1
102
RTVSPost2010PropOp30
 70
     1
102
RTVSPost2010Prop31
280
     0
102
RTVSPost2010PropOp31
 70
     1
102
RTVSPost2010Prop32
280
     0
102
RTVSPost2010PropOp32
 70
     1
102
RTVSPost2010Prop33
280
     0
102
RTVSPost2010PropOp33
 70
     1
102
RTVSPost2010Prop34
280
     0
102
RTVSPost2010PropOp34
 70
     1
102
RTVSPost2010Prop35
280
     0
102
RTVSPost2010PropOp35
 70
     1
102
RTVSPost2010Prop36
280
     0
102
RTVSPost2010PropOp36
 70
     1
102
RTVSPost2010Prop37
 90
       50
102
RTVSPost2010PropOp37
 70
     1
102
RTVSPost2010Prop38
140
0.0
102
RTVSPost2010PropOp38
 70
     1
102
RTVSPost2010Prop39
140
1.0
102
RTVSPost2010PropOp39
 70
     1
102
RTVSPost2010Prop40
 90
        0
102
RTVSPost2010PropOp40
 70
     1
102
RTVSPost2010Prop41ColorIndex
 90
       18
102
RTVSPost2010Prop41ColorRGB
 90
        0
102
RTVSPost2010PropOp41
 70
     1
102
RTVSPost2010Prop42
 90
       50
102
RTVSPost2010PropOp42
 70
     1
102
RTVSPost2010Prop43
 90
        3
102
RTVSPost2010PropOp43
 70
     1
102
RTVSPost2010Prop44ColorIndex
 90
        5
102
RTVSPost2010Prop44ColorRGB
 90
      255
102
RTVSPost2010PropOp44
 70
     1
102
RTVSPost2010Prop45
280
     0
102
RTVSPost2010PropOp45
 70
     1
102
RTVSPost2010Prop46
 90
       50
102
RTVSPost2010PropOp46
 70
     1
102
RTVSPost2010Prop47
 90
       50
102
RTVSPost2010PropOp47
 70
     1
102
RTVSPost2010Prop48
 90
       50
102
RTVSPost2010PropOp48
 70
     1
102
RTVSPost2010Prop49
280
     0
102
RTVSPost2010PropOp49
 70
     1
102
RTVSPost2010Prop50
 90
       50
102
RTVSPost2010PropOp50
 70
     1
102
RTVSPost2010Prop51ColorIndex
 90
      256
102
RTVSPost2010Prop51ColorRGB
 90
-16777216
102
RTVSPost2010PropOp51
 70
     0
102
RTVSPost2010Prop52
140
1.0
102
RTVSPost2010PropOp52
 70
     0
102
RTVSPost2010Prop53
 90
        2
102
RTVSPost2010PropOp53
 70
     1
102
RTVSPost2010Prop54
  1
strokes_ogs.tif
102
RTVSPost2010PropOp54
 70
     1
102
RTVSPost2010Prop55
280
     0
102
RTVSPost2010PropOp55
 70
     1
102
RTVSPost2010Prop56
140
1.0
102
RTVSPost2010PropOp56
 70
     1
102
RTVSPost2010Prop57
140
1.0
102
RTVSPost2010PropOp57
 70
     1
  0
XRECORD
  5
1D1
102
{ACAD_REACTORS
330
1D0
102
}
330
1D0
100
AcDbXrecord
280
     1
102
RTVSPost2010Prop28
280
     0
102
RTVSPost2010PropOp28
 70
     1
102
RTVSPost2010Prop29
280
     1
102
RTVSPost2010PropOp29
 70
     1
102
RTVSPost2010Prop30
280
     1
102
RTVSPost2010PropOp30
 70
     1
102
RTVSPost2010Prop31
280
     0
102
RTVSPost2010PropOp31
 70
     1
102
RTVSPost2010Prop32
280
     0
102
RTVSPost2010PropOp32
 70
     1
102
RTVSPost2010Prop33
280
     0
102
RTVSPost2010PropOp33
 70
     1
102
RTVSPost2010Prop34
280
     0
102
RTVSPost2010PropOp34
 70
     1
102
RTVSPost2010Prop35
280
     0
102
RTVSPost2010PropOp35
 70
     1
102
RTVSPost2010Prop36
280
     0
102
RTVSPost2010PropOp36
 70
     1
102
RTVSPost2010Prop37
 90
       50
102
RTVSPost2010PropOp37
 70
     1
102
RTVSPost2010Prop38
140
0.0
102
RTVSPost2010PropOp38
 70
     1
102
RTVSPost2010Prop39
140
1.0
102
RTVSPost2010PropOp39
 70
     1
102
RTVSPost2010Prop40
 90
        0
102
RTVSPost2010PropOp40
 70
     1
102
RTVSPost2010Prop41ColorIndex
 90
       18
102
RTVSPost2010Prop41ColorRGB
 90
        0
102
RTVSPost2010PropOp41
 70
     1
102
RTVSPost2010Prop42
 90
       50
102
RTVSPost2010PropOp42
 70
     1
102
RTVSPost2010Prop43
 90
        3
102
RTVSPost2010PropOp43
 70
     1
102
RTVSPost2010Prop44ColorIndex
 90
        5
102
RTVSPost2010Prop44ColorRGB
 90
      255
102
RTVSPost2010PropOp44
 70
     1
102
RTVSPost2010Prop45
280
     0
102
RTVSPost2010PropOp45
 70
     1
102
RTVSPost2010Prop46
 90
       50
102
RTVSPost2010PropOp46
 70
     1
102
RTVSPost2010Prop47
 90
       50
102
RTVSPost2010PropOp47
 70
     1
102
RTVSPost2010Prop48
 90
       50
102
RTVSPost2010PropOp48
 70
     1
102
RTVSPost2010Prop49
280
     0
102
RTVSPost2010PropOp49
 70
     1
102
RTVSPost2010Prop50
 90
       50
102
RTVSPost2010PropOp50
 70
     1
102
RTVSPost2010Prop51ColorIndex
 90
      256
102
RTVSPost2010Prop51ColorRGB
 90
-16777216
102
RTVSPost2010PropOp51
 70
     0
102
RTVSPost2010Prop52
140
1.0
102
RTVSPost2010PropOp52
 70
     0
102
RTVSPost2010Prop53
 90
        2
102
RTVSPost2010PropOp53
 70
     1
102
RTVSPost2010Prop54
  1
strokes_ogs.tif
102
RTVSPost2010PropOp54
 70
     1
102
RTVSPost2010Prop55
280
     0
102
RTVSPost2010PropOp55
 70
     1
102
RTVSPost2010Prop56
140
1.0
102
RTVSPost2010PropOp56
 70
     1
102
RTVSPost2010Prop57
140
1.0
102
RTVSPost2010PropOp57
 70
     1
  0
XRECORD
  5
1C1
102
{ACAD_REACTORS
330
1C0
102
}
330
1C0
100
AcDbXrecord
280
     1
102
RTVSPost2010Prop28
280
     0
102
RTVSPost2010PropOp28
 70
     1
102
RTVSPost2010Prop29
280
     1
102
RTVSPost2010PropOp29
 70
     1
102
RTVSPost2010Prop30
280
     1
102
RTVSPost2010PropOp30
 70
     1
102
RTVSPost2010Prop31
280
     0
102
RTVSPost2010PropOp31
 70
     1
102
RTVSPost2010Prop32
280
     0
102
RTVSPost2010PropOp32
 70
     1
102
RTVSPost2010Prop33
280
     0
102
RTVSPost2010PropOp33
 70
     1
102
RTVSPost2010Prop34
280
     0
102
RTVSPost2010PropOp34
 70
     1
102
RTVSPost2010Prop35
280
     0
102
RTVSPost2010PropOp35
 70
     1
102
RTVSPost2010Prop36
280
     0
102
RTVSPost2010PropOp36
 70
     1
102
RTVSPost2010Prop37
 90
       50
102
RTVSPost2010PropOp37
 70
     1
102
RTVSPost2010Prop38
140
0.0
102
RTVSPost2010PropOp38
 70
     1
102
RTVSPost2010Prop39
140
1.0
102
RTVSPost2010PropOp39
 70
     1
102
RTVSPost2010Prop40
 90
        0
102
RTVSPost2010PropOp40
 70
     1
102
RTVSPost2010Prop41ColorIndex
 90
       18
102
RTVSPost2010Prop41ColorRGB
 90
        0
102
RTVSPost2010PropOp41
 70
     1
102
RTVSPost2010Prop42
 90
       50
102
RTVSPost2010PropOp42
 70
     1
102
RTVSPost2010Prop43
 90
        3
102
RTVSPost2010PropOp43
 70
     1
102
RTVSPost2010Prop44ColorIndex
 90
        5
102
RTVSPost2010Prop44ColorRGB
 90
      255
102
RTVSPost2010PropOp44
 70
     1
102
RTVSPost2010Prop45
280
     0
102
RTVSPost2010PropOp45
 70
     1
102
RTVSPost2010Prop46
 90
       50
102
RTVSPost2010PropOp46
 70
     1
102
RTVSPost2010Prop47
 90
       50
102
RTVSPost2010PropOp47
 70
     1
102
RTVSPost2010Prop48
 90
       50
102
RTVSPost2010PropOp48
 70
     1
102
RTVSPost2010Prop49
280
     0
102
RTVSPost2010PropOp49
 70
     1
102
RTVSPost2010Prop50
 90
       50
102
RTVSPost2010PropOp50
 70
     1
102
RTVSPost2010Prop51ColorIndex
 90
      256
102
RTVSPost2010Prop51ColorRGB
 90
-16777216
102
RTVSPost2010PropOp51
 70
     0
102
RTVSPost2010Prop52
140
1.0
102
RTVSPost2010PropOp52
 70
     0
102
RTVSPost2010Prop53
 90
        2
102
RTVSPost2010PropOp53
 70
     1
102
RTVSPost2010Prop54
  1
strokes_ogs.tif
102
RTVSPost2010PropOp54
 70
     1
102
RTVSPost2010Prop55
280
     0
102
RTVSPost2010PropOp55
 70
     1
102
RTVSPost2010Prop56
140
1.0
102
RTVSPost2010PropOp56
 70
     1
102
RTVSPost2010Prop57
140
1.0
102
RTVSPost2010PropOp57
 70
     1
  0
XRECORD
  5
1B3
102
{ACAD_REACTORS
330
1B2
102
}
330
1B2
100
AcDbXrecord
280
     1
102
RTVSPost2010Prop28
280
     0
102
RTVSPost2010PropOp28
 70
     1
102
RTVSPost2010Prop29
280
     1
102
RTVSPost2010PropOp29
 70
     1
102
RTVSPost2010Prop30
280
     1
102
RTVSPost2010PropOp30
 70
     1
102
RTVSPost2010Prop31
280
     0
102
RTVSPost2010PropOp31
 70
     1
102
RTVSPost2010Prop32
280
     0
102
RTVSPost2010PropOp32
 70
     1
102
RTVSPost2010Prop33
280
     0
102
RTVSPost2010PropOp33
 70
     1
102
RTVSPost2010Prop34
280
     0
102
RTVSPost2010PropOp34
 70
     1
102
RTVSPost2010Prop35
280
     0
102
RTVSPost2010PropOp35
 70
     1
102
RTVSPost2010Prop36
280
     0
102
RTVSPost2010PropOp36
 70
     1
102
RTVSPost2010Prop37
 90
       50
102
RTVSPost2010PropOp37
 70
     1
102
RTVSPost2010Prop38
140
0.0
102
RTVSPost2010PropOp38
 70
     1
102
RTVSPost2010Prop39
140
1.0
102
RTVSPost2010PropOp39
 70
     1
102
RTVSPost2010Prop40
 90
        0
102
RTVSPost2010PropOp40
 70
     1
102
RTVSPost2010Prop41ColorIndex
 90
       18
102
RTVSPost2010Prop41ColorRGB
 90
        0
102
RTVSPost2010PropOp41
 70
     1
102
RTVSPost2010Prop42
 90
       50
102
RTVSPost2010PropOp42
 70
     1
102
RTVSPost2010Prop43
 90
        3
102
RTVSPost2010PropOp43
 70
     1
102
RTVSPost2010Prop44ColorIndex
 90
        5
102
RTVSPost2010Prop44ColorRGB
 90
      255
102
RTVSPost2010PropOp44
 70
     1
102
RTVSPost2010Prop45
280
     0
102
RTVSPost2010PropOp45
 70
     1
102
RTVSPost2010Prop46
 90
       50
102
RTVSPost2010PropOp46
 70
     1
102
RTVSPost2010Prop47
 90
       50
102
RTVSPost2010PropOp47
 70
     1
102
RTVSPost2010Prop48
 90
       50
102
RTVSPost2010PropOp48
 70
     1
102
RTVSPost2010Prop49
280
     0
102
RTVSPost2010PropOp49
 70
     1
102
RTVSPost2010Prop50
 90
       50
102
RTVSPost2010PropOp50
 70
     1
102
RTVSPost2010Prop51ColorIndex
 90
      256
102
RTVSPost2010Prop51ColorRGB
 90
-16777216
102
RTVSPost2010PropOp51
 70
     0
102
RTVSPost2010Prop52
140
1.0
102
RTVSPost2010PropOp52
 70
     0
102
RTVSPost2010Prop53
 90
        2
102
RTVSPost2010PropOp53
 70
     1
102
RTVSPost2010Prop54
  1
strokes_ogs.tif
102
RTVSPost2010PropOp54
 70
     1
102
RTVSPost2010Prop55
280
     0
102
RTVSPost2010PropOp55
 70
     1
102
RTVSPost2010Prop56
140
1.0
102
RTVSPost2010PropOp56
 70
     1
102
RTVSPost2010Prop57
140
1.0
102
RTVSPost2010PropOp57
 70
     1
  0
XRECORD
  5
1D3
102
{ACAD_REACTORS
330
1D2
102
}
330
1D2
100
AcDbXrecord
280
     1
102
RTVSPost2010Prop28
280
     0
102
RTVSPost2010PropOp28
 70
     1
102
RTVSPost2010Prop29
280
     1
102
RTVSPost2010PropOp29
 70
     1
102
RTVSPost2010Prop30
280
     1
102
RTVSPost2010PropOp30
 70
     1
102
RTVSPost2010Prop31
280
     0
102
RTVSPost2010PropOp31
 70
     1
102
RTVSPost2010Prop32
280
     0
102
RTVSPost2010PropOp32
 70
     1
102
RTVSPost2010Prop33
280
     0
102
RTVSPost2010PropOp33
 70
     1
102
RTVSPost2010Prop34
280
     0
102
RTVSPost2010PropOp34
 70
     1
102
RTVSPost2010Prop35
280
     0
102
RTVSPost2010PropOp35
 70
     1
102
RTVSPost2010Prop36
280
     0
102
RTVSPost2010PropOp36
 70
     1
102
RTVSPost2010Prop37
 90
       50
102
RTVSPost2010PropOp37
 70
     1
102
RTVSPost2010Prop38
140
0.0
102
RTVSPost2010PropOp38
 70
     1
102
RTVSPost2010Prop39
140
1.0
102
RTVSPost2010PropOp39
 70
     1
102
RTVSPost2010Prop40
 90
        0
102
RTVSPost2010PropOp40
 70
     1
102
RTVSPost2010Prop41ColorIndex
 90
       18
102
RTVSPost2010Prop41ColorRGB
 90
        0
102
RTVSPost2010PropOp41
 70
     1
102
RTVSPost2010Prop42
 90
       50
102
RTVSPost2010PropOp42
 70
     1
102
RTVSPost2010Prop43
 90
        3
102
RTVSPost2010PropOp43
 70
     1
102
RTVSPost2010Prop44ColorIndex
 90
        5
102
RTVSPost2010Prop44ColorRGB
 90
      255
102
RTVSPost2010PropOp44
 70
     1
102
RTVSPost2010Prop45
280
     0
102
RTVSPost2010PropOp45
 70
     1
102
RTVSPost2010Prop46
 90
       50
102
RTVSPost2010PropOp46
 70
     1
102
RTVSPost2010Prop47
 90
       50
102
RTVSPost2010PropOp47
 70
     1
102
RTVSPost2010Prop48
 90
       50
102
RTVSPost2010PropOp48
 70
     1
102
RTVSPost2010Prop49
280
     0
102
RTVSPost2010PropOp49
 70
     1
102
RTVSPost2010Prop50
 90
       50
102
RTVSPost2010PropOp50
 70
     1
102
RTVSPost2010Prop51ColorIndex
 90
      256
102
RTVSPost2010Prop51ColorRGB
 90
-16777216
102
RTVSPost2010PropOp51
 70
     0
102
RTVSPost2010Prop52
140
1.0
102
RTVSPost2010PropOp52
 70
     0
102
RTVSPost2010Prop53
 90
        2
102
RTVSPost2010PropOp53
 70
     1
102
RTVSPost2010Prop54
  1
strokes_ogs.tif
102
RTVSPost2010PropOp54
 70
     1
102
RTVSPost2010Prop55
280
     0
102
RTVSPost2010PropOp55
 70
     1
102
RTVSPost2010Prop56
140
1.0
102
RTVSPost2010PropOp56
 70
     1
102
RTVSPost2010Prop57
140
1.0
102
RTVSPost2010PropOp57
 70
     1
  0
ENDSEC
  0
EOF
