  0
SECTION
  2
HEADER
  9
$ACADVER
  1
AC1024
  9
$ACADMAINTVER
 70
     6
  9
$DWGCODEPAGE
  3
ANSI_1252
  9
$INSBASE
 10
0.0
 20
0.0
 30
0.0
  9
$EXTMIN
 10
-0.0635
 20
4999.9365
 30
0.0
  9
$EXTMAX
 10
2500.0635
 20
6220.0635
 30
0.0
  9
$LIMMIN
 10
-0.0635
 20
4999.9365
  9
$LIMMAX
 10
2500.0635
 20
6220.0635
  9
$ORTHOMODE
 70
     0
  9
$REGENMODE
 70
     1
  9
$FILLMODE
 70
     1
  9
$QTEXTMODE
 70
     0
  9
$MIRRTEXT
 70
     1
  9
$LTSCALE
 40
1.0
  9
$ATTMODE
 70
     1
  9
$TEXTSIZE
 40
0.2
  9
$TRACEWID
 40
0.05
  9
$TEXTSTYLE
  7
STANDARD
  9
$CLAYER
  8
default
  9
$CELTYPE
  6
BYLAYER
  9
$CECOLOR
 62
   256
  9
$CELTSCALE
 40
1.0
  9
$DISPSILH
 70
     0
  9
$DIMSCALE
 40
1.0
  9
$DIMASZ
 40
0.18
  9
$DIMEXO
 40
0.0625
  9
$DIMDLI
 40
0.38
  9
$DIMRND
 40
0.0
  9
$DIMDLE
 40
0.0
  9
$DIMEXE
 40
0.18
  9
$DIMTP
 40
0.0
  9
$DIMTM
 40
0.0
  9
$DIMTXT
 40
0.18
  9
$DIMCEN
 40
0.09
  9
$DIMTSZ
 40
0.0
  9
$DIMTOL
 70
     0
  9
$DIMLIM
 70
     0
  9
$DIMTIH
 70
     1
  9
$DIMTOH
 70
     1
  9
$DIMSE1
 70
     0
  9
$DIMSE2
 70
     0
  9
$DIMTAD
 70
     0
  9
$DIMZIN
 70
     0
  9
$DIMBLK
  1

  9
$DIMASO
 70
     1
  9
$DIMSHO
 70
     1
  9
$DIMPOST
  1

  9
$DIMAPOST
  1

  9
$DIMALT
 70
     0
  9
$DIMALTD
 70
     2
  9
$DIMALTF
 40
25.4
  9
$DIMLFAC
 40
1.0
  9
$DIMTOFL
 70
     0
  9
$DIMTVP
 40
0.0
  9
$DIMTIX
 70
     0
  9
$DIMSOXD
 70
     0
  9
$DIMSAH
 70
     0
  9
$DIMBLK1
  1

  9
$DIMBLK2
  1

  9
$DIMSTYLE
  2
STANDARD
  9
$DIMCLRD
 70
     0
  9
$DIMCLRE
 70
     0
  9
$DIMCLRT
 70
     0
  9
$DIMTFAC
 40
1.0
  9
$DIMGAP
 40
0.09
  9
$DIMJUST
 70
     0
  9
$DIMSD1
 70
     0
  9
$DIMSD2
 70
     0
  9
$DIMTOLJ
 70
     1
  9
$DIMTZIN
 70
     0
  9
$DIMALTZ
 70
     0
  9
$DIMALTTZ
 70
     0
  9
$DIMUPT
 70
     0
  9
$DIMDEC
 70
     4
  9
$DIMTDEC
 70
     4
  9
$DIMALTU
 70
     2
  9
$DIMALTTD
 70
     2
  9
$DIMTXSTY
  7
STANDARD
  9
$DIMAUNIT
 70
     0
  9
$DIMADEC
 70
     0
  9
$DIMALTRND
 40
0.0
  9
$DIMAZIN
 70
     0
  9
$DIMDSEP
 70
    46
  9
$DIMATFIT
 70
     3
  9
$DIMFRAC
 70
     0
  9
$DIMLDRBLK
  1

  9
$DIMLUNIT
 70
     2
  9
$DIMLWD
 70
    -2
  9
$DIMLWE
 70
    -2
  9
$DIMTMOVE
 70
     2
  9
$DIMFXL
 40
1.0
  9
$DIMFXLON
 70
     0
  9
$DIMJOGANG
 40
0.7853981633974483
  9
$DIMTFILL
 70
     0
  9
$DIMTFILLCLR
 70
     0
  9
$DIMARCSYM
 70
     0
  9
$DIMLTYPE
  6

  9
$DIMLTEX1
  6

  9
$DIMLTEX2
  6

  9
$DIMTXTDIRECTION
 70
     0
  9
$LUNITS
 70
     2
  9
$LUPREC
 70
     6
  9
$SKETCHINC
 40
0.1
  9
$FILLETRAD
 40
0.5
  9
$AUNITS
 70
     0
  9
$AUPREC
 70
     0
  9
$MENU
  1
.
  9
$ELEVATION
 40
0.0
  9
$PELEVATION
 40
0.0
  9
$THICKNESS
 40
0.0
  9
$LIMCHECK
 70
     0
  9
$CHAMFERA
 40
0.5
  9
$CHAMFERB
 40
0.5
  9
$CHAMFERC
 40
1.0
  9
$CHAMFERD
 40
0.0
  9
$SKPOLY
 70
     0
  9
$TDCREATE
 40
2457903.684768518
  9
$TDUCREATE
 40
2457903.351435185
  9
$TDUPDATE
 40
2457903.684779977
  9
$TDUUPDATE
 40
2457903.351446643
  9
$TDINDWG
 40
0.0
  9
$TDUSRTIMER
 40
0.0
  9
$USRTIMER
 70
     1
  9
$ANGBASE
 50
0.0
  9
$ANGDIR
 70
     0
  9
$PDMODE
 70
     0
  9
$PDSIZE
 40
0.0
  9
$PLINEWID
 40
0.0
  9
$SPLFRAME
 70
     0
  9
$SPLINETYPE
 70
     6
  9
$SPLINESEGS
 70
     8
  9
$HANDSEED
  5
201
  9
$SURFTAB1
 70
     6
  9
$SURFTAB2
 70
     6
  9
$SURFTYPE
 70
     6
  9
$SURFU
 70
     6
  9
$SURFV
 70
     6
  9
$UCSBASE
  2

  9
$UCSNAME
  2

  9
$UCSORG
 10
0.0
 20
0.0
 30
0.0
  9
$UCSXDIR
 10
1.0
 20
0.0
 30
0.0
  9
$UCSYDIR
 10
0.0
 20
1.0
 30
0.0
  9
$UCSORTHOREF
  2

  9
$UCSORTHOVIEW
 70
     0
  9
$UCSORGTOP
 10
0.0
 20
0.0
 30
0.0
  9
$UCSORGBOTTOM
 10
0.0
 20
0.0
 30
0.0
  9
$UCSORGLEFT
 10
0.0
 20
0.0
 30
0.0
  9
$UCSORGRIGHT
 10
0.0
 20
0.0
 30
0.0
  9
$UCSORGFRONT
 10
0.0
 20
0.0
 30
0.0
  9
$UCSORGBACK
 10
0.0
 20
0.0
 30
0.0
  9
$PUCSBASE
  2

  9
$PUCSNAME
  2

  9
$PUCSORG
 10
0.0
 20
0.0
 30
0.0
  9
$PUCSXDIR
 10
1.0
 20
0.0
 30
0.0
  9
$PUCSYDIR
 10
0.0
 20
1.0
 30
0.0
  9
$PUCSORTHOREF
  2

  9
$PUCSORTHOVIEW
 70
     0
  9
$PUCSORGTOP
 10
0.0
 20
0.0
 30
0.0
  9
$PUCSORGBOTTOM
 10
0.0
 20
0.0
 30
0.0
  9
$PUCSORGLEFT
 10
0.0
 20
0.0
 30
0.0
  9
$PUCSORGRIGHT
 10
0.0
 20
0.0
 30
0.0
  9
$PUCSORGFRONT
 10
0.0
 20
0.0
 30
0.0
  9
$PUCSORGBACK
 10
0.0
 20
0.0
 30
0.0
  9
$USERI1
 70
     0
  9
$USERI2
 70
     0
  9
$USERI3
 70
     0
  9
$USERI4
 70
     0
  9
$USERI5
 70
     0
  9
$USERR1
 40
0.0
  9
$USERR2
 40
0.0
  9
$USERR3
 40
0.0
  9
$USERR4
 40
0.0
  9
$USERR5
 40
0.0
  9
$WORLDVIEW
 70
     1
  9
$SHADEDGE
 70
     3
  9
$SHADEDIF
 70
    70
  9
$TILEMODE
 70
     1
  9
$MAXACTVP
 70
    48
  9
$PINSBASE
 10
0.0
 20
0.0
 30
0.0
  9
$PLIMCHECK
 70
     0
  9
$PEXTMIN
 10
1.000000000000000E+20
 20
1.000000000000000E+20
 30
1.000000000000000E+20
  9
$PEXTMAX
 10
-1.000000000000000E+20
 20
-1.000000000000000E+20
 30
-1.000000000000000E+20
  9
$PLIMMIN
 10
0.0
 20
0.0
  9
$PLIMMAX
 10
12.0
 20
9.0
  9
$UNITMODE
 70
     0
  9
$VISRETAIN
 70
     1
  9
$PLINEGEN
 70
     0
  9
$PSLTSCALE
 70
     1
  9
$TREEDEPTH
 70
  3020
  9
$CMLSTYLE
  2
STANDARD
  9
$CMLJUST
 70
     0
  9
$CMLSCALE
 40
1.0
  9
$PROXYGRAPHICS
 70
     1
  9
$MEASUREMENT
 70
     1
  9
$CELWEIGHT
370
    -1
  9
$ENDCAPS
280
     0
  9
$JOINSTYLE
280
     0
  9
$LWDISPLAY
290
     0
  9
$INSUNITS
 70
     4
  9
$HYPERLINKBASE
  1

  9
$STYLESHEET
  1

  9
$XEDIT
290
     1
  9
$CEPSNTYPE
380
     0
  9
$PSTYLEMODE
290
     1
  9
$FINGERPRINTGUID
  2
{F2C8AF17-8C2C-4499-AC76-DE9F25ED22AB}
  9
$VERSIONGUID
  2
{FAEB1C32-E019-11D5-929B-00C0DF256EC4}
  9
$EXTNAMES
290
     1
  9
$PSVPSCALE
 40
0.0
  9
$OLESTARTUP
290
     0
  9
$SORTENTS
280
   127
  9
$INDEXCTL
280
     0
  9
$HIDETEXT
280
     1
  9
$XCLIPFRAME
280
     2
  9
$HALOGAP
280
     0
  9
$OBSCOLOR
 70
   257
  9
$OBSLTYPE
280
     0
  9
$INTERSECTIONDISPLAY
280
     0
  9
$INTERSECTIONCOLOR
 70
   257
  9
$DIMASSOC
280
     2
  9
$PROJECTNAME
  1

  9
$CAMERADISPLAY
290
     0
  9
$LENSLENGTH
 40
50.0
  9
$CAMERAHEIGHT
 40
0.0
  9
$STEPSPERSEC
 40
2.0
  9
$STEPSIZE
 40
6.0
  9
$3DDWFPREC
 40
2.0
  9
$PSOLWIDTH
 40
0.25
  9
$PSOLHEIGHT
 40
4.0
  9
$LOFTANG1
 40
1.570796326794897
  9
$LOFTANG2
 40
1.570796326794897
  9
$LOFTMAG1
 40
0.0
  9
$LOFTMAG2
 40
0.0
  9
$LOFTPARAM
 70
     7
  9
$LOFTNORMALS
280
     1
  9
$LATITUDE
 40
37.795
  9
$LONGITUDE
 40
-122.394
  9
$NORTHDIRECTION
 40
0.0
  9
$TIMEZONE
 70
 -8000
  9
$LIGHTGLYPHDISPLAY
280
     1
  9
$TILEMODELIGHTSYNCH
280
     1
  9
$SOLIDHIST
280
     1
  9
$SHOWHIST
280
     1
  9
$DWFFRAME
280
     2
  9
$DGNFRAME
280
     2
  9
$REALWORLDSCALE
290
     1
  9
$INTERFERECOLOR
 62
   256
  9
$CSHADOW
280
     0
  9
$SHADOWPLANELOCATION
 40
0.0
  0
ENDSEC
  0
SECTION
  2
CLASSES
  0
CLASS
  1
SCALE
  2
AcDbScale
  3
ObjectDBX Classes
 90
     1153
 91
        4
280
     0
281
     0
  0
CLASS
  1
VISUALSTYLE
  2
AcDbVisualStyle
  3
ObjectDBX Classes
 90
     4095
 91
        4
280
     0
281
     0
  0
CLASS
  1
MATERIAL
  2
AcDbMaterial
  3
ObjectDBX Classes
 90
     1153
 91
        4
280
     0
281
     0
  0
CLASS
  1
DICTIONARYVAR
  2
AcDbDictionaryVar
  3
ObjectDBX Classes
 90
        0
 91
        4
280
     0
281
     0
  0
ENDSEC
  0
SECTION
  2
TABLES
  0
TABLE
  2
VPORT
  5
8
330
0
100
AcDbSymbolTable
 70
     1
  0
VPORT
  5
1E
330
8
100
AcDbSymbolTableRecord
100
AcDbViewportTableRecord
  2
*ACTIVE
 70
     0
 10
0.0
 20
0.0
 11
1.0
 21
1.0
 12
1250.0
 22
5610.0
 13
0.0
 23
0.0
 14
0.25
 24
0.25
 15
0.25
 25
0.25
 16
0.0
 26
0.0
 36
1.0
 17
0.0
 27
0.0
 37
0.0
 40
1220.127
 41
2.049071
 42
50.0
 43
0.0
 44
0.0
 50
0.0
 51
0.0
 71
     0
 72
   100
 73
     1
 74
     1
 75
     0
 76
     0
 77
     0
 78
     0
281
     0
 65
     1
110
0.0
120
0.0
130
0.0
111
1.0
121
0.0
131
0.0
112
0.0
122
1.0
132
0.0
 79
     0
146
0.0
348
1B2
 60
     3
 61
     5
292
     1
282
     1
141
0.0
142
0.0
 63
   256
  0
ENDTAB
  0
TABLE
  2
LTYPE
  5
5
330
0
100
AcDbSymbolTable
 70
     2
  0
LTYPE
  5
12
330
5
100
AcDbSymbolTableRecord
100
AcDbLinetypeTableRecord
  2
BYBLOCK
 70
     0
  3

 72
    65
 73
     0
 40
0.0
  0
LTYPE
  5
13
330
5
100
AcDbSymbolTableRecord
100
AcDbLinetypeTableRecord
  2
BYLAYER
 70
     0
  3

 72
    65
 73
     0
 40
0.0
  0
LTYPE
  5
14
330
5
100
AcDbSymbolTableRecord
100
AcDbLinetypeTableRecord
  2
CONTINUOUS
 70
     0
  3
Solid line
 72
    65
 73
     0
 40
0.0
  0
LTYPE
  5
20
330
5
100
AcDbSymbolTableRecord
100
AcDbLinetypeTableRecord
  2
DOT
 70
     0
  3
...............................................
 72
    65
 73
     2
 40
0.25
 49
0.0
 74
     0
 49
-0.25
 74
     0
  0
ENDTAB
  0
TABLE
  2
LAYER
  5
2
330
0
100
AcDbSymbolTable
 70
    10
  0
LAYER
  5
E
330
2
100
AcDbSymbolTableRecord
100
AcDbLayerTableRecord
  2
0
 70
     0
 62
     7
  6
CONTINUOUS
370
    -3
390
0
347
1C9
  0
LAYER
  5
21
330
2
100
AcDbSymbolTableRecord
100
AcDbLayerTableRecord
  2
default
 70
     0
 62
     7
  6
CONTINUOUS
370
    -3
390
0
347
1C9
  0
LAYER
  5
22
330
2
100
AcDbSymbolTableRecord
100
AcDbLayerTableRecord
  2
ISOMETRIC
 70
     0
 62
     7
  6
CONTINUOUS
370
    -3
390
0
347
1C9
  0
LAYER
  5
23
330
2
100
AcDbSymbolTableRecord
100
AcDbLayerTableRecord
  2
PLAN
 70
     0
 62
     7
  6
CONTINUOUS
370
    -3
390
0
347
1C9
  0
LAYER
  5
24
330
2
100
AcDbSymbolTableRecord
100
AcDbLayerTableRecord
  2
LONG
 70
     0
 62
     7
  6
CONTINUOUS
370
    -3
390
0
347
1C9
  0
LAYER
  5
25
330
2
100
AcDbSymbolTableRecord
100
AcDbLayerTableRecord
  2
FRONT
 70
     0
 62
     7
  6
CONTINUOUS
370
    -3
390
0
347
1C9
  0
LAYER
  5
26
330
2
100
AcDbSymbolTableRecord
100
AcDbLayerTableRecord
  2
UNFOLD
 70
     0
 62
     7
  6
CONTINUOUS
370
    -3
390
0
347
1C9
  0
LAYER
  5
27
330
2
100
AcDbSymbolTableRecord
100
AcDbLayerTableRecord
  2
PLAN_SECTIONS
 70
     0
 62
     7
  6
CONTINUOUS
370
    -3
390
0
347
1C9
  0
LAYER
  5
28
330
2
100
AcDbSymbolTableRecord
100
AcDbLayerTableRecord
  2
CROSS_SECTIONS
 70
     0
 62
     7
  6
CONTINUOUS
370
    -3
390
0
347
1C9
  0
LAYER
  5
29
330
2
100
AcDbSymbolTableRecord
100
AcDbLayerTableRecord
  2
LONG_SECTIONS
 70
     0
 62
     7
  6
CONTINUOUS
370
    -3
390
0
347
1C9
  0
ENDTAB
  0
TABLE
  2
STYLE
  5
3
330
0
100
AcDbSymbolTable
 70
     1
  0
STYLE
  5
F
330
3
100
AcDbSymbolTableRecord
100
AcDbTextStyleTableRecord
  2
STANDARD
 70
     0
 40
0.0
 41
1.0
 50
0.0
 71
     0
 42
0.2
  3
txt
  4

  0
ENDTAB
  0
TABLE
  2
VIEW
  5
6
330
0
100
AcDbSymbolTable
 70
     0
  0
ENDTAB
  0
TABLE
  2
UCS
  5
7
330
0
100
AcDbSymbolTable
 70
     0
  0
ENDTAB
  0
TABLE
  2
APPID
  5
9
330
0
100
AcDbSymbolTable
 70
     1
  0
APPID
  5
10
330
9
100
AcDbSymbolTableRecord
100
AcDbRegAppTableRecord
  2
ACAD
 70
     0
  0
ENDTAB
  0
TABLE
  2
DIMSTYLE
  5
A
330
0
100
AcDbSymbolTable
 70
     1
100
AcDbDimStyleTable
  0
DIMSTYLE
105
1D
330
A
100
AcDbSymbolTableRecord
100
AcDbDimStyleTableRecord
  2
STANDARD
 70
     0
178
     0
340
F
  0
ENDTAB
  0
TABLE
  2
BLOCK_RECORD
  5
1
330
0
100
AcDbSymbolTable
 70
     0
  0
BLOCK_RECORD
  5
18
330
1
100
AcDbSymbolTableRecord
100
AcDbBlockTableRecord
  2
*MODEL_SPACE
340
1AB
 70
     0
280
     1
281
     0
  0
BLOCK_RECORD
  5
15
330
1
100
AcDbSymbolTableRecord
100
AcDbBlockTableRecord
  2
*PAPER_SPACE
340
1AC
 70
     0
280
     1
281
     0
  0
ENDTAB
  0
ENDSEC
  0
SECTION
  2
BLOCKS
  0
BLOCK
  5
19
330
18
100
AcDbEntity
  8
0
100
AcDbBlockBegin
  2
*MODEL_SPACE
 70
     0
 10
0.0
 20
0.0
 30
0.0
  3
*MODEL_SPACE
  1
     0
  0
ENDBLK
  5
1A
330
18
100
AcDbEntity
  8
0
100
AcDbBlockEnd
  0
BLOCK
  5
16
330
15
100
AcDbEntity
 67
     1
  8
0
100
AcDbBlockBegin
  2
*PAPER_SPACE
 70
     0
 10
0.0
 20
0.0
 30
0.0
  3
*PAPER_SPACE
  1
     0
  0
ENDBLK
  5
17
330
15
100
AcDbEntity
 67
     1
  8
0
100
AcDbBlockEnd
  0
ENDSEC
  0
SECTION
  2
ENTITIES
  0
POINT
  5
2A
330
18
100
AcDbEntity
  8
default
100
AcDbPoint
 10
0.0
 20
5000.0
 30
0.0
  0
LINE
  5
2B
330
18
100
AcDbEntity
  8
default
  6
DOT
100
AcDbLine
 10
0.0
 20
5000.0
 30
0.0
 11
2500.0
 21
5000.0
 31
0.0
  0
LINE
  5
2C
330
18
100
AcDbEntity
  8
default
  6
DOT
100
AcDbLine
 10
0.0
 20
5000.0
 30
0.0
 11
0.0
 21
6220.0
 31
0.0
  0
LINE
  5
2D
330
18
100
AcDbEntity
  8
default
  6
DOT
100
AcDbLine
 10
0.0
 20
6220.0
 30
0.0
 11
2500.0
 21
6220.0
 31
0.0
  0
LINE
  5
2E
330
18
100
AcDbEntity
  8
default
  6
DOT
100
AcDbLine
 10
2500.0
 20
6068.5
 30
0.0
 11
2500.0
 21
6220.0
 31
0.0
  0
LINE
  5
2F
330
18
100
AcDbEntity
  8
default
  6
DOT
100
AcDbLine
 10
-0.00000000311308
 20
5610.0
 30
0.0
 11
2500.0
 21
5610.0
 31
0.0
  0
LINE
  5
30
330
18
100
AcDbEntity
  8
default
  6
DOT
100
AcDbLine
 10
2500.0
 20
5000.0
 30
0.0
 11
2500.0
 21
6220.0
 31
0.0
  0
LINE
  5
31
330
18
100
AcDbEntity
  8
default
  6
DOT
100
AcDbLine
 10
2400.0
 20
5000.0
 30
0.0
 11
2400.0
 21
6220.0
 31
0.0
  0
LINE
  5
32
330
18
100
AcDbEntity
  8
default
  6
DOT
100
AcDbLine
 10
2300.0
 20
5000.0
 30
0.0
 11
2300.0
 21
6220.0
 31
0.0
  0
LINE
  5
33
330
18
100
AcDbEntity
  8
default
  6
DOT
100
AcDbLine
 10
2200.0
 20
5000.0
 30
0.0
 11
2200.0
 21
6220.0
 31
0.0
  0
LINE
  5
34
330
18
100
AcDbEntity
  8
default
  6
DOT
100
AcDbLine
 10
2100.0
 20
5000.0
 30
0.0
 11
2100.0
 21
6220.0
 31
0.0
  0
LINE
  5
35
330
18
100
AcDbEntity
  8
default
  6
DOT
100
AcDbLine
 10
2000.0
 20
5000.0
 30
0.0
 11
2000.0
 21
6220.0
 31
0.0
  0
LINE
  5
36
330
18
100
AcDbEntity
  8
default
  6
DOT
100
AcDbLine
 10
1900.0
 20
5000.0
 30
0.0
 11
1900.0
 21
6220.0
 31
0.0
  0
LINE
  5
37
330
18
100
AcDbEntity
  8
default
  6
DOT
100
AcDbLine
 10
1800.0
 20
5000.0
 30
0.0
 11
1800.0
 21
6220.0
 31
0.0
  0
LINE
  5
38
330
18
100
AcDbEntity
  8
default
  6
DOT
100
AcDbLine
 10
1700.0
 20
5000.0
 30
0.0
 11
1700.0
 21
6220.0
 31
0.0
  0
LINE
  5
39
330
18
100
AcDbEntity
  8
default
  6
DOT
100
AcDbLine
 10
1600.0
 20
5000.0
 30
0.0
 11
1600.0
 21
6220.0
 31
0.0
  0
LINE
  5
3A
330
18
100
AcDbEntity
  8
default
  6
DOT
100
AcDbLine
 10
1500.0
 20
5000.0
 30
0.0
 11
1500.0
 21
6220.0
 31
0.0
  0
LINE
  5
3B
330
18
100
AcDbEntity
  8
default
  6
DOT
100
AcDbLine
 10
1400.0
 20
5000.0
 30
0.0
 11
1400.0
 21
6220.0
 31
0.0
  0
LINE
  5
3C
330
18
100
AcDbEntity
  8
default
  6
DOT
100
AcDbLine
 10
1300.0
 20
5000.0
 30
0.0
 11
1300.0
 21
6220.0
 31
0.0
  0
LINE
  5
3D
330
18
100
AcDbEntity
  8
default
  6
DOT
100
AcDbLine
 10
1200.0
 20
5000.0
 30
0.0
 11
1200.0
 21
6220.0
 31
0.0
  0
LINE
  5
3E
330
18
100
AcDbEntity
  8
default
  6
DOT
100
AcDbLine
 10
1100.0
 20
5000.0
 30
0.0
 11
1100.0
 21
6220.0
 31
0.0
  0
LINE
  5
3F
330
18
100
AcDbEntity
  8
default
  6
DOT
100
AcDbLine
 10
1000.0
 20
5000.0
 30
0.0
 11
1000.0
 21
6220.0
 31
0.0
  0
LINE
  5
40
330
18
100
AcDbEntity
  8
default
  6
DOT
100
AcDbLine
 10
900.0
 20
5000.0
 30
0.0
 11
900.0
 21
6220.0
 31
0.0
  0
LINE
  5
41
330
18
100
AcDbEntity
  8
default
  6
DOT
100
AcDbLine
 10
800.0
 20
5000.0
 30
0.0
 11
800.0
 21
6220.0
 31
0.0
  0
LINE
  5
42
330
18
100
AcDbEntity
  8
default
  6
DOT
100
AcDbLine
 10
700.0
 20
5000.0
 30
0.0
 11
700.0
 21
6220.0
 31
0.0
  0
LINE
  5
43
330
18
100
AcDbEntity
  8
default
  6
DOT
100
AcDbLine
 10
600.0
 20
5000.0
 30
0.0
 11
600.0
 21
6220.0
 31
0.0
  0
LINE
  5
44
330
18
100
AcDbEntity
  8
default
  6
DOT
100
AcDbLine
 10
500.0
 20
5000.0
 30
0.0
 11
500.0
 21
6220.0
 31
0.0
  0
LINE
  5
45
330
18
100
AcDbEntity
  8
default
  6
DOT
100
AcDbLine
 10
400.0
 20
5000.0
 30
0.0
 11
400.0
 21
6220.0
 31
0.0
  0
LINE
  5
46
330
18
100
AcDbEntity
  8
default
  6
DOT
100
AcDbLine
 10
300.0
 20
5000.0
 30
0.0
 11
300.0
 21
6220.0
 31
0.0
  0
LINE
  5
47
330
18
100
AcDbEntity
  8
default
  6
DOT
100
AcDbLine
 10
200.0
 20
5000.0
 30
0.0
 11
200.0
 21
6220.0
 31
0.0
  0
LINE
  5
48
330
18
100
AcDbEntity
  8
default
  6
DOT
100
AcDbLine
 10
100.0
 20
5000.0
 30
0.0
 11
100.0
 21
6220.0
 31
0.0
  0
LINE
  5
49
330
18
100
AcDbEntity
  8
default
  6
DOT
100
AcDbLine
 10
0.0
 20
5000.0
 30
0.0
 11
200.0
 21
5000.0
 31
0.0
  0
LINE
  5
4A
330
18
100
AcDbEntity
  8
default
  6
DOT
100
AcDbLine
 10
-0.0000000005103412
 20
5100.0
 30
0.0
 11
200.0
 21
5100.0
 31
0.0
  0
LINE
  5
4B
330
18
100
AcDbEntity
  8
default
  6
DOT
100
AcDbLine
 10
-0.00000000153102
 20
5300.0
 30
0.0
 11
200.0
 21
5300.0
 31
0.0
  0
LINE
  5
4C
330
18
100
AcDbEntity
  8
default
  6
DOT
100
AcDbLine
 10
-0.00000000204136
 20
5400.0
 30
0.0
 11
200.0
 21
5400.0
 31
0.0
  0
LINE
  5
4D
330
18
100
AcDbEntity
  8
default
  6
DOT
100
AcDbLine
 10
-0.00000000255171
 20
5500.0
 30
0.0
 11
200.0
 21
5500.0
 31
0.0
  0
LINE
  5
4E
330
18
100
AcDbEntity
  8
default
  6
DOT
100
AcDbLine
 10
-0.00000000306205
 20
5600.0
 30
0.0
 11
200.0
 21
5600.0
 31
0.0
  0
LINE
  5
4F
330
18
100
AcDbEntity
  8
default
  6
DOT
100
AcDbLine
 10
-0.00000000357239
 20
5700.0
 30
0.0
 11
200.0
 21
5700.0
 31
0.0
  0
LINE
  5
50
330
18
100
AcDbEntity
  8
default
  6
DOT
100
AcDbLine
 10
-0.00000000408273
 20
5800.0
 30
0.0
 11
200.0
 21
5800.0
 31
0.0
  0
LINE
  5
51
330
18
100
AcDbEntity
  8
default
  6
DOT
100
AcDbLine
 10
-0.00000000459307
 20
5900.0
 30
0.0
 11
200.0
 21
5900.0
 31
0.0
  0
LINE
  5
52
330
18
100
AcDbEntity
  8
default
  6
DOT
100
AcDbLine
 10
-0.00000000510341
 20
6000.0
 30
0.0
 11
200.0
 21
6000.0
 31
0.0
  0
LINE
  5
53
330
18
100
AcDbEntity
  8
default
  6
DOT
100
AcDbLine
 10
-0.00000000561375
 20
6100.0
 30
0.0
 11
200.0
 21
6100.0
 31
0.0
  0
LINE
  5
54
330
18
100
AcDbEntity
  8
default
  6
DOT
100
AcDbLine
 10
-0.00000000612409
 20
6200.0
 30
0.0
 11
200.0
 21
6200.0
 31
0.0
  0
LINE
  5
55
330
18
100
AcDbEntity
  8
default
  6
DOT
100
AcDbLine
 10
-0.00000000102068
 20
5200.0
 30
0.0
 11
200.0
 21
5200.0
 31
0.0
  0
LINE
  5
56
330
18
100
AcDbEntity
  8
default
100
AcDbLine
 10
-0.00000000311308
 20
5610.0
 30
0.0
 11
0.0
 21
6220.0
 31
0.0
  0
LINE
  5
57
330
18
100
AcDbEntity
  8
default
100
AcDbLine
 10
0.0
 20
5000.0
 30
0.0
 11
-0.00000000311308
 21
5610.0
 31
0.0
  0
LINE
  5
58
330
18
100
AcDbEntity
  8
default
100
AcDbLine
 10
178.56
 20
5000.0
 30
0.0
 11
0.0
 21
5000.0
 31
0.0
  0
LINE
  5
59
330
18
100
AcDbEntity
  8
default
100
AcDbLine
 10
184.98
 20
5100.0
 30
0.0
 11
178.56
 21
5000.0
 31
0.0
  0
LINE
  5
5A
330
18
100
AcDbEntity
  8
default
100
AcDbLine
 10
190.24
 20
5200.0
 30
0.0
 11
184.98
 21
5100.0
 31
0.0
  0
LINE
  5
5B
330
18
100
AcDbEntity
  8
default
100
AcDbLine
 10
194.36
 20
5300.0
 30
0.0
 11
190.24
 21
5200.0
 31
0.0
  0
LINE
  5
5C
330
18
100
AcDbEntity
  8
default
100
AcDbLine
 10
197.32
 20
5400.0
 30
0.0
 11
194.36
 21
5300.0
 31
0.0
  0
LINE
  5
5D
330
18
100
AcDbEntity
  8
default
100
AcDbLine
 10
199.18
 20
5500.0
 30
0.0
 11
197.32
 21
5400.0
 31
0.0
  0
LINE
  5
5E
330
18
100
AcDbEntity
  8
default
100
AcDbLine
 10
199.9
 20
5600.0
 30
0.0
 11
199.18
 21
5500.0
 31
0.0
  0
LINE
  5
5F
330
18
100
AcDbEntity
  8
default
100
AcDbLine
 10
199.9
 20
5610.0
 30
0.0
 11
199.9
 21
5600.0
 31
0.0
  0
LINE
  5
60
330
18
100
AcDbEntity
  8
default
100
AcDbLine
 10
199.42
 20
5700.0
 30
0.0
 11
199.9
 21
5610.0
 31
0.0
  0
LINE
  5
61
330
18
100
AcDbEntity
  8
default
100
AcDbLine
 10
197.78
 20
5800.0
 30
0.0
 11
199.42
 21
5700.0
 31
0.0
  0
LINE
  5
62
330
18
100
AcDbEntity
  8
default
100
AcDbLine
 10
195.04
 20
5900.0
 30
0.0
 11
197.78
 21
5800.0
 31
0.0
  0
LINE
  5
63
330
18
100
AcDbEntity
  8
default
100
AcDbLine
 10
191.16
 20
6000.0
 30
0.0
 11
195.04
 21
5900.0
 31
0.0
  0
LINE
  5
64
330
18
100
AcDbEntity
  8
default
100
AcDbLine
 10
186.12
 20
6100.0
 30
0.0
 11
191.16
 21
6000.0
 31
0.0
  0
LINE
  5
65
330
18
100
AcDbEntity
  8
default
100
AcDbLine
 10
179.94
 20
6200.0
 30
0.0
 11
186.12
 21
6100.0
 31
0.0
  0
LINE
  5
66
330
18
100
AcDbEntity
  8
default
100
AcDbLine
 10
178.56
 20
6220.0
 30
0.0
 11
179.94
 21
6200.0
 31
0.0
  0
LINE
  5
67
330
18
100
AcDbEntity
  8
default
100
AcDbLine
 10
0.0
 20
6220.0
 30
0.0
 11
178.56
 21
6220.0
 31
0.0
  0
LINE
  5
68
330
18
100
AcDbEntity
  8
default
 62
     3
100
AcDbLine
 10
600.0
 20
5670.763003
 30
0.0
 11
625.385834
 21
5647.118874
 31
0.0
  0
LINE
  5
69
330
18
100
AcDbEntity
  8
default
 62
     3
100
AcDbLine
 10
500.0
 20
5763.902067
 30
0.0
 11
600.0
 21
5670.763003
 31
0.0
  0
LINE
  5
6A
330
18
100
AcDbEntity
  8
default
 62
     3
100
AcDbLine
 10
400.0
 20
5857.041132
 30
0.0
 11
500.0
 21
5763.902067
 31
0.0
  0
LINE
  5
6B
330
18
100
AcDbEntity
  8
default
 62
     3
100
AcDbLine
 10
300.0
 20
5950.180196
 30
0.0
 11
400.0
 21
5857.041132
 31
0.0
  0
LINE
  5
6C
330
18
100
AcDbEntity
  8
default
 62
     3
100
AcDbLine
 10
282.919506
 20
5966.088808
 30
0.0
 11
300.0
 21
5950.180196
 31
0.0
  0
LINE
  5
6D
330
18
100
AcDbEntity
  8
default
 62
     3
100
AcDbLine
 10
300.0
 20
5967.581546
 30
0.0
 11
282.919506
 21
5966.088808
 31
0.0
  0
LINE
  5
6E
330
18
100
AcDbEntity
  8
default
 62
     3
100
AcDbLine
 10
400.0
 20
5976.263055
 30
0.0
 11
300.0
 21
5967.581546
 31
0.0
  0
LINE
  5
6F
330
18
100
AcDbEntity
  8
default
 62
     3
100
AcDbLine
 10
500.0
 20
5983.936188
 30
0.0
 11
400.0
 21
5976.263055
 31
0.0
  0
LINE
  5
70
330
18
100
AcDbEntity
  8
default
 62
     3
100
AcDbLine
 10
600.0
 20
5990.617868
 30
0.0
 11
500.0
 21
5983.936188
 31
0.0
  0
LINE
  5
71
330
18
100
AcDbEntity
  8
default
 62
     3
100
AcDbLine
 10
700.0
 20
5997.043046
 30
0.0
 11
600.0
 21
5990.617868
 31
0.0
  0
LINE
  5
72
330
18
100
AcDbEntity
  8
default
 62
     3
100
AcDbLine
 10
800.0
 20
6002.768451
 30
0.0
 11
700.0
 21
5997.043046
 31
0.0
  0
LINE
  5
73
330
18
100
AcDbEntity
  8
default
 62
     3
100
AcDbLine
 10
900.0
 20
6007.861148
 30
0.0
 11
800.0
 21
6002.768451
 31
0.0
  0
LINE
  5
74
330
18
100
AcDbEntity
  8
default
 62
     3
100
AcDbLine
 10
1000.0
 20
6012.031258
 30
0.0
 11
900.0
 21
6007.861148
 31
0.0
  0
LINE
  5
75
330
18
100
AcDbEntity
  8
default
 62
     3
100
AcDbLine
 10
1100.0
 20
6015.418474
 30
0.0
 11
1000.0
 21
6012.031258
 31
0.0
  0
LINE
  5
76
330
18
100
AcDbEntity
  8
default
 62
     3
100
AcDbLine
 10
1200.0
 20
6017.911203
 30
0.0
 11
1100.0
 21
6015.418474
 31
0.0
  0
LINE
  5
77
330
18
100
AcDbEntity
  8
default
 62
     3
100
AcDbLine
 10
1300.0
 20
6019.350707
 30
0.0
 11
1200.0
 21
6017.911203
 31
0.0
  0
LINE
  5
78
330
18
100
AcDbEntity
  8
default
 62
     3
100
AcDbLine
 10
1400.0
 20
6019.923697
 30
0.0
 11
1300.0
 21
6019.350707
 31
0.0
  0
LINE
  5
79
330
18
100
AcDbEntity
  8
default
 62
     3
100
AcDbLine
 10
1500.0
 20
6019.620055
 30
0.0
 11
1400.0
 21
6019.923697
 31
0.0
  0
LINE
  5
7A
330
18
100
AcDbEntity
  8
default
 62
     3
100
AcDbLine
 10
1600.0
 20
6018.634373
 30
0.0
 11
1500.0
 21
6019.620055
 31
0.0
  0
LINE
  5
7B
330
18
100
AcDbEntity
  8
default
 62
     3
100
AcDbLine
 10
1700.0
 20
6016.907312
 30
0.0
 11
1600.0
 21
6018.634373
 31
0.0
  0
LINE
  5
7C
330
18
100
AcDbEntity
  8
default
 62
     3
100
AcDbLine
 10
1800.0
 20
6014.685924
 30
0.0
 11
1700.0
 21
6016.907312
 31
0.0
  0
LINE
  5
7D
330
18
100
AcDbEntity
  8
default
 62
     3
100
AcDbLine
 10
1900.0
 20
6012.010661
 30
0.0
 11
1800.0
 21
6014.685924
 31
0.0
  0
LINE
  5
7E
330
18
100
AcDbEntity
  8
default
 62
     3
100
AcDbLine
 10
2000.0
 20
6008.991189
 30
0.0
 11
1900.0
 21
6012.010661
 31
0.0
  0
LINE
  5
7F
330
18
100
AcDbEntity
  8
default
 62
     3
100
AcDbLine
 10
2100.0
 20
6005.801124
 30
0.0
 11
2000.0
 21
6008.991189
 31
0.0
  0
LINE
  5
80
330
18
100
AcDbEntity
  8
default
 62
     3
100
AcDbLine
 10
2200.0
 20
6002.49037
 30
0.0
 11
2100.0
 21
6005.801124
 31
0.0
  0
LINE
  5
81
330
18
100
AcDbEntity
  8
default
 62
     3
100
AcDbLine
 10
2300.0
 20
5999.17282
 30
0.0
 11
2200.0
 21
6002.49037
 31
0.0
  0
LINE
  5
82
330
18
100
AcDbEntity
  8
default
 62
     3
100
AcDbLine
 10
2400.0
 20
5996.041163
 30
0.0
 11
2300.0
 21
5999.17282
 31
0.0
  0
LINE
  5
83
330
18
100
AcDbEntity
  8
default
 62
     3
100
AcDbLine
 10
2500.0
 20
5993.160812
 30
0.0
 11
2400.0
 21
5996.041163
 31
0.0
  0
LINE
  5
84
330
18
100
AcDbEntity
  8
default
 62
     3
100
AcDbLine
 10
2499.835991
 20
5812.883323
 30
0.0
 11
2500.0
 21
5993.160812
 31
0.0
  0
LINE
  5
85
330
18
100
AcDbEntity
  8
default
 62
     3
100
AcDbLine
 10
2400.0
 20
5812.38884
 30
0.0
 11
2499.835991
 21
5812.883323
 31
0.0
  0
LINE
  5
86
330
18
100
AcDbEntity
  8
default
 62
     3
100
AcDbLine
 10
2300.0
 20
5811.010911
 30
0.0
 11
2400.0
 21
5812.38884
 31
0.0
  0
LINE
  5
87
330
18
100
AcDbEntity
  8
default
 62
     3
100
AcDbLine
 10
2200.0
 20
5808.699385
 30
0.0
 11
2300.0
 21
5811.010911
 31
0.0
  0
LINE
  5
88
330
18
100
AcDbEntity
  8
default
 62
     3
100
AcDbLine
 10
2100.0
 20
5805.408236
 30
0.0
 11
2200.0
 21
5808.699385
 31
0.0
  0
LINE
  5
89
330
18
100
AcDbEntity
  8
default
 62
     3
100
AcDbLine
 10
2000.0
 20
5801.133969
 30
0.0
 11
2100.0
 21
5805.408236
 31
0.0
  0
LINE
  5
8A
330
18
100
AcDbEntity
  8
default
 62
     3
100
AcDbLine
 10
1900.0
 20
5795.877775
 30
0.0
 11
2000.0
 21
5801.133969
 31
0.0
  0
LINE
  5
8B
330
18
100
AcDbEntity
  8
default
 62
     3
100
AcDbLine
 10
1800.0
 20
5789.643311
 30
0.0
 11
1900.0
 21
5795.877775
 31
0.0
  0
LINE
  5
8C
330
18
100
AcDbEntity
  8
default
 62
     3
100
AcDbLine
 10
1700.0
 20
5782.477214
 30
0.0
 11
1800.0
 21
5789.643311
 31
0.0
  0
LINE
  5
8D
330
18
100
AcDbEntity
  8
default
 62
     3
100
AcDbLine
 10
1600.0
 20
5774.36506
 30
0.0
 11
1700.0
 21
5782.477214
 31
0.0
  0
LINE
  5
8E
330
18
100
AcDbEntity
  8
default
 62
     3
100
AcDbLine
 10
1500.0
 20
5765.286929
 30
0.0
 11
1600.0
 21
5774.36506
 31
0.0
  0
LINE
  5
8F
330
18
100
AcDbEntity
  8
default
 62
     3
100
AcDbLine
 10
1400.0
 20
5755.316863
 30
0.0
 11
1500.0
 21
5765.286929
 31
0.0
  0
LINE
  5
90
330
18
100
AcDbEntity
  8
default
 62
     3
100
AcDbLine
 10
1300.0
 20
5744.437892
 30
0.0
 11
1400.0
 21
5755.316863
 31
0.0
  0
LINE
  5
91
330
18
100
AcDbEntity
  8
default
 62
     3
100
AcDbLine
 10
1200.0
 20
5732.671076
 30
0.0
 11
1300.0
 21
5744.437892
 31
0.0
  0
LINE
  5
92
330
18
100
AcDbEntity
  8
default
 62
     3
100
AcDbLine
 10
1100.0
 20
5720.024739
 30
0.0
 11
1200.0
 21
5732.671076
 31
0.0
  0
LINE
  5
93
330
18
100
AcDbEntity
  8
default
 62
     3
100
AcDbLine
 10
1000.0
 20
5706.400524
 30
0.0
 11
1100.0
 21
5720.024739
 31
0.0
  0
LINE
  5
94
330
18
100
AcDbEntity
  8
default
 62
     3
100
AcDbLine
 10
900.0
 20
5691.8421
 30
0.0
 11
1000.0
 21
5706.400524
 31
0.0
  0
LINE
  5
95
330
18
100
AcDbEntity
  8
default
 62
     3
100
AcDbLine
 10
800.0
 20
5676.337682
 30
0.0
 11
900.0
 21
5691.8421
 31
0.0
  0
LINE
  5
96
330
18
100
AcDbEntity
  8
default
 62
     3
100
AcDbLine
 10
700.0
 20
5659.838704
 30
0.0
 11
800.0
 21
5676.337682
 31
0.0
  0
LINE
  5
97
330
18
100
AcDbEntity
  8
default
 62
     3
100
AcDbLine
 10
625.385834
 20
5647.118874
 30
0.0
 11
700.0
 21
5659.838704
 31
0.0
  0
LINE
  5
98
330
18
100
AcDbEntity
  8
default
 62
     3
100
AcDbLine
 10
600.0
 20
5549.236997
 30
0.0
 11
625.385834
 21
5572.881126
 31
0.0
  0
LINE
  5
99
330
18
100
AcDbEntity
  8
default
 62
     3
100
AcDbLine
 10
500.0
 20
5456.097933
 30
0.0
 11
600.0
 21
5549.236997
 31
0.0
  0
LINE
  5
9A
330
18
100
AcDbEntity
  8
default
 62
     3
100
AcDbLine
 10
400.0
 20
5362.958868
 30
0.0
 11
500.0
 21
5456.097933
 31
0.0
  0
LINE
  5
9B
330
18
100
AcDbEntity
  8
default
 62
     3
100
AcDbLine
 10
300.0
 20
5269.819804
 30
0.0
 11
400.0
 21
5362.958868
 31
0.0
  0
LINE
  5
9C
330
18
100
AcDbEntity
  8
default
 62
     3
100
AcDbLine
 10
282.919506
 20
5253.911192
 30
0.0
 11
300.0
 21
5269.819804
 31
0.0
  0
LINE
  5
9D
330
18
100
AcDbEntity
  8
default
 62
     3
100
AcDbLine
 10
300.0
 20
5252.418454
 30
0.0
 11
282.919506
 21
5253.911192
 31
0.0
  0
LINE
  5
9E
330
18
100
AcDbEntity
  8
default
 62
     3
100
AcDbLine
 10
400.0
 20
5243.736945
 30
0.0
 11
300.0
 21
5252.418454
 31
0.0
  0
LINE
  5
9F
330
18
100
AcDbEntity
  8
default
 62
     3
100
AcDbLine
 10
500.0
 20
5236.063812
 30
0.0
 11
400.0
 21
5243.736945
 31
0.0
  0
LINE
  5
A0
330
18
100
AcDbEntity
  8
default
 62
     3
100
AcDbLine
 10
600.0
 20
5229.382132
 30
0.0
 11
500.0
 21
5236.063812
 31
0.0
  0
LINE
  5
A1
330
18
100
AcDbEntity
  8
default
 62
     3
100
AcDbLine
 10
700.0
 20
5222.956954
 30
0.0
 11
600.0
 21
5229.382132
 31
0.0
  0
LINE
  5
A2
330
18
100
AcDbEntity
  8
default
 62
     3
100
AcDbLine
 10
800.0
 20
5217.231549
 30
0.0
 11
700.0
 21
5222.956954
 31
0.0
  0
LINE
  5
A3
330
18
100
AcDbEntity
  8
default
 62
     3
100
AcDbLine
 10
900.0
 20
5212.138852
 30
0.0
 11
800.0
 21
5217.231549
 31
0.0
  0
LINE
  5
A4
330
18
100
AcDbEntity
  8
default
 62
     3
100
AcDbLine
 10
1000.0
 20
5207.968742
 30
0.0
 11
900.0
 21
5212.138852
 31
0.0
  0
LINE
  5
A5
330
18
100
AcDbEntity
  8
default
 62
     3
100
AcDbLine
 10
1100.0
 20
5204.581526
 30
0.0
 11
1000.0
 21
5207.968742
 31
0.0
  0
LINE
  5
A6
330
18
100
AcDbEntity
  8
default
 62
     3
100
AcDbLine
 10
1200.0
 20
5202.088797
 30
0.0
 11
1100.0
 21
5204.581526
 31
0.0
  0
LINE
  5
A7
330
18
100
AcDbEntity
  8
default
 62
     3
100
AcDbLine
 10
1300.0
 20
5200.649293
 30
0.0
 11
1200.0
 21
5202.088797
 31
0.0
  0
LINE
  5
A8
330
18
100
AcDbEntity
  8
default
 62
     3
100
AcDbLine
 10
1400.0
 20
5200.076303
 30
0.0
 11
1300.0
 21
5200.649293
 31
0.0
  0
LINE
  5
A9
330
18
100
AcDbEntity
  8
default
 62
     3
100
AcDbLine
 10
1500.0
 20
5200.379945
 30
0.0
 11
1400.0
 21
5200.076303
 31
0.0
  0
LINE
  5
AA
330
18
100
AcDbEntity
  8
default
 62
     3
100
AcDbLine
 10
1600.0
 20
5201.365627
 30
0.0
 11
1500.0
 21
5200.379945
 31
0.0
  0
LINE
  5
AB
330
18
100
AcDbEntity
  8
default
 62
     3
100
AcDbLine
 10
1700.0
 20
5203.092688
 30
0.0
 11
1600.0
 21
5201.365627
 31
0.0
  0
LINE
  5
AC
330
18
100
AcDbEntity
  8
default
 62
     3
100
AcDbLine
 10
1800.0
 20
5205.314076
 30
0.0
 11
1700.0
 21
5203.092688
 31
0.0
  0
LINE
  5
AD
330
18
100
AcDbEntity
  8
default
 62
     3
100
AcDbLine
 10
1900.0
 20
5207.989339
 30
0.0
 11
1800.0
 21
5205.314076
 31
0.0
  0
LINE
  5
AE
330
18
100
AcDbEntity
  8
default
 62
     3
100
AcDbLine
 10
2000.0
 20
5211.008811
 30
0.0
 11
1900.0
 21
5207.989339
 31
0.0
  0
LINE
  5
AF
330
18
100
AcDbEntity
  8
default
 62
     3
100
AcDbLine
 10
2100.0
 20
5214.198876
 30
0.0
 11
2000.0
 21
5211.008811
 31
0.0
  0
LINE
  5
B0
330
18
100
AcDbEntity
  8
default
 62
     3
100
AcDbLine
 10
2200.0
 20
5217.50963
 30
0.0
 11
2100.0
 21
5214.198876
 31
0.0
  0
LINE
  5
B1
330
18
100
AcDbEntity
  8
default
 62
     3
100
AcDbLine
 10
2300.0
 20
5220.82718
 30
0.0
 11
2200.0
 21
5217.50963
 31
0.0
  0
LINE
  5
B2
330
18
100
AcDbEntity
  8
default
 62
     3
100
AcDbLine
 10
2400.0
 20
5223.958837
 30
0.0
 11
2300.0
 21
5220.82718
 31
0.0
  0
LINE
  5
B3
330
18
100
AcDbEntity
  8
default
 62
     3
100
AcDbLine
 10
2500.0
 20
5226.839188
 30
0.0
 11
2400.0
 21
5223.958837
 31
0.0
  0
LINE
  5
B4
330
18
100
AcDbEntity
  8
default
 62
     3
100
AcDbLine
 10
2499.835991
 20
5407.116677
 30
0.0
 11
2500.0
 21
5226.839188
 31
0.0
  0
LINE
  5
B5
330
18
100
AcDbEntity
  8
default
 62
     3
100
AcDbLine
 10
2400.0
 20
5407.61116
 30
0.0
 11
2499.835991
 21
5407.116677
 31
0.0
  0
LINE
  5
B6
330
18
100
AcDbEntity
  8
default
 62
     3
100
AcDbLine
 10
2300.0
 20
5408.989089
 30
0.0
 11
2400.0
 21
5407.61116
 31
0.0
  0
LINE
  5
B7
330
18
100
AcDbEntity
  8
default
 62
     3
100
AcDbLine
 10
2200.0
 20
5411.300615
 30
0.0
 11
2300.0
 21
5408.989089
 31
0.0
  0
LINE
  5
B8
330
18
100
AcDbEntity
  8
default
 62
     3
100
AcDbLine
 10
2100.0
 20
5414.591764
 30
0.0
 11
2200.0
 21
5411.300615
 31
0.0
  0
LINE
  5
B9
330
18
100
AcDbEntity
  8
default
 62
     3
100
AcDbLine
 10
2000.0
 20
5418.866031
 30
0.0
 11
2100.0
 21
5414.591764
 31
0.0
  0
LINE
  5
BA
330
18
100
AcDbEntity
  8
default
 62
     3
100
AcDbLine
 10
1900.0
 20
5424.122225
 30
0.0
 11
2000.0
 21
5418.866031
 31
0.0
  0
LINE
  5
BB
330
18
100
AcDbEntity
  8
default
 62
     3
100
AcDbLine
 10
1800.0
 20
5430.356689
 30
0.0
 11
1900.0
 21
5424.122225
 31
0.0
  0
LINE
  5
BC
330
18
100
AcDbEntity
  8
default
 62
     3
100
AcDbLine
 10
1700.0
 20
5437.522786
 30
0.0
 11
1800.0
 21
5430.356689
 31
0.0
  0
LINE
  5
BD
330
18
100
AcDbEntity
  8
default
 62
     3
100
AcDbLine
 10
1600.0
 20
5445.63494
 30
0.0
 11
1700.0
 21
5437.522786
 31
0.0
  0
LINE
  5
BE
330
18
100
AcDbEntity
  8
default
 62
     3
100
AcDbLine
 10
1500.0
 20
5454.713071
 30
0.0
 11
1600.0
 21
5445.63494
 31
0.0
  0
LINE
  5
BF
330
18
100
AcDbEntity
  8
default
 62
     3
100
AcDbLine
 10
1400.0
 20
5464.683137
 30
0.0
 11
1500.0
 21
5454.713071
 31
0.0
  0
LINE
  5
C0
330
18
100
AcDbEntity
  8
default
 62
     3
100
AcDbLine
 10
1300.0
 20
5475.562108
 30
0.0
 11
1400.0
 21
5464.683137
 31
0.0
  0
LINE
  5
C1
330
18
100
AcDbEntity
  8
default
 62
     3
100
AcDbLine
 10
1200.0
 20
5487.328924
 30
0.0
 11
1300.0
 21
5475.562108
 31
0.0
  0
LINE
  5
C2
330
18
100
AcDbEntity
  8
default
 62
     3
100
AcDbLine
 10
1100.0
 20
5499.975261
 30
0.0
 11
1200.0
 21
5487.328924
 31
0.0
  0
LINE
  5
C3
330
18
100
AcDbEntity
  8
default
 62
     3
100
AcDbLine
 10
1000.0
 20
5513.599476
 30
0.0
 11
1100.0
 21
5499.975261
 31
0.0
  0
LINE
  5
C4
330
18
100
AcDbEntity
  8
default
 62
     3
100
AcDbLine
 10
900.0
 20
5528.1579
 30
0.0
 11
1000.0
 21
5513.599476
 31
0.0
  0
LINE
  5
C5
330
18
100
AcDbEntity
  8
default
 62
     3
100
AcDbLine
 10
800.0
 20
5543.662318
 30
0.0
 11
900.0
 21
5528.1579
 31
0.0
  0
LINE
  5
C6
330
18
100
AcDbEntity
  8
default
 62
     3
100
AcDbLine
 10
700.0
 20
5560.161296
 30
0.0
 11
800.0
 21
5543.662318
 31
0.0
  0
LINE
  5
C7
330
18
100
AcDbEntity
  8
default
 62
     3
100
AcDbLine
 10
625.385834
 20
5572.881126
 30
0.0
 11
700.0
 21
5560.161296
 31
0.0
  0
LINE
  5
C8
330
18
100
AcDbEntity
  8
default
 62
     5
100
AcDbLine
 10
2400.0
 20
6054.372835
 30
0.0
 11
2500.0
 21
6041.5
 31
0.0
  0
LINE
  5
C9
330
18
100
AcDbEntity
  8
default
 62
     5
100
AcDbLine
 10
2300.0
 20
6068.437838
 30
0.0
 11
2400.0
 21
6054.372835
 31
0.0
  0
LINE
  5
CA
330
18
100
AcDbEntity
  8
default
 62
     5
100
AcDbLine
 10
2200.0
 20
6083.496597
 30
0.0
 11
2300.0
 21
6068.437838
 31
0.0
  0
LINE
  5
CB
330
18
100
AcDbEntity
  8
default
 62
     5
100
AcDbLine
 10
2099.04724
 20
6099.8
 30
0.0
 11
2200.0
 21
6083.496597
 31
0.0
  0
LINE
  5
CC
330
18
100
AcDbEntity
  8
default
 62
     5
100
AcDbLine
 10
2000.0
 20
6116.887182
 30
0.0
 11
2099.04724
 21
6099.8
 31
0.0
  0
LINE
  5
CD
330
18
100
AcDbEntity
  8
default
 62
     5
100
AcDbLine
 10
1900.0
 20
6135.218187
 30
0.0
 11
2000.0
 21
6116.887182
 31
0.0
  0
LINE
  5
CE
330
18
100
AcDbEntity
  8
default
 62
     5
100
AcDbLine
 10
1800.0
 20
6154.724149
 30
0.0
 11
1900.0
 21
6135.218187
 31
0.0
  0
LINE
  5
CF
330
18
100
AcDbEntity
  8
default
 62
     5
100
AcDbLine
 10
1700.0
 20
6175.512912
 30
0.0
 11
1800.0
 21
6154.724149
 31
0.0
  0
LINE
  5
D0
330
18
100
AcDbEntity
  8
default
 62
     5
100
AcDbLine
 10
1600.0
 20
6196.661822
 30
0.0
 11
1700.0
 21
6175.512912
 31
0.0
  0
LINE
  5
D1
330
18
100
AcDbEntity
  8
default
 62
     5
100
AcDbLine
 10
1500.0
 20
6219.339219
 30
0.0
 11
1600.0
 21
6196.661822
 31
0.0
  0
LINE
  5
D2
330
18
100
AcDbEntity
  8
default
 62
     5
100
AcDbLine
 10
1497.086171
 20
6220.0
 30
0.0
 11
1500.0
 21
6219.339219
 31
0.0
  0
LINE
  5
D3
330
18
100
AcDbEntity
  8
default
 62
     5
100
AcDbLine
 10
1500.0
 20
6220.0
 30
0.0
 11
1497.086171
 21
6220.0
 31
0.0
  0
LINE
  5
D4
330
18
100
AcDbEntity
  8
default
 62
     5
100
AcDbLine
 10
1600.0
 20
6220.0
 30
0.0
 11
1500.0
 21
6220.0
 31
0.0
  0
LINE
  5
D5
330
18
100
AcDbEntity
  8
default
 62
     5
100
AcDbLine
 10
1700.0
 20
6220.0
 30
0.0
 11
1600.0
 21
6220.0
 31
0.0
  0
LINE
  5
D6
330
18
100
AcDbEntity
  8
default
 62
     5
100
AcDbLine
 10
1800.0
 20
6220.0
 30
0.0
 11
1700.0
 21
6220.0
 31
0.0
  0
LINE
  5
D7
330
18
100
AcDbEntity
  8
default
 62
     5
100
AcDbLine
 10
1900.0
 20
6220.0
 30
0.0
 11
1800.0
 21
6220.0
 31
0.0
  0
LINE
  5
D8
330
18
100
AcDbEntity
  8
default
 62
     5
100
AcDbLine
 10
2000.0
 20
6220.0
 30
0.0
 11
1900.0
 21
6220.0
 31
0.0
  0
LINE
  5
D9
330
18
100
AcDbEntity
  8
default
 62
     5
100
AcDbLine
 10
2100.0
 20
6220.0
 30
0.0
 11
2000.0
 21
6220.0
 31
0.0
  0
LINE
  5
DA
330
18
100
AcDbEntity
  8
default
 62
     5
100
AcDbLine
 10
2200.0
 20
6220.0
 30
0.0
 11
2100.0
 21
6220.0
 31
0.0
  0
LINE
  5
DB
330
18
100
AcDbEntity
  8
default
 62
     5
100
AcDbLine
 10
2300.0
 20
6220.0
 30
0.0
 11
2200.0
 21
6220.0
 31
0.0
  0
LINE
  5
DC
330
18
100
AcDbEntity
  8
default
 62
     5
100
AcDbLine
 10
2400.0
 20
6220.0
 30
0.0
 11
2300.0
 21
6220.0
 31
0.0
  0
LINE
  5
DD
330
18
100
AcDbEntity
  8
default
 62
     5
100
AcDbLine
 10
2500.0
 20
6220.0
 30
0.0
 11
2400.0
 21
6220.0
 31
0.0
  0
LINE
  5
DE
330
18
100
AcDbEntity
  8
default
 62
     5
100
AcDbLine
 10
2500.0
 20
6041.5
 30
0.0
 11
2500.0
 21
6220.0
 31
0.0
  0
LINE
  5
DF
330
18
100
AcDbEntity
  8
default
 62
     5
100
AcDbLine
 10
2400.0
 20
5165.627165
 30
0.0
 11
2500.0
 21
5178.5
 31
0.0
  0
LINE
  5
E0
330
18
100
AcDbEntity
  8
default
 62
     5
100
AcDbLine
 10
2300.0
 20
5151.562162
 30
0.0
 11
2400.0
 21
5165.627165
 31
0.0
  0
LINE
  5
E1
330
18
100
AcDbEntity
  8
default
 62
     5
100
AcDbLine
 10
2200.0
 20
5136.503403
 30
0.0
 11
2300.0
 21
5151.562162
 31
0.0
  0
LINE
  5
E2
330
18
100
AcDbEntity
  8
default
 62
     5
100
AcDbLine
 10
2099.04724
 20
5120.2
 30
0.0
 11
2200.0
 21
5136.503403
 31
0.0
  0
LINE
  5
E3
330
18
100
AcDbEntity
  8
default
 62
     5
100
AcDbLine
 10
2000.0
 20
5103.112818
 30
0.0
 11
2099.04724
 21
5120.2
 31
0.0
  0
LINE
  5
E4
330
18
100
AcDbEntity
  8
default
 62
     5
100
AcDbLine
 10
1900.0
 20
5084.781813
 30
0.0
 11
2000.0
 21
5103.112818
 31
0.0
  0
LINE
  5
E5
330
18
100
AcDbEntity
  8
default
 62
     5
100
AcDbLine
 10
1800.0
 20
5065.275851
 30
0.0
 11
1900.0
 21
5084.781813
 31
0.0
  0
LINE
  5
E6
330
18
100
AcDbEntity
  8
default
 62
     5
100
AcDbLine
 10
1700.0
 20
5044.487088
 30
0.0
 11
1800.0
 21
5065.275851
 31
0.0
  0
LINE
  5
E7
330
18
100
AcDbEntity
  8
default
 62
     5
100
AcDbLine
 10
1600.0
 20
5023.338178
 30
0.0
 11
1700.0
 21
5044.487088
 31
0.0
  0
LINE
  5
E8
330
18
100
AcDbEntity
  8
default
 62
     5
100
AcDbLine
 10
1500.0
 20
5000.660781
 30
0.0
 11
1600.0
 21
5023.338178
 31
0.0
  0
LINE
  5
E9
330
18
100
AcDbEntity
  8
default
 62
     5
100
AcDbLine
 10
1497.086171
 20
5000.0
 30
0.0
 11
1500.0
 21
5000.660781
 31
0.0
  0
LINE
  5
EA
330
18
100
AcDbEntity
  8
default
 62
     5
100
AcDbLine
 10
1500.0
 20
5000.0
 30
0.0
 11
1497.086171
 21
5000.0
 31
0.0
  0
LINE
  5
EB
330
18
100
AcDbEntity
  8
default
 62
     5
100
AcDbLine
 10
1600.0
 20
5000.0
 30
0.0
 11
1500.0
 21
5000.0
 31
0.0
  0
LINE
  5
EC
330
18
100
AcDbEntity
  8
default
 62
     5
100
AcDbLine
 10
1700.0
 20
5000.0
 30
0.0
 11
1600.0
 21
5000.0
 31
0.0
  0
LINE
  5
ED
330
18
100
AcDbEntity
  8
default
 62
     5
100
AcDbLine
 10
1800.0
 20
5000.0
 30
0.0
 11
1700.0
 21
5000.0
 31
0.0
  0
LINE
  5
EE
330
18
100
AcDbEntity
  8
default
 62
     5
100
AcDbLine
 10
1900.0
 20
5000.0
 30
0.0
 11
1800.0
 21
5000.0
 31
0.0
  0
LINE
  5
EF
330
18
100
AcDbEntity
  8
default
 62
     5
100
AcDbLine
 10
2000.0
 20
5000.0
 30
0.0
 11
1900.0
 21
5000.0
 31
0.0
  0
LINE
  5
F0
330
18
100
AcDbEntity
  8
default
 62
     5
100
AcDbLine
 10
2100.0
 20
5000.0
 30
0.0
 11
2000.0
 21
5000.0
 31
0.0
  0
LINE
  5
F1
330
18
100
AcDbEntity
  8
default
 62
     5
100
AcDbLine
 10
2200.0
 20
5000.0
 30
0.0
 11
2100.0
 21
5000.0
 31
0.0
  0
LINE
  5
F2
330
18
100
AcDbEntity
  8
default
 62
     5
100
AcDbLine
 10
2300.0
 20
5000.0
 30
0.0
 11
2200.0
 21
5000.0
 31
0.0
  0
LINE
  5
F3
330
18
100
AcDbEntity
  8
default
 62
     5
100
AcDbLine
 10
2400.0
 20
5000.0
 30
0.0
 11
2300.0
 21
5000.0
 31
0.0
  0
LINE
  5
F4
330
18
100
AcDbEntity
  8
default
 62
     5
100
AcDbLine
 10
2500.0
 20
5000.0
 30
0.0
 11
2400.0
 21
5000.0
 31
0.0
  0
LINE
  5
F5
330
18
100
AcDbEntity
  8
default
 62
     5
100
AcDbLine
 10
2500.0
 20
5178.5
 30
0.0
 11
2500.0
 21
5000.0
 31
0.0
  0
LINE
  5
F6
330
18
100
AcDbEntity
  8
default
 62
    14
100
AcDbLine
 10
2382.71775
 20
5220.373168
 30
0.0
 11
2300.0
 21
5192.825248
 31
0.0
  0
LINE
  5
F7
330
18
100
AcDbEntity
  8
default
 62
    14
100
AcDbLine
 10
2300.0
 20
5212.749066
 30
0.0
 11
2382.71775
 21
5220.373168
 31
0.0
  0
LINE
  5
F8
330
18
100
AcDbEntity
  8
default
 62
    14
100
AcDbLine
 10
2200.0
 20
5204.373529
 30
0.0
 11
2300.0
 21
5212.749066
 31
0.0
  0
LINE
  5
F9
330
18
100
AcDbEntity
  8
default
 62
    14
100
AcDbLine
 10
2100.0
 20
5196.989842
 30
0.0
 11
2200.0
 21
5204.373529
 31
0.0
  0
LINE
  5
FA
330
18
100
AcDbEntity
  8
default
 62
    14
100
AcDbLine
 10
2000.0
 20
5190.818007
 30
0.0
 11
2100.0
 21
5196.989842
 31
0.0
  0
LINE
  5
FB
330
18
100
AcDbEntity
  8
default
 62
    14
100
AcDbLine
 10
1900.0
 20
5185.527267
 30
0.0
 11
2000.0
 21
5190.818007
 31
0.0
  0
LINE
  5
FC
330
18
100
AcDbEntity
  8
default
 62
    14
100
AcDbLine
 10
1800.0
 20
5181.336878
 30
0.0
 11
1900.0
 21
5185.527267
 31
0.0
  0
LINE
  5
FD
330
18
100
AcDbEntity
  8
default
 62
    14
100
AcDbLine
 10
1700.0
 20
5178.213461
 30
0.0
 11
1800.0
 21
5181.336878
 31
0.0
  0
LINE
  5
FE
330
18
100
AcDbEntity
  8
default
 62
    14
100
AcDbLine
 10
1600.0
 20
5176.320554
 30
0.0
 11
1700.0
 21
5178.213461
 31
0.0
  0
LINE
  5
FF
330
18
100
AcDbEntity
  8
default
 62
    14
100
AcDbLine
 10
1500.0
 20
5175.091635
 30
0.0
 11
1600.0
 21
5176.320554
 31
0.0
  0
LINE
  5
100
330
18
100
AcDbEntity
  8
default
 62
    14
100
AcDbLine
 10
1400.0
 20
5175.263547
 30
0.0
 11
1500.0
 21
5175.091635
 31
0.0
  0
LINE
  5
101
330
18
100
AcDbEntity
  8
default
 62
    14
100
AcDbLine
 10
1300.0
 20
5176.430202
 30
0.0
 11
1400.0
 21
5175.263547
 31
0.0
  0
LINE
  5
102
330
18
100
AcDbEntity
  8
default
 62
    14
100
AcDbLine
 10
1200.0
 20
5178.702155
 30
0.0
 11
1300.0
 21
5176.430202
 31
0.0
  0
LINE
  5
103
330
18
100
AcDbEntity
  8
default
 62
    14
100
AcDbLine
 10
1100.0
 20
5182.008338
 30
0.0
 11
1200.0
 21
5178.702155
 31
0.0
  0
LINE
  5
104
330
18
100
AcDbEntity
  8
default
 62
    14
100
AcDbLine
 10
1000.0
 20
5186.313776
 30
0.0
 11
1100.0
 21
5182.008338
 31
0.0
  0
LINE
  5
105
330
18
100
AcDbEntity
  8
default
 62
    14
100
AcDbLine
 10
900.0
 20
5191.715429
 30
0.0
 11
1000.0
 21
5186.313776
 31
0.0
  0
LINE
  5
106
330
18
100
AcDbEntity
  8
default
 62
    14
100
AcDbLine
 10
800.0
 20
5198.243438
 30
0.0
 11
900.0
 21
5191.715429
 31
0.0
  0
LINE
  5
107
330
18
100
AcDbEntity
  8
default
 62
    14
100
AcDbLine
 10
700.0
 20
5205.923287
 30
0.0
 11
800.0
 21
5198.243438
 31
0.0
  0
LINE
  5
108
330
18
100
AcDbEntity
  8
default
 62
    14
100
AcDbLine
 10
600.0
 20
5214.76019
 30
0.0
 11
700.0
 21
5205.923287
 31
0.0
  0
LINE
  5
109
330
18
100
AcDbEntity
  8
default
 62
    14
100
AcDbLine
 10
500.0
 20
5224.745671
 30
0.0
 11
600.0
 21
5214.76019
 31
0.0
  0
LINE
  5
10A
330
18
100
AcDbEntity
  8
default
 62
    14
100
AcDbLine
 10
400.0
 20
5236.008932
 30
0.0
 11
500.0
 21
5224.745671
 31
0.0
  0
LINE
  5
10B
330
18
100
AcDbEntity
  8
default
 62
    14
100
AcDbLine
 10
300.0
 20
5248.510504
 30
0.0
 11
400.0
 21
5236.008932
 31
0.0
  0
LINE
  5
10C
330
18
100
AcDbEntity
  8
default
 62
    14
100
AcDbLine
 10
214.901788
 20
5260.536945
 30
0.0
 11
300.0
 21
5248.510504
 31
0.0
  0
LINE
  5
10D
330
18
100
AcDbEntity
  8
default
 62
    14
100
AcDbLine
 10
200.0
 20
5161.300718
 30
0.0
 11
214.901788
 21
5260.536945
 31
0.0
  0
LINE
  5
10E
330
18
100
AcDbEntity
  8
default
 62
    14
100
AcDbLine
 10
188.142422
 20
5082.336954
 30
0.0
 11
200.0
 21
5161.300718
 31
0.0
  0
LINE
  5
10F
330
18
100
AcDbEntity
  8
default
 62
    14
100
AcDbLine
 10
200.0
 20
5080.558065
 30
0.0
 11
188.142422
 21
5082.336954
 31
0.0
  0
LINE
  5
110
330
18
100
AcDbEntity
  8
default
 62
    14
100
AcDbLine
 10
300.0
 20
5067.052358
 30
0.0
 11
200.0
 21
5080.558065
 31
0.0
  0
LINE
  5
111
330
18
100
AcDbEntity
  8
default
 62
    14
100
AcDbLine
 10
400.0
 20
5055.555363
 30
0.0
 11
300.0
 21
5067.052358
 31
0.0
  0
LINE
  5
112
330
18
100
AcDbEntity
  8
default
 62
    14
100
AcDbLine
 10
500.0
 20
5045.875584
 30
0.0
 11
400.0
 21
5055.555363
 31
0.0
  0
LINE
  5
113
330
18
100
AcDbEntity
  8
default
 62
    14
100
AcDbLine
 10
600.0
 20
5037.864224
 30
0.0
 11
500.0
 21
5045.875584
 31
0.0
  0
LINE
  5
114
330
18
100
AcDbEntity
  8
default
 62
    14
100
AcDbLine
 10
700.0
 20
5031.493613
 30
0.0
 11
600.0
 21
5037.864224
 31
0.0
  0
LINE
  5
115
330
18
100
AcDbEntity
  8
default
 62
    14
100
AcDbLine
 10
800.0
 20
5026.739415
 30
0.0
 11
700.0
 21
5031.493613
 31
0.0
  0
LINE
  5
116
330
18
100
AcDbEntity
  8
default
 62
    14
100
AcDbLine
 10
900.0
 20
5023.550358
 30
0.0
 11
800.0
 21
5026.739415
 31
0.0
  0
LINE
  5
117
330
18
100
AcDbEntity
  8
default
 62
    14
100
AcDbLine
 10
1000.0
 20
5021.87782
 30
0.0
 11
900.0
 21
5023.550358
 31
0.0
  0
LINE
  5
118
330
18
100
AcDbEntity
  8
default
 62
    14
100
AcDbLine
 10
1100.0
 20
5021.735652
 30
0.0
 11
1000.0
 21
5021.87782
 31
0.0
  0
LINE
  5
119
330
18
100
AcDbEntity
  8
default
 62
    14
100
AcDbLine
 10
1200.0
 20
5022.966807
 30
0.0
 11
1100.0
 21
5021.735652
 31
0.0
  0
LINE
  5
11A
330
18
100
AcDbEntity
  8
default
 62
    14
100
AcDbLine
 10
1300.0
 20
5025.689624
 30
0.0
 11
1200.0
 21
5022.966807
 31
0.0
  0
LINE
  5
11B
330
18
100
AcDbEntity
  8
default
 62
    14
100
AcDbLine
 10
1400.0
 20
5030.567403
 30
0.0
 11
1300.0
 21
5025.689624
 31
0.0
  0
LINE
  5
11C
330
18
100
AcDbEntity
  8
default
 62
    14
100
AcDbLine
 10
1500.0
 20
5037.680863
 30
0.0
 11
1400.0
 21
5030.567403
 31
0.0
  0
LINE
  5
11D
330
18
100
AcDbEntity
  8
default
 62
    14
100
AcDbLine
 10
1600.0
 20
5047.112789
 30
0.0
 11
1500.0
 21
5037.680863
 31
0.0
  0
LINE
  5
11E
330
18
100
AcDbEntity
  8
default
 62
    14
100
AcDbLine
 10
1700.0
 20
5059.044301
 30
0.0
 11
1600.0
 21
5047.112789
 31
0.0
  0
LINE
  5
11F
330
18
100
AcDbEntity
  8
default
 62
    14
100
AcDbLine
 10
1800.0
 20
5073.687594
 30
0.0
 11
1700.0
 21
5059.044301
 31
0.0
  0
LINE
  5
120
330
18
100
AcDbEntity
  8
default
 62
    14
100
AcDbLine
 10
1900.0
 20
5091.174394
 30
0.0
 11
1800.0
 21
5073.687594
 31
0.0
  0
LINE
  5
121
330
18
100
AcDbEntity
  8
default
 62
    14
100
AcDbLine
 10
2000.0
 20
5111.800465
 30
0.0
 11
1900.0
 21
5091.174394
 31
0.0
  0
LINE
  5
122
330
18
100
AcDbEntity
  8
default
 62
    14
100
AcDbLine
 10
2100.0
 20
5135.126684
 30
0.0
 11
2000.0
 21
5111.800465
 31
0.0
  0
LINE
  5
123
330
18
100
AcDbEntity
  8
default
 62
    14
100
AcDbLine
 10
2200.0
 20
5162.399819
 30
0.0
 11
2100.0
 21
5135.126684
 31
0.0
  0
LINE
  5
124
330
18
100
AcDbEntity
  8
default
 62
    14
100
AcDbLine
 10
2300.0
 20
5192.825248
 30
0.0
 11
2200.0
 21
5162.399819
 31
0.0
  0
LINE
  5
125
330
18
100
AcDbEntity
  8
default
 62
    14
100
AcDbLine
 10
2100.0
 20
6084.873316
 30
0.0
 11
2200.0
 21
6057.600181
 31
0.0
  0
LINE
  5
126
330
18
100
AcDbEntity
  8
default
 62
    14
100
AcDbLine
 10
2000.0
 20
6108.199535
 30
0.0
 11
2100.0
 21
6084.873316
 31
0.0
  0
LINE
  5
127
330
18
100
AcDbEntity
  8
default
 62
    14
100
AcDbLine
 10
1900.0
 20
6128.825606
 30
0.0
 11
2000.0
 21
6108.199535
 31
0.0
  0
LINE
  5
128
330
18
100
AcDbEntity
  8
default
 62
    14
100
AcDbLine
 10
1800.0
 20
6146.312406
 30
0.0
 11
1900.0
 21
6128.825606
 31
0.0
  0
LINE
  5
129
330
18
100
AcDbEntity
  8
default
 62
    14
100
AcDbLine
 10
1700.0
 20
6160.955699
 30
0.0
 11
1800.0
 21
6146.312406
 31
0.0
  0
LINE
  5
12A
330
18
100
AcDbEntity
  8
default
 62
    14
100
AcDbLine
 10
1600.0
 20
6172.887211
 30
0.0
 11
1700.0
 21
6160.955699
 31
0.0
  0
LINE
  5
12B
330
18
100
AcDbEntity
  8
default
 62
    14
100
AcDbLine
 10
1500.0
 20
6182.319137
 30
0.0
 11
1600.0
 21
6172.887211
 31
0.0
  0
LINE
  5
12C
330
18
100
AcDbEntity
  8
default
 62
    14
100
AcDbLine
 10
1400.0
 20
6189.432597
 30
0.0
 11
1500.0
 21
6182.319137
 31
0.0
  0
LINE
  5
12D
330
18
100
AcDbEntity
  8
default
 62
    14
100
AcDbLine
 10
1300.0
 20
6194.310376
 30
0.0
 11
1400.0
 21
6189.432597
 31
0.0
  0
LINE
  5
12E
330
18
100
AcDbEntity
  8
default
 62
    14
100
AcDbLine
 10
1200.0
 20
6197.033193
 30
0.0
 11
1300.0
 21
6194.310376
 31
0.0
  0
LINE
  5
12F
330
18
100
AcDbEntity
  8
default
 62
    14
100
AcDbLine
 10
1100.0
 20
6198.264348
 30
0.0
 11
1200.0
 21
6197.033193
 31
0.0
  0
LINE
  5
130
330
18
100
AcDbEntity
  8
default
 62
    14
100
AcDbLine
 10
1000.0
 20
6198.12218
 30
0.0
 11
1100.0
 21
6198.264348
 31
0.0
  0
LINE
  5
131
330
18
100
AcDbEntity
  8
default
 62
    14
100
AcDbLine
 10
900.0
 20
6196.449642
 30
0.0
 11
1000.0
 21
6198.12218
 31
0.0
  0
LINE
  5
132
330
18
100
AcDbEntity
  8
default
 62
    14
100
AcDbLine
 10
800.0
 20
6193.260585
 30
0.0
 11
900.0
 21
6196.449642
 31
0.0
  0
LINE
  5
133
330
18
100
AcDbEntity
  8
default
 62
    14
100
AcDbLine
 10
700.0
 20
6188.506387
 30
0.0
 11
800.0
 21
6193.260585
 31
0.0
  0
LINE
  5
134
330
18
100
AcDbEntity
  8
default
 62
    14
100
AcDbLine
 10
600.0
 20
6182.135776
 30
0.0
 11
700.0
 21
6188.506387
 31
0.0
  0
LINE
  5
135
330
18
100
AcDbEntity
  8
default
 62
    14
100
AcDbLine
 10
500.0
 20
6174.124416
 30
0.0
 11
600.0
 21
6182.135776
 31
0.0
  0
LINE
  5
136
330
18
100
AcDbEntity
  8
default
 62
    14
100
AcDbLine
 10
400.0
 20
6164.444637
 30
0.0
 11
500.0
 21
6174.124416
 31
0.0
  0
LINE
  5
137
330
18
100
AcDbEntity
  8
default
 62
    14
100
AcDbLine
 10
300.0
 20
6152.947642
 30
0.0
 11
400.0
 21
6164.444637
 31
0.0
  0
LINE
  5
138
330
18
100
AcDbEntity
  8
default
 62
    14
100
AcDbLine
 10
200.0
 20
6139.441935
 30
0.0
 11
300.0
 21
6152.947642
 31
0.0
  0
LINE
  5
139
330
18
100
AcDbEntity
  8
default
 62
    14
100
AcDbLine
 10
188.142422
 20
6137.663046
 30
0.0
 11
200.0
 21
6139.441935
 31
0.0
  0
LINE
  5
13A
330
18
100
AcDbEntity
  8
default
 62
    14
100
AcDbLine
 10
200.0
 20
6058.699282
 30
0.0
 11
188.142422
 21
6137.663046
 31
0.0
  0
LINE
  5
13B
330
18
100
AcDbEntity
  8
default
 62
    14
100
AcDbLine
 10
214.901788
 20
5959.463055
 30
0.0
 11
200.0
 21
6058.699282
 31
0.0
  0
LINE
  5
13C
330
18
100
AcDbEntity
  8
default
 62
    14
100
AcDbLine
 10
300.0
 20
5971.489496
 30
0.0
 11
214.901788
 21
5959.463055
 31
0.0
  0
LINE
  5
13D
330
18
100
AcDbEntity
  8
default
 62
    14
100
AcDbLine
 10
400.0
 20
5983.991068
 30
0.0
 11
300.0
 21
5971.489496
 31
0.0
  0
LINE
  5
13E
330
18
100
AcDbEntity
  8
default
 62
    14
100
AcDbLine
 10
500.0
 20
5995.254329
 30
0.0
 11
400.0
 21
5983.991068
 31
0.0
  0
LINE
  5
13F
330
18
100
AcDbEntity
  8
default
 62
    14
100
AcDbLine
 10
600.0
 20
6005.23981
 30
0.0
 11
500.0
 21
5995.254329
 31
0.0
  0
LINE
  5
140
330
18
100
AcDbEntity
  8
default
 62
    14
100
AcDbLine
 10
700.0
 20
6014.076713
 30
0.0
 11
600.0
 21
6005.23981
 31
0.0
  0
LINE
  5
141
330
18
100
AcDbEntity
  8
default
 62
    14
100
AcDbLine
 10
800.0
 20
6021.756562
 30
0.0
 11
700.0
 21
6014.076713
 31
0.0
  0
LINE
  5
142
330
18
100
AcDbEntity
  8
default
 62
    14
100
AcDbLine
 10
900.0
 20
6028.284571
 30
0.0
 11
800.0
 21
6021.756562
 31
0.0
  0
LINE
  5
143
330
18
100
AcDbEntity
  8
default
 62
    14
100
AcDbLine
 10
1000.0
 20
6033.686224
 30
0.0
 11
900.0
 21
6028.284571
 31
0.0
  0
LINE
  5
144
330
18
100
AcDbEntity
  8
default
 62
    14
100
AcDbLine
 10
1100.0
 20
6037.991662
 30
0.0
 11
1000.0
 21
6033.686224
 31
0.0
  0
LINE
  5
145
330
18
100
AcDbEntity
  8
default
 62
    14
100
AcDbLine
 10
1200.0
 20
6041.297845
 30
0.0
 11
1100.0
 21
6037.991662
 31
0.0
  0
LINE
  5
146
330
18
100
AcDbEntity
  8
default
 62
    14
100
AcDbLine
 10
1300.0
 20
6043.569798
 30
0.0
 11
1200.0
 21
6041.297845
 31
0.0
  0
LINE
  5
147
330
18
100
AcDbEntity
  8
default
 62
    14
100
AcDbLine
 10
1400.0
 20
6044.736453
 30
0.0
 11
1300.0
 21
6043.569798
 31
0.0
  0
LINE
  5
148
330
18
100
AcDbEntity
  8
default
 62
    14
100
AcDbLine
 10
1500.0
 20
6044.908365
 30
0.0
 11
1400.0
 21
6044.736453
 31
0.0
  0
LINE
  5
149
330
18
100
AcDbEntity
  8
default
 62
    14
100
AcDbLine
 10
1600.0
 20
6043.679446
 30
0.0
 11
1500.0
 21
6044.908365
 31
0.0
  0
LINE
  5
14A
330
18
100
AcDbEntity
  8
default
 62
    14
100
AcDbLine
 10
1700.0
 20
6041.786539
 30
0.0
 11
1600.0
 21
6043.679446
 31
0.0
  0
LINE
  5
14B
330
18
100
AcDbEntity
  8
default
 62
    14
100
AcDbLine
 10
1800.0
 20
6038.663122
 30
0.0
 11
1700.0
 21
6041.786539
 31
0.0
  0
LINE
  5
14C
330
18
100
AcDbEntity
  8
default
 62
    14
100
AcDbLine
 10
1900.0
 20
6034.472733
 30
0.0
 11
1800.0
 21
6038.663122
 31
0.0
  0
LINE
  5
14D
330
18
100
AcDbEntity
  8
default
 62
    14
100
AcDbLine
 10
2000.0
 20
6029.181993
 30
0.0
 11
1900.0
 21
6034.472733
 31
0.0
  0
LINE
  5
14E
330
18
100
AcDbEntity
  8
default
 62
    14
100
AcDbLine
 10
2100.0
 20
6023.010158
 30
0.0
 11
2000.0
 21
6029.181993
 31
0.0
  0
LINE
  5
14F
330
18
100
AcDbEntity
  8
default
 62
    14
100
AcDbLine
 10
2200.0
 20
6015.626471
 30
0.0
 11
2100.0
 21
6023.010158
 31
0.0
  0
LINE
  5
150
330
18
100
AcDbEntity
  8
default
 62
    14
100
AcDbLine
 10
2300.0
 20
6007.250934
 30
0.0
 11
2200.0
 21
6015.626471
 31
0.0
  0
LINE
  5
151
330
18
100
AcDbEntity
  8
default
 62
    14
100
AcDbLine
 10
2382.71775
 20
5999.626832
 30
0.0
 11
2300.0
 21
6007.250934
 31
0.0
  0
LINE
  5
152
330
18
100
AcDbEntity
  8
default
 62
    14
100
AcDbLine
 10
2300.0
 20
6027.174752
 30
0.0
 11
2382.71775
 21
5999.626832
 31
0.0
  0
LINE
  5
153
330
18
100
AcDbEntity
  8
default
 62
    14
100
AcDbLine
 10
2200.0
 20
6057.600181
 30
0.0
 11
2300.0
 21
6027.174752
 31
0.0
  0
LINE
  5
154
330
18
100
AcDbEntity
  8
default
 62
     1
100
AcDbLine
 10
700.0
 20
5595.533333
 30
0.0
 11
630.0
 21
5610.0
 31
0.0
  0
LINE
  5
155
330
18
100
AcDbEntity
  8
default
 62
     1
100
AcDbLine
 10
800.0
 20
5575.45
 30
0.0
 11
700.0
 21
5595.533333
 31
0.0
  0
LINE
  5
156
330
18
100
AcDbEntity
  8
default
 62
     1
100
AcDbLine
 10
900.0
 20
5556.55
 30
0.0
 11
800.0
 21
5575.45
 31
0.0
  0
LINE
  5
157
330
18
100
AcDbEntity
  8
default
 62
     1
100
AcDbLine
 10
1000.0
 20
5538.8
 30
0.0
 11
900.0
 21
5556.55
 31
0.0
  0
LINE
  5
158
330
18
100
AcDbEntity
  8
default
 62
     1
100
AcDbLine
 10
1100.0
 20
5522.2
 30
0.0
 11
1000.0
 21
5538.8
 31
0.0
  0
LINE
  5
159
330
18
100
AcDbEntity
  8
default
 62
     1
100
AcDbLine
 10
1200.0
 20
5506.8
 30
0.0
 11
1100.0
 21
5522.2
 31
0.0
  0
LINE
  5
15A
330
18
100
AcDbEntity
  8
default
 62
     1
100
AcDbLine
 10
1300.0
 20
5492.5
 30
0.0
 11
1200.0
 21
5506.8
 31
0.0
  0
LINE
  5
15B
330
18
100
AcDbEntity
  8
default
 62
     1
100
AcDbLine
 10
1400.0
 20
5479.35
 30
0.0
 11
1300.0
 21
5492.5
 31
0.0
  0
LINE
  5
15C
330
18
100
AcDbEntity
  8
default
 62
     1
100
AcDbLine
 10
1500.0
 20
5467.35
 30
0.0
 11
1400.0
 21
5479.35
 31
0.0
  0
LINE
  5
15D
330
18
100
AcDbEntity
  8
default
 62
     1
100
AcDbLine
 10
1600.0
 20
5456.45
 30
0.0
 11
1500.0
 21
5467.35
 31
0.0
  0
LINE
  5
15E
330
18
100
AcDbEntity
  8
default
 62
     1
100
AcDbLine
 10
1700.0
 20
5446.75
 30
0.0
 11
1600.0
 21
5456.45
 31
0.0
  0
LINE
  5
15F
330
18
100
AcDbEntity
  8
default
 62
     1
100
AcDbLine
 10
1800.0
 20
5438.2
 30
0.0
 11
1700.0
 21
5446.75
 31
0.0
  0
LINE
  5
160
330
18
100
AcDbEntity
  8
default
 62
     1
100
AcDbLine
 10
1900.0
 20
5430.75
 30
0.0
 11
1800.0
 21
5438.2
 31
0.0
  0
LINE
  5
161
330
18
100
AcDbEntity
  8
default
 62
     1
100
AcDbLine
 10
2000.0
 20
5424.45
 30
0.0
 11
1900.0
 21
5430.75
 31
0.0
  0
LINE
  5
162
330
18
100
AcDbEntity
  8
default
 62
     1
100
AcDbLine
 10
2100.0
 20
5419.3
 30
0.0
 11
2000.0
 21
5424.45
 31
0.0
  0
LINE
  5
163
330
18
100
AcDbEntity
  8
default
 62
     1
100
AcDbLine
 10
2200.0
 20
5415.3
 30
0.0
 11
2100.0
 21
5419.3
 31
0.0
  0
LINE
  5
164
330
18
100
AcDbEntity
  8
default
 62
     1
100
AcDbLine
 10
2300.0
 20
5412.45
 30
0.0
 11
2200.0
 21
5415.3
 31
0.0
  0
LINE
  5
165
330
18
100
AcDbEntity
  8
default
 62
     1
100
AcDbLine
 10
2400.0
 20
5410.7
 30
0.0
 11
2300.0
 21
5412.45
 31
0.0
  0
LINE
  5
166
330
18
100
AcDbEntity
  8
default
 62
     1
100
AcDbLine
 10
2500.0
 20
5410.1
 30
0.0
 11
2400.0
 21
5410.7
 31
0.0
  0
LINE
  5
167
330
18
100
AcDbEntity
  8
default
 62
     1
100
AcDbLine
 10
2500.0
 20
5610.0
 30
0.0
 11
2500.0
 21
5410.1
 31
0.0
  0
LINE
  5
168
330
18
100
AcDbEntity
  8
default
 62
     1
100
AcDbLine
 10
2500.0
 20
5809.9
 30
0.0
 11
2500.0
 21
5610.0
 31
0.0
  0
LINE
  5
169
330
18
100
AcDbEntity
  8
default
 62
     1
100
AcDbLine
 10
2400.0
 20
5809.3
 30
0.0
 11
2500.0
 21
5809.9
 31
0.0
  0
LINE
  5
16A
330
18
100
AcDbEntity
  8
default
 62
     1
100
AcDbLine
 10
2300.0
 20
5807.55
 30
0.0
 11
2400.0
 21
5809.3
 31
0.0
  0
LINE
  5
16B
330
18
100
AcDbEntity
  8
default
 62
     1
100
AcDbLine
 10
2200.0
 20
5804.7
 30
0.0
 11
2300.0
 21
5807.55
 31
0.0
  0
LINE
  5
16C
330
18
100
AcDbEntity
  8
default
 62
     1
100
AcDbLine
 10
2100.0
 20
5800.7
 30
0.0
 11
2200.0
 21
5804.7
 31
0.0
  0
LINE
  5
16D
330
18
100
AcDbEntity
  8
default
 62
     1
100
AcDbLine
 10
2000.0
 20
5795.55
 30
0.0
 11
2100.0
 21
5800.7
 31
0.0
  0
LINE
  5
16E
330
18
100
AcDbEntity
  8
default
 62
     1
100
AcDbLine
 10
1900.0
 20
5789.25
 30
0.0
 11
2000.0
 21
5795.55
 31
0.0
  0
LINE
  5
16F
330
18
100
AcDbEntity
  8
default
 62
     1
100
AcDbLine
 10
1800.0
 20
5781.8
 30
0.0
 11
1900.0
 21
5789.25
 31
0.0
  0
LINE
  5
170
330
18
100
AcDbEntity
  8
default
 62
     1
100
AcDbLine
 10
1700.0
 20
5773.25
 30
0.0
 11
1800.0
 21
5781.8
 31
0.0
  0
LINE
  5
171
330
18
100
AcDbEntity
  8
default
 62
     1
100
AcDbLine
 10
1600.0
 20
5763.55
 30
0.0
 11
1700.0
 21
5773.25
 31
0.0
  0
LINE
  5
172
330
18
100
AcDbEntity
  8
default
 62
     1
100
AcDbLine
 10
1500.0
 20
5752.65
 30
0.0
 11
1600.0
 21
5763.55
 31
0.0
  0
LINE
  5
173
330
18
100
AcDbEntity
  8
default
 62
     1
100
AcDbLine
 10
1400.0
 20
5740.65
 30
0.0
 11
1500.0
 21
5752.65
 31
0.0
  0
LINE
  5
174
330
18
100
AcDbEntity
  8
default
 62
     1
100
AcDbLine
 10
1300.0
 20
5727.5
 30
0.0
 11
1400.0
 21
5740.65
 31
0.0
  0
LINE
  5
175
330
18
100
AcDbEntity
  8
default
 62
     1
100
AcDbLine
 10
1200.0
 20
5713.2
 30
0.0
 11
1300.0
 21
5727.5
 31
0.0
  0
LINE
  5
176
330
18
100
AcDbEntity
  8
default
 62
     1
100
AcDbLine
 10
1100.0
 20
5697.8
 30
0.0
 11
1200.0
 21
5713.2
 31
0.0
  0
LINE
  5
177
330
18
100
AcDbEntity
  8
default
 62
     1
100
AcDbLine
 10
1000.0
 20
5681.2
 30
0.0
 11
1100.0
 21
5697.8
 31
0.0
  0
LINE
  5
178
330
18
100
AcDbEntity
  8
default
 62
     1
100
AcDbLine
 10
900.0
 20
5663.45
 30
0.0
 11
1000.0
 21
5681.2
 31
0.0
  0
LINE
  5
179
330
18
100
AcDbEntity
  8
default
 62
     1
100
AcDbLine
 10
800.0
 20
5644.55
 30
0.0
 11
900.0
 21
5663.45
 31
0.0
  0
LINE
  5
17A
330
18
100
AcDbEntity
  8
default
 62
     1
100
AcDbLine
 10
700.0
 20
5624.466667
 30
0.0
 11
800.0
 21
5644.55
 31
0.0
  0
LINE
  5
17B
330
18
100
AcDbEntity
  8
default
 62
     1
100
AcDbLine
 10
630.0
 20
5610.0
 30
0.0
 11
700.0
 21
5624.466667
 31
0.0
  0
LINE
  5
17C
330
18
100
AcDbEntity
  8
default
 62
     6
100
AcDbLine
 10
208.500878
 20
5788.499581
 30
0.0
 11
208.500878
 21
5609.999462
 31
0.0
  0
LINE
  5
17D
330
18
100
AcDbEntity
  8
default
 62
     6
100
AcDbLine
 10
300.0
 20
5907.100244
 30
0.0
 11
208.500878
 21
5788.499581
 31
0.0
  0
LINE
  5
17E
330
18
100
AcDbEntity
  8
default
 62
     6
100
AcDbLine
 10
400.0
 20
5823.832126
 30
0.0
 11
300.0
 21
5907.100244
 31
0.0
  0
LINE
  5
17F
330
18
100
AcDbEntity
  8
default
 62
     6
100
AcDbLine
 10
500.0
 20
5740.564009
 30
0.0
 11
400.0
 21
5823.832126
 31
0.0
  0
LINE
  5
180
330
18
100
AcDbEntity
  8
default
 62
     6
100
AcDbLine
 10
507.39881
 20
5734.403159
 30
0.0
 11
500.0
 21
5740.564009
 31
0.0
  0
LINE
  5
181
330
18
100
AcDbEntity
  8
default
 62
     6
100
AcDbLine
 10
507.400815
 20
5610.0
 30
0.0
 11
507.39881
 21
5734.403159
 31
0.0
  0
LINE
  5
182
330
18
100
AcDbEntity
  8
default
 62
     6
100
AcDbLine
 10
507.39881
 20
5485.599454
 30
0.0
 11
507.400815
 21
5610.0
 31
0.0
  0
LINE
  5
183
330
18
100
AcDbEntity
  8
default
 62
     6
100
AcDbLine
 10
500.0
 20
5479.438604
 30
0.0
 11
507.39881
 21
5485.599454
 31
0.0
  0
LINE
  5
184
330
18
100
AcDbEntity
  8
default
 62
     6
100
AcDbLine
 10
400.0
 20
5396.170487
 30
0.0
 11
500.0
 21
5479.438604
 31
0.0
  0
LINE
  5
185
330
18
100
AcDbEntity
  8
default
 62
     6
100
AcDbLine
 10
300.0
 20
5312.90237
 30
0.0
 11
400.0
 21
5396.170487
 31
0.0
  0
LINE
  5
186
330
18
100
AcDbEntity
  8
default
 62
     6
100
AcDbLine
 10
208.500878
 20
5431.503032
 30
0.0
 11
300.0
 21
5312.90237
 31
0.0
  0
LINE
  5
187
330
18
100
AcDbEntity
  8
default
 62
     6
100
AcDbLine
 10
208.500878
 20
5609.999462
 30
0.0
 11
208.500878
 21
5431.503032
 31
0.0
  0
ENDSEC
  0
SECTION
  2
OBJECTS
  0
DICTIONARY
  5
C
330
0
100
AcDbDictionary
281
     1
  3
ACAD_DETAILVIEWSTYLE
350
1FF
  3
ACAD_GROUP
350
D
  3
ACAD_LAYOUT
350
1AA
  3
ACAD_MATERIAL
350
1C6
  3
ACAD_MLEADERSTYLE
350
1FD
  3
ACAD_MLINESTYLE
350
1B
  3
ACAD_SCALELIST
350
188
  3
ACAD_SECTIONVIEWSTYLE
350
200
  3
ACAD_TABLESTYLE
350
1FC
  3
ACAD_VISUALSTYLE
350
1AD
  3
AcDbVariableDictionary
350
1CA
  0
DICTIONARY
  5
1FF
102
{ACAD_REACTORS
330
C
102
}
330
C
100
AcDbDictionary
281
     1
  0
DICTIONARY
  5
D
102
{ACAD_REACTORS
330
C
102
}
330
C
100
AcDbDictionary
281
     1
  0
DICTIONARY
  5
1AA
102
{ACAD_REACTORS
330
C
102
}
330
C
100
AcDbDictionary
281
     1
  3
Layout1
350
1AC
  3
Model
350
1AB
  0
DICTIONARY
  5
1C6
102
{ACAD_REACTORS
330
C
102
}
330
C
100
AcDbDictionary
281
     1
  3
ByBlock
350
1C8
  3
ByLayer
350
1C7
  3
Global
350
1C9
  0
DICTIONARY
  5
1FD
102
{ACAD_REACTORS
330
C
102
}
330
C
100
AcDbDictionary
281
     1
  0
DICTIONARY
  5
1B
102
{ACAD_REACTORS
330
C
102
}
330
C
100
AcDbDictionary
281
     1
  3
STANDARD
350
1C
  0
DICTIONARY
  5
188
102
{ACAD_REACTORS
330
C
102
}
330
C
100
AcDbDictionary
281
     1
  3
A0
350
189
  3
A1
350
18A
  3
A2
350
18B
  3
A3
350
18C
  3
A4
350
18D
  3
A5
350
18E
  3
A6
350
18F
  3
A7
350
190
  3
A8
350
191
  3
A9
350
192
  3
B0
350
193
  3
B1
350
194
  3
B2
350
195
  3
B3
350
196
  3
B4
350
197
  3
B5
350
198
  3
B6
350
199
  3
B7
350
19A
  3
B8
350
19B
  3
B9
350
19C
  3
C0
350
19D
  3
C1
350
19E
  3
C2
350
19F
  3
C3
350
1A0
  3
C4
350
1A1
  3
C5
350
1A2
  3
C6
350
1A3
  3
C7
350
1A4
  3
C8
350
1A5
  3
C9
350
1A6
  3
D0
350
1A7
  3
D1
350
1A8
  3
D2
350
1A9
  0
DICTIONARY
  5
200
102
{ACAD_REACTORS
330
C
102
}
330
C
100
AcDbDictionary
281
     1
  0
DICTIONARY
  5
1FC
102
{ACAD_REACTORS
330
C
102
}
330
C
100
AcDbDictionary
281
     1
  0
DICTIONARY
  5
1AD
102
{ACAD_REACTORS
330
C
102
}
330
C
100
AcDbDictionary
281
     1
  3
2dWireframe
350
1B2
  3
Basic
350
1B5
  3
Brighten
350
1B9
  3
ColorChange
350
1BD
  3
Conceptual
350
1B7
  3
Dim
350
1B8
  3
EdgeColorOff
350
1C0
  3
Facepattern
350
1BC
  3
Flat
350
1AE
  3
FlatWithEdges
350
1AF
  3
Gouraud
350
1B0
  3
GouraudWithEdges
350
1B1
  3
Hidden
350
1B4
  3
JitterOff
350
1BE
  3
Linepattern
350
1BB
  3
OverhangOff
350
1BF
  3
Realistic
350
1B6
  3
Shaded
350
1C5
  3
Shaded with edges
350
1C4
  3
Shades of Gray
350
1C1
  3
Sketchy
350
1C2
  3
Thicken
350
1BA
  3
Wireframe
350
1B3
  3
X-Ray
350
1C3
  0
DICTIONARY
  5
1CA
102
{ACAD_REACTORS
330
C
102
}
330
C
100
AcDbDictionary
281
     1
  3
CANNOSCALE
350
1CB
  3
MSLTSCALE
350
1FE
  0
LAYOUT
  5
1AC
102
{ACAD_REACTORS
330
1AA
102
}
330
1AA
100
AcDbPlotSettings
  1

  2
none_device
  4

  6

 40
0.0
 41
0.0
 42
0.0
 43
0.0
 44
0.0
 45
0.0
 46
0.0
 47
0.0
 48
0.0
 49
0.0
140
0.0
141
0.0
142
1.0
143
1.0
 70
   688
 72
     1
 73
     0
 74
     5
  7

 75
    16
 76
     0
 77
     2
 78
   300
147
1.0
148
0.0
149
0.0
100
AcDbLayout
  1
Layout1
 70
     1
 71
     1
 10
0.0
 20
0.0
 11
12.0
 21
9.0
 12
0.0
 22
0.0
 32
0.0
 14
1.000000000000000E+20
 24
1.000000000000000E+20
 34
1.000000000000000E+20
 15
-1.000000000000000E+20
 25
-1.000000000000000E+20
 35
-1.000000000000000E+20
146
0.0
 13
0.0
 23
0.0
 33
0.0
 16
1.0
 26
0.0
 36
0.0
 17
0.0
 27
1.0
 37
0.0
 76
     0
330
15
  0
LAYOUT
  5
1AB
102
{ACAD_REACTORS
330
1AA
102
}
330
1AA
100
AcDbPlotSettings
  1

  2
none_device
  4
Letter_(8.50_x_11.00_Inches)
  6

 40
6.35
 41
6.35
 42
6.35000508
 43
6.35000508
 44
215.9
 45
279.4
 46
0.0
 47
0.0
 48
0.0
 49
0.0
140
0.0
141
0.0
142
1.0
143
12.30377418563077
 70
  1712
 72
     1
 73
     0
 74
     0
  7

 75
     0
 76
     0
 77
     2
 78
   300
147
0.0812758739645816
148
0.0634260085000733
149
-4999.9365
100
AcDbLayout
  1
Model
 70
     1
 71
     0
 10
0.0
 20
0.0
 11
2500.0635
 21
6220.0635
 12
0.0
 22
0.0
 32
0.0
 14
-0.0635
 24
4999.9365
 34
0.0
 15
2500.0635
 25
6220.0635
 35
0.0
146
0.0
 13
0.0
 23
0.0
 33
0.0
 16
1.0
 26
0.0
 36
0.0
 17
0.0
 27
1.0
 37
0.0
 76
     0
330
18
331
1E
  0
MATERIAL
  5
1C8
102
{ACAD_REACTORS
330
1C6
102
}
330
1C6
100
AcDbMaterial
  1
ByBlock
 72
     1
 94
      127
  0
MATERIAL
  5
1C7
102
{ACAD_REACTORS
330
1C6
102
}
330
1C6
100
AcDbMaterial
  1
ByLayer
 72
     1
 94
      127
  0
MATERIAL
  5
1C9
102
{ACAD_REACTORS
330
1C6
102
}
330
1C6
100
AcDbMaterial
  1
Global
 72
     1
 94
      127
  0
MLINESTYLE
  5
1C
102
{ACAD_REACTORS
330
1B
102
}
330
1B
100
AcDbMlineStyle
  2
STANDARD
 70
     0
  3

 62
   256
 51
90.0
 52
90.0
 71
     2
 49
0.5
 62
   256
  6
BYLAYER
 49
-0.5
 62
   256
  6
BYLAYER
  0
SCALE
  5
189
102
{ACAD_REACTORS
330
188
102
}
330
188
100
AcDbScale
 70
     0
300
1:1
140
1.0
141
1.0
290
     1
  0
SCALE
  5
18A
102
{ACAD_REACTORS
330
188
102
}
330
188
100
AcDbScale
 70
     0
300
1:2
140
1.0
141
2.0
290
     0
  0
SCALE
  5
18B
102
{ACAD_REACTORS
330
188
102
}
330
188
100
AcDbScale
 70
     0
300
1:4
140
1.0
141
4.0
290
     0
  0
SCALE
  5
18C
102
{ACAD_REACTORS
330
188
102
}
330
188
100
AcDbScale
 70
     0
300
1:5
140
1.0
141
5.0
290
     0
  0
SCALE
  5
18D
102
{ACAD_REACTORS
330
188
102
}
330
188
100
AcDbScale
 70
     0
300
1:8
140
1.0
141
8.0
290
     0
  0
SCALE
  5
18E
102
{ACAD_REACTORS
330
188
102
}
330
188
100
AcDbScale
 70
     0
300
1:10
140
1.0
141
10.0
290
     0
  0
SCALE
  5
18F
102
{ACAD_REACTORS
330
188
102
}
330
188
100
AcDbScale
 70
     0
300
1:16
140
1.0
141
16.0
290
     0
  0
SCALE
  5
190
102
{ACAD_REACTORS
330
188
102
}
330
188
100
AcDbScale
 70
     0
300
1:20
140
1.0
141
20.0
290
     0
  0
SCALE
  5
191
102
{ACAD_REACTORS
330
188
102
}
330
188
100
AcDbScale
 70
     0
300
1:30
140
1.0
141
30.0
290
     0
  0
SCALE
  5
192
102
{ACAD_REACTORS
330
188
102
}
330
188
100
AcDbScale
 70
     0
300
1:40
140
1.0
141
40.0
290
     0
  0
SCALE
  5
193
102
{ACAD_REACTORS
330
188
102
}
330
188
100
AcDbScale
 70
     0
300
1:50
140
1.0
141
50.0
290
     0
  0
SCALE
  5
194
102
{ACAD_REACTORS
330
188
102
}
330
188
100
AcDbScale
 70
     0
300
1:100
140
1.0
141
100.0
290
     0
  0
SCALE
  5
195
102
{ACAD_REACTORS
330
188
102
}
330
188
100
AcDbScale
 70
     0
300
2:1
140
2.0
141
1.0
290
     0
  0
SCALE
  5
196
102
{ACAD_REACTORS
330
188
102
}
330
188
100
AcDbScale
 70
     0
300
4:1
140
4.0
141
1.0
290
     0
  0
SCALE
  5
197
102
{ACAD_REACTORS
330
188
102
}
330
188
100
AcDbScale
 70
     0
300
8:1
140
8.0
141
1.0
290
     0
  0
SCALE
  5
198
102
{ACAD_REACTORS
330
188
102
}
330
188
100
AcDbScale
 70
     0
300
10:1
140
10.0
141
1.0
290
     0
  0
SCALE
  5
199
102
{ACAD_REACTORS
330
188
102
}
330
188
100
AcDbScale
 70
     0
300
100:1
140
100.0
141
1.0
290
     0
  0
SCALE
  5
19A
102
{ACAD_REACTORS
330
188
102
}
330
188
100
AcDbScale
 70
     0
300
1/128" = 1'-0"
140
0.0078125
141
12.0
290
     0
  0
SCALE
  5
19B
102
{ACAD_REACTORS
330
188
102
}
330
188
100
AcDbScale
 70
     0
300
1/64" = 1'-0"
140
0.015625
141
12.0
290
     0
  0
SCALE
  5
19C
102
{ACAD_REACTORS
330
188
102
}
330
188
100
AcDbScale
 70
     0
300
1/32" = 1'-0"
140
0.03125
141
12.0
290
     0
  0
SCALE
  5
19D
102
{ACAD_REACTORS
330
188
102
}
330
188
100
AcDbScale
 70
     0
300
1/16" = 1'-0"
140
0.0625
141
12.0
290
     0
  0
SCALE
  5
19E
102
{ACAD_REACTORS
330
188
102
}
330
188
100
AcDbScale
 70
     0
300
3/32" = 1'-0"
140
0.09375
141
12.0
290
     0
  0
SCALE
  5
19F
102
{ACAD_REACTORS
330
188
102
}
330
188
100
AcDbScale
 70
     0
300
1/8" = 1'-0"
140
0.125
141
12.0
290
     0
  0
SCALE
  5
1A0
102
{ACAD_REACTORS
330
188
102
}
330
188
100
AcDbScale
 70
     0
300
3/16" = 1'-0"
140
0.1875
141
12.0
290
     0
  0
SCALE
  5
1A1
102
{ACAD_REACTORS
330
188
102
}
330
188
100
AcDbScale
 70
     0
300
1/4" = 1'-0"
140
0.25
141
12.0
290
     0
  0
SCALE
  5
1A2
102
{ACAD_REACTORS
330
188
102
}
330
188
100
AcDbScale
 70
     0
300
3/8" = 1'-0"
140
0.375
141
12.0
290
     0
  0
SCALE
  5
1A3
102
{ACAD_REACTORS
330
188
102
}
330
188
100
AcDbScale
 70
     0
300
1/2" = 1'-0"
140
0.5
141
12.0
290
     0
  0
SCALE
  5
1A4
102
{ACAD_REACTORS
330
188
102
}
330
188
100
AcDbScale
 70
     0
300
3/4" = 1'-0"
140
0.75
141
12.0
290
     0
  0
SCALE
  5
1A5
102
{ACAD_REACTORS
330
188
102
}
330
188
100
AcDbScale
 70
     0
300
1" = 1'-0"
140
1.0
141
12.0
290
     0
  0
SCALE
  5
1A6
102
{ACAD_REACTORS
330
188
102
}
330
188
100
AcDbScale
 70
     0
300
1-1/2" = 1'-0"
140
1.5
141
12.0
290
     0
  0
SCALE
  5
1A7
102
{ACAD_REACTORS
330
188
102
}
330
188
100
AcDbScale
 70
     0
300
3" = 1'-0"
140
3.0
141
12.0
290
     0
  0
SCALE
  5
1A8
102
{ACAD_REACTORS
330
188
102
}
330
188
100
AcDbScale
 70
     0
300
6" = 1'-0"
140
6.0
141
12.0
290
     0
  0
SCALE
  5
1A9
102
{ACAD_REACTORS
330
188
102
}
330
188
100
AcDbScale
 70
     0
300
1'-0" = 1'-0"
140
12.0
141
12.0
290
     0
  0
VISUALSTYLE
  5
1B2
102
{ACAD_REACTORS
330
1AD
102
}
102
{ACAD_XDICTIONARY
360
1D4
102
}
330
1AD
100
AcDbVisualStyle
  2
2dWireframe
 70
     4
177
     2
291
     0
 71
     0
176
     1
 72
     2
176
     1
 73
     0
176
     1
 90
        0
176
     1
 40
0.6
176
     1
 41
30.0
176
     1
 62
     5
 63
     7
421
 16777215
176
     1
 74
     1
176
     1
 91
        4
176
     1
 64
     7
176
     1
 65
   257
176
     1
 75
     1
176
     1
175
     1
176
     1
 42
1.0
176
     1
 92
        0
176
     1
 66
   257
176
     1
 43
1.0
176
     1
 76
     1
176
     1
 77
     6
176
     1
 78
     2
176
     1
 67
     7
176
     1
 79
     5
176
     1
170
     0
176
     1
171
     0
176
     1
290
     0
176
     1
 93
        1
176
     1
 44
0.0
176
     1
173
     0
176
     1
  0
VISUALSTYLE
  5
1B5
102
{ACAD_REACTORS
330
1AD
102
}
102
{ACAD_XDICTIONARY
360
1DA
102
}
330
1AD
100
AcDbVisualStyle
  2
Basic
 70
     7
177
     2
291
     1
 71
     1
176
     1
 72
     0
176
     1
 73
     1
176
     1
 90
        0
176
     1
 40
0.6
176
     1
 41
30.0
176
     1
 62
     5
 63
     7
421
 16777215
176
     1
 74
     0
176
     1
 91
        4
176
     1
 64
     7
176
     1
 65
   257
176
     1
 75
     1
176
     1
175
     1
176
     1
 42
1.0
176
     1
 92
        8
176
     1
 66
     7
176
     1
 43
1.0
176
     1
 76
     1
176
     1
 77
     6
176
     1
 78
     2
176
     1
 67
     7
176
     1
 79
     5
176
     1
170
     0
176
     1
171
     0
176
     1
290
     0
176
     1
 93
        1
176
     1
 44
0.0
176
     1
173
     0
176
     1
  0
VISUALSTYLE
  5
1B9
102
{ACAD_REACTORS
330
1AD
102
}
102
{ACAD_XDICTIONARY
360
1E2
102
}
330
1AD
100
AcDbVisualStyle
  2
Brighten
 70
    12
177
     2
291
     1
 71
     2
176
     1
 72
     2
176
     1
 73
     0
176
     1
 90
        0
176
     1
 40
0.6
176
     1
 41
30.0
176
     1
 62
     5
 63
     7
421
 16777215
176
     1
 74
     1
176
     1
 91
        4
176
     1
 64
     7
176
     1
 65
   257
176
     1
 75
     1
176
     1
175
     1
176
     1
 42
1.0
176
     1
 92
        8
176
     1
 66
     7
176
     1
 43
1.0
176
     1
 76
     1
176
     1
 77
     6
176
     1
 78
     2
176
     1
 67
     7
176
     1
 79
     5
176
     1
170
     0
176
     1
171
     0
176
     1
290
     0
176
     1
 93
        1
176
     1
 44
50.0
176
     1
173
     0
176
     1
  0
VISUALSTYLE
  5
1BD
102
{ACAD_REACTORS
330
1AD
102
}
102
{ACAD_XDICTIONARY
360
1EA
102
}
330
1AD
100
AcDbVisualStyle
  2
ColorChange
 70
    16
177
     2
291
     1
 71
     2
176
     1
 72
     2
176
     1
 73
     3
176
     1
 90
        0
176
     1
 40
0.6
176
     1
 41
30.0
176
     1
 62
     5
 63
     8
421
  8421504
176
     1
 74
     1
176
     1
 91
        4
176
     1
 64
     7
176
     1
 65
   257
176
     1
 75
     1
176
     1
175
     1
176
     1
 42
1.0
176
     1
 92
        8
176
     1
 66
     8
424
  8421504
176
     1
 43
1.0
176
     1
 76
     1
176
     1
 77
     6
176
     1
 78
     2
176
     1
 67
     7
176
     1
 79
     5
176
     1
170
     0
176
     1
171
     0
176
     1
290
     0
176
     1
 93
        1
176
     1
 44
0.0
176
     1
173
     0
176
     1
  0
VISUALSTYLE
  5
1B7
102
{ACAD_REACTORS
330
1AD
102
}
102
{ACAD_XDICTIONARY
360
1DE
102
}
330
1AD
100
AcDbVisualStyle
  2
Conceptual
 70
     9
177
     2
291
     0
 71
     3
176
     1
 72
     2
176
     1
 73
     0
176
     1
 90
        0
176
     1
 40
0.6
176
     1
 41
30.0
176
     1
 62
     5
 63
     7
421
 16777215
176
     1
 74
     2
176
     1
 91
        2
176
     1
 64
     7
176
     1
 65
   257
176
     1
 75
     1
176
     1
175
     1
176
     1
 42
179.0
176
     1
 92
        8
176
     1
 66
     7
176
     1
 43
1.0
176
     1
 76
     1
176
     1
 77
     6
176
     1
 78
     2
176
     1
 67
     7
176
     1
 79
     3
176
     1
170
     0
176
     1
171
     0
176
     1
290
     0
176
     1
 93
        1
176
     1
 44
0.0
176
     1
173
     0
176
     1
  0
VISUALSTYLE
  5
1B8
102
{ACAD_REACTORS
330
1AD
102
}
102
{ACAD_XDICTIONARY
360
1E0
102
}
330
1AD
100
AcDbVisualStyle
  2
Dim
 70
    11
177
     2
291
     1
 71
     2
176
     1
 72
     2
176
     1
 73
     0
176
     1
 90
        0
176
     1
 40
0.6
176
     1
 41
30.0
176
     1
 62
     5
 63
     7
421
 16777215
176
     1
 74
     1
176
     1
 91
        4
176
     1
 64
     7
176
     1
 65
   257
176
     1
 75
     1
176
     1
175
     1
176
     1
 42
1.0
176
     1
 92
        8
176
     1
 66
     7
176
     1
 43
1.0
176
     1
 76
     1
176
     1
 77
     6
176
     1
 78
     2
176
     1
 67
     7
176
     1
 79
     5
176
     1
170
     0
176
     1
171
     0
176
     1
290
     0
176
     1
 93
        1
176
     1
 44
-50.0
176
     1
173
     0
176
     1
  0
VISUALSTYLE
  5
1C0
102
{ACAD_REACTORS
330
1AD
102
}
102
{ACAD_XDICTIONARY
360
1F0
102
}
330
1AD
100
AcDbVisualStyle
  2
EdgeColorOff
 70
    22
177
     2
291
     1
 71
     2
176
     0
 72
     2
176
     0
 73
     0
176
     0
 90
        0
176
     0
 40
0.6
176
     0
 41
30.0
176
     0
 62
     5
 63
     7
421
 16777215
176
     0
 74
     1
176
     0
 91
        4
176
     0
 64
     7
176
     0
 65
   257
176
     0
 75
     1
176
     0
175
     1
176
     0
 42
1.0
176
     0
 92
        8
176
     2
 66
     7
176
     0
 43
1.0
176
     0
 76
     1
176
     0
 77
     6
176
     0
 78
     2
176
     0
 67
     7
176
     0
 79
     5
176
     0
170
     0
176
     0
171
     0
176
     0
290
     0
176
     0
 93
        1
176
     0
 44
0.0
176
     0
173
     0
176
     0
  0
VISUALSTYLE
  5
1BC
102
{ACAD_REACTORS
330
1AD
102
}
102
{ACAD_XDICTIONARY
360
1E8
102
}
330
1AD
100
AcDbVisualStyle
  2
Facepattern
 70
    15
177
     2
291
     1
 71
     2
176
     1
 72
     2
176
     1
 73
     0
176
     1
 90
        0
176
     1
 40
0.6
176
     1
 41
30.0
176
     1
 62
     5
 63
     7
421
 16777215
176
     1
 74
     1
176
     1
 91
        4
176
     1
 64
     7
176
     1
 65
   257
176
     1
 75
     1
176
     1
175
     1
176
     1
 42
1.0
176
     1
 92
        8
176
     1
 66
     7
176
     1
 43
1.0
176
     1
 76
     1
176
     1
 77
     6
176
     1
 78
     2
176
     1
 67
     7
176
     1
 79
     5
176
     1
170
     0
176
     1
171
     0
176
     1
290
     0
176
     1
 93
        1
176
     1
 44
0.0
176
     1
173
     0
176
     1
  0
VISUALSTYLE
  5
1AE
102
{ACAD_REACTORS
330
1AD
102
}
102
{ACAD_XDICTIONARY
360
1CC
102
}
330
1AD
100
AcDbVisualStyle
  2
Flat
 70
     0
177
     2
291
     1
 71
     2
176
     1
 72
     1
176
     1
 73
     1
176
     1
 90
        2
176
     1
 40
0.6
176
     1
 41
30.0
176
     1
 62
     5
 63
     7
421
 16777215
176
     1
 74
     0
176
     1
 91
        0
176
     1
 64
     7
176
     1
 65
   257
176
     1
 75
     1
176
     1
175
     1
176
     1
 42
1.0
176
     1
 92
        8
176
     1
 66
     7
176
     1
 43
1.0
176
     1
 76
     1
176
     1
 77
     6
176
     1
 78
     2
176
     1
 67
     7
176
     1
 79
     5
176
     1
170
     0
176
     1
171
     0
176
     1
290
     0
176
     1
 93
       13
176
     1
 44
0.0
176
     1
173
     0
176
     1
  0
VISUALSTYLE
  5
1AF
102
{ACAD_REACTORS
330
1AD
102
}
102
{ACAD_XDICTIONARY
360
1CE
102
}
330
1AD
100
AcDbVisualStyle
  2
FlatWithEdges
 70
     1
177
     2
291
     1
 71
     2
176
     1
 72
     1
176
     1
 73
     1
176
     1
 90
        2
176
     1
 40
0.6
176
     1
 41
30.0
176
     1
 62
     5
 63
     7
421
 16777215
176
     1
 74
     1
176
     1
 91
        0
176
     1
 64
     7
176
     1
 65
   257
176
     1
 75
     1
176
     1
175
     1
176
     1
 42
1.0
176
     1
 92
        0
176
     1
 66
   257
176
     1
 43
1.0
176
     1
 76
     1
176
     1
 77
     6
176
     1
 78
     2
176
     1
 67
     7
176
     1
 79
     5
176
     1
170
     0
176
     1
171
     0
176
     1
290
     0
176
     1
 93
       13
176
     1
 44
0.0
176
     1
173
     0
176
     1
  0
VISUALSTYLE
  5
1B0
102
{ACAD_REACTORS
330
1AD
102
}
102
{ACAD_XDICTIONARY
360
1D0
102
}
330
1AD
100
AcDbVisualStyle
  2
Gouraud
 70
     2
177
     2
291
     1
 71
     2
176
     1
 72
     2
176
     1
 73
     1
176
     1
 90
        2
176
     1
 40
0.6
176
     1
 41
30.0
176
     1
 62
     5
 63
     7
421
 16777215
176
     1
 74
     0
176
     1
 91
        0
176
     1
 64
     7
176
     1
 65
   257
176
     1
 75
     1
176
     1
175
     1
176
     1
 42
1.0
176
     1
 92
        0
176
     1
 66
     7
176
     1
 43
1.0
176
     1
 76
     1
176
     1
 77
     6
176
     1
 78
     2
176
     1
 67
     7
176
     1
 79
     5
176
     1
170
     0
176
     1
171
     0
176
     1
290
     0
176
     1
 93
       13
176
     1
 44
0.0
176
     1
173
     0
176
     1
  0
VISUALSTYLE
  5
1B1
102
{ACAD_REACTORS
330
1AD
102
}
102
{ACAD_XDICTIONARY
360
1D2
102
}
330
1AD
100
AcDbVisualStyle
  2
GouraudWithEdges
 70
     3
177
     2
291
     1
 71
     2
176
     1
 72
     2
176
     1
 73
     1
176
     1
 90
        2
176
     1
 40
0.6
176
     1
 41
30.0
176
     1
 62
     5
 63
     7
421
 16777215
176
     1
 74
     1
176
     1
 91
        0
176
     1
 64
     7
176
     1
 65
   257
176
     1
 75
     1
176
     1
175
     1
176
     1
 42
1.0
176
     1
 92
        0
176
     1
 66
   257
176
     1
 43
1.0
176
     1
 76
     1
176
     1
 77
     6
176
     1
 78
     2
176
     1
 67
     7
176
     1
 79
     5
176
     1
170
     0
176
     1
171
     0
176
     1
290
     0
176
     1
 93
       13
176
     1
 44
0.0
176
     1
173
     0
176
     1
  0
VISUALSTYLE
  5
1B4
102
{ACAD_REACTORS
330
1AD
102
}
102
{ACAD_XDICTIONARY
360
1D8
102
}
330
1AD
100
AcDbVisualStyle
  2
Hidden
 70
     6
177
     2
291
     0
 71
     1
176
     1
 72
     2
176
     1
 73
     2
176
     1
 90
        0
176
     1
 40
0.6
176
     1
 41
30.0
176
     1
 62
     5
 63
     7
421
 16777215
176
     1
 74
     2
176
     1
 91
        2
176
     1
 64
     7
176
     1
 65
   257
176
     1
 75
     2
176
     1
175
     1
176
     1
 42
40.0
176
     1
 92
        0
176
     1
 66
   257
176
     1
 43
1.0
176
     1
 76
     1
176
     1
 77
     6
176
     1
 78
     2
176
     1
 67
     7
176
     1
 79
     3
176
     1
170
     0
176
     1
171
     0
176
     1
290
     0
176
     1
 93
        1
176
     1
 44
0.0
176
     1
173
     0
176
     1
  0
VISUALSTYLE
  5
1BE
102
{ACAD_REACTORS
330
1AD
102
}
102
{ACAD_XDICTIONARY
360
1EC
102
}
330
1AD
100
AcDbVisualStyle
  2
JitterOff
 70
    20
177
     2
291
     1
 71
     2
176
     0
 72
     2
176
     0
 73
     0
176
     0
 90
        0
176
     0
 40
0.6
176
     0
 41
30.0
176
     0
 62
     5
 63
     7
421
 16777215
176
     0
 74
     1
176
     0
 91
        4
176
     0
 64
     7
176
     0
 65
   257
176
     0
 75
     1
176
     0
175
     1
176
     0
 42
1.0
176
     0
 92
       10
176
     2
 66
     7
176
     0
 43
1.0
176
     0
 76
     1
176
     0
 77
     6
176
     0
 78
     2
176
     0
 67
     7
176
     0
 79
     5
176
     0
170
     0
176
     0
171
     0
176
     0
290
     0
176
     0
 93
        1
176
     0
 44
0.0
176
     0
173
     0
176
     0
  0
VISUALSTYLE
  5
1BB
102
{ACAD_REACTORS
330
1AD
102
}
102
{ACAD_XDICTIONARY
360
1E6
102
}
330
1AD
100
AcDbVisualStyle
  2
Linepattern
 70
    14
177
     2
291
     1
 71
     2
176
     1
 72
     2
176
     1
 73
     0
176
     1
 90
        0
176
     1
 40
0.6
176
     1
 41
30.0
176
     1
 62
     5
 63
     7
421
 16777215
176
     1
 74
     1
176
     1
 91
        4
176
     1
 64
     7
176
     1
 65
   257
176
     1
 75
     7
176
     1
175
     7
176
     1
 42
1.0
176
     1
 92
        8
176
     1
 66
     7
176
     1
 43
1.0
176
     1
 76
     1
176
     1
 77
     6
176
     1
 78
     2
176
     1
 67
     7
176
     1
 79
     5
176
     1
170
     0
176
     1
171
     0
176
     1
290
     0
176
     1
 93
        1
176
     1
 44
0.0
176
     1
173
     0
176
     1
  0
VISUALSTYLE
  5
1BF
102
{ACAD_REACTORS
330
1AD
102
}
102
{ACAD_XDICTIONARY
360
1EE
102
}
330
1AD
100
AcDbVisualStyle
  2
OverhangOff
 70
    21
177
     2
291
     1
 71
     2
176
     0
 72
     2
176
     0
 73
     0
176
     0
 90
        0
176
     0
 40
0.6
176
     0
 41
30.0
176
     0
 62
     5
 63
     7
421
 16777215
176
     0
 74
     1
176
     0
 91
        4
176
     0
 64
     7
176
     0
 65
   257
176
     0
 75
     1
176
     0
175
     1
176
     0
 42
1.0
176
     0
 92
        9
176
     2
 66
     7
176
     0
 43
1.0
176
     0
 76
     1
176
     0
 77
     6
176
     0
 78
     2
176
     0
 67
     7
176
     0
 79
     5
176
     0
170
     0
176
     0
171
     0
176
     0
290
     0
176
     0
 93
        1
176
     0
 44
0.0
176
     0
173
     0
176
     0
  0
VISUALSTYLE
  5
1B6
102
{ACAD_REACTORS
330
1AD
102
}
102
{ACAD_XDICTIONARY
360
1DC
102
}
330
1AD
100
AcDbVisualStyle
  2
Realistic
 70
     8
177
     2
291
     0
 71
     2
176
     1
 72
     3
176
     1
 73
     0
176
     1
 90
        2
176
     1
 40
0.6
176
     1
 41
30.0
176
     1
 62
     5
 63
     7
421
 16777215
176
     1
 74
     0
176
     1
 91
        0
176
     1
 64
     7
176
     1
 65
   257
176
     1
 75
     1
176
     1
175
     1
176
     1
 42
1.0
176
     1
 92
        8
176
     1
 66
   257
176
     1
 43
1.0
176
     1
 76
     1
176
     1
 77
     6
176
     1
 78
     2
176
     1
 67
     7
176
     1
 79
     3
176
     1
170
     0
176
     1
171
     0
176
     1
290
     0
176
     1
 93
       13
176
     1
 44
0.0
176
     1
173
     0
176
     1
  0
VISUALSTYLE
  5
1C5
102
{ACAD_REACTORS
330
1AD
102
}
102
{ACAD_XDICTIONARY
360
1FA
102
}
330
1AD
100
AcDbVisualStyle
  2
Shaded
 70
    27
177
     2
291
     0
 71
     2
176
     1
 72
     2
176
     1
 73
     1
176
     1
 90
        2
176
     1
 40
0.6
176
     1
 41
30.0
176
     1
 62
     5
 63
     7
421
 16777215
176
     1
 74
     0
176
     1
 91
        4
176
     1
 64
     7
176
     1
 65
   257
176
     1
 75
     1
176
     1
175
     1
176
     1
 42
1.0
176
     1
 92
        8
176
     1
 66
   257
176
     1
 43
1.0
176
     1
 76
     1
176
     1
 77
     6
176
     1
 78
     2
176
     1
 67
     8
425
  7895160
176
     1
 79
     3
176
     1
170
     0
176
     1
171
     0
176
     1
290
     0
176
     1
 93
        5
176
     1
 44
0.0
176
     1
173
     0
176
     1
  0
VISUALSTYLE
  5
1C4
102
{ACAD_REACTORS
330
1AD
102
}
102
{ACAD_XDICTIONARY
360
1F8
102
}
330
1AD
100
AcDbVisualStyle
  2
Shaded with edges
 70
    26
177
     2
291
     0
 71
     2
176
     1
 72
     2
176
     1
 73
     1
176
     1
 90
        2
176
     1
 40
0.6
176
     1
 41
30.0
176
     1
 62
     5
 63
     7
421
 16777215
176
     1
 74
     1
176
     1
 91
       10
176
     1
 64
     7
176
     1
 65
   257
176
     1
 75
     2
176
     1
175
     1
176
     1
 42
1.0
176
     1
 92
        8
176
     1
 66
   257
176
     1
 43
1.0
176
     1
 76
     1
176
     1
 77
     6
176
     1
 78
     2
176
     1
 67
     7
176
     1
 79
     3
176
     1
170
     0
176
     1
171
     0
176
     1
290
     0
176
     1
 93
        5
176
     1
 44
0.0
176
     1
173
     0
176
     1
  0
VISUALSTYLE
  5
1C1
102
{ACAD_REACTORS
330
1AD
102
}
102
{ACAD_XDICTIONARY
360
1F2
102
}
330
1AD
100
AcDbVisualStyle
  2
Shades of Gray
 70
    23
177
     2
291
     0
 71
     2
176
     1
 72
     2
176
     1
 73
     3
176
     1
 90
        0
176
     1
 40
0.6
176
     1
 41
30.0
176
     1
 62
     5
 63
     7
421
 16777215
176
     1
 74
     2
176
     1
 91
        2
176
     1
 64
     7
176
     1
 65
     7
176
     1
 75
     1
176
     1
175
     1
176
     1
 42
40.0
176
     1
 92
        8
176
     1
 66
     7
176
     1
 43
1.0
176
     1
 76
     1
176
     1
 77
     6
176
     1
 78
     2
176
     1
 67
     7
176
     1
 79
     3
176
     1
170
     0
176
     1
171
     0
176
     1
290
     0
176
     1
 93
        1
176
     1
 44
0.0
176
     1
173
     0
176
     1
  0
VISUALSTYLE
  5
1C2
102
{ACAD_REACTORS
330
1AD
102
}
102
{ACAD_XDICTIONARY
360
1F4
102
}
330
1AD
100
AcDbVisualStyle
  2
Sketchy
 70
    24
177
     2
291
     0
 71
     1
176
     1
 72
     2
176
     1
 73
     2
176
     1
 90
        0
176
     1
 40
0.6
176
     1
 41
30.0
176
     1
 62
     5
 63
     7
421
 16777215
176
     1
 74
     2
176
     1
 91
        2
176
     1
 64
     7
176
     1
 65
     7
176
     1
 75
     1
176
     1
175
     1
176
     1
 42
40.0
176
     1
 92
       11
176
     1
 66
     7
176
     1
 43
1.0
176
     1
 76
     1
176
     1
 77
     6
176
     1
 78
     2
176
     1
 67
     7
176
     1
 79
     6
176
     1
170
     0
176
     1
171
     0
176
     1
290
     0
176
     1
 93
        1
176
     1
 44
0.0
176
     1
173
     0
176
     1
  0
VISUALSTYLE
  5
1BA
102
{ACAD_REACTORS
330
1AD
102
}
102
{ACAD_XDICTIONARY
360
1E4
102
}
330
1AD
100
AcDbVisualStyle
  2
Thicken
 70
    13
177
     2
291
     1
 71
     2
176
     1
 72
     2
176
     1
 73
     0
176
     1
 90
        0
176
     1
 40
0.6
176
     1
 41
30.0
176
     1
 62
     5
 63
     7
421
 16777215
176
     1
 74
     1
176
     1
 91
        4
176
     1
 64
     7
176
     1
 65
   257
176
     1
 75
     1
176
     1
175
     1
176
     1
 42
1.0
176
     1
 92
       12
176
     1
 66
     7
176
     1
 43
1.0
176
     1
 76
     1
176
     1
 77
     6
176
     1
 78
     2
176
     1
 67
     7
176
     1
 79
     5
176
     1
170
     0
176
     1
171
     0
176
     1
290
     0
176
     1
 93
        1
176
     1
 44
0.0
176
     1
173
     0
176
     1
  0
VISUALSTYLE
  5
1B3
102
{ACAD_REACTORS
330
1AD
102
}
102
{ACAD_XDICTIONARY
360
1D6
102
}
330
1AD
100
AcDbVisualStyle
  2
Wireframe
 70
     5
177
     2
291
     0
 71
     0
176
     1
 72
     2
176
     1
 73
     0
176
     1
 90
        0
176
     1
 40
0.6
176
     1
 41
30.0
176
     1
 62
     5
 63
     7
421
 16777215
176
     1
 74
     1
176
     1
 91
        4
176
     1
 64
     7
176
     1
 65
   257
176
     1
 75
     1
176
     1
175
     1
176
     1
 42
1.0
176
     1
 92
        0
176
     1
 66
   257
176
     1
 43
1.0
176
     1
 76
     1
176
     1
 77
     6
176
     1
 78
     2
176
     1
 67
     7
176
     1
 79
     3
176
     1
170
     0
176
     1
171
     0
176
     1
290
     0
176
     1
 93
        1
176
     1
 44
0.0
176
     1
173
     0
176
     1
  0
VISUALSTYLE
  5
1C3
102
{ACAD_REACTORS
330
1AD
102
}
102
{ACAD_XDICTIONARY
360
1F6
102
}
330
1AD
100
AcDbVisualStyle
  2
X-Ray
 70
    25
177
     2
291
     0
 71
     2
176
     1
 72
     2
176
     1
 73
     1
176
     1
 90
        1
176
     1
 40
0.5
176
     1
 41
30.0
176
     1
 62
     5
 63
     7
421
 16777215
176
     1
 74
     1
176
     1
 91
        0
176
     1
 64
     7
176
     1
 65
   257
176
     1
 75
     1
176
     1
175
     1
176
     1
 42
1.0
176
     1
 92
        8
176
     1
 66
     7
176
     1
 43
1.0
176
     1
 76
     1
176
     1
 77
     6
176
     1
 78
     2
176
     1
 67
     7
176
     1
 79
     3
176
     1
170
     0
176
     1
171
     0
176
     1
290
     0
176
     1
 93
       13
176
     1
 44
0.0
176
     1
173
     0
176
     1
  0
DICTIONARYVAR
  5
1CB
102
{ACAD_REACTORS
330
1CA
102
}
330
1CA
100
DictionaryVariables
280
     0
  1
1:1
  0
DICTIONARYVAR
  5
1FE
102
{ACAD_REACTORS
330
1CA
102
}
330
1CA
100
DictionaryVariables
280
     0
  1
0
  0
DICTIONARY
  5
1D4
330
1B2
100
AcDbDictionary
280
     1
281
     1
  3
ACAD_XREC_ROUNDTRIP
360
1D5
  0
DICTIONARY
  5
1DA
330
1B5
100
AcDbDictionary
280
     1
281
     1
  3
ACAD_XREC_ROUNDTRIP
360
1DB
  0
DICTIONARY
  5
1E2
330
1B9
100
AcDbDictionary
280
     1
281
     1
  3
ACAD_XREC_ROUNDTRIP
360
1E3
  0
DICTIONARY
  5
1EA
330
1BD
100
AcDbDictionary
280
     1
281
     1
  3
ACAD_XREC_ROUNDTRIP
360
1EB
  0
DICTIONARY
  5
1DE
330
1B7
100
AcDbDictionary
280
     1
281
     1
  3
ACAD_XREC_ROUNDTRIP
360
1DF
  0
DICTIONARY
  5
1E0
330
1B8
100
AcDbDictionary
280
     1
281
     1
  3
ACAD_XREC_ROUNDTRIP
360
1E1
  0
DICTIONARY
  5
1F0
330
1C0
100
AcDbDictionary
280
     1
281
     1
  3
ACAD_XREC_ROUNDTRIP
360
1F1
  0
DICTIONARY
  5
1E8
330
1BC
100
AcDbDictionary
280
     1
281
     1
  3
ACAD_XREC_ROUNDTRIP
360
1E9
  0
DICTIONARY
  5
1CC
330
1AE
100
AcDbDictionary
280
     1
281
     1
  3
ACAD_XREC_ROUNDTRIP
360
1CD
  0
DICTIONARY
  5
1CE
330
1AF
100
AcDbDictionary
280
     1
281
     1
  3
ACAD_XREC_ROUNDTRIP
360
1CF
  0
DICTIONARY
  5
1D0
330
1B0
100
AcDbDictionary
280
     1
281
     1
  3
ACAD_XREC_ROUNDTRIP
360
1D1
  0
DICTIONARY
  5
1D2
330
1B1
100
AcDbDictionary
280
     1
281
     1
  3
ACAD_XREC_ROUNDTRIP
360
1D3
  0
DICTIONARY
  5
1D8
330
1B4
100
AcDbDictionary
280
     1
281
     1
  3
ACAD_XREC_ROUNDTRIP
360
1D9
  0
DICTIONARY
  5
1EC
330
1BE
100
AcDbDictionary
280
     1
281
     1
  3
ACAD_XREC_ROUNDTRIP
360
1ED
  0
DICTIONARY
  5
1E6
330
1BB
100
AcDbDictionary
280
     1
281
     1
  3
ACAD_XREC_ROUNDTRIP
360
1E7
  0
DICTIONARY
  5
1EE
330
1BF
100
AcDbDictionary
280
     1
281
     1
  3
ACAD_XREC_ROUNDTRIP
360
1EF
  0
DICTIONARY
  5
1DC
330
1B6
100
AcDbDictionary
280
     1
281
     1
  3
ACAD_XREC_ROUNDTRIP
360
1DD
  0
DICTIONARY
  5
1FA
330
1C5
100
AcDbDictionary
280
     1
281
     1
  3
ACAD_XREC_ROUNDTRIP
360
1FB
  0
DICTIONARY
  5
1F8
330
1C4
100
AcDbDictionary
280
     1
281
     1
  3
ACAD_XREC_ROUNDTRIP
360
1F9
  0
DICTIONARY
  5
1F2
330
1C1
100
AcDbDictionary
280
     1
281
     1
  3
ACAD_XREC_ROUNDTRIP
360
1F3
  0
DICTIONARY
  5
1F4
330
1C2
100
AcDbDictionary
280
     1
281
     1
  3
ACAD_XREC_ROUNDTRIP
360
1F5
  0
DICTIONARY
  5
1E4
330
1BA
100
AcDbDictionary
280
     1
281
     1
  3
ACAD_XREC_ROUNDTRIP
360
1E5
  0
DICTIONARY
  5
1D6
330
1B3
100
AcDbDictionary
280
     1
281
     1
  3
ACAD_XREC_ROUNDTRIP
360
1D7
  0
DICTIONARY
  5
1F6
330
1C3
100
AcDbDictionary
280
     1
281
     1
  3
ACAD_XREC_ROUNDTRIP
360
1F7
  0
XRECORD
  5
1D5
102
{ACAD_REACTORS
330
1D4
102
}
330
1D4
100
AcDbXrecord
280
     1
102
RTVSPost2010Prop28
280
     1
102
RTVSPost2010PropOp28
 70
     1
102
RTVSPost2010Prop29
280
     1
102
RTVSPost2010PropOp29
 70
     1
102
RTVSPost2010Prop30
280
     0
102
RTVSPost2010PropOp30
 70
     1
102
RTVSPost2010Prop31
280
     0
102
RTVSPost2010PropOp31
 70
     1
102
RTVSPost2010Prop32
280
     0
102
RTVSPost2010PropOp32
 70
     1
102
RTVSPost2010Prop33
280
     0
102
RTVSPost2010PropOp33
 70
     1
102
RTVSPost2010Prop34
280
     0
102
RTVSPost2010PropOp34
 70
     1
102
RTVSPost2010Prop35
280
     0
102
RTVSPost2010PropOp35
 70
     1
102
RTVSPost2010Prop36
280
     0
102
RTVSPost2010PropOp36
 70
     1
102
RTVSPost2010Prop37
 90
       50
102
RTVSPost2010PropOp37
 70
     1
102
RTVSPost2010Prop38
140
0.0
102
RTVSPost2010PropOp38
 70
     1
102
RTVSPost2010Prop39
140
1.0
102
RTVSPost2010PropOp39
 70
     1
102
RTVSPost2010Prop40
 90
        0
102
RTVSPost2010PropOp40
 70
     1
102
RTVSPost2010Prop41ColorIndex
 90
       18
102
RTVSPost2010Prop41ColorRGB
 90
        0
102
RTVSPost2010PropOp41
 70
     1
102
RTVSPost2010Prop42
 90
       50
102
RTVSPost2010PropOp42
 70
     1
102
RTVSPost2010Prop43
 90
        3
102
RTVSPost2010PropOp43
 70
     1
102
RTVSPost2010Prop44ColorIndex
 90
        5
102
RTVSPost2010Prop44ColorRGB
 90
      255
102
RTVSPost2010PropOp44
 70
     1
102
RTVSPost2010Prop45
280
     0
102
RTVSPost2010PropOp45
 70
     1
102
RTVSPost2010Prop46
 90
       50
102
RTVSPost2010PropOp46
 70
     1
102
RTVSPost2010Prop47
 90
       50
102
RTVSPost2010PropOp47
 70
     1
102
RTVSPost2010Prop48
 90
       50
102
RTVSPost2010PropOp48
 70
     1
102
RTVSPost2010Prop49
280
     0
102
RTVSPost2010PropOp49
 70
     1
102
RTVSPost2010Prop50
 90
       50
102
RTVSPost2010PropOp50
 70
     1
102
RTVSPost2010Prop51ColorIndex
 90
      256
102
RTVSPost2010Prop51ColorRGB
 90
-16777216
102
RTVSPost2010PropOp51
 70
     0
102
RTVSPost2010Prop52
140
1.0
102
RTVSPost2010PropOp52
 70
     0
102
RTVSPost2010Prop53
 90
        2
102
RTVSPost2010PropOp53
 70
     1
102
RTVSPost2010Prop54
  1
strokes_ogs.tif
102
RTVSPost2010PropOp54
 70
     1
102
RTVSPost2010Prop55
280
     0
102
RTVSPost2010PropOp55
 70
     1
102
RTVSPost2010Prop56
140
1.0
102
RTVSPost2010PropOp56
 70
     1
102
RTVSPost2010Prop57
140
1.0
102
RTVSPost2010PropOp57
 70
     1
  0
XRECORD
  5
1DB
102
{ACAD_REACTORS
330
1DA
102
}
330
1DA
100
AcDbXrecord
280
     1
102
RTVSPost2010Prop28
280
     0
102
RTVSPost2010PropOp28
 70
     1
102
RTVSPost2010Prop29
280
     1
102
RTVSPost2010PropOp29
 70
     1
102
RTVSPost2010Prop30
280
     1
102
RTVSPost2010PropOp30
 70
     1
102
RTVSPost2010Prop31
280
     0
102
RTVSPost2010PropOp31
 70
     1
102
RTVSPost2010Prop32
280
     0
102
RTVSPost2010PropOp32
 70
     1
102
RTVSPost2010Prop33
280
     0
102
RTVSPost2010PropOp33
 70
     1
102
RTVSPost2010Prop34
280
     0
102
RTVSPost2010PropOp34
 70
     1
102
RTVSPost2010Prop35
280
     0
102
RTVSPost2010PropOp35
 70
     1
102
RTVSPost2010Prop36
280
     0
102
RTVSPost2010PropOp36
 70
     1
102
RTVSPost2010Prop37
 90
       50
102
RTVSPost2010PropOp37
 70
     1
102
RTVSPost2010Prop38
140
0.0
102
RTVSPost2010PropOp38
 70
     1
102
RTVSPost2010Prop39
140
1.0
102
RTVSPost2010PropOp39
 70
     1
102
RTVSPost2010Prop40
 90
        0
102
RTVSPost2010PropOp40
 70
     1
102
RTVSPost2010Prop41ColorIndex
 90
       18
102
RTVSPost2010Prop41ColorRGB
 90
        0
102
RTVSPost2010PropOp41
 70
     1
102
RTVSPost2010Prop42
 90
       50
102
RTVSPost2010PropOp42
 70
     1
102
RTVSPost2010Prop43
 90
        3
102
RTVSPost2010PropOp43
 70
     1
102
RTVSPost2010Prop44ColorIndex
 90
        5
102
RTVSPost2010Prop44ColorRGB
 90
      255
102
RTVSPost2010PropOp44
 70
     1
102
RTVSPost2010Prop45
280
     0
102
RTVSPost2010PropOp45
 70
     1
102
RTVSPost2010Prop46
 90
       50
102
RTVSPost2010PropOp46
 70
     1
102
RTVSPost2010Prop47
 90
       50
102
RTVSPost2010PropOp47
 70
     1
102
RTVSPost2010Prop48
 90
       50
102
RTVSPost2010PropOp48
 70
     1
102
RTVSPost2010Prop49
280
     0
102
RTVSPost2010PropOp49
 70
     1
102
RTVSPost2010Prop50
 90
       50
102
RTVSPost2010PropOp50
 70
     1
102
RTVSPost2010Prop51ColorIndex
 90
      256
102
RTVSPost2010Prop51ColorRGB
 90
-16777216
102
RTVSPost2010PropOp51
 70
     0
102
RTVSPost2010Prop52
140
1.0
102
RTVSPost2010PropOp52
 70
     0
102
RTVSPost2010Prop53
 90
        2
102
RTVSPost2010PropOp53
 70
     1
102
RTVSPost2010Prop54
  1
strokes_ogs.tif
102
RTVSPost2010PropOp54
 70
     1
102
RTVSPost2010Prop55
280
     0
102
RTVSPost2010PropOp55
 70
     1
102
RTVSPost2010Prop56
140
1.0
102
RTVSPost2010PropOp56
 70
     1
102
RTVSPost2010Prop57
140
1.0
102
RTVSPost2010PropOp57
 70
     1
  0
XRECORD
  5
1E3
102
{ACAD_REACTORS
330
1E2
102
}
330
1E2
100
AcDbXrecord
280
     1
102
RTVSPost2010Prop28
280
     0
102
RTVSPost2010PropOp28
 70
     1
102
RTVSPost2010Prop29
280
     1
102
RTVSPost2010PropOp29
 70
     1
102
RTVSPost2010Prop30
280
     1
102
RTVSPost2010PropOp30
 70
     1
102
RTVSPost2010Prop31
280
     0
102
RTVSPost2010PropOp31
 70
     1
102
RTVSPost2010Prop32
280
     0
102
RTVSPost2010PropOp32
 70
     1
102
RTVSPost2010Prop33
280
     0
102
RTVSPost2010PropOp33
 70
     1
102
RTVSPost2010Prop34
280
     0
102
RTVSPost2010PropOp34
 70
     1
102
RTVSPost2010Prop35
280
     0
102
RTVSPost2010PropOp35
 70
     1
102
RTVSPost2010Prop36
280
     0
102
RTVSPost2010PropOp36
 70
     1
102
RTVSPost2010Prop37
 90
       50
102
RTVSPost2010PropOp37
 70
     1
102
RTVSPost2010Prop38
140
0.0
102
RTVSPost2010PropOp38
 70
     1
102
RTVSPost2010Prop39
140
1.0
102
RTVSPost2010PropOp39
 70
     1
102
RTVSPost2010Prop40
 90
        0
102
RTVSPost2010PropOp40
 70
     1
102
RTVSPost2010Prop41ColorIndex
 90
       18
102
RTVSPost2010Prop41ColorRGB
 90
        0
102
RTVSPost2010PropOp41
 70
     1
102
RTVSPost2010Prop42
 90
       50
102
RTVSPost2010PropOp42
 70
     1
102
RTVSPost2010Prop43
 90
        3
102
RTVSPost2010PropOp43
 70
     1
102
RTVSPost2010Prop44ColorIndex
 90
        5
102
RTVSPost2010Prop44ColorRGB
 90
      255
102
RTVSPost2010PropOp44
 70
     1
102
RTVSPost2010Prop45
280
     0
102
RTVSPost2010PropOp45
 70
     1
102
RTVSPost2010Prop46
 90
       50
102
RTVSPost2010PropOp46
 70
     1
102
RTVSPost2010Prop47
 90
       50
102
RTVSPost2010PropOp47
 70
     1
102
RTVSPost2010Prop48
 90
       50
102
RTVSPost2010PropOp48
 70
     1
102
RTVSPost2010Prop49
280
     0
102
RTVSPost2010PropOp49
 70
     1
102
RTVSPost2010Prop50
 90
       50
102
RTVSPost2010PropOp50
 70
     1
102
RTVSPost2010Prop51ColorIndex
 90
      256
102
RTVSPost2010Prop51ColorRGB
 90
-16777216
102
RTVSPost2010PropOp51
 70
     0
102
RTVSPost2010Prop52
140
1.0
102
RTVSPost2010PropOp52
 70
     0
102
RTVSPost2010Prop53
 90
        2
102
RTVSPost2010PropOp53
 70
     1
102
RTVSPost2010Prop54
  1
strokes_ogs.tif
102
RTVSPost2010PropOp54
 70
     1
102
RTVSPost2010Prop55
280
     0
102
RTVSPost2010PropOp55
 70
     1
102
RTVSPost2010Prop56
140
1.0
102
RTVSPost2010PropOp56
 70
     1
102
RTVSPost2010Prop57
140
1.0
102
RTVSPost2010PropOp57
 70
     1
  0
XRECORD
  5
1EB
102
{ACAD_REACTORS
330
1EA
102
}
330
1EA
100
AcDbXrecord
280
     1
102
RTVSPost2010Prop28
280
     0
102
RTVSPost2010PropOp28
 70
     1
102
RTVSPost2010Prop29
280
     1
102
RTVSPost2010PropOp29
 70
     1
102
RTVSPost2010Prop30
280
     1
102
RTVSPost2010PropOp30
 70
     1
102
RTVSPost2010Prop31
280
     0
102
RTVSPost2010PropOp31
 70
     1
102
RTVSPost2010Prop32
280
     0
102
RTVSPost2010PropOp32
 70
     1
102
RTVSPost2010Prop33
280
     0
102
RTVSPost2010PropOp33
 70
     1
102
RTVSPost2010Prop34
280
     0
102
RTVSPost2010PropOp34
 70
     1
102
RTVSPost2010Prop35
280
     0
102
RTVSPost2010PropOp35
 70
     1
102
RTVSPost2010Prop36
280
     0
102
RTVSPost2010PropOp36
 70
     1
102
RTVSPost2010Prop37
 90
       50
102
RTVSPost2010PropOp37
 70
     1
102
RTVSPost2010Prop38
140
0.0
102
RTVSPost2010PropOp38
 70
     1
102
RTVSPost2010Prop39
140
1.0
102
RTVSPost2010PropOp39
 70
     1
102
RTVSPost2010Prop40
 90
        0
102
RTVSPost2010PropOp40
 70
     1
102
RTVSPost2010Prop41ColorIndex
 90
       18
102
RTVSPost2010Prop41ColorRGB
 90
        0
102
RTVSPost2010PropOp41
 70
     1
102
RTVSPost2010Prop42
 90
       50
102
RTVSPost2010PropOp42
 70
     1
102
RTVSPost2010Prop43
 90
        3
102
RTVSPost2010PropOp43
 70
     1
102
RTVSPost2010Prop44ColorIndex
 90
        5
102
RTVSPost2010Prop44ColorRGB
 90
      255
102
RTVSPost2010PropOp44
 70
     1
102
RTVSPost2010Prop45
280
     0
102
RTVSPost2010PropOp45
 70
     1
102
RTVSPost2010Prop46
 90
       50
102
RTVSPost2010PropOp46
 70
     1
102
RTVSPost2010Prop47
 90
       50
102
RTVSPost2010PropOp47
 70
     1
102
RTVSPost2010Prop48
 90
       50
102
RTVSPost2010PropOp48
 70
     1
102
RTVSPost2010Prop49
280
     0
102
RTVSPost2010PropOp49
 70
     1
102
RTVSPost2010Prop50
 90
       50
102
RTVSPost2010PropOp50
 70
     1
102
RTVSPost2010Prop51ColorIndex
 90
      256
102
RTVSPost2010Prop51ColorRGB
 90
-16777216
102
RTVSPost2010PropOp51
 70
     0
102
RTVSPost2010Prop52
140
1.0
102
RTVSPost2010PropOp52
 70
     0
102
RTVSPost2010Prop53
 90
        2
102
RTVSPost2010PropOp53
 70
     1
102
RTVSPost2010Prop54
  1
strokes_ogs.tif
102
RTVSPost2010PropOp54
 70
     1
102
RTVSPost2010Prop55
280
     0
102
RTVSPost2010PropOp55
 70
     1
102
RTVSPost2010Prop56
140
1.0
102
RTVSPost2010PropOp56
 70
     1
102
RTVSPost2010Prop57
140
1.0
102
RTVSPost2010PropOp57
 70
     1
  0
XRECORD
  5
1DF
102
{ACAD_REACTORS
330
1DE
102
}
330
1DE
100
AcDbXrecord
280
     1
102
RTVSPost2010Prop28
280
     0
102
RTVSPost2010PropOp28
 70
     1
102
RTVSPost2010Prop29
280
     1
102
RTVSPost2010PropOp29
 70
     1
102
RTVSPost2010Prop30
280
     1
102
RTVSPost2010PropOp30
 70
     1
102
RTVSPost2010Prop31
280
     0
102
RTVSPost2010PropOp31
 70
     1
102
RTVSPost2010Prop32
280
     0
102
RTVSPost2010PropOp32
 70
     1
102
RTVSPost2010Prop33
280
     0
102
RTVSPost2010PropOp33
 70
     1
102
RTVSPost2010Prop34
280
     0
102
RTVSPost2010PropOp34
 70
     1
102
RTVSPost2010Prop35
280
     0
102
RTVSPost2010PropOp35
 70
     1
102
RTVSPost2010Prop36
280
     0
102
RTVSPost2010PropOp36
 70
     1
102
RTVSPost2010Prop37
 90
       50
102
RTVSPost2010PropOp37
 70
     1
102
RTVSPost2010Prop38
140
0.0
102
RTVSPost2010PropOp38
 70
     1
102
RTVSPost2010Prop39
140
1.0
102
RTVSPost2010PropOp39
 70
     1
102
RTVSPost2010Prop40
 90
        0
102
RTVSPost2010PropOp40
 70
     1
102
RTVSPost2010Prop41ColorIndex
 90
       18
102
RTVSPost2010Prop41ColorRGB
 90
        0
102
RTVSPost2010PropOp41
 70
     1
102
RTVSPost2010Prop42
 90
       50
102
RTVSPost2010PropOp42
 70
     1
102
RTVSPost2010Prop43
 90
        3
102
RTVSPost2010PropOp43
 70
     1
102
RTVSPost2010Prop44ColorIndex
 90
        5
102
RTVSPost2010Prop44ColorRGB
 90
      255
102
RTVSPost2010PropOp44
 70
     1
102
RTVSPost2010Prop45
280
     0
102
RTVSPost2010PropOp45
 70
     1
102
RTVSPost2010Prop46
 90
       50
102
RTVSPost2010PropOp46
 70
     1
102
RTVSPost2010Prop47
 90
       50
102
RTVSPost2010PropOp47
 70
     1
102
RTVSPost2010Prop48
 90
       50
102
RTVSPost2010PropOp48
 70
     1
102
RTVSPost2010Prop49
280
     0
102
RTVSPost2010PropOp49
 70
     1
102
RTVSPost2010Prop50
 90
       50
102
RTVSPost2010PropOp50
 70
     1
102
RTVSPost2010Prop51ColorIndex
 90
      256
102
RTVSPost2010Prop51ColorRGB
 90
-16777216
102
RTVSPost2010PropOp51
 70
     0
102
RTVSPost2010Prop52
140
1.0
102
RTVSPost2010PropOp52
 70
     0
102
RTVSPost2010Prop53
 90
        2
102
RTVSPost2010PropOp53
 70
     1
102
RTVSPost2010Prop54
  1
strokes_ogs.tif
102
RTVSPost2010PropOp54
 70
     1
102
RTVSPost2010Prop55
280
     0
102
RTVSPost2010PropOp55
 70
     1
102
RTVSPost2010Prop56
140
1.0
102
RTVSPost2010PropOp56
 70
     1
102
RTVSPost2010Prop57
140
1.0
102
RTVSPost2010PropOp57
 70
     1
  0
XRECORD
  5
1E1
102
{ACAD_REACTORS
330
1E0
102
}
330
1E0
100
AcDbXrecord
280
     1
102
RTVSPost2010Prop28
280
     0
102
RTVSPost2010PropOp28
 70
     1
102
RTVSPost2010Prop29
280
     1
102
RTVSPost2010PropOp29
 70
     1
102
RTVSPost2010Prop30
280
     1
102
RTVSPost2010PropOp30
 70
     1
102
RTVSPost2010Prop31
280
     0
102
RTVSPost2010PropOp31
 70
     1
102
RTVSPost2010Prop32
280
     0
102
RTVSPost2010PropOp32
 70
     1
102
RTVSPost2010Prop33
280
     0
102
RTVSPost2010PropOp33
 70
     1
102
RTVSPost2010Prop34
280
     0
102
RTVSPost2010PropOp34
 70
     1
102
RTVSPost2010Prop35
280
     0
102
RTVSPost2010PropOp35
 70
     1
102
RTVSPost2010Prop36
280
     0
102
RTVSPost2010PropOp36
 70
     1
102
RTVSPost2010Prop37
 90
       50
102
RTVSPost2010PropOp37
 70
     1
102
RTVSPost2010Prop38
140
0.0
102
RTVSPost2010PropOp38
 70
     1
102
RTVSPost2010Prop39
140
1.0
102
RTVSPost2010PropOp39
 70
     1
102
RTVSPost2010Prop40
 90
        0
102
RTVSPost2010PropOp40
 70
     1
102
RTVSPost2010Prop41ColorIndex
 90
       18
102
RTVSPost2010Prop41ColorRGB
 90
        0
102
RTVSPost2010PropOp41
 70
     1
102
RTVSPost2010Prop42
 90
       50
102
RTVSPost2010PropOp42
 70
     1
102
RTVSPost2010Prop43
 90
        3
102
RTVSPost2010PropOp43
 70
     1
102
RTVSPost2010Prop44ColorIndex
 90
        5
102
RTVSPost2010Prop44ColorRGB
 90
      255
102
RTVSPost2010PropOp44
 70
     1
102
RTVSPost2010Prop45
280
     0
102
RTVSPost2010PropOp45
 70
     1
102
RTVSPost2010Prop46
 90
       50
102
RTVSPost2010PropOp46
 70
     1
102
RTVSPost2010Prop47
 90
       50
102
RTVSPost2010PropOp47
 70
     1
102
RTVSPost2010Prop48
 90
       50
102
RTVSPost2010PropOp48
 70
     1
102
RTVSPost2010Prop49
280
     0
102
RTVSPost2010PropOp49
 70
     1
102
RTVSPost2010Prop50
 90
       50
102
RTVSPost2010PropOp50
 70
     1
102
RTVSPost2010Prop51ColorIndex
 90
      256
102
RTVSPost2010Prop51ColorRGB
 90
-16777216
102
RTVSPost2010PropOp51
 70
     0
102
RTVSPost2010Prop52
140
1.0
102
RTVSPost2010PropOp52
 70
     0
102
RTVSPost2010Prop53
 90
        2
102
RTVSPost2010PropOp53
 70
     1
102
RTVSPost2010Prop54
  1
strokes_ogs.tif
102
RTVSPost2010PropOp54
 70
     1
102
RTVSPost2010Prop55
280
     0
102
RTVSPost2010PropOp55
 70
     1
102
RTVSPost2010Prop56
140
1.0
102
RTVSPost2010PropOp56
 70
     1
102
RTVSPost2010Prop57
140
1.0
102
RTVSPost2010PropOp57
 70
     1
  0
XRECORD
  5
1F1
102
{ACAD_REACTORS
330
1F0
102
}
330
1F0
100
AcDbXrecord
280
     1
102
RTVSPost2010Prop28
280
     0
102
RTVSPost2010PropOp28
 70
     0
102
RTVSPost2010Prop29
280
     1
102
RTVSPost2010PropOp29
 70
     0
102
RTVSPost2010Prop30
280
     1
102
RTVSPost2010PropOp30
 70
     0
102
RTVSPost2010Prop31
280
     0
102
RTVSPost2010PropOp31
 70
     0
102
RTVSPost2010Prop32
280
     0
102
RTVSPost2010PropOp32
 70
     0
102
RTVSPost2010Prop33
280
     0
102
RTVSPost2010PropOp33
 70
     0
102
RTVSPost2010Prop34
280
     0
102
RTVSPost2010PropOp34
 70
     0
102
RTVSPost2010Prop35
280
     0
102
RTVSPost2010PropOp35
 70
     0
102
RTVSPost2010Prop36
280
     0
102
RTVSPost2010PropOp36
 70
     0
102
RTVSPost2010Prop37
 90
       50
102
RTVSPost2010PropOp37
 70
     0
102
RTVSPost2010Prop38
140
0.0
102
RTVSPost2010PropOp38
 70
     0
102
RTVSPost2010Prop39
140
1.0
102
RTVSPost2010PropOp39
 70
     0
102
RTVSPost2010Prop40
 90
        0
102
RTVSPost2010PropOp40
 70
     0
102
RTVSPost2010Prop41ColorIndex
 90
       18
102
RTVSPost2010Prop41ColorRGB
 90
        0
102
RTVSPost2010PropOp41
 70
     0
102
RTVSPost2010Prop42
 90
       50
102
RTVSPost2010PropOp42
 70
     0
102
RTVSPost2010Prop43
 90
        3
102
RTVSPost2010PropOp43
 70
     0
102
RTVSPost2010Prop44ColorIndex
 90
        5
102
RTVSPost2010Prop44ColorRGB
 90
      255
102
RTVSPost2010PropOp44
 70
     0
102
RTVSPost2010Prop45
280
     0
102
RTVSPost2010PropOp45
 70
     0
102
RTVSPost2010Prop46
 90
       50
102
RTVSPost2010PropOp46
 70
     0
102
RTVSPost2010Prop47
 90
       50
102
RTVSPost2010PropOp47
 70
     0
102
RTVSPost2010Prop48
 90
       50
102
RTVSPost2010PropOp48
 70
     0
102
RTVSPost2010Prop49
280
     0
102
RTVSPost2010PropOp49
 70
     0
102
RTVSPost2010Prop50
 90
       50
102
RTVSPost2010PropOp50
 70
     0
102
RTVSPost2010Prop51ColorIndex
 90
      256
102
RTVSPost2010Prop51ColorRGB
 90
-16777216
102
RTVSPost2010PropOp51
 70
     0
102
RTVSPost2010Prop52
140
1.0
102
RTVSPost2010PropOp52
 70
     0
102
RTVSPost2010Prop53
 90
        2
102
RTVSPost2010PropOp53
 70
     0
102
RTVSPost2010Prop54
  1
strokes_ogs.tif
102
RTVSPost2010PropOp54
 70
     0
102
RTVSPost2010Prop55
280
     0
102
RTVSPost2010PropOp55
 70
     0
102
RTVSPost2010Prop56
140
1.0
102
RTVSPost2010PropOp56
 70
     0
102
RTVSPost2010Prop57
140
1.0
102
RTVSPost2010PropOp57
 70
     0
  0
XRECORD
  5
1E9
102
{ACAD_REACTORS
330
1E8
102
}
330
1E8
100
AcDbXrecord
280
     1
102
RTVSPost2010Prop28
280
     0
102
RTVSPost2010PropOp28
 70
     1
102
RTVSPost2010Prop29
280
     1
102
RTVSPost2010PropOp29
 70
     1
102
RTVSPost2010Prop30
280
     1
102
RTVSPost2010PropOp30
 70
     1
102
RTVSPost2010Prop31
280
     0
102
RTVSPost2010PropOp31
 70
     1
102
RTVSPost2010Prop32
280
     0
102
RTVSPost2010PropOp32
 70
     1
102
RTVSPost2010Prop33
280
     0
102
RTVSPost2010PropOp33
 70
     1
102
RTVSPost2010Prop34
280
     0
102
RTVSPost2010PropOp34
 70
     1
102
RTVSPost2010Prop35
280
     0
102
RTVSPost2010PropOp35
 70
     1
102
RTVSPost2010Prop36
280
     0
102
RTVSPost2010PropOp36
 70
     1
102
RTVSPost2010Prop37
 90
       50
102
RTVSPost2010PropOp37
 70
     1
102
RTVSPost2010Prop38
140
0.0
102
RTVSPost2010PropOp38
 70
     1
102
RTVSPost2010Prop39
140
1.0
102
RTVSPost2010PropOp39
 70
     1
102
RTVSPost2010Prop40
 90
        0
102
RTVSPost2010PropOp40
 70
     1
102
RTVSPost2010Prop41ColorIndex
 90
       18
102
RTVSPost2010Prop41ColorRGB
 90
        0
102
RTVSPost2010PropOp41
 70
     1
102
RTVSPost2010Prop42
 90
       50
102
RTVSPost2010PropOp42
 70
     1
102
RTVSPost2010Prop43
 90
        3
102
RTVSPost2010PropOp43
 70
     1
102
RTVSPost2010Prop44ColorIndex
 90
        5
102
RTVSPost2010Prop44ColorRGB
 90
      255
102
RTVSPost2010PropOp44
 70
     1
102
RTVSPost2010Prop45
280
     0
102
RTVSPost2010PropOp45
 70
     1
102
RTVSPost2010Prop46
 90
       50
102
RTVSPost2010PropOp46
 70
     1
102
RTVSPost2010Prop47
 90
       50
102
RTVSPost2010PropOp47
 70
     1
102
RTVSPost2010Prop48
 90
       50
102
RTVSPost2010PropOp48
 70
     1
102
RTVSPost2010Prop49
280
     0
102
RTVSPost2010PropOp49
 70
     1
102
RTVSPost2010Prop50
 90
       50
102
RTVSPost2010PropOp50
 70
     1
102
RTVSPost2010Prop51ColorIndex
 90
      256
102
RTVSPost2010Prop51ColorRGB
 90
-16777216
102
RTVSPost2010PropOp51
 70
     0
102
RTVSPost2010Prop52
140
1.0
102
RTVSPost2010PropOp52
 70
     0
102
RTVSPost2010Prop53
 90
        2
102
RTVSPost2010PropOp53
 70
     1
102
RTVSPost2010Prop54
  1
strokes_ogs.tif
102
RTVSPost2010PropOp54
 70
     1
102
RTVSPost2010Prop55
280
     0
102
RTVSPost2010PropOp55
 70
     1
102
RTVSPost2010Prop56
140
1.0
102
RTVSPost2010PropOp56
 70
     1
102
RTVSPost2010Prop57
140
1.0
102
RTVSPost2010PropOp57
 70
     1
  0
XRECORD
  5
1CD
102
{ACAD_REACTORS
330
1CC
102
}
330
1CC
100
AcDbXrecord
280
     1
102
RTVSPost2010Prop28
280
     0
102
RTVSPost2010PropOp28
 70
     1
102
RTVSPost2010Prop29
280
     1
102
RTVSPost2010PropOp29
 70
     1
102
RTVSPost2010Prop30
280
     1
102
RTVSPost2010PropOp30
 70
     1
102
RTVSPost2010Prop31
280
     0
102
RTVSPost2010PropOp31
 70
     1
102
RTVSPost2010Prop32
280
     0
102
RTVSPost2010PropOp32
 70
     1
102
RTVSPost2010Prop33
280
     0
102
RTVSPost2010PropOp33
 70
     1
102
RTVSPost2010Prop34
280
     0
102
RTVSPost2010PropOp34
 70
     1
102
RTVSPost2010Prop35
280
     0
102
RTVSPost2010PropOp35
 70
     1
102
RTVSPost2010Prop36
280
     0
102
RTVSPost2010PropOp36
 70
     1
102
RTVSPost2010Prop37
 90
       50
102
RTVSPost2010PropOp37
 70
     1
102
RTVSPost2010Prop38
140
0.0
102
RTVSPost2010PropOp38
 70
     1
102
RTVSPost2010Prop39
140
1.0
102
RTVSPost2010PropOp39
 70
     1
102
RTVSPost2010Prop40
 90
        0
102
RTVSPost2010PropOp40
 70
     1
102
RTVSPost2010Prop41ColorIndex
 90
       18
102
RTVSPost2010Prop41ColorRGB
 90
        0
102
RTVSPost2010PropOp41
 70
     1
102
RTVSPost2010Prop42
 90
       50
102
RTVSPost2010PropOp42
 70
     1
102
RTVSPost2010Prop43
 90
        3
102
RTVSPost2010PropOp43
 70
     1
102
RTVSPost2010Prop44ColorIndex
 90
        5
102
RTVSPost2010Prop44ColorRGB
 90
      255
102
RTVSPost2010PropOp44
 70
     1
102
RTVSPost2010Prop45
280
     0
102
RTVSPost2010PropOp45
 70
     1
102
RTVSPost2010Prop46
 90
       50
102
RTVSPost2010PropOp46
 70
     1
102
RTVSPost2010Prop47
 90
       50
102
RTVSPost2010PropOp47
 70
     1
102
RTVSPost2010Prop48
 90
       50
102
RTVSPost2010PropOp48
 70
     1
102
RTVSPost2010Prop49
280
     0
102
RTVSPost2010PropOp49
 70
     1
102
RTVSPost2010Prop50
 90
       50
102
RTVSPost2010PropOp50
 70
     1
102
RTVSPost2010Prop51ColorIndex
 90
      256
102
RTVSPost2010Prop51ColorRGB
 90
-16777216
102
RTVSPost2010PropOp51
 70
     0
102
RTVSPost2010Prop52
140
1.0
102
RTVSPost2010PropOp52
 70
     0
102
RTVSPost2010Prop53
 90
        2
102
RTVSPost2010PropOp53
 70
     1
102
RTVSPost2010Prop54
  1
strokes_ogs.tif
102
RTVSPost2010PropOp54
 70
     1
102
RTVSPost2010Prop55
280
     0
102
RTVSPost2010PropOp55
 70
     1
102
RTVSPost2010Prop56
140
1.0
102
RTVSPost2010PropOp56
 70
     1
102
RTVSPost2010Prop57
140
1.0
102
RTVSPost2010PropOp57
 70
     1
  0
XRECORD
  5
1CF
102
{ACAD_REACTORS
330
1CE
102
}
330
1CE
100
AcDbXrecord
280
     1
102
RTVSPost2010Prop28
280
     0
102
RTVSPost2010PropOp28
 70
     1
102
RTVSPost2010Prop29
280
     1
102
RTVSPost2010PropOp29
 70
     1
102
RTVSPost2010Prop30
280
     1
102
RTVSPost2010PropOp30
 70
     1
102
RTVSPost2010Prop31
280
     0
102
RTVSPost2010PropOp31
 70
     1
102
RTVSPost2010Prop32
280
     0
102
RTVSPost2010PropOp32
 70
     1
102
RTVSPost2010Prop33
280
     0
102
RTVSPost2010PropOp33
 70
     1
102
RTVSPost2010Prop34
280
     0
102
RTVSPost2010PropOp34
 70
     1
102
RTVSPost2010Prop35
280
     0
102
RTVSPost2010PropOp35
 70
     1
102
RTVSPost2010Prop36
280
     0
102
RTVSPost2010PropOp36
 70
     1
102
RTVSPost2010Prop37
 90
       50
102
RTVSPost2010PropOp37
 70
     1
102
RTVSPost2010Prop38
140
0.0
102
RTVSPost2010PropOp38
 70
     1
102
RTVSPost2010Prop39
140
1.0
102
RTVSPost2010PropOp39
 70
     1
102
RTVSPost2010Prop40
 90
        0
102
RTVSPost2010PropOp40
 70
     1
102
RTVSPost2010Prop41ColorIndex
 90
       18
102
RTVSPost2010Prop41ColorRGB
 90
        0
102
RTVSPost2010PropOp41
 70
     1
102
RTVSPost2010Prop42
 90
       50
102
RTVSPost2010PropOp42
 70
     1
102
RTVSPost2010Prop43
 90
        3
102
RTVSPost2010PropOp43
 70
     1
102
RTVSPost2010Prop44ColorIndex
 90
        5
102
RTVSPost2010Prop44ColorRGB
 90
      255
102
RTVSPost2010PropOp44
 70
     1
102
RTVSPost2010Prop45
280
     0
102
RTVSPost2010PropOp45
 70
     1
102
RTVSPost2010Prop46
 90
       50
102
RTVSPost2010PropOp46
 70
     1
102
RTVSPost2010Prop47
 90
       50
102
RTVSPost2010PropOp47
 70
     1
102
RTVSPost2010Prop48
 90
       50
102
RTVSPost2010PropOp48
 70
     1
102
RTVSPost2010Prop49
280
     0
102
RTVSPost2010PropOp49
 70
     1
102
RTVSPost2010Prop50
 90
       50
102
RTVSPost2010PropOp50
 70
     1
102
RTVSPost2010Prop51ColorIndex
 90
      256
102
RTVSPost2010Prop51ColorRGB
 90
-16777216
102
RTVSPost2010PropOp51
 70
     0
102
RTVSPost2010Prop52
140
1.0
102
RTVSPost2010PropOp52
 70
     0
102
RTVSPost2010Prop53
 90
        2
102
RTVSPost2010PropOp53
 70
     1
102
RTVSPost2010Prop54
  1
strokes_ogs.tif
102
RTVSPost2010PropOp54
 70
     1
102
RTVSPost2010Prop55
280
     0
102
RTVSPost2010PropOp55
 70
     1
102
RTVSPost2010Prop56
140
1.0
102
RTVSPost2010PropOp56
 70
     1
102
RTVSPost2010Prop57
140
1.0
102
RTVSPost2010PropOp57
 70
     1
  0
XRECORD
  5
1D1
102
{ACAD_REACTORS
330
1D0
102
}
330
1D0
100
AcDbXrecord
280
     1
102
RTVSPost2010Prop28
280
     0
102
RTVSPost2010PropOp28
 70
     1
102
RTVSPost2010Prop29
280
     1
102
RTVSPost2010PropOp29
 70
     1
102
RTVSPost2010Prop30
280
     1
102
RTVSPost2010PropOp30
 70
     1
102
RTVSPost2010Prop31
280
     0
102
RTVSPost2010PropOp31
 70
     1
102
RTVSPost2010Prop32
280
     0
102
RTVSPost2010PropOp32
 70
     1
102
RTVSPost2010Prop33
280
     0
102
RTVSPost2010PropOp33
 70
     1
102
RTVSPost2010Prop34
280
     0
102
RTVSPost2010PropOp34
 70
     1
102
RTVSPost2010Prop35
280
     0
102
RTVSPost2010PropOp35
 70
     1
102
RTVSPost2010Prop36
280
     0
102
RTVSPost2010PropOp36
 70
     1
102
RTVSPost2010Prop37
 90
       50
102
RTVSPost2010PropOp37
 70
     1
102
RTVSPost2010Prop38
140
0.0
102
RTVSPost2010PropOp38
 70
     1
102
RTVSPost2010Prop39
140
1.0
102
RTVSPost2010PropOp39
 70
     1
102
RTVSPost2010Prop40
 90
        0
102
RTVSPost2010PropOp40
 70
     1
102
RTVSPost2010Prop41ColorIndex
 90
       18
102
RTVSPost2010Prop41ColorRGB
 90
        0
102
RTVSPost2010PropOp41
 70
     1
102
RTVSPost2010Prop42
 90
       50
102
RTVSPost2010PropOp42
 70
     1
102
RTVSPost2010Prop43
 90
        3
102
RTVSPost2010PropOp43
 70
     1
102
RTVSPost2010Prop44ColorIndex
 90
        5
102
RTVSPost2010Prop44ColorRGB
 90
      255
102
RTVSPost2010PropOp44
 70
     1
102
RTVSPost2010Prop45
280
     0
102
RTVSPost2010PropOp45
 70
     1
102
RTVSPost2010Prop46
 90
       50
102
RTVSPost2010PropOp46
 70
     1
102
RTVSPost2010Prop47
 90
       50
102
RTVSPost2010PropOp47
 70
     1
102
RTVSPost2010Prop48
 90
       50
102
RTVSPost2010PropOp48
 70
     1
102
RTVSPost2010Prop49
280
     0
102
RTVSPost2010PropOp49
 70
     1
102
RTVSPost2010Prop50
 90
       50
102
RTVSPost2010PropOp50
 70
     1
102
RTVSPost2010Prop51ColorIndex
 90
      256
102
RTVSPost2010Prop51ColorRGB
 90
-16777216
102
RTVSPost2010PropOp51
 70
     0
102
RTVSPost2010Prop52
140
1.0
102
RTVSPost2010PropOp52
 70
     0
102
RTVSPost2010Prop53
 90
        2
102
RTVSPost2010PropOp53
 70
     1
102
RTVSPost2010Prop54
  1
strokes_ogs.tif
102
RTVSPost2010PropOp54
 70
     1
102
RTVSPost2010Prop55
280
     0
102
RTVSPost2010PropOp55
 70
     1
102
RTVSPost2010Prop56
140
1.0
102
RTVSPost2010PropOp56
 70
     1
102
RTVSPost2010Prop57
140
1.0
102
RTVSPost2010PropOp57
 70
     1
  0
XRECORD
  5
1D3
102
{ACAD_REACTORS
330
1D2
102
}
330
1D2
100
AcDbXrecord
280
     1
102
RTVSPost2010Prop28
280
     0
102
RTVSPost2010PropOp28
 70
     1
102
RTVSPost2010Prop29
280
     1
102
RTVSPost2010PropOp29
 70
     1
102
RTVSPost2010Prop30
280
     1
102
RTVSPost2010PropOp30
 70
     1
102
RTVSPost2010Prop31
280
     0
102
RTVSPost2010PropOp31
 70
     1
102
RTVSPost2010Prop32
280
     0
102
RTVSPost2010PropOp32
 70
     1
102
RTVSPost2010Prop33
280
     0
102
RTVSPost2010PropOp33
 70
     1
102
RTVSPost2010Prop34
280
     0
102
RTVSPost2010PropOp34
 70
     1
102
RTVSPost2010Prop35
280
     0
102
RTVSPost2010PropOp35
 70
     1
102
RTVSPost2010Prop36
280
     0
102
RTVSPost2010PropOp36
 70
     1
102
RTVSPost2010Prop37
 90
       50
102
RTVSPost2010PropOp37
 70
     1
102
RTVSPost2010Prop38
140
0.0
102
RTVSPost2010PropOp38
 70
     1
102
RTVSPost2010Prop39
140
1.0
102
RTVSPost2010PropOp39
 70
     1
102
RTVSPost2010Prop40
 90
        0
102
RTVSPost2010PropOp40
 70
     1
102
RTVSPost2010Prop41ColorIndex
 90
       18
102
RTVSPost2010Prop41ColorRGB
 90
        0
102
RTVSPost2010PropOp41
 70
     1
102
RTVSPost2010Prop42
 90
       50
102
RTVSPost2010PropOp42
 70
     1
102
RTVSPost2010Prop43
 90
        3
102
RTVSPost2010PropOp43
 70
     1
102
RTVSPost2010Prop44ColorIndex
 90
        5
102
RTVSPost2010Prop44ColorRGB
 90
      255
102
RTVSPost2010PropOp44
 70
     1
102
RTVSPost2010Prop45
280
     0
102
RTVSPost2010PropOp45
 70
     1
102
RTVSPost2010Prop46
 90
       50
102
RTVSPost2010PropOp46
 70
     1
102
RTVSPost2010Prop47
 90
       50
102
RTVSPost2010PropOp47
 70
     1
102
RTVSPost2010Prop48
 90
       50
102
RTVSPost2010PropOp48
 70
     1
102
RTVSPost2010Prop49
280
     0
102
RTVSPost2010PropOp49
 70
     1
102
RTVSPost2010Prop50
 90
       50
102
RTVSPost2010PropOp50
 70
     1
102
RTVSPost2010Prop51ColorIndex
 90
      256
102
RTVSPost2010Prop51ColorRGB
 90
-16777216
102
RTVSPost2010PropOp51
 70
     0
102
RTVSPost2010Prop52
140
1.0
102
RTVSPost2010PropOp52
 70
     0
102
RTVSPost2010Prop53
 90
        2
102
RTVSPost2010PropOp53
 70
     1
102
RTVSPost2010Prop54
  1
strokes_ogs.tif
102
RTVSPost2010PropOp54
 70
     1
102
RTVSPost2010Prop55
280
     0
102
RTVSPost2010PropOp55
 70
     1
102
RTVSPost2010Prop56
140
1.0
102
RTVSPost2010PropOp56
 70
     1
102
RTVSPost2010Prop57
140
1.0
102
RTVSPost2010PropOp57
 70
     1
  0
XRECORD
  5
1D9
102
{ACAD_REACTORS
330
1D8
102
}
330
1D8
100
AcDbXrecord
280
     1
102
RTVSPost2010Prop28
280
     0
102
RTVSPost2010PropOp28
 70
     1
102
RTVSPost2010Prop29
280
     1
102
RTVSPost2010PropOp29
 70
     1
102
RTVSPost2010Prop30
280
     1
102
RTVSPost2010PropOp30
 70
     1
102
RTVSPost2010Prop31
280
     0
102
RTVSPost2010PropOp31
 70
     1
102
RTVSPost2010Prop32
280
     0
102
RTVSPost2010PropOp32
 70
     1
102
RTVSPost2010Prop33
280
     0
102
RTVSPost2010PropOp33
 70
     1
102
RTVSPost2010Prop34
280
     0
102
RTVSPost2010PropOp34
 70
     1
102
RTVSPost2010Prop35
280
     0
102
RTVSPost2010PropOp35
 70
     1
102
RTVSPost2010Prop36
280
     0
102
RTVSPost2010PropOp36
 70
     1
102
RTVSPost2010Prop37
 90
       50
102
RTVSPost2010PropOp37
 70
     1
102
RTVSPost2010Prop38
140
0.0
102
RTVSPost2010PropOp38
 70
     1
102
RTVSPost2010Prop39
140
1.0
102
RTVSPost2010PropOp39
 70
     1
102
RTVSPost2010Prop40
 90
        0
102
RTVSPost2010PropOp40
 70
     1
102
RTVSPost2010Prop41ColorIndex
 90
       18
102
RTVSPost2010Prop41ColorRGB
 90
        0
102
RTVSPost2010PropOp41
 70
     1
102
RTVSPost2010Prop42
 90
       50
102
RTVSPost2010PropOp42
 70
     1
102
RTVSPost2010Prop43
 90
        3
102
RTVSPost2010PropOp43
 70
     1
102
RTVSPost2010Prop44ColorIndex
 90
        5
102
RTVSPost2010Prop44ColorRGB
 90
      255
102
RTVSPost2010PropOp44
 70
     1
102
RTVSPost2010Prop45
280
     0
102
RTVSPost2010PropOp45
 70
     1
102
RTVSPost2010Prop46
 90
       50
102
RTVSPost2010PropOp46
 70
     1
102
RTVSPost2010Prop47
 90
       50
102
RTVSPost2010PropOp47
 70
     1
102
RTVSPost2010Prop48
 90
       50
102
RTVSPost2010PropOp48
 70
     1
102
RTVSPost2010Prop49
280
     0
102
RTVSPost2010PropOp49
 70
     1
102
RTVSPost2010Prop50
 90
       50
102
RTVSPost2010PropOp50
 70
     1
102
RTVSPost2010Prop51ColorIndex
 90
      256
102
RTVSPost2010Prop51ColorRGB
 90
-16777216
102
RTVSPost2010PropOp51
 70
     0
102
RTVSPost2010Prop52
140
1.0
102
RTVSPost2010PropOp52
 70
     0
102
RTVSPost2010Prop53
 90
        2
102
RTVSPost2010PropOp53
 70
     1
102
RTVSPost2010Prop54
  1
strokes_ogs.tif
102
RTVSPost2010PropOp54
 70
     1
102
RTVSPost2010Prop55
280
     0
102
RTVSPost2010PropOp55
 70
     1
102
RTVSPost2010Prop56
140
1.0
102
RTVSPost2010PropOp56
 70
     1
102
RTVSPost2010Prop57
140
1.0
102
RTVSPost2010PropOp57
 70
     1
  0
XRECORD
  5
1ED
102
{ACAD_REACTORS
330
1EC
102
}
330
1EC
100
AcDbXrecord
280
     1
102
RTVSPost2010Prop28
280
     0
102
RTVSPost2010PropOp28
 70
     0
102
RTVSPost2010Prop29
280
     1
102
RTVSPost2010PropOp29
 70
     0
102
RTVSPost2010Prop30
280
     1
102
RTVSPost2010PropOp30
 70
     0
102
RTVSPost2010Prop31
280
     0
102
RTVSPost2010PropOp31
 70
     0
102
RTVSPost2010Prop32
280
     0
102
RTVSPost2010PropOp32
 70
     0
102
RTVSPost2010Prop33
280
     0
102
RTVSPost2010PropOp33
 70
     0
102
RTVSPost2010Prop34
280
     0
102
RTVSPost2010PropOp34
 70
     0
102
RTVSPost2010Prop35
280
     0
102
RTVSPost2010PropOp35
 70
     0
102
RTVSPost2010Prop36
280
     0
102
RTVSPost2010PropOp36
 70
     0
102
RTVSPost2010Prop37
 90
       50
102
RTVSPost2010PropOp37
 70
     0
102
RTVSPost2010Prop38
140
0.0
102
RTVSPost2010PropOp38
 70
     0
102
RTVSPost2010Prop39
140
1.0
102
RTVSPost2010PropOp39
 70
     0
102
RTVSPost2010Prop40
 90
        0
102
RTVSPost2010PropOp40
 70
     0
102
RTVSPost2010Prop41ColorIndex
 90
       18
102
RTVSPost2010Prop41ColorRGB
 90
        0
102
RTVSPost2010PropOp41
 70
     0
102
RTVSPost2010Prop42
 90
       50
102
RTVSPost2010PropOp42
 70
     0
102
RTVSPost2010Prop43
 90
        3
102
RTVSPost2010PropOp43
 70
     0
102
RTVSPost2010Prop44ColorIndex
 90
        5
102
RTVSPost2010Prop44ColorRGB
 90
      255
102
RTVSPost2010PropOp44
 70
     0
102
RTVSPost2010Prop45
280
     0
102
RTVSPost2010PropOp45
 70
     0
102
RTVSPost2010Prop46
 90
       50
102
RTVSPost2010PropOp46
 70
     0
102
RTVSPost2010Prop47
 90
       50
102
RTVSPost2010PropOp47
 70
     0
102
RTVSPost2010Prop48
 90
       50
102
RTVSPost2010PropOp48
 70
     0
102
RTVSPost2010Prop49
280
     0
102
RTVSPost2010PropOp49
 70
     0
102
RTVSPost2010Prop50
 90
       50
102
RTVSPost2010PropOp50
 70
     0
102
RTVSPost2010Prop51ColorIndex
 90
      256
102
RTVSPost2010Prop51ColorRGB
 90
-16777216
102
RTVSPost2010PropOp51
 70
     0
102
RTVSPost2010Prop52
140
1.0
102
RTVSPost2010PropOp52
 70
     0
102
RTVSPost2010Prop53
 90
        2
102
RTVSPost2010PropOp53
 70
     0
102
RTVSPost2010Prop54
  1
strokes_ogs.tif
102
RTVSPost2010PropOp54
 70
     0
102
RTVSPost2010Prop55
280
     0
102
RTVSPost2010PropOp55
 70
     0
102
RTVSPost2010Prop56
140
1.0
102
RTVSPost2010PropOp56
 70
     0
102
RTVSPost2010Prop57
140
1.0
102
RTVSPost2010PropOp57
 70
     0
  0
XRECORD
  5
1E7
102
{ACAD_REACTORS
330
1E6
102
}
330
1E6
100
AcDbXrecord
280
     1
102
RTVSPost2010Prop28
280
     0
102
RTVSPost2010PropOp28
 70
     1
102
RTVSPost2010Prop29
280
     1
102
RTVSPost2010PropOp29
 70
     1
102
RTVSPost2010Prop30
280
     1
102
RTVSPost2010PropOp30
 70
     1
102
RTVSPost2010Prop31
280
     0
102
RTVSPost2010PropOp31
 70
     1
102
RTVSPost2010Prop32
280
     0
102
RTVSPost2010PropOp32
 70
     1
102
RTVSPost2010Prop33
280
     0
102
RTVSPost2010PropOp33
 70
     1
102
RTVSPost2010Prop34
280
     0
102
RTVSPost2010PropOp34
 70
     1
102
RTVSPost2010Prop35
280
     0
102
RTVSPost2010PropOp35
 70
     1
102
RTVSPost2010Prop36
280
     0
102
RTVSPost2010PropOp36
 70
     1
102
RTVSPost2010Prop37
 90
       50
102
RTVSPost2010PropOp37
 70
     1
102
RTVSPost2010Prop38
140
0.0
102
RTVSPost2010PropOp38
 70
     1
102
RTVSPost2010Prop39
140
1.0
102
RTVSPost2010PropOp39
 70
     1
102
RTVSPost2010Prop40
 90
        0
102
RTVSPost2010PropOp40
 70
     1
102
RTVSPost2010Prop41ColorIndex
 90
       18
102
RTVSPost2010Prop41ColorRGB
 90
        0
102
RTVSPost2010PropOp41
 70
     1
102
RTVSPost2010Prop42
 90
       50
102
RTVSPost2010PropOp42
 70
     1
102
RTVSPost2010Prop43
 90
        3
102
RTVSPost2010PropOp43
 70
     1
102
RTVSPost2010Prop44ColorIndex
 90
        5
102
RTVSPost2010Prop44ColorRGB
 90
      255
102
RTVSPost2010PropOp44
 70
     1
102
RTVSPost2010Prop45
280
     0
102
RTVSPost2010PropOp45
 70
     1
102
RTVSPost2010Prop46
 90
       50
102
RTVSPost2010PropOp46
 70
     1
102
RTVSPost2010Prop47
 90
       50
102
RTVSPost2010PropOp47
 70
     1
102
RTVSPost2010Prop48
 90
       50
102
RTVSPost2010PropOp48
 70
     1
102
RTVSPost2010Prop49
280
     0
102
RTVSPost2010PropOp49
 70
     1
102
RTVSPost2010Prop50
 90
       50
102
RTVSPost2010PropOp50
 70
     1
102
RTVSPost2010Prop51ColorIndex
 90
      256
102
RTVSPost2010Prop51ColorRGB
 90
-16777216
102
RTVSPost2010PropOp51
 70
     0
102
RTVSPost2010Prop52
140
1.0
102
RTVSPost2010PropOp52
 70
     0
102
RTVSPost2010Prop53
 90
        2
102
RTVSPost2010PropOp53
 70
     1
102
RTVSPost2010Prop54
  1
strokes_ogs.tif
102
RTVSPost2010PropOp54
 70
     1
102
RTVSPost2010Prop55
280
     0
102
RTVSPost2010PropOp55
 70
     1
102
RTVSPost2010Prop56
140
1.0
102
RTVSPost2010PropOp56
 70
     1
102
RTVSPost2010Prop57
140
1.0
102
RTVSPost2010PropOp57
 70
     1
  0
XRECORD
  5
1EF
102
{ACAD_REACTORS
330
1EE
102
}
330
1EE
100
AcDbXrecord
280
     1
102
RTVSPost2010Prop28
280
     0
102
RTVSPost2010PropOp28
 70
     0
102
RTVSPost2010Prop29
280
     1
102
RTVSPost2010PropOp29
 70
     0
102
RTVSPost2010Prop30
280
     1
102
RTVSPost2010PropOp30
 70
     0
102
RTVSPost2010Prop31
280
     0
102
RTVSPost2010PropOp31
 70
     0
102
RTVSPost2010Prop32
280
     0
102
RTVSPost2010PropOp32
 70
     0
102
RTVSPost2010Prop33
280
     0
102
RTVSPost2010PropOp33
 70
     0
102
RTVSPost2010Prop34
280
     0
102
RTVSPost2010PropOp34
 70
     0
102
RTVSPost2010Prop35
280
     0
102
RTVSPost2010PropOp35
 70
     0
102
RTVSPost2010Prop36
280
     0
102
RTVSPost2010PropOp36
 70
     0
102
RTVSPost2010Prop37
 90
       50
102
RTVSPost2010PropOp37
 70
     0
102
RTVSPost2010Prop38
140
0.0
102
RTVSPost2010PropOp38
 70
     0
102
RTVSPost2010Prop39
140
1.0
102
RTVSPost2010PropOp39
 70
     0
102
RTVSPost2010Prop40
 90
        0
102
RTVSPost2010PropOp40
 70
     0
102
RTVSPost2010Prop41ColorIndex
 90
       18
102
RTVSPost2010Prop41ColorRGB
 90
        0
102
RTVSPost2010PropOp41
 70
     0
102
RTVSPost2010Prop42
 90
       50
102
RTVSPost2010PropOp42
 70
     0
102
RTVSPost2010Prop43
 90
        3
102
RTVSPost2010PropOp43
 70
     0
102
RTVSPost2010Prop44ColorIndex
 90
        5
102
RTVSPost2010Prop44ColorRGB
 90
      255
102
RTVSPost2010PropOp44
 70
     0
102
RTVSPost2010Prop45
280
     0
102
RTVSPost2010PropOp45
 70
     0
102
RTVSPost2010Prop46
 90
       50
102
RTVSPost2010PropOp46
 70
     0
102
RTVSPost2010Prop47
 90
       50
102
RTVSPost2010PropOp47
 70
     0
102
RTVSPost2010Prop48
 90
       50
102
RTVSPost2010PropOp48
 70
     0
102
RTVSPost2010Prop49
280
     0
102
RTVSPost2010PropOp49
 70
     0
102
RTVSPost2010Prop50
 90
       50
102
RTVSPost2010PropOp50
 70
     0
102
RTVSPost2010Prop51ColorIndex
 90
      256
102
RTVSPost2010Prop51ColorRGB
 90
-16777216
102
RTVSPost2010PropOp51
 70
     0
102
RTVSPost2010Prop52
140
1.0
102
RTVSPost2010PropOp52
 70
     0
102
RTVSPost2010Prop53
 90
        2
102
RTVSPost2010PropOp53
 70
     0
102
RTVSPost2010Prop54
  1
strokes_ogs.tif
102
RTVSPost2010PropOp54
 70
     0
102
RTVSPost2010Prop55
280
     0
102
RTVSPost2010PropOp55
 70
     0
102
RTVSPost2010Prop56
140
1.0
102
RTVSPost2010PropOp56
 70
     0
102
RTVSPost2010Prop57
140
1.0
102
RTVSPost2010PropOp57
 70
     0
  0
XRECORD
  5
1DD
102
{ACAD_REACTORS
330
1DC
102
}
330
1DC
100
AcDbXrecord
280
     1
102
RTVSPost2010Prop28
280
     0
102
RTVSPost2010PropOp28
 70
     1
102
RTVSPost2010Prop29
280
     1
102
RTVSPost2010PropOp29
 70
     1
102
RTVSPost2010Prop30
280
     1
102
RTVSPost2010PropOp30
 70
     1
102
RTVSPost2010Prop31
280
     0
102
RTVSPost2010PropOp31
 70
     1
102
RTVSPost2010Prop32
280
     0
102
RTVSPost2010PropOp32
 70
     1
102
RTVSPost2010Prop33
280
     0
102
RTVSPost2010PropOp33
 70
     1
102
RTVSPost2010Prop34
280
     0
102
RTVSPost2010PropOp34
 70
     1
102
RTVSPost2010Prop35
280
     0
102
RTVSPost2010PropOp35
 70
     1
102
RTVSPost2010Prop36
280
     0
102
RTVSPost2010PropOp36
 70
     1
102
RTVSPost2010Prop37
 90
       50
102
RTVSPost2010PropOp37
 70
     1
102
RTVSPost2010Prop38
140
0.0
102
RTVSPost2010PropOp38
 70
     1
102
RTVSPost2010Prop39
140
1.0
102
RTVSPost2010PropOp39
 70
     1
102
RTVSPost2010Prop40
 90
        0
102
RTVSPost2010PropOp40
 70
     1
102
RTVSPost2010Prop41ColorIndex
 90
       18
102
RTVSPost2010Prop41ColorRGB
 90
        0
102
RTVSPost2010PropOp41
 70
     1
102
RTVSPost2010Prop42
 90
       50
102
RTVSPost2010PropOp42
 70
     1
102
RTVSPost2010Prop43
 90
        3
102
RTVSPost2010PropOp43
 70
     1
102
RTVSPost2010Prop44ColorIndex
 90
        5
102
RTVSPost2010Prop44ColorRGB
 90
      255
102
RTVSPost2010PropOp44
 70
     1
102
RTVSPost2010Prop45
280
     0
102
RTVSPost2010PropOp45
 70
     1
102
RTVSPost2010Prop46
 90
       50
102
RTVSPost2010PropOp46
 70
     1
102
RTVSPost2010Prop47
 90
       50
102
RTVSPost2010PropOp47
 70
     1
102
RTVSPost2010Prop48
 90
       50
102
RTVSPost2010PropOp48
 70
     1
102
RTVSPost2010Prop49
280
     0
102
RTVSPost2010PropOp49
 70
     1
102
RTVSPost2010Prop50
 90
       50
102
RTVSPost2010PropOp50
 70
     1
102
RTVSPost2010Prop51ColorIndex
 90
      256
102
RTVSPost2010Prop51ColorRGB
 90
-16777216
102
RTVSPost2010PropOp51
 70
     0
102
RTVSPost2010Prop52
140
1.0
102
RTVSPost2010PropOp52
 70
     0
102
RTVSPost2010Prop53
 90
        2
102
RTVSPost2010PropOp53
 70
     1
102
RTVSPost2010Prop54
  1
strokes_ogs.tif
102
RTVSPost2010PropOp54
 70
     1
102
RTVSPost2010Prop55
280
     0
102
RTVSPost2010PropOp55
 70
     1
102
RTVSPost2010Prop56
140
1.0
102
RTVSPost2010PropOp56
 70
     1
102
RTVSPost2010Prop57
140
1.0
102
RTVSPost2010PropOp57
 70
     1
  0
XRECORD
  5
1FB
102
{ACAD_REACTORS
330
1FA
102
}
330
1FA
100
AcDbXrecord
280
     1
102
RTVSPost2010Prop28
280
     0
102
RTVSPost2010PropOp28
 70
     1
102
RTVSPost2010Prop29
280
     1
102
RTVSPost2010PropOp29
 70
     1
102
RTVSPost2010Prop30
280
     1
102
RTVSPost2010PropOp30
 70
     1
102
RTVSPost2010Prop31
280
     0
102
RTVSPost2010PropOp31
 70
     1
102
RTVSPost2010Prop32
280
     0
102
RTVSPost2010PropOp32
 70
     1
102
RTVSPost2010Prop33
280
     0
102
RTVSPost2010PropOp33
 70
     1
102
RTVSPost2010Prop34
280
     0
102
RTVSPost2010PropOp34
 70
     1
102
RTVSPost2010Prop35
280
     0
102
RTVSPost2010PropOp35
 70
     1
102
RTVSPost2010Prop36
280
     0
102
RTVSPost2010PropOp36
 70
     1
102
RTVSPost2010Prop37
 90
       50
102
RTVSPost2010PropOp37
 70
     1
102
RTVSPost2010Prop38
140
0.0
102
RTVSPost2010PropOp38
 70
     1
102
RTVSPost2010Prop39
140
1.0
102
RTVSPost2010PropOp39
 70
     1
102
RTVSPost2010Prop40
 90
        0
102
RTVSPost2010PropOp40
 70
     1
102
RTVSPost2010Prop41ColorIndex
 90
       18
102
RTVSPost2010Prop41ColorRGB
 90
        0
102
RTVSPost2010PropOp41
 70
     1
102
RTVSPost2010Prop42
 90
       50
102
RTVSPost2010PropOp42
 70
     1
102
RTVSPost2010Prop43
 90
        3
102
RTVSPost2010PropOp43
 70
     1
102
RTVSPost2010Prop44ColorIndex
 90
        5
102
RTVSPost2010Prop44ColorRGB
 90
      255
102
RTVSPost2010PropOp44
 70
     1
102
RTVSPost2010Prop45
280
     0
102
RTVSPost2010PropOp45
 70
     1
102
RTVSPost2010Prop46
 90
       50
102
RTVSPost2010PropOp46
 70
     1
102
RTVSPost2010Prop47
 90
       50
102
RTVSPost2010PropOp47
 70
     1
102
RTVSPost2010Prop48
 90
       50
102
RTVSPost2010PropOp48
 70
     1
102
RTVSPost2010Prop49
280
     0
102
RTVSPost2010PropOp49
 70
     1
102
RTVSPost2010Prop50
 90
       50
102
RTVSPost2010PropOp50
 70
     1
102
RTVSPost2010Prop51ColorIndex
 90
      256
102
RTVSPost2010Prop51ColorRGB
 90
-16777216
102
RTVSPost2010PropOp51
 70
     0
102
RTVSPost2010Prop52
140
1.0
102
RTVSPost2010PropOp52
 70
     0
102
RTVSPost2010Prop53
 90
        2
102
RTVSPost2010PropOp53
 70
     1
102
RTVSPost2010Prop54
  1
strokes_ogs.tif
102
RTVSPost2010PropOp54
 70
     1
102
RTVSPost2010Prop55
280
     0
102
RTVSPost2010PropOp55
 70
     1
102
RTVSPost2010Prop56
140
1.0
102
RTVSPost2010PropOp56
 70
     1
102
RTVSPost2010Prop57
140
1.0
102
RTVSPost2010PropOp57
 70
     1
  0
XRECORD
  5
1F9
102
{ACAD_REACTORS
330
1F8
102
}
330
1F8
100
AcDbXrecord
280
     1
102
RTVSPost2010Prop28
280
     0
102
RTVSPost2010PropOp28
 70
     1
102
RTVSPost2010Prop29
280
     1
102
RTVSPost2010PropOp29
 70
     1
102
RTVSPost2010Prop30
280
     1
102
RTVSPost2010PropOp30
 70
     1
102
RTVSPost2010Prop31
280
     0
102
RTVSPost2010PropOp31
 70
     1
102
RTVSPost2010Prop32
280
     0
102
RTVSPost2010PropOp32
 70
     1
102
RTVSPost2010Prop33
280
     0
102
RTVSPost2010PropOp33
 70
     1
102
RTVSPost2010Prop34
280
     0
102
RTVSPost2010PropOp34
 70
     1
102
RTVSPost2010Prop35
280
     0
102
RTVSPost2010PropOp35
 70
     1
102
RTVSPost2010Prop36
280
     0
102
RTVSPost2010PropOp36
 70
     1
102
RTVSPost2010Prop37
 90
       50
102
RTVSPost2010PropOp37
 70
     1
102
RTVSPost2010Prop38
140
0.0
102
RTVSPost2010PropOp38
 70
     1
102
RTVSPost2010Prop39
140
1.0
102
RTVSPost2010PropOp39
 70
     1
102
RTVSPost2010Prop40
 90
        0
102
RTVSPost2010PropOp40
 70
     1
102
RTVSPost2010Prop41ColorIndex
 90
       18
102
RTVSPost2010Prop41ColorRGB
 90
        0
102
RTVSPost2010PropOp41
 70
     1
102
RTVSPost2010Prop42
 90
       50
102
RTVSPost2010PropOp42
 70
     1
102
RTVSPost2010Prop43
 90
        3
102
RTVSPost2010PropOp43
 70
     1
102
RTVSPost2010Prop44ColorIndex
 90
        5
102
RTVSPost2010Prop44ColorRGB
 90
      255
102
RTVSPost2010PropOp44
 70
     1
102
RTVSPost2010Prop45
280
     0
102
RTVSPost2010PropOp45
 70
     1
102
RTVSPost2010Prop46
 90
       50
102
RTVSPost2010PropOp46
 70
     1
102
RTVSPost2010Prop47
 90
       50
102
RTVSPost2010PropOp47
 70
     1
102
RTVSPost2010Prop48
 90
       50
102
RTVSPost2010PropOp48
 70
     1
102
RTVSPost2010Prop49
280
     0
102
RTVSPost2010PropOp49
 70
     1
102
RTVSPost2010Prop50
 90
       50
102
RTVSPost2010PropOp50
 70
     1
102
RTVSPost2010Prop51ColorIndex
 90
      256
102
RTVSPost2010Prop51ColorRGB
 90
-16777216
102
RTVSPost2010PropOp51
 70
     0
102
RTVSPost2010Prop52
140
1.0
102
RTVSPost2010PropOp52
 70
     0
102
RTVSPost2010Prop53
 90
        2
102
RTVSPost2010PropOp53
 70
     1
102
RTVSPost2010Prop54
  1
strokes_ogs.tif
102
RTVSPost2010PropOp54
 70
     1
102
RTVSPost2010Prop55
280
     0
102
RTVSPost2010PropOp55
 70
     1
102
RTVSPost2010Prop56
140
1.0
102
RTVSPost2010PropOp56
 70
     1
102
RTVSPost2010Prop57
140
1.0
102
RTVSPost2010PropOp57
 70
     1
  0
XRECORD
  5
1F3
102
{ACAD_REACTORS
330
1F2
102
}
330
1F2
100
AcDbXrecord
280
     1
102
RTVSPost2010Prop28
280
     0
102
RTVSPost2010PropOp28
 70
     1
102
RTVSPost2010Prop29
280
     1
102
RTVSPost2010PropOp29
 70
     1
102
RTVSPost2010Prop30
280
     1
102
RTVSPost2010PropOp30
 70
     1
102
RTVSPost2010Prop31
280
     0
102
RTVSPost2010PropOp31
 70
     1
102
RTVSPost2010Prop32
280
     0
102
RTVSPost2010PropOp32
 70
     1
102
RTVSPost2010Prop33
280
     0
102
RTVSPost2010PropOp33
 70
     1
102
RTVSPost2010Prop34
280
     0
102
RTVSPost2010PropOp34
 70
     1
102
RTVSPost2010Prop35
280
     0
102
RTVSPost2010PropOp35
 70
     1
102
RTVSPost2010Prop36
280
     0
102
RTVSPost2010PropOp36
 70
     1
102
RTVSPost2010Prop37
 90
       50
102
RTVSPost2010PropOp37
 70
     1
102
RTVSPost2010Prop38
140
0.0
102
RTVSPost2010PropOp38
 70
     1
102
RTVSPost2010Prop39
140
1.0
102
RTVSPost2010PropOp39
 70
     1
102
RTVSPost2010Prop40
 90
        0
102
RTVSPost2010PropOp40
 70
     1
102
RTVSPost2010Prop41ColorIndex
 90
       18
102
RTVSPost2010Prop41ColorRGB
 90
        0
102
RTVSPost2010PropOp41
 70
     1
102
RTVSPost2010Prop42
 90
       50
102
RTVSPost2010PropOp42
 70
     1
102
RTVSPost2010Prop43
 90
        3
102
RTVSPost2010PropOp43
 70
     1
102
RTVSPost2010Prop44ColorIndex
 90
        5
102
RTVSPost2010Prop44ColorRGB
 90
      255
102
RTVSPost2010PropOp44
 70
     1
102
RTVSPost2010Prop45
280
     0
102
RTVSPost2010PropOp45
 70
     1
102
RTVSPost2010Prop46
 90
       50
102
RTVSPost2010PropOp46
 70
     1
102
RTVSPost2010Prop47
 90
       50
102
RTVSPost2010PropOp47
 70
     1
102
RTVSPost2010Prop48
 90
       50
102
RTVSPost2010PropOp48
 70
     1
102
RTVSPost2010Prop49
280
     0
102
RTVSPost2010PropOp49
 70
     1
102
RTVSPost2010Prop50
 90
       50
102
RTVSPost2010PropOp50
 70
     1
102
RTVSPost2010Prop51ColorIndex
 90
      256
102
RTVSPost2010Prop51ColorRGB
 90
-16777216
102
RTVSPost2010PropOp51
 70
     0
102
RTVSPost2010Prop52
140
1.0
102
RTVSPost2010PropOp52
 70
     0
102
RTVSPost2010Prop53
 90
        2
102
RTVSPost2010PropOp53
 70
     1
102
RTVSPost2010Prop54
  1
strokes_ogs.tif
102
RTVSPost2010PropOp54
 70
     1
102
RTVSPost2010Prop55
280
     0
102
RTVSPost2010PropOp55
 70
     1
102
RTVSPost2010Prop56
140
1.0
102
RTVSPost2010PropOp56
 70
     1
102
RTVSPost2010Prop57
140
1.0
102
RTVSPost2010PropOp57
 70
     1
  0
XRECORD
  5
1F5
102
{ACAD_REACTORS
330
1F4
102
}
330
1F4
100
AcDbXrecord
280
     1
102
RTVSPost2010Prop28
280
     0
102
RTVSPost2010PropOp28
 70
     1
102
RTVSPost2010Prop29
280
     1
102
RTVSPost2010PropOp29
 70
     1
102
RTVSPost2010Prop30
280
     1
102
RTVSPost2010PropOp30
 70
     1
102
RTVSPost2010Prop31
280
     0
102
RTVSPost2010PropOp31
 70
     1
102
RTVSPost2010Prop32
280
     0
102
RTVSPost2010PropOp32
 70
     1
102
RTVSPost2010Prop33
280
     0
102
RTVSPost2010PropOp33
 70
     1
102
RTVSPost2010Prop34
280
     0
102
RTVSPost2010PropOp34
 70
     1
102
RTVSPost2010Prop35
280
     0
102
RTVSPost2010PropOp35
 70
     1
102
RTVSPost2010Prop36
280
     0
102
RTVSPost2010PropOp36
 70
     1
102
RTVSPost2010Prop37
 90
       50
102
RTVSPost2010PropOp37
 70
     1
102
RTVSPost2010Prop38
140
0.0
102
RTVSPost2010PropOp38
 70
     1
102
RTVSPost2010Prop39
140
1.0
102
RTVSPost2010PropOp39
 70
     1
102
RTVSPost2010Prop40
 90
        0
102
RTVSPost2010PropOp40
 70
     1
102
RTVSPost2010Prop41ColorIndex
 90
       18
102
RTVSPost2010Prop41ColorRGB
 90
        0
102
RTVSPost2010PropOp41
 70
     1
102
RTVSPost2010Prop42
 90
       50
102
RTVSPost2010PropOp42
 70
     1
102
RTVSPost2010Prop43
 90
        3
102
RTVSPost2010PropOp43
 70
     1
102
RTVSPost2010Prop44ColorIndex
 90
        5
102
RTVSPost2010Prop44ColorRGB
 90
      255
102
RTVSPost2010PropOp44
 70
     1
102
RTVSPost2010Prop45
280
     0
102
RTVSPost2010PropOp45
 70
     1
102
RTVSPost2010Prop46
 90
       50
102
RTVSPost2010PropOp46
 70
     1
102
RTVSPost2010Prop47
 90
       50
102
RTVSPost2010PropOp47
 70
     1
102
RTVSPost2010Prop48
 90
       50
102
RTVSPost2010PropOp48
 70
     1
102
RTVSPost2010Prop49
280
     0
102
RTVSPost2010PropOp49
 70
     1
102
RTVSPost2010Prop50
 90
       50
102
RTVSPost2010PropOp50
 70
     1
102
RTVSPost2010Prop51ColorIndex
 90
      256
102
RTVSPost2010Prop51ColorRGB
 90
-16777216
102
RTVSPost2010PropOp51
 70
     0
102
RTVSPost2010Prop52
140
1.0
102
RTVSPost2010PropOp52
 70
     0
102
RTVSPost2010Prop53
 90
        2
102
RTVSPost2010PropOp53
 70
     1
102
RTVSPost2010Prop54
  1
strokes_ogs.tif
102
RTVSPost2010PropOp54
 70
     1
102
RTVSPost2010Prop55
280
     0
102
RTVSPost2010PropOp55
 70
     1
102
RTVSPost2010Prop56
140
1.0
102
RTVSPost2010PropOp56
 70
     1
102
RTVSPost2010Prop57
140
1.0
102
RTVSPost2010PropOp57
 70
     1
  0
XRECORD
  5
1E5
102
{ACAD_REACTORS
330
1E4
102
}
330
1E4
100
AcDbXrecord
280
     1
102
RTVSPost2010Prop28
280
     0
102
RTVSPost2010PropOp28
 70
     1
102
RTVSPost2010Prop29
280
     1
102
RTVSPost2010PropOp29
 70
     1
102
RTVSPost2010Prop30
280
     1
102
RTVSPost2010PropOp30
 70
     1
102
RTVSPost2010Prop31
280
     0
102
RTVSPost2010PropOp31
 70
     1
102
RTVSPost2010Prop32
280
     0
102
RTVSPost2010PropOp32
 70
     1
102
RTVSPost2010Prop33
280
     0
102
RTVSPost2010PropOp33
 70
     1
102
RTVSPost2010Prop34
280
     0
102
RTVSPost2010PropOp34
 70
     1
102
RTVSPost2010Prop35
280
     0
102
RTVSPost2010PropOp35
 70
     1
102
RTVSPost2010Prop36
280
     0
102
RTVSPost2010PropOp36
 70
     1
102
RTVSPost2010Prop37
 90
       50
102
RTVSPost2010PropOp37
 70
     1
102
RTVSPost2010Prop38
140
0.0
102
RTVSPost2010PropOp38
 70
     1
102
RTVSPost2010Prop39
140
1.0
102
RTVSPost2010PropOp39
 70
     1
102
RTVSPost2010Prop40
 90
        0
102
RTVSPost2010PropOp40
 70
     1
102
RTVSPost2010Prop41ColorIndex
 90
       18
102
RTVSPost2010Prop41ColorRGB
 90
        0
102
RTVSPost2010PropOp41
 70
     1
102
RTVSPost2010Prop42
 90
       50
102
RTVSPost2010PropOp42
 70
     1
102
RTVSPost2010Prop43
 90
        3
102
RTVSPost2010PropOp43
 70
     1
102
RTVSPost2010Prop44ColorIndex
 90
        5
102
RTVSPost2010Prop44ColorRGB
 90
      255
102
RTVSPost2010PropOp44
 70
     1
102
RTVSPost2010Prop45
280
     0
102
RTVSPost2010PropOp45
 70
     1
102
RTVSPost2010Prop46
 90
       50
102
RTVSPost2010PropOp46
 70
     1
102
RTVSPost2010Prop47
 90
       50
102
RTVSPost2010PropOp47
 70
     1
102
RTVSPost2010Prop48
 90
       50
102
RTVSPost2010PropOp48
 70
     1
102
RTVSPost2010Prop49
280
     0
102
RTVSPost2010PropOp49
 70
     1
102
RTVSPost2010Prop50
 90
       50
102
RTVSPost2010PropOp50
 70
     1
102
RTVSPost2010Prop51ColorIndex
 90
      256
102
RTVSPost2010Prop51ColorRGB
 90
-16777216
102
RTVSPost2010PropOp51
 70
     0
102
RTVSPost2010Prop52
140
1.0
102
RTVSPost2010PropOp52
 70
     0
102
RTVSPost2010Prop53
 90
        2
102
RTVSPost2010PropOp53
 70
     1
102
RTVSPost2010Prop54
  1
strokes_ogs.tif
102
RTVSPost2010PropOp54
 70
     1
102
RTVSPost2010Prop55
280
     0
102
RTVSPost2010PropOp55
 70
     1
102
RTVSPost2010Prop56
140
1.0
102
RTVSPost2010PropOp56
 70
     1
102
RTVSPost2010Prop57
140
1.0
102
RTVSPost2010PropOp57
 70
     1
  0
XRECORD
  5
1D7
102
{ACAD_REACTORS
330
1D6
102
}
330
1D6
100
AcDbXrecord
280
     1
102
RTVSPost2010Prop28
280
     0
102
RTVSPost2010PropOp28
 70
     1
102
RTVSPost2010Prop29
280
     1
102
RTVSPost2010PropOp29
 70
     1
102
RTVSPost2010Prop30
280
     1
102
RTVSPost2010PropOp30
 70
     1
102
RTVSPost2010Prop31
280
     0
102
RTVSPost2010PropOp31
 70
     1
102
RTVSPost2010Prop32
280
     0
102
RTVSPost2010PropOp32
 70
     1
102
RTVSPost2010Prop33
280
     0
102
RTVSPost2010PropOp33
 70
     1
102
RTVSPost2010Prop34
280
     0
102
RTVSPost2010PropOp34
 70
     1
102
RTVSPost2010Prop35
280
     0
102
RTVSPost2010PropOp35
 70
     1
102
RTVSPost2010Prop36
280
     0
102
RTVSPost2010PropOp36
 70
     1
102
RTVSPost2010Prop37
 90
       50
102
RTVSPost2010PropOp37
 70
     1
102
RTVSPost2010Prop38
140
0.0
102
RTVSPost2010PropOp38
 70
     1
102
RTVSPost2010Prop39
140
1.0
102
RTVSPost2010PropOp39
 70
     1
102
RTVSPost2010Prop40
 90
        0
102
RTVSPost2010PropOp40
 70
     1
102
RTVSPost2010Prop41ColorIndex
 90
       18
102
RTVSPost2010Prop41ColorRGB
 90
        0
102
RTVSPost2010PropOp41
 70
     1
102
RTVSPost2010Prop42
 90
       50
102
RTVSPost2010PropOp42
 70
     1
102
RTVSPost2010Prop43
 90
        3
102
RTVSPost2010PropOp43
 70
     1
102
RTVSPost2010Prop44ColorIndex
 90
        5
102
RTVSPost2010Prop44ColorRGB
 90
      255
102
RTVSPost2010PropOp44
 70
     1
102
RTVSPost2010Prop45
280
     0
102
RTVSPost2010PropOp45
 70
     1
102
RTVSPost2010Prop46
 90
       50
102
RTVSPost2010PropOp46
 70
     1
102
RTVSPost2010Prop47
 90
       50
102
RTVSPost2010PropOp47
 70
     1
102
RTVSPost2010Prop48
 90
       50
102
RTVSPost2010PropOp48
 70
     1
102
RTVSPost2010Prop49
280
     0
102
RTVSPost2010PropOp49
 70
     1
102
RTVSPost2010Prop50
 90
       50
102
RTVSPost2010PropOp50
 70
     1
102
RTVSPost2010Prop51ColorIndex
 90
      256
102
RTVSPost2010Prop51ColorRGB
 90
-16777216
102
RTVSPost2010PropOp51
 70
     0
102
RTVSPost2010Prop52
140
1.0
102
RTVSPost2010PropOp52
 70
     0
102
RTVSPost2010Prop53
 90
        2
102
RTVSPost2010PropOp53
 70
     1
102
RTVSPost2010Prop54
  1
strokes_ogs.tif
102
RTVSPost2010PropOp54
 70
     1
102
RTVSPost2010Prop55
280
     0
102
RTVSPost2010PropOp55
 70
     1
102
RTVSPost2010Prop56
140
1.0
102
RTVSPost2010PropOp56
 70
     1
102
RTVSPost2010Prop57
140
1.0
102
RTVSPost2010PropOp57
 70
     1
  0
XRECORD
  5
1F7
102
{ACAD_REACTORS
330
1F6
102
}
330
1F6
100
AcDbXrecord
280
     1
102
RTVSPost2010Prop28
280
     0
102
RTVSPost2010PropOp28
 70
     1
102
RTVSPost2010Prop29
280
     1
102
RTVSPost2010PropOp29
 70
     1
102
RTVSPost2010Prop30
280
     1
102
RTVSPost2010PropOp30
 70
     1
102
RTVSPost2010Prop31
280
     0
102
RTVSPost2010PropOp31
 70
     1
102
RTVSPost2010Prop32
280
     0
102
RTVSPost2010PropOp32
 70
     1
102
RTVSPost2010Prop33
280
     0
102
RTVSPost2010PropOp33
 70
     1
102
RTVSPost2010Prop34
280
     0
102
RTVSPost2010PropOp34
 70
     1
102
RTVSPost2010Prop35
280
     0
102
RTVSPost2010PropOp35
 70
     1
102
RTVSPost2010Prop36
280
     0
102
RTVSPost2010PropOp36
 70
     1
102
RTVSPost2010Prop37
 90
       50
102
RTVSPost2010PropOp37
 70
     1
102
RTVSPost2010Prop38
140
0.0
102
RTVSPost2010PropOp38
 70
     1
102
RTVSPost2010Prop39
140
1.0
102
RTVSPost2010PropOp39
 70
     1
102
RTVSPost2010Prop40
 90
        0
102
RTVSPost2010PropOp40
 70
     1
102
RTVSPost2010Prop41ColorIndex
 90
       18
102
RTVSPost2010Prop41ColorRGB
 90
        0
102
RTVSPost2010PropOp41
 70
     1
102
RTVSPost2010Prop42
 90
       50
102
RTVSPost2010PropOp42
 70
     1
102
RTVSPost2010Prop43
 90
        3
102
RTVSPost2010PropOp43
 70
     1
102
RTVSPost2010Prop44ColorIndex
 90
        5
102
RTVSPost2010Prop44ColorRGB
 90
      255
102
RTVSPost2010PropOp44
 70
     1
102
RTVSPost2010Prop45
280
     0
102
RTVSPost2010PropOp45
 70
     1
102
RTVSPost2010Prop46
 90
       50
102
RTVSPost2010PropOp46
 70
     1
102
RTVSPost2010Prop47
 90
       50
102
RTVSPost2010PropOp47
 70
     1
102
RTVSPost2010Prop48
 90
       50
102
RTVSPost2010PropOp48
 70
     1
102
RTVSPost2010Prop49
280
     0
102
RTVSPost2010PropOp49
 70
     1
102
RTVSPost2010Prop50
 90
       50
102
RTVSPost2010PropOp50
 70
     1
102
RTVSPost2010Prop51ColorIndex
 90
      256
102
RTVSPost2010Prop51ColorRGB
 90
-16777216
102
RTVSPost2010PropOp51
 70
     0
102
RTVSPost2010Prop52
140
1.0
102
RTVSPost2010PropOp52
 70
     0
102
RTVSPost2010Prop53
 90
        2
102
RTVSPost2010PropOp53
 70
     1
102
RTVSPost2010Prop54
  1
strokes_ogs.tif
102
RTVSPost2010PropOp54
 70
     1
102
RTVSPost2010Prop55
280
     0
102
RTVSPost2010PropOp55
 70
     1
102
RTVSPost2010Prop56
140
1.0
102
RTVSPost2010PropOp56
 70
     1
102
RTVSPost2010Prop57
140
1.0
102
RTVSPost2010PropOp57
 70
     1
  0
ENDSEC
  0
EOF
