  0
SECTION
  2
HEADER
  9
$ACADVER
  1
AC1024
  9
$ACADMAINTVER
 70
     6
  9
$DWGCODEPAGE
  3
ANSI_1252
  9
$INSBASE
 10
0.0
 20
0.0
 30
0.0
  9
$EXTMIN
 10
-0.0635
 20
-7879.061621
 30
0.0
  9
$EXTMAX
 10
9584.966756
 20
1696.407532
 30
0.0
  9
$LIMMIN
 10
-0.0635
 20
-7879.061621
  9
$LIMMAX
 10
9584.966756
 20
1696.407532
  9
$ORTHOMODE
 70
     0
  9
$REGENMODE
 70
     1
  9
$FILLMODE
 70
     1
  9
$QTEXTMODE
 70
     0
  9
$MIRRTEXT
 70
     1
  9
$LTSCALE
 40
1.0
  9
$ATTMODE
 70
     1
  9
$TEXTSIZE
 40
0.2
  9
$TRACEWID
 40
0.05
  9
$TEXTSTYLE
  7
STANDARD
  9
$CLAYER
  8
default
  9
$CELTYPE
  6
BYLAYER
  9
$CECOLOR
 62
   256
  9
$CELTSCALE
 40
1.0
  9
$DISPSILH
 70
     0
  9
$DIMSCALE
 40
1.0
  9
$DIMASZ
 40
0.18
  9
$DIMEXO
 40
0.0625
  9
$DIMDLI
 40
0.38
  9
$DIMRND
 40
0.0
  9
$DIMDLE
 40
0.0
  9
$DIMEXE
 40
0.18
  9
$DIMTP
 40
0.0
  9
$DIMTM
 40
0.0
  9
$DIMTXT
 40
0.18
  9
$DIMCEN
 40
0.09
  9
$DIMTSZ
 40
0.0
  9
$DIMTOL
 70
     0
  9
$DIMLIM
 70
     0
  9
$DIMTIH
 70
     1
  9
$DIMTOH
 70
     1
  9
$DIMSE1
 70
     0
  9
$DIMSE2
 70
     0
  9
$DIMTAD
 70
     0
  9
$DIMZIN
 70
     0
  9
$DIMBLK
  1

  9
$DIMASO
 70
     1
  9
$DIMSHO
 70
     1
  9
$DIMPOST
  1

  9
$DIMAPOST
  1

  9
$DIMALT
 70
     0
  9
$DIMALTD
 70
     2
  9
$DIMALTF
 40
25.4
  9
$DIMLFAC
 40
1.0
  9
$DIMTOFL
 70
     0
  9
$DIMTVP
 40
0.0
  9
$DIMTIX
 70
     0
  9
$DIMSOXD
 70
     0
  9
$DIMSAH
 70
     0
  9
$DIMBLK1
  1

  9
$DIMBLK2
  1

  9
$DIMSTYLE
  2
STANDARD
  9
$DIMCLRD
 70
     0
  9
$DIMCLRE
 70
     0
  9
$DIMCLRT
 70
     0
  9
$DIMTFAC
 40
1.0
  9
$DIMGAP
 40
0.09
  9
$DIMJUST
 70
     0
  9
$DIMSD1
 70
     0
  9
$DIMSD2
 70
     0
  9
$DIMTOLJ
 70
     1
  9
$DIMTZIN
 70
     0
  9
$DIMALTZ
 70
     0
  9
$DIMALTTZ
 70
     0
  9
$DIMUPT
 70
     0
  9
$DIMDEC
 70
     4
  9
$DIMTDEC
 70
     4
  9
$DIMALTU
 70
     2
  9
$DIMALTTD
 70
     2
  9
$DIMTXSTY
  7
STANDARD
  9
$DIMAUNIT
 70
     0
  9
$DIMADEC
 70
     0
  9
$DIMALTRND
 40
0.0
  9
$DIMAZIN
 70
     0
  9
$DIMDSEP
 70
    46
  9
$DIMATFIT
 70
     3
  9
$DIMFRAC
 70
     0
  9
$DIMLDRBLK
  1

  9
$DIMLUNIT
 70
     2
  9
$DIMLWD
 70
    -2
  9
$DIMLWE
 70
    -2
  9
$DIMTMOVE
 70
     2
  9
$DIMFXL
 40
1.0
  9
$DIMFXLON
 70
     0
  9
$DIMJOGANG
 40
0.7853981633974483
  9
$DIMTFILL
 70
     0
  9
$DIMTFILLCLR
 70
     0
  9
$DIMARCSYM
 70
     0
  9
$DIMLTYPE
  6

  9
$DIMLTEX1
  6

  9
$DIMLTEX2
  6

  9
$DIMTXTDIRECTION
 70
     0
  9
$LUNITS
 70
     2
  9
$LUPREC
 70
     6
  9
$SKETCHINC
 40
0.1
  9
$FILLETRAD
 40
0.5
  9
$AUNITS
 70
     0
  9
$AUPREC
 70
     0
  9
$MENU
  1
.
  9
$ELEVATION
 40
0.0
  9
$PELEVATION
 40
0.0
  9
$THICKNESS
 40
0.0
  9
$LIMCHECK
 70
     0
  9
$CHAMFERA
 40
0.5
  9
$CHAMFERB
 40
0.5
  9
$CHAMFERC
 40
1.0
  9
$CHAMFERD
 40
0.0
  9
$SKPOLY
 70
     0
  9
$TDCREATE
 40
2457903.662905093
  9
$TDUCREATE
 40
2457903.329571759
  9
$TDUPDATE
 40
2457903.662909201
  9
$TDUUPDATE
 40
2457903.329575868
  9
$TDINDWG
 40
0.0
  9
$TDUSRTIMER
 40
0.0
  9
$USRTIMER
 70
     1
  9
$ANGBASE
 50
0.0
  9
$ANGDIR
 70
     0
  9
$PDMODE
 70
     0
  9
$PDSIZE
 40
0.0
  9
$PLINEWID
 40
0.0
  9
$SPLFRAME
 70
     0
  9
$SPLINETYPE
 70
     6
  9
$SPLINESEGS
 70
     8
  9
$HANDSEED
  5
4B0
  9
$SURFTAB1
 70
     6
  9
$SURFTAB2
 70
     6
  9
$SURFTYPE
 70
     6
  9
$SURFU
 70
     6
  9
$SURFV
 70
     6
  9
$UCSBASE
  2

  9
$UCSNAME
  2

  9
$UCSORG
 10
0.0
 20
0.0
 30
0.0
  9
$UCSXDIR
 10
1.0
 20
0.0
 30
0.0
  9
$UCSYDIR
 10
0.0
 20
1.0
 30
0.0
  9
$UCSORTHOREF
  2

  9
$UCSORTHOVIEW
 70
     0
  9
$UCSORGTOP
 10
0.0
 20
0.0
 30
0.0
  9
$UCSORGBOTTOM
 10
0.0
 20
0.0
 30
0.0
  9
$UCSORGLEFT
 10
0.0
 20
0.0
 30
0.0
  9
$UCSORGRIGHT
 10
0.0
 20
0.0
 30
0.0
  9
$UCSORGFRONT
 10
0.0
 20
0.0
 30
0.0
  9
$UCSORGBACK
 10
0.0
 20
0.0
 30
0.0
  9
$PUCSBASE
  2

  9
$PUCSNAME
  2

  9
$PUCSORG
 10
0.0
 20
0.0
 30
0.0
  9
$PUCSXDIR
 10
1.0
 20
0.0
 30
0.0
  9
$PUCSYDIR
 10
0.0
 20
1.0
 30
0.0
  9
$PUCSORTHOREF
  2

  9
$PUCSORTHOVIEW
 70
     0
  9
$PUCSORGTOP
 10
0.0
 20
0.0
 30
0.0
  9
$PUCSORGBOTTOM
 10
0.0
 20
0.0
 30
0.0
  9
$PUCSORGLEFT
 10
0.0
 20
0.0
 30
0.0
  9
$PUCSORGRIGHT
 10
0.0
 20
0.0
 30
0.0
  9
$PUCSORGFRONT
 10
0.0
 20
0.0
 30
0.0
  9
$PUCSORGBACK
 10
0.0
 20
0.0
 30
0.0
  9
$USERI1
 70
     0
  9
$USERI2
 70
     0
  9
$USERI3
 70
     0
  9
$USERI4
 70
     0
  9
$USERI5
 70
     0
  9
$USERR1
 40
0.0
  9
$USERR2
 40
0.0
  9
$USERR3
 40
0.0
  9
$USERR4
 40
0.0
  9
$USERR5
 40
0.0
  9
$WORLDVIEW
 70
     1
  9
$SHADEDGE
 70
     3
  9
$SHADEDIF
 70
    70
  9
$TILEMODE
 70
     1
  9
$MAXACTVP
 70
    48
  9
$PINSBASE
 10
0.0
 20
0.0
 30
0.0
  9
$PLIMCHECK
 70
     0
  9
$PEXTMIN
 10
1.000000000000000E+20
 20
1.000000000000000E+20
 30
1.000000000000000E+20
  9
$PEXTMAX
 10
-1.000000000000000E+20
 20
-1.000000000000000E+20
 30
-1.000000000000000E+20
  9
$PLIMMIN
 10
0.0
 20
0.0
  9
$PLIMMAX
 10
12.0
 20
9.0
  9
$UNITMODE
 70
     0
  9
$VISRETAIN
 70
     1
  9
$PLINEGEN
 70
     0
  9
$PSLTSCALE
 70
     1
  9
$TREEDEPTH
 70
  3020
  9
$CMLSTYLE
  2
STANDARD
  9
$CMLJUST
 70
     0
  9
$CMLSCALE
 40
1.0
  9
$PROXYGRAPHICS
 70
     1
  9
$MEASUREMENT
 70
     1
  9
$CELWEIGHT
370
    -1
  9
$ENDCAPS
280
     0
  9
$JOINSTYLE
280
     0
  9
$LWDISPLAY
290
     0
  9
$INSUNITS
 70
     4
  9
$HYPERLINKBASE
  1

  9
$STYLESHEET
  1

  9
$XEDIT
290
     1
  9
$CEPSNTYPE
380
     0
  9
$PSTYLEMODE
290
     1
  9
$FINGERPRINTGUID
  2
{77DF8BE3-CB4B-4A96-8327-84567449EA0C}
  9
$VERSIONGUID
  2
{FAEB1C32-E019-11D5-929B-00C0DF256EC4}
  9
$EXTNAMES
290
     1
  9
$PSVPSCALE
 40
0.0
  9
$OLESTARTUP
290
     0
  9
$SORTENTS
280
   127
  9
$INDEXCTL
280
     0
  9
$HIDETEXT
280
     1
  9
$XCLIPFRAME
280
     2
  9
$HALOGAP
280
     0
  9
$OBSCOLOR
 70
   257
  9
$OBSLTYPE
280
     0
  9
$INTERSECTIONDISPLAY
280
     0
  9
$INTERSECTIONCOLOR
 70
   257
  9
$DIMASSOC
280
     2
  9
$PROJECTNAME
  1

  9
$CAMERADISPLAY
290
     0
  9
$LENSLENGTH
 40
50.0
  9
$CAMERAHEIGHT
 40
0.0
  9
$STEPSPERSEC
 40
2.0
  9
$STEPSIZE
 40
6.0
  9
$3DDWFPREC
 40
2.0
  9
$PSOLWIDTH
 40
0.25
  9
$PSOLHEIGHT
 40
4.0
  9
$LOFTANG1
 40
1.570796326794897
  9
$LOFTANG2
 40
1.570796326794897
  9
$LOFTMAG1
 40
0.0
  9
$LOFTMAG2
 40
0.0
  9
$LOFTPARAM
 70
     7
  9
$LOFTNORMALS
280
     1
  9
$LATITUDE
 40
37.795
  9
$LONGITUDE
 40
-122.394
  9
$NORTHDIRECTION
 40
0.0
  9
$TIMEZONE
 70
 -8000
  9
$LIGHTGLYPHDISPLAY
280
     1
  9
$TILEMODELIGHTSYNCH
280
     1
  9
$SOLIDHIST
280
     1
  9
$SHOWHIST
280
     1
  9
$DWFFRAME
280
     2
  9
$DGNFRAME
280
     2
  9
$REALWORLDSCALE
290
     1
  9
$INTERFERECOLOR
 62
   256
  9
$CSHADOW
280
     0
  9
$SHADOWPLANELOCATION
 40
0.0
  0
ENDSEC
  0
SECTION
  2
CLASSES
  0
CLASS
  1
SCALE
  2
AcDbScale
  3
ObjectDBX Classes
 90
     1153
 91
        4
280
     0
281
     0
  0
CLASS
  1
VISUALSTYLE
  2
AcDbVisualStyle
  3
ObjectDBX Classes
 90
     4095
 91
        4
280
     0
281
     0
  0
CLASS
  1
MATERIAL
  2
AcDbMaterial
  3
ObjectDBX Classes
 90
     1153
 91
        4
280
     0
281
     0
  0
CLASS
  1
DICTIONARYVAR
  2
AcDbDictionaryVar
  3
ObjectDBX Classes
 90
        0
 91
        4
280
     0
281
     0
  0
ENDSEC
  0
SECTION
  2
TABLES
  0
TABLE
  2
VPORT
  5
8
330
0
100
AcDbSymbolTable
 70
     1
  0
VPORT
  5
1E
330
8
100
AcDbSymbolTableRecord
100
AcDbViewportTableRecord
  2
*ACTIVE
 70
     0
 10
0.0
 20
0.0
 11
1.0
 21
1.0
 12
4792.451628
 22
-3091.327045
 13
0.0
 23
0.0
 14
0.25
 24
0.25
 15
0.25
 25
0.25
 16
0.0
 26
0.0
 36
1.0
 17
0.0
 27
0.0
 37
0.0
 40
9575.469153
 41
1.000998
 42
50.0
 43
0.0
 44
0.0
 50
0.0
 51
0.0
 71
     0
 72
   100
 73
     1
 74
     1
 75
     0
 76
     0
 77
     0
 78
     0
281
     0
 65
     1
110
0.0
120
0.0
130
0.0
111
1.0
121
0.0
131
0.0
112
0.0
122
1.0
132
0.0
 79
     0
146
0.0
348
461
 60
     3
 61
     5
292
     1
282
     1
141
0.0
142
0.0
 63
   256
  0
ENDTAB
  0
TABLE
  2
LTYPE
  5
5
330
0
100
AcDbSymbolTable
 70
     2
  0
LTYPE
  5
12
330
5
100
AcDbSymbolTableRecord
100
AcDbLinetypeTableRecord
  2
BYBLOCK
 70
     0
  3

 72
    65
 73
     0
 40
0.0
  0
LTYPE
  5
13
330
5
100
AcDbSymbolTableRecord
100
AcDbLinetypeTableRecord
  2
BYLAYER
 70
     0
  3

 72
    65
 73
     0
 40
0.0
  0
LTYPE
  5
14
330
5
100
AcDbSymbolTableRecord
100
AcDbLinetypeTableRecord
  2
CONTINUOUS
 70
     0
  3
Solid line
 72
    65
 73
     0
 40
0.0
  0
LTYPE
  5
20
330
5
100
AcDbSymbolTableRecord
100
AcDbLinetypeTableRecord
  2
CENTER
 70
     0
  3
____ _ ____ _ ____ _ ____ _ ____ _ ____ _ ____
 72
    65
 73
     4
 40
2.0
 49
1.25
 74
     0
 49
-0.25
 74
     0
 49
0.25
 74
     0
 49
-0.25
 74
     0
  0
ENDTAB
  0
TABLE
  2
LAYER
  5
2
330
0
100
AcDbSymbolTable
 70
    10
  0
LAYER
  5
E
330
2
100
AcDbSymbolTableRecord
100
AcDbLayerTableRecord
  2
0
 70
     0
 62
     7
  6
CONTINUOUS
370
    -3
390
0
347
478
  0
LAYER
  5
21
330
2
100
AcDbSymbolTableRecord
100
AcDbLayerTableRecord
  2
default
 70
     0
 62
     7
  6
CONTINUOUS
370
    -3
390
0
347
478
  0
LAYER
  5
22
330
2
100
AcDbSymbolTableRecord
100
AcDbLayerTableRecord
  2
ISOMETRIC
 70
     0
 62
     7
  6
CONTINUOUS
370
    -3
390
0
347
478
  0
LAYER
  5
23
330
2
100
AcDbSymbolTableRecord
100
AcDbLayerTableRecord
  2
PLAN
 70
     0
 62
     7
  6
CONTINUOUS
370
    -3
390
0
347
478
  0
LAYER
  5
24
330
2
100
AcDbSymbolTableRecord
100
AcDbLayerTableRecord
  2
LONG
 70
     0
 62
     7
  6
CONTINUOUS
370
    -3
390
0
347
478
  0
LAYER
  5
25
330
2
100
AcDbSymbolTableRecord
100
AcDbLayerTableRecord
  2
FRONT
 70
     0
 62
     7
  6
CONTINUOUS
370
    -3
390
0
347
478
  0
LAYER
  5
26
330
2
100
AcDbSymbolTableRecord
100
AcDbLayerTableRecord
  2
UNFOLD
 70
     0
 62
     7
  6
CONTINUOUS
370
    -3
390
0
347
478
  0
LAYER
  5
27
330
2
100
AcDbSymbolTableRecord
100
AcDbLayerTableRecord
  2
PLAN_SECTIONS
 70
     0
 62
     7
  6
CONTINUOUS
370
    -3
390
0
347
478
  0
LAYER
  5
28
330
2
100
AcDbSymbolTableRecord
100
AcDbLayerTableRecord
  2
CROSS_SECTIONS
 70
     0
 62
     7
  6
CONTINUOUS
370
    -3
390
0
347
478
  0
LAYER
  5
29
330
2
100
AcDbSymbolTableRecord
100
AcDbLayerTableRecord
  2
LONG_SECTIONS
 70
     0
 62
     7
  6
CONTINUOUS
370
    -3
390
0
347
478
  0
ENDTAB
  0
TABLE
  2
STYLE
  5
3
330
0
100
AcDbSymbolTable
 70
     2
  0
STYLE
  5
F
330
3
100
AcDbSymbolTableRecord
100
AcDbTextStyleTableRecord
  2
STANDARD
 70
     0
 40
0.0
 41
1.0
 50
0.0
 71
     0
 42
0.2
  3
txt
  4

  0
STYLE
  5
2A
330
3
100
AcDbSymbolTableRecord
100
AcDbTextStyleTableRecord
  2
Arial
 70
     0
 40
0.0
 41
1.0
 50
0.0
 71
     0
 42
0.2
  3
arial.ttf
  4

  0
ENDTAB
  0
TABLE
  2
VIEW
  5
6
330
0
100
AcDbSymbolTable
 70
     0
  0
ENDTAB
  0
TABLE
  2
UCS
  5
7
330
0
100
AcDbSymbolTable
 70
     0
  0
ENDTAB
  0
TABLE
  2
APPID
  5
9
330
0
100
AcDbSymbolTable
 70
     1
  0
APPID
  5
10
330
9
100
AcDbSymbolTableRecord
100
AcDbRegAppTableRecord
  2
ACAD
 70
     0
  0
ENDTAB
  0
TABLE
  2
DIMSTYLE
  5
A
330
0
100
AcDbSymbolTable
 70
     1
100
AcDbDimStyleTable
  0
DIMSTYLE
105
1D
330
A
100
AcDbSymbolTableRecord
100
AcDbDimStyleTableRecord
  2
STANDARD
 70
     0
178
     0
340
F
  0
ENDTAB
  0
TABLE
  2
BLOCK_RECORD
  5
1
330
0
100
AcDbSymbolTable
 70
     0
  0
BLOCK_RECORD
  5
18
330
1
100
AcDbSymbolTableRecord
100
AcDbBlockTableRecord
  2
*MODEL_SPACE
340
45A
 70
     0
280
     1
281
     0
  0
BLOCK_RECORD
  5
15
330
1
100
AcDbSymbolTableRecord
100
AcDbBlockTableRecord
  2
*PAPER_SPACE
340
45B
 70
     0
280
     1
281
     0
  0
ENDTAB
  0
ENDSEC
  0
SECTION
  2
BLOCKS
  0
BLOCK
  5
19
330
18
100
AcDbEntity
  8
0
100
AcDbBlockBegin
  2
*MODEL_SPACE
 70
     0
 10
0.0
 20
0.0
 30
0.0
  3
*MODEL_SPACE
  1
     0
  0
ENDBLK
  5
1A
330
18
100
AcDbEntity
  8
0
100
AcDbBlockEnd
  0
BLOCK
  5
16
330
15
100
AcDbEntity
 67
     1
  8
0
100
AcDbBlockBegin
  2
*PAPER_SPACE
 70
     0
 10
0.0
 20
0.0
 30
0.0
  3
*PAPER_SPACE
  1
     0
  0
ENDBLK
  5
17
330
15
100
AcDbEntity
 67
     1
  8
0
100
AcDbBlockEnd
  0
ENDSEC
  0
SECTION
  2
ENTITIES
  0
LINE
  5
2B
330
18
100
AcDbEntity
  8
PLAN
 62
     6
100
AcDbLine
 10
35.0
 20
0.0
 30
0.0
 11
200.0
 21
0.0
 31
0.0
  0
LINE
  5
2C
330
18
100
AcDbEntity
  8
PLAN
 62
     6
100
AcDbLine
 10
35.0
 20
0.0
 30
0.0
 11
200.0
 21
0.0
 31
0.0
  0
LINE
  5
2D
330
18
100
AcDbEntity
  8
PLAN
 62
     6
100
AcDbLine
 10
200.0
 20
0.0
 30
0.0
 11
491.0
 21
0.0
 31
0.0
  0
LINE
  5
2E
330
18
100
AcDbEntity
  8
PLAN
 62
     6
100
AcDbLine
 10
200.0
 20
0.0
 30
0.0
 11
491.0
 21
0.0
 31
0.0
  0
LINE
  5
2F
330
18
100
AcDbEntity
  8
PLAN
 62
     6
100
AcDbLine
 10
491.0
 20
0.0
 30
0.0
 11
983.0
 21
0.0
 31
0.0
  0
LINE
  5
30
330
18
100
AcDbEntity
  8
PLAN
 62
     6
100
AcDbLine
 10
491.0
 20
0.0
 30
0.0
 11
983.0
 21
0.0
 31
0.0
  0
LINE
  5
31
330
18
100
AcDbEntity
  8
PLAN
 62
     6
100
AcDbLine
 10
983.0
 20
0.0
 30
0.0
 11
1474.0
 21
0.0
 31
0.0
  0
LINE
  5
32
330
18
100
AcDbEntity
  8
PLAN
 62
     6
100
AcDbLine
 10
983.0
 20
0.0
 30
0.0
 11
1474.0
 21
0.0
 31
0.0
  0
LINE
  5
33
330
18
100
AcDbEntity
  8
PLAN
 62
     6
100
AcDbLine
 10
1474.0
 20
0.0
 30
0.0
 11
1965.0
 21
0.0
 31
0.0
  0
LINE
  5
34
330
18
100
AcDbEntity
  8
PLAN
 62
     6
100
AcDbLine
 10
1474.0
 20
0.0
 30
0.0
 11
1965.0
 21
0.0
 31
0.0
  0
LINE
  5
35
330
18
100
AcDbEntity
  8
PLAN
 62
     6
100
AcDbLine
 10
1965.0
 20
0.0
 30
0.0
 11
2000.0
 21
0.0
 31
0.0
  0
LINE
  5
36
330
18
100
AcDbEntity
  8
PLAN
 62
     6
100
AcDbLine
 10
1965.0
 20
0.0
 30
0.0
 11
2000.0
 21
0.0
 31
0.0
  0
LINE
  5
37
330
18
100
AcDbEntity
  8
PLAN
 62
     6
100
AcDbLine
 10
2000.0
 20
0.0
 30
0.0
 11
2456.0
 21
0.0
 31
0.0
  0
LINE
  5
38
330
18
100
AcDbEntity
  8
PLAN
 62
     6
100
AcDbLine
 10
2000.0
 20
0.0
 30
0.0
 11
2456.0
 21
0.0
 31
0.0
  0
LINE
  5
39
330
18
100
AcDbEntity
  8
PLAN
 62
     6
100
AcDbLine
 10
2456.0
 20
0.0
 30
0.0
 11
2948.0
 21
0.0
 31
0.0
  0
LINE
  5
3A
330
18
100
AcDbEntity
  8
PLAN
 62
     6
100
AcDbLine
 10
2456.0
 20
0.0
 30
0.0
 11
2948.0
 21
0.0
 31
0.0
  0
LINE
  5
3B
330
18
100
AcDbEntity
  8
PLAN
 62
     6
100
AcDbLine
 10
2948.0
 20
0.0
 30
0.0
 11
3439.0
 21
0.0
 31
0.0
  0
LINE
  5
3C
330
18
100
AcDbEntity
  8
PLAN
 62
     6
100
AcDbLine
 10
2948.0
 20
0.0
 30
0.0
 11
3439.0
 21
0.0
 31
0.0
  0
LINE
  5
3D
330
18
100
AcDbEntity
  8
PLAN
 62
     6
100
AcDbLine
 10
3439.0
 20
0.0
 30
0.0
 11
3800.0
 21
0.0
 31
0.0
  0
LINE
  5
3E
330
18
100
AcDbEntity
  8
PLAN
 62
     6
100
AcDbLine
 10
3439.0
 20
0.0
 30
0.0
 11
3800.0
 21
0.0
 31
0.0
  0
LINE
  5
3F
330
18
100
AcDbEntity
  8
PLAN
 62
     6
100
AcDbLine
 10
3800.0
 20
0.0
 30
0.0
 11
3965.0
 21
0.0
 31
0.0
  0
LINE
  5
40
330
18
100
AcDbEntity
  8
PLAN
 62
     6
100
AcDbLine
 10
3800.0
 20
0.0
 30
0.0
 11
3965.0
 21
0.0
 31
0.0
  0
LINE
  5
41
330
18
100
AcDbEntity
  8
PLAN
 62
     5
100
AcDbLine
 10
35.0
 20
0.0
 30
0.0
 11
200.0
 21
0.0
 31
0.0
  0
LINE
  5
42
330
18
100
AcDbEntity
  8
PLAN
 62
     5
100
AcDbLine
 10
35.0
 20
0.0
 30
0.0
 11
200.0
 21
0.0
 31
0.0
  0
LINE
  5
43
330
18
100
AcDbEntity
  8
PLAN
 62
     5
100
AcDbLine
 10
200.0
 20
0.0
 30
0.0
 11
491.0
 21
81.7
 31
0.0
  0
LINE
  5
44
330
18
100
AcDbEntity
  8
PLAN
 62
     5
100
AcDbLine
 10
200.0
 20
0.0
 30
0.0
 11
491.0
 21
-81.7
 31
0.0
  0
LINE
  5
45
330
18
100
AcDbEntity
  8
PLAN
 62
     5
100
AcDbLine
 10
491.0
 20
81.7
 30
0.0
 11
983.0
 21
187.2
 31
0.0
  0
LINE
  5
46
330
18
100
AcDbEntity
  8
PLAN
 62
     5
100
AcDbLine
 10
491.0
 20
-81.7
 30
0.0
 11
983.0
 21
-187.2
 31
0.0
  0
LINE
  5
47
330
18
100
AcDbEntity
  8
PLAN
 62
     5
100
AcDbLine
 10
983.0
 20
187.2
 30
0.0
 11
1474.0
 21
251.5
 31
0.0
  0
LINE
  5
48
330
18
100
AcDbEntity
  8
PLAN
 62
     5
100
AcDbLine
 10
983.0
 20
-187.2
 30
0.0
 11
1474.0
 21
-251.5
 31
0.0
  0
LINE
  5
49
330
18
100
AcDbEntity
  8
PLAN
 62
     5
100
AcDbLine
 10
1474.0
 20
251.5
 30
0.0
 11
1965.0
 21
274.9
 31
0.0
  0
LINE
  5
4A
330
18
100
AcDbEntity
  8
PLAN
 62
     5
100
AcDbLine
 10
1474.0
 20
-251.5
 30
0.0
 11
1965.0
 21
-274.9
 31
0.0
  0
LINE
  5
4B
330
18
100
AcDbEntity
  8
PLAN
 62
     5
100
AcDbLine
 10
1965.0
 20
274.9
 30
0.0
 11
2000.0
 21
275.0
 31
0.0
  0
LINE
  5
4C
330
18
100
AcDbEntity
  8
PLAN
 62
     5
100
AcDbLine
 10
1965.0
 20
-274.9
 30
0.0
 11
2000.0
 21
-275.0
 31
0.0
  0
LINE
  5
4D
330
18
100
AcDbEntity
  8
PLAN
 62
     5
100
AcDbLine
 10
2000.0
 20
275.0
 30
0.0
 11
2456.0
 21
257.4
 31
0.0
  0
LINE
  5
4E
330
18
100
AcDbEntity
  8
PLAN
 62
     5
100
AcDbLine
 10
2000.0
 20
-275.0
 30
0.0
 11
2456.0
 21
-257.4
 31
0.0
  0
LINE
  5
4F
330
18
100
AcDbEntity
  8
PLAN
 62
     5
100
AcDbLine
 10
2456.0
 20
257.4
 30
0.0
 11
2948.0
 21
198.7
 31
0.0
  0
LINE
  5
50
330
18
100
AcDbEntity
  8
PLAN
 62
     5
100
AcDbLine
 10
2456.0
 20
-257.4
 30
0.0
 11
2948.0
 21
-198.7
 31
0.0
  0
LINE
  5
51
330
18
100
AcDbEntity
  8
PLAN
 62
     5
100
AcDbLine
 10
2948.0
 20
198.7
 30
0.0
 11
3439.0
 21
99.2
 31
0.0
  0
LINE
  5
52
330
18
100
AcDbEntity
  8
PLAN
 62
     5
100
AcDbLine
 10
2948.0
 20
-198.7
 30
0.0
 11
3439.0
 21
-99.2
 31
0.0
  0
LINE
  5
53
330
18
100
AcDbEntity
  8
PLAN
 62
     5
100
AcDbLine
 10
3439.0
 20
99.2
 30
0.0
 11
3800.0
 21
0.0
 31
0.0
  0
LINE
  5
54
330
18
100
AcDbEntity
  8
PLAN
 62
     5
100
AcDbLine
 10
3439.0
 20
-99.2
 30
0.0
 11
3800.0
 21
0.0
 31
0.0
  0
LINE
  5
55
330
18
100
AcDbEntity
  8
PLAN
 62
     5
100
AcDbLine
 10
3800.0
 20
0.0
 30
0.0
 11
3965.0
 21
0.0
 31
0.0
  0
LINE
  5
56
330
18
100
AcDbEntity
  8
PLAN
 62
     5
100
AcDbLine
 10
3800.0
 20
0.0
 30
0.0
 11
3965.0
 21
0.0
 31
0.0
  0
LINE
  5
57
330
18
100
AcDbEntity
  8
PLAN
 62
     2
100
AcDbLine
 10
35.0
 20
0.0
 30
0.0
 11
200.0
 21
52.0
 31
0.0
  0
LINE
  5
58
330
18
100
AcDbEntity
  8
PLAN
 62
     2
100
AcDbLine
 10
35.0
 20
0.0
 30
0.0
 11
200.0
 21
-52.0
 31
0.0
  0
LINE
  5
59
330
18
100
AcDbEntity
  8
PLAN
 62
     2
100
AcDbLine
 10
200.0
 20
52.0
 30
0.0
 11
491.0
 21
132.7
 31
0.0
  0
LINE
  5
5A
330
18
100
AcDbEntity
  8
PLAN
 62
     2
100
AcDbLine
 10
200.0
 20
-52.0
 30
0.0
 11
491.0
 21
-132.7
 31
0.0
  0
LINE
  5
5B
330
18
100
AcDbEntity
  8
PLAN
 62
     2
100
AcDbLine
 10
491.0
 20
132.7
 30
0.0
 11
983.0
 21
237.2
 31
0.0
  0
LINE
  5
5C
330
18
100
AcDbEntity
  8
PLAN
 62
     2
100
AcDbLine
 10
491.0
 20
-132.7
 30
0.0
 11
983.0
 21
-237.2
 31
0.0
  0
LINE
  5
5D
330
18
100
AcDbEntity
  8
PLAN
 62
     2
100
AcDbLine
 10
983.0
 20
237.2
 30
0.0
 11
1474.0
 21
301.2
 31
0.0
  0
LINE
  5
5E
330
18
100
AcDbEntity
  8
PLAN
 62
     2
100
AcDbLine
 10
983.0
 20
-237.2
 30
0.0
 11
1474.0
 21
-301.2
 31
0.0
  0
LINE
  5
5F
330
18
100
AcDbEntity
  8
PLAN
 62
     2
100
AcDbLine
 10
1474.0
 20
301.2
 30
0.0
 11
1965.0
 21
324.9
 31
0.0
  0
LINE
  5
60
330
18
100
AcDbEntity
  8
PLAN
 62
     2
100
AcDbLine
 10
1474.0
 20
-301.2
 30
0.0
 11
1965.0
 21
-324.9
 31
0.0
  0
LINE
  5
61
330
18
100
AcDbEntity
  8
PLAN
 62
     2
100
AcDbLine
 10
1965.0
 20
324.9
 30
0.0
 11
2000.0
 21
325.0
 31
0.0
  0
LINE
  5
62
330
18
100
AcDbEntity
  8
PLAN
 62
     2
100
AcDbLine
 10
1965.0
 20
-324.9
 30
0.0
 11
2000.0
 21
-325.0
 31
0.0
  0
LINE
  5
63
330
18
100
AcDbEntity
  8
PLAN
 62
     2
100
AcDbLine
 10
2000.0
 20
325.0
 30
0.0
 11
2456.0
 21
307.1
 31
0.0
  0
LINE
  5
64
330
18
100
AcDbEntity
  8
PLAN
 62
     2
100
AcDbLine
 10
2000.0
 20
-325.0
 30
0.0
 11
2456.0
 21
-307.1
 31
0.0
  0
LINE
  5
65
330
18
100
AcDbEntity
  8
PLAN
 62
     2
100
AcDbLine
 10
2456.0
 20
307.1
 30
0.0
 11
2948.0
 21
248.7
 31
0.0
  0
LINE
  5
66
330
18
100
AcDbEntity
  8
PLAN
 62
     2
100
AcDbLine
 10
2456.0
 20
-307.1
 30
0.0
 11
2948.0
 21
-248.7
 31
0.0
  0
LINE
  5
67
330
18
100
AcDbEntity
  8
PLAN
 62
     2
100
AcDbLine
 10
2948.0
 20
248.7
 30
0.0
 11
3439.0
 21
150.0
 31
0.0
  0
LINE
  5
68
330
18
100
AcDbEntity
  8
PLAN
 62
     2
100
AcDbLine
 10
2948.0
 20
-248.7
 30
0.0
 11
3439.0
 21
-150.0
 31
0.0
  0
LINE
  5
69
330
18
100
AcDbEntity
  8
PLAN
 62
     2
100
AcDbLine
 10
3439.0
 20
150.0
 30
0.0
 11
3800.0
 21
52.0
 31
0.0
  0
LINE
  5
6A
330
18
100
AcDbEntity
  8
PLAN
 62
     2
100
AcDbLine
 10
3439.0
 20
-150.0
 30
0.0
 11
3800.0
 21
-52.0
 31
0.0
  0
LINE
  5
6B
330
18
100
AcDbEntity
  8
PLAN
 62
     2
100
AcDbLine
 10
3800.0
 20
52.0
 30
0.0
 11
3965.0
 21
0.0
 31
0.0
  0
LINE
  5
6C
330
18
100
AcDbEntity
  8
PLAN
 62
     2
100
AcDbLine
 10
3800.0
 20
-52.0
 30
0.0
 11
3965.0
 21
0.0
 31
0.0
  0
LINE
  5
6D
330
18
100
AcDbEntity
  8
PLAN
 62
     3
100
AcDbLine
 10
35.0
 20
0.0
 30
0.0
 11
200.0
 21
0.0
 31
0.0
  0
LINE
  5
6E
330
18
100
AcDbEntity
  8
PLAN
 62
     3
100
AcDbLine
 10
35.0
 20
0.0
 30
0.0
 11
200.0
 21
0.0
 31
0.0
  0
LINE
  5
6F
330
18
100
AcDbEntity
  8
PLAN
 62
     3
100
AcDbLine
 10
200.0
 20
0.0
 30
0.0
 11
491.0
 21
81.7
 31
0.0
  0
LINE
  5
70
330
18
100
AcDbEntity
  8
PLAN
 62
     3
100
AcDbLine
 10
200.0
 20
0.0
 30
0.0
 11
491.0
 21
-81.7
 31
0.0
  0
LINE
  5
71
330
18
100
AcDbEntity
  8
PLAN
 62
     3
100
AcDbLine
 10
491.0
 20
81.7
 30
0.0
 11
983.0
 21
187.2
 31
0.0
  0
LINE
  5
72
330
18
100
AcDbEntity
  8
PLAN
 62
     3
100
AcDbLine
 10
491.0
 20
-81.7
 30
0.0
 11
983.0
 21
-187.2
 31
0.0
  0
LINE
  5
73
330
18
100
AcDbEntity
  8
PLAN
 62
     3
100
AcDbLine
 10
983.0
 20
187.2
 30
0.0
 11
1474.0
 21
251.5
 31
0.0
  0
LINE
  5
74
330
18
100
AcDbEntity
  8
PLAN
 62
     3
100
AcDbLine
 10
983.0
 20
-187.2
 30
0.0
 11
1474.0
 21
-251.5
 31
0.0
  0
LINE
  5
75
330
18
100
AcDbEntity
  8
PLAN
 62
     3
100
AcDbLine
 10
1474.0
 20
251.5
 30
0.0
 11
1965.0
 21
274.9
 31
0.0
  0
LINE
  5
76
330
18
100
AcDbEntity
  8
PLAN
 62
     3
100
AcDbLine
 10
1474.0
 20
-251.5
 30
0.0
 11
1965.0
 21
-274.9
 31
0.0
  0
LINE
  5
77
330
18
100
AcDbEntity
  8
PLAN
 62
     3
100
AcDbLine
 10
1965.0
 20
274.9
 30
0.0
 11
2000.0
 21
275.0
 31
0.0
  0
LINE
  5
78
330
18
100
AcDbEntity
  8
PLAN
 62
     3
100
AcDbLine
 10
1965.0
 20
-274.9
 30
0.0
 11
2000.0
 21
-275.0
 31
0.0
  0
LINE
  5
79
330
18
100
AcDbEntity
  8
PLAN
 62
     3
100
AcDbLine
 10
2000.0
 20
275.0
 30
0.0
 11
2456.0
 21
257.4
 31
0.0
  0
LINE
  5
7A
330
18
100
AcDbEntity
  8
PLAN
 62
     3
100
AcDbLine
 10
2000.0
 20
-275.0
 30
0.0
 11
2456.0
 21
-257.4
 31
0.0
  0
LINE
  5
7B
330
18
100
AcDbEntity
  8
PLAN
 62
     3
100
AcDbLine
 10
2456.0
 20
257.4
 30
0.0
 11
2948.0
 21
198.7
 31
0.0
  0
LINE
  5
7C
330
18
100
AcDbEntity
  8
PLAN
 62
     3
100
AcDbLine
 10
2456.0
 20
-257.4
 30
0.0
 11
2948.0
 21
-198.7
 31
0.0
  0
LINE
  5
7D
330
18
100
AcDbEntity
  8
PLAN
 62
     3
100
AcDbLine
 10
2948.0
 20
198.7
 30
0.0
 11
3439.0
 21
99.2
 31
0.0
  0
LINE
  5
7E
330
18
100
AcDbEntity
  8
PLAN
 62
     3
100
AcDbLine
 10
2948.0
 20
-198.7
 30
0.0
 11
3439.0
 21
-99.2
 31
0.0
  0
LINE
  5
7F
330
18
100
AcDbEntity
  8
PLAN
 62
     3
100
AcDbLine
 10
3439.0
 20
99.2
 30
0.0
 11
3800.0
 21
0.0
 31
0.0
  0
LINE
  5
80
330
18
100
AcDbEntity
  8
PLAN
 62
     3
100
AcDbLine
 10
3439.0
 20
-99.2
 30
0.0
 11
3800.0
 21
0.0
 31
0.0
  0
LINE
  5
81
330
18
100
AcDbEntity
  8
PLAN
 62
     3
100
AcDbLine
 10
3800.0
 20
0.0
 30
0.0
 11
3965.0
 21
0.0
 31
0.0
  0
LINE
  5
82
330
18
100
AcDbEntity
  8
PLAN
 62
     3
100
AcDbLine
 10
3800.0
 20
0.0
 30
0.0
 11
3965.0
 21
0.0
 31
0.0
  0
LINE
  5
83
330
18
100
AcDbEntity
  8
PLAN
 62
     1
100
AcDbLine
 10
35.0
 20
0.0
 30
0.0
 11
200.0
 21
0.0
 31
0.0
  0
LINE
  5
84
330
18
100
AcDbEntity
  8
PLAN
 62
     1
100
AcDbLine
 10
35.0
 20
0.0
 30
0.0
 11
200.0
 21
0.0
 31
0.0
  0
LINE
  5
85
330
18
100
AcDbEntity
  8
PLAN
 62
     1
100
AcDbLine
 10
200.0
 20
0.0
 30
0.0
 11
491.0
 21
81.7
 31
0.0
  0
LINE
  5
86
330
18
100
AcDbEntity
  8
PLAN
 62
     1
100
AcDbLine
 10
200.0
 20
0.0
 30
0.0
 11
491.0
 21
-81.7
 31
0.0
  0
LINE
  5
87
330
18
100
AcDbEntity
  8
PLAN
 62
     1
100
AcDbLine
 10
491.0
 20
81.7
 30
0.0
 11
983.0
 21
187.2
 31
0.0
  0
LINE
  5
88
330
18
100
AcDbEntity
  8
PLAN
 62
     1
100
AcDbLine
 10
491.0
 20
-81.7
 30
0.0
 11
983.0
 21
-187.2
 31
0.0
  0
LINE
  5
89
330
18
100
AcDbEntity
  8
PLAN
 62
     1
100
AcDbLine
 10
983.0
 20
187.2
 30
0.0
 11
1474.0
 21
251.5
 31
0.0
  0
LINE
  5
8A
330
18
100
AcDbEntity
  8
PLAN
 62
     1
100
AcDbLine
 10
983.0
 20
-187.2
 30
0.0
 11
1474.0
 21
-251.5
 31
0.0
  0
LINE
  5
8B
330
18
100
AcDbEntity
  8
PLAN
 62
     1
100
AcDbLine
 10
1474.0
 20
251.5
 30
0.0
 11
1965.0
 21
274.9
 31
0.0
  0
LINE
  5
8C
330
18
100
AcDbEntity
  8
PLAN
 62
     1
100
AcDbLine
 10
1474.0
 20
-251.5
 30
0.0
 11
1965.0
 21
-274.9
 31
0.0
  0
LINE
  5
8D
330
18
100
AcDbEntity
  8
PLAN
 62
     1
100
AcDbLine
 10
1965.0
 20
274.9
 30
0.0
 11
2000.0
 21
275.0
 31
0.0
  0
LINE
  5
8E
330
18
100
AcDbEntity
  8
PLAN
 62
     1
100
AcDbLine
 10
1965.0
 20
-274.9
 30
0.0
 11
2000.0
 21
-275.0
 31
0.0
  0
LINE
  5
8F
330
18
100
AcDbEntity
  8
PLAN
 62
     1
100
AcDbLine
 10
2000.0
 20
275.0
 30
0.0
 11
2456.0
 21
257.4
 31
0.0
  0
LINE
  5
90
330
18
100
AcDbEntity
  8
PLAN
 62
     1
100
AcDbLine
 10
2000.0
 20
-275.0
 30
0.0
 11
2456.0
 21
-257.4
 31
0.0
  0
LINE
  5
91
330
18
100
AcDbEntity
  8
PLAN
 62
     1
100
AcDbLine
 10
2456.0
 20
257.4
 30
0.0
 11
2948.0
 21
198.7
 31
0.0
  0
LINE
  5
92
330
18
100
AcDbEntity
  8
PLAN
 62
     1
100
AcDbLine
 10
2456.0
 20
-257.4
 30
0.0
 11
2948.0
 21
-198.7
 31
0.0
  0
LINE
  5
93
330
18
100
AcDbEntity
  8
PLAN
 62
     1
100
AcDbLine
 10
2948.0
 20
198.7
 30
0.0
 11
3439.0
 21
99.2
 31
0.0
  0
LINE
  5
94
330
18
100
AcDbEntity
  8
PLAN
 62
     1
100
AcDbLine
 10
2948.0
 20
-198.7
 30
0.0
 11
3439.0
 21
-99.2
 31
0.0
  0
LINE
  5
95
330
18
100
AcDbEntity
  8
PLAN
 62
     1
100
AcDbLine
 10
3439.0
 20
99.2
 30
0.0
 11
3800.0
 21
0.0
 31
0.0
  0
LINE
  5
96
330
18
100
AcDbEntity
  8
PLAN
 62
     1
100
AcDbLine
 10
3439.0
 20
-99.2
 30
0.0
 11
3800.0
 21
0.0
 31
0.0
  0
LINE
  5
97
330
18
100
AcDbEntity
  8
PLAN
 62
     1
100
AcDbLine
 10
3800.0
 20
0.0
 30
0.0
 11
3965.0
 21
0.0
 31
0.0
  0
LINE
  5
98
330
18
100
AcDbEntity
  8
PLAN
 62
     1
100
AcDbLine
 10
3800.0
 20
0.0
 30
0.0
 11
3965.0
 21
0.0
 31
0.0
  0
LINE
  5
99
330
18
100
AcDbEntity
  8
LONG
  6
CENTER
 62
     5
100
AcDbLine
 10
35.0
 20
-752.5
 30
0.0
 11
3965.0
 21
-752.5
 31
0.0
  0
LINE
  5
9A
330
18
100
AcDbEntity
  8
LONG
 62
     6
100
AcDbLine
 10
35.0
 20
-492.5
 30
0.0
 11
200.0
 21
-802.5
 31
0.0
  0
LINE
  5
9B
330
18
100
AcDbEntity
  8
LONG
 62
     6
100
AcDbLine
 10
200.0
 20
-802.5
 30
0.0
 11
491.0
 21
-809.9
 31
0.0
  0
LINE
  5
9C
330
18
100
AcDbEntity
  8
LONG
 62
     6
100
AcDbLine
 10
491.0
 20
-809.9
 30
0.0
 11
983.0
 21
-819.5
 31
0.0
  0
LINE
  5
9D
330
18
100
AcDbEntity
  8
LONG
 62
     6
100
AcDbLine
 10
983.0
 20
-819.5
 30
0.0
 11
1474.0
 21
-825.4
 31
0.0
  0
LINE
  5
9E
330
18
100
AcDbEntity
  8
LONG
 62
     6
100
AcDbLine
 10
1474.0
 20
-825.4
 30
0.0
 11
1965.0
 21
-827.5
 31
0.0
  0
LINE
  5
9F
330
18
100
AcDbEntity
  8
LONG
 62
     6
100
AcDbLine
 10
1965.0
 20
-827.5
 30
0.0
 11
2000.0
 21
-827.5
 31
0.0
  0
LINE
  5
A0
330
18
100
AcDbEntity
  8
LONG
 62
     6
100
AcDbLine
 10
2000.0
 20
-827.5
 30
0.0
 11
2456.0
 21
-825.9
 31
0.0
  0
LINE
  5
A1
330
18
100
AcDbEntity
  8
LONG
 62
     6
100
AcDbLine
 10
2456.0
 20
-825.9
 30
0.0
 11
2948.0
 21
-820.6
 31
0.0
  0
LINE
  5
A2
330
18
100
AcDbEntity
  8
LONG
 62
     6
100
AcDbLine
 10
2948.0
 20
-820.6
 30
0.0
 11
3439.0
 21
-811.5
 31
0.0
  0
LINE
  5
A3
330
18
100
AcDbEntity
  8
LONG
 62
     6
100
AcDbLine
 10
3439.0
 20
-811.5
 30
0.0
 11
3800.0
 21
-802.5
 31
0.0
  0
LINE
  5
A4
330
18
100
AcDbEntity
  8
LONG
 62
     6
100
AcDbLine
 10
3800.0
 20
-802.5
 30
0.0
 11
3965.0
 21
-492.5
 31
0.0
  0
LINE
  5
A5
330
18
100
AcDbEntity
  8
LONG
 62
     5
100
AcDbLine
 10
35.0
 20
-492.5
 30
0.0
 11
200.0
 21
-802.5
 31
0.0
  0
LINE
  5
A6
330
18
100
AcDbEntity
  8
LONG
 62
     5
100
AcDbLine
 10
200.0
 20
-802.5
 30
0.0
 11
491.0
 21
-809.9
 31
0.0
  0
LINE
  5
A7
330
18
100
AcDbEntity
  8
LONG
 62
     5
100
AcDbLine
 10
491.0
 20
-809.9
 30
0.0
 11
983.0
 21
-819.5
 31
0.0
  0
LINE
  5
A8
330
18
100
AcDbEntity
  8
LONG
 62
     5
100
AcDbLine
 10
983.0
 20
-819.5
 30
0.0
 11
1474.0
 21
-825.4
 31
0.0
  0
LINE
  5
A9
330
18
100
AcDbEntity
  8
LONG
 62
     5
100
AcDbLine
 10
1474.0
 20
-825.4
 30
0.0
 11
1965.0
 21
-827.5
 31
0.0
  0
LINE
  5
AA
330
18
100
AcDbEntity
  8
LONG
 62
     5
100
AcDbLine
 10
1965.0
 20
-827.5
 30
0.0
 11
2000.0
 21
-827.5
 31
0.0
  0
LINE
  5
AB
330
18
100
AcDbEntity
  8
LONG
 62
     5
100
AcDbLine
 10
2000.0
 20
-827.5
 30
0.0
 11
2456.0
 21
-825.9
 31
0.0
  0
LINE
  5
AC
330
18
100
AcDbEntity
  8
LONG
 62
     5
100
AcDbLine
 10
2456.0
 20
-825.9
 30
0.0
 11
2948.0
 21
-820.6
 31
0.0
  0
LINE
  5
AD
330
18
100
AcDbEntity
  8
LONG
 62
     5
100
AcDbLine
 10
2948.0
 20
-820.6
 30
0.0
 11
3439.0
 21
-811.5
 31
0.0
  0
LINE
  5
AE
330
18
100
AcDbEntity
  8
LONG
 62
     5
100
AcDbLine
 10
3439.0
 20
-811.5
 30
0.0
 11
3800.0
 21
-802.5
 31
0.0
  0
LINE
  5
AF
330
18
100
AcDbEntity
  8
LONG
 62
     5
100
AcDbLine
 10
3800.0
 20
-802.5
 30
0.0
 11
3965.0
 21
-492.5
 31
0.0
  0
LINE
  5
B0
330
18
100
AcDbEntity
  8
LONG
 62
     2
100
AcDbLine
 10
35.0
 20
-492.5
 30
0.0
 11
200.0
 21
-502.5
 31
0.0
  0
LINE
  5
B1
330
18
100
AcDbEntity
  8
LONG
 62
     2
100
AcDbLine
 10
200.0
 20
-502.5
 30
0.0
 11
491.0
 21
-517.9
 31
0.0
  0
LINE
  5
B2
330
18
100
AcDbEntity
  8
LONG
 62
     2
100
AcDbLine
 10
491.0
 20
-517.9
 30
0.0
 11
983.0
 21
-537.3
 31
0.0
  0
LINE
  5
B3
330
18
100
AcDbEntity
  8
LONG
 62
     2
100
AcDbLine
 10
983.0
 20
-537.3
 30
0.0
 11
1474.0
 21
-548.8
 31
0.0
  0
LINE
  5
B4
330
18
100
AcDbEntity
  8
LONG
 62
     2
100
AcDbLine
 10
1474.0
 20
-548.8
 30
0.0
 11
1965.0
 21
-552.5
 31
0.0
  0
LINE
  5
B5
330
18
100
AcDbEntity
  8
LONG
 62
     2
100
AcDbLine
 10
1965.0
 20
-552.5
 30
0.0
 11
2000.0
 21
-552.5
 31
0.0
  0
LINE
  5
B6
330
18
100
AcDbEntity
  8
LONG
 62
     2
100
AcDbLine
 10
2000.0
 20
-552.5
 30
0.0
 11
2456.0
 21
-549.8
 31
0.0
  0
LINE
  5
B7
330
18
100
AcDbEntity
  8
LONG
 62
     2
100
AcDbLine
 10
2456.0
 20
-549.8
 30
0.0
 11
2948.0
 21
-539.4
 31
0.0
  0
LINE
  5
B8
330
18
100
AcDbEntity
  8
LONG
 62
     2
100
AcDbLine
 10
2948.0
 20
-539.4
 30
0.0
 11
3439.0
 21
-521.1
 31
0.0
  0
LINE
  5
B9
330
18
100
AcDbEntity
  8
LONG
 62
     2
100
AcDbLine
 10
3439.0
 20
-521.1
 30
0.0
 11
3800.0
 21
-502.5
 31
0.0
  0
LINE
  5
BA
330
18
100
AcDbEntity
  8
LONG
 62
     2
100
AcDbLine
 10
3800.0
 20
-502.5
 30
0.0
 11
3965.0
 21
-492.5
 31
0.0
  0
LINE
  5
BB
330
18
100
AcDbEntity
  8
LONG
 62
     3
100
AcDbLine
 10
35.0
 20
-492.5
 30
0.0
 11
200.0
 21
-502.5
 31
0.0
  0
LINE
  5
BC
330
18
100
AcDbEntity
  8
LONG
 62
     3
100
AcDbLine
 10
200.0
 20
-502.5
 30
0.0
 11
491.0
 21
-517.4
 31
0.0
  0
LINE
  5
BD
330
18
100
AcDbEntity
  8
LONG
 62
     3
100
AcDbLine
 10
491.0
 20
-517.4
 30
0.0
 11
983.0
 21
-536.5
 31
0.0
  0
LINE
  5
BE
330
18
100
AcDbEntity
  8
LONG
 62
     3
100
AcDbLine
 10
983.0
 20
-536.5
 30
0.0
 11
1474.0
 21
-548.2
 31
0.0
  0
LINE
  5
BF
330
18
100
AcDbEntity
  8
LONG
 62
     3
100
AcDbLine
 10
1474.0
 20
-548.2
 30
0.0
 11
1965.0
 21
-552.5
 31
0.0
  0
LINE
  5
C0
330
18
100
AcDbEntity
  8
LONG
 62
     3
100
AcDbLine
 10
1965.0
 20
-552.5
 30
0.0
 11
2000.0
 21
-552.5
 31
0.0
  0
LINE
  5
C1
330
18
100
AcDbEntity
  8
LONG
 62
     3
100
AcDbLine
 10
2000.0
 20
-552.5
 30
0.0
 11
2456.0
 21
-549.3
 31
0.0
  0
LINE
  5
C2
330
18
100
AcDbEntity
  8
LONG
 62
     3
100
AcDbLine
 10
2456.0
 20
-549.3
 30
0.0
 11
2948.0
 21
-538.6
 31
0.0
  0
LINE
  5
C3
330
18
100
AcDbEntity
  8
LONG
 62
     3
100
AcDbLine
 10
2948.0
 20
-538.6
 30
0.0
 11
3439.0
 21
-520.5
 31
0.0
  0
LINE
  5
C4
330
18
100
AcDbEntity
  8
LONG
 62
     3
100
AcDbLine
 10
3439.0
 20
-520.5
 30
0.0
 11
3800.0
 21
-502.5
 31
0.0
  0
LINE
  5
C5
330
18
100
AcDbEntity
  8
LONG
 62
     3
100
AcDbLine
 10
3800.0
 20
-502.5
 30
0.0
 11
3965.0
 21
-492.5
 31
0.0
  0
LINE
  5
C6
330
18
100
AcDbEntity
  8
LONG
 62
     1
100
AcDbLine
 10
35.0
 20
-492.5
 30
0.0
 11
200.0
 21
-502.5
 31
0.0
  0
LINE
  5
C7
330
18
100
AcDbEntity
  8
LONG
 62
     1
100
AcDbLine
 10
200.0
 20
-502.5
 30
0.0
 11
491.0
 21
-502.5
 31
0.0
  0
LINE
  5
C8
330
18
100
AcDbEntity
  8
LONG
 62
     1
100
AcDbLine
 10
491.0
 20
-502.5
 30
0.0
 11
983.0
 21
-502.5
 31
0.0
  0
LINE
  5
C9
330
18
100
AcDbEntity
  8
LONG
 62
     1
100
AcDbLine
 10
983.0
 20
-502.5
 30
0.0
 11
1474.0
 21
-502.5
 31
0.0
  0
LINE
  5
CA
330
18
100
AcDbEntity
  8
LONG
 62
     1
100
AcDbLine
 10
1474.0
 20
-502.5
 30
0.0
 11
1965.0
 21
-502.5
 31
0.0
  0
LINE
  5
CB
330
18
100
AcDbEntity
  8
LONG
 62
     1
100
AcDbLine
 10
1965.0
 20
-502.5
 30
0.0
 11
2000.0
 21
-502.5
 31
0.0
  0
LINE
  5
CC
330
18
100
AcDbEntity
  8
LONG
 62
     1
100
AcDbLine
 10
2000.0
 20
-502.5
 30
0.0
 11
2456.0
 21
-502.5
 31
0.0
  0
LINE
  5
CD
330
18
100
AcDbEntity
  8
LONG
 62
     1
100
AcDbLine
 10
2456.0
 20
-502.5
 30
0.0
 11
2948.0
 21
-502.5
 31
0.0
  0
LINE
  5
CE
330
18
100
AcDbEntity
  8
LONG
 62
     1
100
AcDbLine
 10
2948.0
 20
-502.5
 30
0.0
 11
3439.0
 21
-502.5
 31
0.0
  0
LINE
  5
CF
330
18
100
AcDbEntity
  8
LONG
 62
     1
100
AcDbLine
 10
3439.0
 20
-502.5
 30
0.0
 11
3800.0
 21
-502.5
 31
0.0
  0
LINE
  5
D0
330
18
100
AcDbEntity
  8
LONG
 62
     1
100
AcDbLine
 10
3800.0
 20
-502.5
 30
0.0
 11
3965.0
 21
-492.5
 31
0.0
  0
LINE
  5
D1
330
18
100
AcDbEntity
  8
FRONT
  6
CENTER
 62
     5
100
AcDbLine
 10
5605.0
 20
-752.5
 30
0.0
 11
6255.0
 21
-752.5
 31
0.0
  0
LINE
  5
D2
330
18
100
AcDbEntity
  8
FRONT
100
AcDbLine
 10
5930.0
 20
-809.9
 30
0.0
 11
6011.7
 21
-809.9
 31
0.0
  0
LINE
  5
D3
330
18
100
AcDbEntity
  8
FRONT
100
AcDbLine
 10
5848.3
 20
-809.9
 30
0.0
 11
5930.0
 21
-809.9
 31
0.0
  0
LINE
  5
D4
330
18
100
AcDbEntity
  8
FRONT
100
AcDbLine
 10
6011.7
 20
-809.9
 30
0.0
 11
6062.7
 21
-517.9
 31
0.0
  0
LINE
  5
D5
330
18
100
AcDbEntity
  8
FRONT
100
AcDbLine
 10
5797.3
 20
-517.9
 30
0.0
 11
5848.3
 21
-809.9
 31
0.0
  0
LINE
  5
D6
330
18
100
AcDbEntity
  8
FRONT
100
AcDbLine
 10
6011.7
 20
-517.4
 30
0.0
 11
6062.7
 21
-517.9
 31
0.0
  0
LINE
  5
D7
330
18
100
AcDbEntity
  8
FRONT
100
AcDbLine
 10
5797.3
 20
-517.9
 30
0.0
 11
5848.3
 21
-517.4
 31
0.0
  0
LINE
  5
D8
330
18
100
AcDbEntity
  8
FRONT
100
AcDbLine
 10
6011.7
 20
-517.4
 30
0.0
 11
6011.7
 21
-502.5
 31
0.0
  0
LINE
  5
D9
330
18
100
AcDbEntity
  8
FRONT
100
AcDbLine
 10
5848.3
 20
-517.4
 30
0.0
 11
5848.3
 21
-502.5
 31
0.0
  0
LINE
  5
DA
330
18
100
AcDbEntity
  8
FRONT
100
AcDbLine
 10
5930.0
 20
-819.5
 30
0.0
 11
6117.2
 21
-819.5
 31
0.0
  0
LINE
  5
DB
330
18
100
AcDbEntity
  8
FRONT
100
AcDbLine
 10
5742.8
 20
-819.5
 30
0.0
 11
5930.0
 21
-819.5
 31
0.0
  0
LINE
  5
DC
330
18
100
AcDbEntity
  8
FRONT
100
AcDbLine
 10
6117.2
 20
-819.5
 30
0.0
 11
6167.2
 21
-537.3
 31
0.0
  0
LINE
  5
DD
330
18
100
AcDbEntity
  8
FRONT
100
AcDbLine
 10
5692.8
 20
-537.3
 30
0.0
 11
5742.8
 21
-819.5
 31
0.0
  0
LINE
  5
DE
330
18
100
AcDbEntity
  8
FRONT
100
AcDbLine
 10
6117.2
 20
-536.5
 30
0.0
 11
6167.2
 21
-537.3
 31
0.0
  0
LINE
  5
DF
330
18
100
AcDbEntity
  8
FRONT
100
AcDbLine
 10
5692.8
 20
-537.3
 30
0.0
 11
5742.8
 21
-536.5
 31
0.0
  0
LINE
  5
E0
330
18
100
AcDbEntity
  8
FRONT
100
AcDbLine
 10
6117.2
 20
-536.5
 30
0.0
 11
6117.2
 21
-502.5
 31
0.0
  0
LINE
  5
E1
330
18
100
AcDbEntity
  8
FRONT
100
AcDbLine
 10
5742.8
 20
-536.5
 30
0.0
 11
5742.8
 21
-502.5
 31
0.0
  0
LINE
  5
E2
330
18
100
AcDbEntity
  8
FRONT
100
AcDbLine
 10
5930.0
 20
-825.4
 30
0.0
 11
6181.5
 21
-825.4
 31
0.0
  0
LINE
  5
E3
330
18
100
AcDbEntity
  8
FRONT
100
AcDbLine
 10
5678.5
 20
-825.4
 30
0.0
 11
5930.0
 21
-825.4
 31
0.0
  0
LINE
  5
E4
330
18
100
AcDbEntity
  8
FRONT
100
AcDbLine
 10
6181.5
 20
-825.4
 30
0.0
 11
6231.2
 21
-548.8
 31
0.0
  0
LINE
  5
E5
330
18
100
AcDbEntity
  8
FRONT
100
AcDbLine
 10
5628.8
 20
-548.8
 30
0.0
 11
5678.5
 21
-825.4
 31
0.0
  0
LINE
  5
E6
330
18
100
AcDbEntity
  8
FRONT
100
AcDbLine
 10
6181.5
 20
-548.2
 30
0.0
 11
6231.2
 21
-548.8
 31
0.0
  0
LINE
  5
E7
330
18
100
AcDbEntity
  8
FRONT
100
AcDbLine
 10
5628.8
 20
-548.8
 30
0.0
 11
5678.5
 21
-548.2
 31
0.0
  0
LINE
  5
E8
330
18
100
AcDbEntity
  8
FRONT
100
AcDbLine
 10
6181.5
 20
-548.2
 30
0.0
 11
6181.5
 21
-502.5
 31
0.0
  0
LINE
  5
E9
330
18
100
AcDbEntity
  8
FRONT
100
AcDbLine
 10
5678.5
 20
-548.2
 30
0.0
 11
5678.5
 21
-502.5
 31
0.0
  0
LINE
  5
EA
330
18
100
AcDbEntity
  8
FRONT
100
AcDbLine
 10
5930.0
 20
-827.5
 30
0.0
 11
6204.9
 21
-827.5
 31
0.0
  0
LINE
  5
EB
330
18
100
AcDbEntity
  8
FRONT
100
AcDbLine
 10
5655.1
 20
-827.5
 30
0.0
 11
5930.0
 21
-827.5
 31
0.0
  0
LINE
  5
EC
330
18
100
AcDbEntity
  8
FRONT
100
AcDbLine
 10
6204.9
 20
-827.5
 30
0.0
 11
6254.9
 21
-552.5
 31
0.0
  0
LINE
  5
ED
330
18
100
AcDbEntity
  8
FRONT
100
AcDbLine
 10
5605.1
 20
-552.5
 30
0.0
 11
5655.1
 21
-827.5
 31
0.0
  0
LINE
  5
EE
330
18
100
AcDbEntity
  8
FRONT
100
AcDbLine
 10
6204.9
 20
-552.5
 30
0.0
 11
6254.9
 21
-552.5
 31
0.0
  0
LINE
  5
EF
330
18
100
AcDbEntity
  8
FRONT
100
AcDbLine
 10
5605.1
 20
-552.5
 30
0.0
 11
5655.1
 21
-552.5
 31
0.0
  0
LINE
  5
F0
330
18
100
AcDbEntity
  8
FRONT
100
AcDbLine
 10
6204.9
 20
-552.5
 30
0.0
 11
6204.9
 21
-502.5
 31
0.0
  0
LINE
  5
F1
330
18
100
AcDbEntity
  8
FRONT
100
AcDbLine
 10
5655.1
 20
-552.5
 30
0.0
 11
5655.1
 21
-502.5
 31
0.0
  0
LINE
  5
F2
330
18
100
AcDbEntity
  8
FRONT
100
AcDbLine
 10
5930.0
 20
-825.9
 30
0.0
 11
6187.4
 21
-825.9
 31
0.0
  0
LINE
  5
F3
330
18
100
AcDbEntity
  8
FRONT
100
AcDbLine
 10
5672.6
 20
-825.9
 30
0.0
 11
5930.0
 21
-825.9
 31
0.0
  0
LINE
  5
F4
330
18
100
AcDbEntity
  8
FRONT
100
AcDbLine
 10
6187.4
 20
-825.9
 30
0.0
 11
6237.1
 21
-549.8
 31
0.0
  0
LINE
  5
F5
330
18
100
AcDbEntity
  8
FRONT
100
AcDbLine
 10
5622.9
 20
-549.8
 30
0.0
 11
5672.6
 21
-825.9
 31
0.0
  0
LINE
  5
F6
330
18
100
AcDbEntity
  8
FRONT
100
AcDbLine
 10
6187.4
 20
-549.3
 30
0.0
 11
6237.1
 21
-549.8
 31
0.0
  0
LINE
  5
F7
330
18
100
AcDbEntity
  8
FRONT
100
AcDbLine
 10
5622.9
 20
-549.8
 30
0.0
 11
5672.6
 21
-549.3
 31
0.0
  0
LINE
  5
F8
330
18
100
AcDbEntity
  8
FRONT
100
AcDbLine
 10
6187.4
 20
-549.3
 30
0.0
 11
6187.4
 21
-502.5
 31
0.0
  0
LINE
  5
F9
330
18
100
AcDbEntity
  8
FRONT
100
AcDbLine
 10
5672.6
 20
-549.3
 30
0.0
 11
5672.6
 21
-502.5
 31
0.0
  0
LINE
  5
FA
330
18
100
AcDbEntity
  8
FRONT
100
AcDbLine
 10
5930.0
 20
-820.6
 30
0.0
 11
6128.7
 21
-820.6
 31
0.0
  0
LINE
  5
FB
330
18
100
AcDbEntity
  8
FRONT
100
AcDbLine
 10
5731.3
 20
-820.6
 30
0.0
 11
5930.0
 21
-820.6
 31
0.0
  0
LINE
  5
FC
330
18
100
AcDbEntity
  8
FRONT
100
AcDbLine
 10
6128.7
 20
-820.6
 30
0.0
 11
6178.7
 21
-539.4
 31
0.0
  0
LINE
  5
FD
330
18
100
AcDbEntity
  8
FRONT
100
AcDbLine
 10
5681.3
 20
-539.4
 30
0.0
 11
5731.3
 21
-820.6
 31
0.0
  0
LINE
  5
FE
330
18
100
AcDbEntity
  8
FRONT
100
AcDbLine
 10
6128.7
 20
-538.6
 30
0.0
 11
6178.7
 21
-539.4
 31
0.0
  0
LINE
  5
FF
330
18
100
AcDbEntity
  8
FRONT
100
AcDbLine
 10
5681.3
 20
-539.4
 30
0.0
 11
5731.3
 21
-538.6
 31
0.0
  0
LINE
  5
100
330
18
100
AcDbEntity
  8
FRONT
100
AcDbLine
 10
6128.7
 20
-538.6
 30
0.0
 11
6128.7
 21
-502.5
 31
0.0
  0
LINE
  5
101
330
18
100
AcDbEntity
  8
FRONT
100
AcDbLine
 10
5731.3
 20
-538.6
 30
0.0
 11
5731.3
 21
-502.5
 31
0.0
  0
LINE
  5
102
330
18
100
AcDbEntity
  8
FRONT
100
AcDbLine
 10
5930.0
 20
-811.5
 30
0.0
 11
6029.2
 21
-811.5
 31
0.0
  0
LINE
  5
103
330
18
100
AcDbEntity
  8
FRONT
100
AcDbLine
 10
5830.8
 20
-811.5
 30
0.0
 11
5930.0
 21
-811.5
 31
0.0
  0
LINE
  5
104
330
18
100
AcDbEntity
  8
FRONT
100
AcDbLine
 10
6029.2
 20
-811.5
 30
0.0
 11
6080.0
 21
-521.1
 31
0.0
  0
LINE
  5
105
330
18
100
AcDbEntity
  8
FRONT
100
AcDbLine
 10
5780.0
 20
-521.1
 30
0.0
 11
5830.8
 21
-811.5
 31
0.0
  0
LINE
  5
106
330
18
100
AcDbEntity
  8
FRONT
100
AcDbLine
 10
6029.2
 20
-520.5
 30
0.0
 11
6080.0
 21
-521.1
 31
0.0
  0
LINE
  5
107
330
18
100
AcDbEntity
  8
FRONT
100
AcDbLine
 10
5780.0
 20
-521.1
 30
0.0
 11
5830.8
 21
-520.5
 31
0.0
  0
LINE
  5
108
330
18
100
AcDbEntity
  8
FRONT
100
AcDbLine
 10
6029.2
 20
-520.5
 30
0.0
 11
6029.2
 21
-502.5
 31
0.0
  0
LINE
  5
109
330
18
100
AcDbEntity
  8
FRONT
100
AcDbLine
 10
5830.8
 20
-520.5
 30
0.0
 11
5830.8
 21
-502.5
 31
0.0
  0
LINE
  5
10A
330
18
100
AcDbEntity
  8
FRONT
 62
     6
100
AcDbLine
 10
5930.0
 20
-802.5
 30
0.0
 11
5930.0
 21
-492.5
 31
0.0
  0
LINE
  5
10B
330
18
100
AcDbEntity
  8
FRONT
 62
     6
100
AcDbLine
 10
5930.0
 20
-802.5
 30
0.0
 11
5930.0
 21
-492.5
 31
0.0
  0
LINE
  5
10C
330
18
100
AcDbEntity
  8
FRONT
 62
     6
100
AcDbLine
 10
5930.0
 20
-809.9
 30
0.0
 11
5930.0
 21
-802.5
 31
0.0
  0
LINE
  5
10D
330
18
100
AcDbEntity
  8
FRONT
 62
     6
100
AcDbLine
 10
5930.0
 20
-809.9
 30
0.0
 11
5930.0
 21
-802.5
 31
0.0
  0
LINE
  5
10E
330
18
100
AcDbEntity
  8
FRONT
 62
     6
100
AcDbLine
 10
5930.0
 20
-819.5
 30
0.0
 11
5930.0
 21
-809.9
 31
0.0
  0
LINE
  5
10F
330
18
100
AcDbEntity
  8
FRONT
 62
     6
100
AcDbLine
 10
5930.0
 20
-819.5
 30
0.0
 11
5930.0
 21
-809.9
 31
0.0
  0
LINE
  5
110
330
18
100
AcDbEntity
  8
FRONT
 62
     6
100
AcDbLine
 10
5930.0
 20
-825.4
 30
0.0
 11
5930.0
 21
-819.5
 31
0.0
  0
LINE
  5
111
330
18
100
AcDbEntity
  8
FRONT
 62
     6
100
AcDbLine
 10
5930.0
 20
-825.4
 30
0.0
 11
5930.0
 21
-819.5
 31
0.0
  0
LINE
  5
112
330
18
100
AcDbEntity
  8
FRONT
 62
     6
100
AcDbLine
 10
5930.0
 20
-827.5
 30
0.0
 11
5930.0
 21
-825.4
 31
0.0
  0
LINE
  5
113
330
18
100
AcDbEntity
  8
FRONT
 62
     6
100
AcDbLine
 10
5930.0
 20
-827.5
 30
0.0
 11
5930.0
 21
-825.4
 31
0.0
  0
LINE
  5
114
330
18
100
AcDbEntity
  8
FRONT
 62
     6
100
AcDbLine
 10
5930.0
 20
-827.5
 30
0.0
 11
5930.0
 21
-825.9
 31
0.0
  0
LINE
  5
115
330
18
100
AcDbEntity
  8
FRONT
 62
     6
100
AcDbLine
 10
5930.0
 20
-827.5
 30
0.0
 11
5930.0
 21
-825.9
 31
0.0
  0
LINE
  5
116
330
18
100
AcDbEntity
  8
FRONT
 62
     6
100
AcDbLine
 10
5930.0
 20
-825.9
 30
0.0
 11
5930.0
 21
-820.6
 31
0.0
  0
LINE
  5
117
330
18
100
AcDbEntity
  8
FRONT
 62
     6
100
AcDbLine
 10
5930.0
 20
-825.9
 30
0.0
 11
5930.0
 21
-820.6
 31
0.0
  0
LINE
  5
118
330
18
100
AcDbEntity
  8
FRONT
 62
     6
100
AcDbLine
 10
5930.0
 20
-820.6
 30
0.0
 11
5930.0
 21
-811.5
 31
0.0
  0
LINE
  5
119
330
18
100
AcDbEntity
  8
FRONT
 62
     6
100
AcDbLine
 10
5930.0
 20
-820.6
 30
0.0
 11
5930.0
 21
-811.5
 31
0.0
  0
LINE
  5
11A
330
18
100
AcDbEntity
  8
FRONT
 62
     6
100
AcDbLine
 10
5930.0
 20
-811.5
 30
0.0
 11
5930.0
 21
-802.5
 31
0.0
  0
LINE
  5
11B
330
18
100
AcDbEntity
  8
FRONT
 62
     6
100
AcDbLine
 10
5930.0
 20
-811.5
 30
0.0
 11
5930.0
 21
-802.5
 31
0.0
  0
LINE
  5
11C
330
18
100
AcDbEntity
  8
FRONT
 62
     6
100
AcDbLine
 10
5930.0
 20
-802.5
 30
0.0
 11
5930.0
 21
-492.5
 31
0.0
  0
LINE
  5
11D
330
18
100
AcDbEntity
  8
FRONT
 62
     6
100
AcDbLine
 10
5930.0
 20
-802.5
 30
0.0
 11
5930.0
 21
-492.5
 31
0.0
  0
LINE
  5
11E
330
18
100
AcDbEntity
  8
FRONT
 62
     5
100
AcDbLine
 10
5930.0
 20
-802.5
 30
0.0
 11
5930.0
 21
-492.5
 31
0.0
  0
LINE
  5
11F
330
18
100
AcDbEntity
  8
FRONT
 62
     5
100
AcDbLine
 10
5930.0
 20
-802.5
 30
0.0
 11
5930.0
 21
-492.5
 31
0.0
  0
LINE
  5
120
330
18
100
AcDbEntity
  8
FRONT
 62
     5
100
AcDbLine
 10
5930.0
 20
-802.5
 30
0.0
 11
6011.7
 21
-809.9
 31
0.0
  0
LINE
  5
121
330
18
100
AcDbEntity
  8
FRONT
 62
     5
100
AcDbLine
 10
5848.3
 20
-809.9
 30
0.0
 11
5930.0
 21
-802.5
 31
0.0
  0
LINE
  5
122
330
18
100
AcDbEntity
  8
FRONT
 62
     5
100
AcDbLine
 10
6011.7
 20
-809.9
 30
0.0
 11
6117.2
 21
-819.5
 31
0.0
  0
LINE
  5
123
330
18
100
AcDbEntity
  8
FRONT
 62
     5
100
AcDbLine
 10
5742.8
 20
-819.5
 30
0.0
 11
5848.3
 21
-809.9
 31
0.0
  0
LINE
  5
124
330
18
100
AcDbEntity
  8
FRONT
 62
     5
100
AcDbLine
 10
6117.2
 20
-819.5
 30
0.0
 11
6181.5
 21
-825.4
 31
0.0
  0
LINE
  5
125
330
18
100
AcDbEntity
  8
FRONT
 62
     5
100
AcDbLine
 10
5678.5
 20
-825.4
 30
0.0
 11
5742.8
 21
-819.5
 31
0.0
  0
LINE
  5
126
330
18
100
AcDbEntity
  8
FRONT
 62
     5
100
AcDbLine
 10
6181.5
 20
-825.4
 30
0.0
 11
6204.9
 21
-827.5
 31
0.0
  0
LINE
  5
127
330
18
100
AcDbEntity
  8
FRONT
 62
     5
100
AcDbLine
 10
5655.1
 20
-827.5
 30
0.0
 11
5678.5
 21
-825.4
 31
0.0
  0
LINE
  5
128
330
18
100
AcDbEntity
  8
FRONT
 62
     5
100
AcDbLine
 10
6204.9
 20
-827.5
 30
0.0
 11
6205.0
 21
-827.5
 31
0.0
  0
LINE
  5
129
330
18
100
AcDbEntity
  8
FRONT
 62
     5
100
AcDbLine
 10
5655.0
 20
-827.5
 30
0.0
 11
5655.1
 21
-827.5
 31
0.0
  0
LINE
  5
12A
330
18
100
AcDbEntity
  8
FRONT
 62
     5
100
AcDbLine
 10
6187.4
 20
-825.9
 30
0.0
 11
6205.0
 21
-827.5
 31
0.0
  0
LINE
  5
12B
330
18
100
AcDbEntity
  8
FRONT
 62
     5
100
AcDbLine
 10
5655.0
 20
-827.5
 30
0.0
 11
5672.6
 21
-825.9
 31
0.0
  0
LINE
  5
12C
330
18
100
AcDbEntity
  8
FRONT
 62
     5
100
AcDbLine
 10
6128.7
 20
-820.6
 30
0.0
 11
6187.4
 21
-825.9
 31
0.0
  0
LINE
  5
12D
330
18
100
AcDbEntity
  8
FRONT
 62
     5
100
AcDbLine
 10
5672.6
 20
-825.9
 30
0.0
 11
5731.3
 21
-820.6
 31
0.0
  0
LINE
  5
12E
330
18
100
AcDbEntity
  8
FRONT
 62
     5
100
AcDbLine
 10
6029.2
 20
-811.5
 30
0.0
 11
6128.7
 21
-820.6
 31
0.0
  0
LINE
  5
12F
330
18
100
AcDbEntity
  8
FRONT
 62
     5
100
AcDbLine
 10
5731.3
 20
-820.6
 30
0.0
 11
5830.8
 21
-811.5
 31
0.0
  0
LINE
  5
130
330
18
100
AcDbEntity
  8
FRONT
 62
     5
100
AcDbLine
 10
5930.0
 20
-802.5
 30
0.0
 11
6029.2
 21
-811.5
 31
0.0
  0
LINE
  5
131
330
18
100
AcDbEntity
  8
FRONT
 62
     5
100
AcDbLine
 10
5830.8
 20
-811.5
 30
0.0
 11
5930.0
 21
-802.5
 31
0.0
  0
LINE
  5
132
330
18
100
AcDbEntity
  8
FRONT
 62
     5
100
AcDbLine
 10
5930.0
 20
-802.5
 30
0.0
 11
5930.0
 21
-492.5
 31
0.0
  0
LINE
  5
133
330
18
100
AcDbEntity
  8
FRONT
 62
     5
100
AcDbLine
 10
5930.0
 20
-802.5
 30
0.0
 11
5930.0
 21
-492.5
 31
0.0
  0
LINE
  5
134
330
18
100
AcDbEntity
  8
FRONT
 62
     2
100
AcDbLine
 10
5930.0
 20
-492.5
 30
0.0
 11
5982.0
 21
-502.5
 31
0.0
  0
LINE
  5
135
330
18
100
AcDbEntity
  8
FRONT
 62
     2
100
AcDbLine
 10
5878.0
 20
-502.5
 30
0.0
 11
5930.0
 21
-492.5
 31
0.0
  0
LINE
  5
136
330
18
100
AcDbEntity
  8
FRONT
 62
     2
100
AcDbLine
 10
5982.0
 20
-502.5
 30
0.0
 11
6062.7
 21
-517.9
 31
0.0
  0
LINE
  5
137
330
18
100
AcDbEntity
  8
FRONT
 62
     2
100
AcDbLine
 10
5797.3
 20
-517.9
 30
0.0
 11
5878.0
 21
-502.5
 31
0.0
  0
LINE
  5
138
330
18
100
AcDbEntity
  8
FRONT
 62
     2
100
AcDbLine
 10
6062.7
 20
-517.9
 30
0.0
 11
6167.2
 21
-537.3
 31
0.0
  0
LINE
  5
139
330
18
100
AcDbEntity
  8
FRONT
 62
     2
100
AcDbLine
 10
5692.8
 20
-537.3
 30
0.0
 11
5797.3
 21
-517.9
 31
0.0
  0
LINE
  5
13A
330
18
100
AcDbEntity
  8
FRONT
 62
     2
100
AcDbLine
 10
6167.2
 20
-537.3
 30
0.0
 11
6231.2
 21
-548.8
 31
0.0
  0
LINE
  5
13B
330
18
100
AcDbEntity
  8
FRONT
 62
     2
100
AcDbLine
 10
5628.8
 20
-548.8
 30
0.0
 11
5692.8
 21
-537.3
 31
0.0
  0
LINE
  5
13C
330
18
100
AcDbEntity
  8
FRONT
 62
     2
100
AcDbLine
 10
6231.2
 20
-548.8
 30
0.0
 11
6254.9
 21
-552.5
 31
0.0
  0
LINE
  5
13D
330
18
100
AcDbEntity
  8
FRONT
 62
     2
100
AcDbLine
 10
5605.1
 20
-552.5
 30
0.0
 11
5628.8
 21
-548.8
 31
0.0
  0
LINE
  5
13E
330
18
100
AcDbEntity
  8
FRONT
 62
     2
100
AcDbLine
 10
6254.9
 20
-552.5
 30
0.0
 11
6255.0
 21
-552.5
 31
0.0
  0
LINE
  5
13F
330
18
100
AcDbEntity
  8
FRONT
 62
     2
100
AcDbLine
 10
5605.0
 20
-552.5
 30
0.0
 11
5605.1
 21
-552.5
 31
0.0
  0
LINE
  5
140
330
18
100
AcDbEntity
  8
FRONT
 62
     2
100
AcDbLine
 10
6237.1
 20
-549.8
 30
0.0
 11
6255.0
 21
-552.5
 31
0.0
  0
LINE
  5
141
330
18
100
AcDbEntity
  8
FRONT
 62
     2
100
AcDbLine
 10
5605.0
 20
-552.5
 30
0.0
 11
5622.9
 21
-549.8
 31
0.0
  0
LINE
  5
142
330
18
100
AcDbEntity
  8
FRONT
 62
     2
100
AcDbLine
 10
6178.7
 20
-539.4
 30
0.0
 11
6237.1
 21
-549.8
 31
0.0
  0
LINE
  5
143
330
18
100
AcDbEntity
  8
FRONT
 62
     2
100
AcDbLine
 10
5622.9
 20
-549.8
 30
0.0
 11
5681.3
 21
-539.4
 31
0.0
  0
LINE
  5
144
330
18
100
AcDbEntity
  8
FRONT
 62
     2
100
AcDbLine
 10
6080.0
 20
-521.1
 30
0.0
 11
6178.7
 21
-539.4
 31
0.0
  0
LINE
  5
145
330
18
100
AcDbEntity
  8
FRONT
 62
     2
100
AcDbLine
 10
5681.3
 20
-539.4
 30
0.0
 11
5780.0
 21
-521.1
 31
0.0
  0
LINE
  5
146
330
18
100
AcDbEntity
  8
FRONT
 62
     2
100
AcDbLine
 10
5982.0
 20
-502.5
 30
0.0
 11
6080.0
 21
-521.1
 31
0.0
  0
LINE
  5
147
330
18
100
AcDbEntity
  8
FRONT
 62
     2
100
AcDbLine
 10
5780.0
 20
-521.1
 30
0.0
 11
5878.0
 21
-502.5
 31
0.0
  0
LINE
  5
148
330
18
100
AcDbEntity
  8
FRONT
 62
     2
100
AcDbLine
 10
5930.0
 20
-492.5
 30
0.0
 11
5982.0
 21
-502.5
 31
0.0
  0
LINE
  5
149
330
18
100
AcDbEntity
  8
FRONT
 62
     2
100
AcDbLine
 10
5878.0
 20
-502.5
 30
0.0
 11
5930.0
 21
-492.5
 31
0.0
  0
LINE
  5
14A
330
18
100
AcDbEntity
  8
FRONT
 62
     3
100
AcDbLine
 10
5930.0
 20
-502.5
 30
0.0
 11
5930.0
 21
-492.5
 31
0.0
  0
LINE
  5
14B
330
18
100
AcDbEntity
  8
FRONT
 62
     3
100
AcDbLine
 10
5930.0
 20
-502.5
 30
0.0
 11
5930.0
 21
-492.5
 31
0.0
  0
LINE
  5
14C
330
18
100
AcDbEntity
  8
FRONT
 62
     3
100
AcDbLine
 10
5930.0
 20
-502.5
 30
0.0
 11
6011.7
 21
-517.4
 31
0.0
  0
LINE
  5
14D
330
18
100
AcDbEntity
  8
FRONT
 62
     3
100
AcDbLine
 10
5848.3
 20
-517.4
 30
0.0
 11
5930.0
 21
-502.5
 31
0.0
  0
LINE
  5
14E
330
18
100
AcDbEntity
  8
FRONT
 62
     3
100
AcDbLine
 10
6011.7
 20
-517.4
 30
0.0
 11
6117.2
 21
-536.5
 31
0.0
  0
LINE
  5
14F
330
18
100
AcDbEntity
  8
FRONT
 62
     3
100
AcDbLine
 10
5742.8
 20
-536.5
 30
0.0
 11
5848.3
 21
-517.4
 31
0.0
  0
LINE
  5
150
330
18
100
AcDbEntity
  8
FRONT
 62
     3
100
AcDbLine
 10
6117.2
 20
-536.5
 30
0.0
 11
6181.5
 21
-548.2
 31
0.0
  0
LINE
  5
151
330
18
100
AcDbEntity
  8
FRONT
 62
     3
100
AcDbLine
 10
5678.5
 20
-548.2
 30
0.0
 11
5742.8
 21
-536.5
 31
0.0
  0
LINE
  5
152
330
18
100
AcDbEntity
  8
FRONT
 62
     3
100
AcDbLine
 10
6181.5
 20
-548.2
 30
0.0
 11
6204.9
 21
-552.5
 31
0.0
  0
LINE
  5
153
330
18
100
AcDbEntity
  8
FRONT
 62
     3
100
AcDbLine
 10
5655.1
 20
-552.5
 30
0.0
 11
5678.5
 21
-548.2
 31
0.0
  0
LINE
  5
154
330
18
100
AcDbEntity
  8
FRONT
 62
     3
100
AcDbLine
 10
6204.9
 20
-552.5
 30
0.0
 11
6205.0
 21
-552.5
 31
0.0
  0
LINE
  5
155
330
18
100
AcDbEntity
  8
FRONT
 62
     3
100
AcDbLine
 10
5655.0
 20
-552.5
 30
0.0
 11
5655.1
 21
-552.5
 31
0.0
  0
LINE
  5
156
330
18
100
AcDbEntity
  8
FRONT
 62
     3
100
AcDbLine
 10
6187.4
 20
-549.3
 30
0.0
 11
6205.0
 21
-552.5
 31
0.0
  0
LINE
  5
157
330
18
100
AcDbEntity
  8
FRONT
 62
     3
100
AcDbLine
 10
5655.0
 20
-552.5
 30
0.0
 11
5672.6
 21
-549.3
 31
0.0
  0
LINE
  5
158
330
18
100
AcDbEntity
  8
FRONT
 62
     3
100
AcDbLine
 10
6128.7
 20
-538.6
 30
0.0
 11
6187.4
 21
-549.3
 31
0.0
  0
LINE
  5
159
330
18
100
AcDbEntity
  8
FRONT
 62
     3
100
AcDbLine
 10
5672.6
 20
-549.3
 30
0.0
 11
5731.3
 21
-538.6
 31
0.0
  0
LINE
  5
15A
330
18
100
AcDbEntity
  8
FRONT
 62
     3
100
AcDbLine
 10
6029.2
 20
-520.5
 30
0.0
 11
6128.7
 21
-538.6
 31
0.0
  0
LINE
  5
15B
330
18
100
AcDbEntity
  8
FRONT
 62
     3
100
AcDbLine
 10
5731.3
 20
-538.6
 30
0.0
 11
5830.8
 21
-520.5
 31
0.0
  0
LINE
  5
15C
330
18
100
AcDbEntity
  8
FRONT
 62
     3
100
AcDbLine
 10
5930.0
 20
-502.5
 30
0.0
 11
6029.2
 21
-520.5
 31
0.0
  0
LINE
  5
15D
330
18
100
AcDbEntity
  8
FRONT
 62
     3
100
AcDbLine
 10
5830.8
 20
-520.5
 30
0.0
 11
5930.0
 21
-502.5
 31
0.0
  0
LINE
  5
15E
330
18
100
AcDbEntity
  8
FRONT
 62
     3
100
AcDbLine
 10
5930.0
 20
-502.5
 30
0.0
 11
5930.0
 21
-492.5
 31
0.0
  0
LINE
  5
15F
330
18
100
AcDbEntity
  8
FRONT
 62
     3
100
AcDbLine
 10
5930.0
 20
-502.5
 30
0.0
 11
5930.0
 21
-492.5
 31
0.0
  0
LINE
  5
160
330
18
100
AcDbEntity
  8
FRONT
 62
     1
100
AcDbLine
 10
5930.0
 20
-502.5
 30
0.0
 11
5930.0
 21
-492.5
 31
0.0
  0
LINE
  5
161
330
18
100
AcDbEntity
  8
FRONT
 62
     1
100
AcDbLine
 10
5930.0
 20
-502.5
 30
0.0
 11
5930.0
 21
-492.5
 31
0.0
  0
LINE
  5
162
330
18
100
AcDbEntity
  8
FRONT
 62
     1
100
AcDbLine
 10
5930.0
 20
-502.5
 30
0.0
 11
6011.7
 21
-502.5
 31
0.0
  0
LINE
  5
163
330
18
100
AcDbEntity
  8
FRONT
 62
     1
100
AcDbLine
 10
5848.3
 20
-502.5
 30
0.0
 11
5930.0
 21
-502.5
 31
0.0
  0
LINE
  5
164
330
18
100
AcDbEntity
  8
FRONT
 62
     1
100
AcDbLine
 10
6011.7
 20
-502.5
 30
0.0
 11
6117.2
 21
-502.5
 31
0.0
  0
LINE
  5
165
330
18
100
AcDbEntity
  8
FRONT
 62
     1
100
AcDbLine
 10
5742.8
 20
-502.5
 30
0.0
 11
5848.3
 21
-502.5
 31
0.0
  0
LINE
  5
166
330
18
100
AcDbEntity
  8
FRONT
 62
     1
100
AcDbLine
 10
6117.2
 20
-502.5
 30
0.0
 11
6181.5
 21
-502.5
 31
0.0
  0
LINE
  5
167
330
18
100
AcDbEntity
  8
FRONT
 62
     1
100
AcDbLine
 10
5678.5
 20
-502.5
 30
0.0
 11
5742.8
 21
-502.5
 31
0.0
  0
LINE
  5
168
330
18
100
AcDbEntity
  8
FRONT
 62
     1
100
AcDbLine
 10
6181.5
 20
-502.5
 30
0.0
 11
6204.9
 21
-502.5
 31
0.0
  0
LINE
  5
169
330
18
100
AcDbEntity
  8
FRONT
 62
     1
100
AcDbLine
 10
5655.1
 20
-502.5
 30
0.0
 11
5678.5
 21
-502.5
 31
0.0
  0
LINE
  5
16A
330
18
100
AcDbEntity
  8
FRONT
 62
     1
100
AcDbLine
 10
6204.9
 20
-502.5
 30
0.0
 11
6205.0
 21
-502.5
 31
0.0
  0
LINE
  5
16B
330
18
100
AcDbEntity
  8
FRONT
 62
     1
100
AcDbLine
 10
5655.0
 20
-502.5
 30
0.0
 11
5655.1
 21
-502.5
 31
0.0
  0
LINE
  5
16C
330
18
100
AcDbEntity
  8
FRONT
 62
     1
100
AcDbLine
 10
6187.4
 20
-502.5
 30
0.0
 11
6205.0
 21
-502.5
 31
0.0
  0
LINE
  5
16D
330
18
100
AcDbEntity
  8
FRONT
 62
     1
100
AcDbLine
 10
5655.0
 20
-502.5
 30
0.0
 11
5672.6
 21
-502.5
 31
0.0
  0
LINE
  5
16E
330
18
100
AcDbEntity
  8
FRONT
 62
     1
100
AcDbLine
 10
6128.7
 20
-502.5
 30
0.0
 11
6187.4
 21
-502.5
 31
0.0
  0
LINE
  5
16F
330
18
100
AcDbEntity
  8
FRONT
 62
     1
100
AcDbLine
 10
5672.6
 20
-502.5
 30
0.0
 11
5731.3
 21
-502.5
 31
0.0
  0
LINE
  5
170
330
18
100
AcDbEntity
  8
FRONT
 62
     1
100
AcDbLine
 10
6029.2
 20
-502.5
 30
0.0
 11
6128.7
 21
-502.5
 31
0.0
  0
LINE
  5
171
330
18
100
AcDbEntity
  8
FRONT
 62
     1
100
AcDbLine
 10
5731.3
 20
-502.5
 30
0.0
 11
5830.8
 21
-502.5
 31
0.0
  0
LINE
  5
172
330
18
100
AcDbEntity
  8
FRONT
 62
     1
100
AcDbLine
 10
5930.0
 20
-502.5
 30
0.0
 11
6029.2
 21
-502.5
 31
0.0
  0
LINE
  5
173
330
18
100
AcDbEntity
  8
FRONT
 62
     1
100
AcDbLine
 10
5830.8
 20
-502.5
 30
0.0
 11
5930.0
 21
-502.5
 31
0.0
  0
LINE
  5
174
330
18
100
AcDbEntity
  8
FRONT
 62
     1
100
AcDbLine
 10
5930.0
 20
-502.5
 30
0.0
 11
5930.0
 21
-492.5
 31
0.0
  0
LINE
  5
175
330
18
100
AcDbEntity
  8
FRONT
 62
     1
100
AcDbLine
 10
5930.0
 20
-502.5
 30
0.0
 11
5930.0
 21
-492.5
 31
0.0
  0
LINE
  5
176
330
18
100
AcDbEntity
  8
ISOMETRIC
100
AcDbLine
 10
6283.299779
 20
320.96953
 30
0.0
 11
6299.829055
 21
283.107504
 31
0.0
  0
LINE
  5
177
330
18
100
AcDbEntity
  8
ISOMETRIC
100
AcDbLine
 10
6299.829055
 20
283.107504
 30
0.0
 11
6316.358331
 21
245.245479
 31
0.0
  0
LINE
  5
178
330
18
100
AcDbEntity
  8
ISOMETRIC
100
AcDbLine
 10
6219.82277
 20
592.160497
 30
0.0
 11
6283.299779
 21
320.96953
 31
0.0
  0
LINE
  5
179
330
18
100
AcDbEntity
  8
ISOMETRIC
100
AcDbLine
 10
6273.517628
 20
469.166842
 30
0.0
 11
6316.358331
 21
245.245479
 31
0.0
  0
LINE
  5
17A
330
18
100
AcDbEntity
  8
ISOMETRIC
100
AcDbLine
 10
6219.82277
 20
592.160497
 30
0.0
 11
6230.049897
 21
568.949593
 31
0.0
  0
LINE
  5
17B
330
18
100
AcDbEntity
  8
ISOMETRIC
100
AcDbLine
 10
6263.10845
 20
493.225541
 30
0.0
 11
6273.517628
 21
469.166842
 31
0.0
  0
LINE
  5
17C
330
18
100
AcDbEntity
  8
ISOMETRIC
100
AcDbLine
 10
6227.337339
 20
581.58174
 30
0.0
 11
6230.049897
 21
568.949593
 31
0.0
  0
LINE
  5
17D
330
18
100
AcDbEntity
  8
ISOMETRIC
100
AcDbLine
 10
6260.395892
 20
505.857688
 30
0.0
 11
6263.10845
 21
493.225541
 31
0.0
  0
LINE
  5
17E
330
18
100
AcDbEntity
  8
ISOMETRIC
100
AcDbLine
 10
6737.130145
 20
488.576704
 30
0.0
 11
6775.003835
 21
401.823078
 31
0.0
  0
LINE
  5
17F
330
18
100
AcDbEntity
  8
ISOMETRIC
100
AcDbLine
 10
6775.003835
 20
401.823078
 30
0.0
 11
6812.877526
 21
315.069453
 31
0.0
  0
LINE
  5
180
330
18
100
AcDbEntity
  8
ISOMETRIC
100
AcDbLine
 10
6675.639551
 20
750.995852
 30
0.0
 11
6737.130145
 21
488.576704
 31
0.0
  0
LINE
  5
181
330
18
100
AcDbEntity
  8
ISOMETRIC
100
AcDbLine
 10
6771.618605
 20
531.145852
 30
0.0
 11
6812.877526
 21
315.069453
 31
0.0
  0
LINE
  5
182
330
18
100
AcDbEntity
  8
ISOMETRIC
100
AcDbLine
 10
6675.639551
 20
750.995852
 30
0.0
 11
6685.609747
 21
728.502714
 31
0.0
  0
LINE
  5
183
330
18
100
AcDbEntity
  8
ISOMETRIC
100
AcDbLine
 10
6761.357128
 20
554.995462
 30
0.0
 11
6771.618605
 21
531.145852
 31
0.0
  0
LINE
  5
184
330
18
100
AcDbEntity
  8
ISOMETRIC
100
AcDbLine
 10
6679.420017
 20
757.327747
 30
0.0
 11
6685.609747
 21
728.502714
 31
0.0
  0
LINE
  5
185
330
18
100
AcDbEntity
  8
ISOMETRIC
100
AcDbLine
 10
6755.167398
 20
583.820495
 30
0.0
 11
6761.357128
 21
554.995462
 31
0.0
  0
LINE
  5
186
330
18
100
AcDbEntity
  8
ISOMETRIC
100
AcDbLine
 10
7197.660122
 20
639.969673
 30
0.0
 11
7248.542777
 21
523.41766
 31
0.0
  0
LINE
  5
187
330
18
100
AcDbEntity
  8
ISOMETRIC
100
AcDbLine
 10
7248.542777
 20
523.41766
 30
0.0
 11
7299.425433
 21
406.865647
 31
0.0
  0
LINE
  5
188
330
18
100
AcDbEntity
  8
ISOMETRIC
100
AcDbLine
 10
7137.249708
 20
897.502141
 30
0.0
 11
7197.660122
 21
639.969673
 31
0.0
  0
LINE
  5
189
330
18
100
AcDbEntity
  8
ISOMETRIC
100
AcDbLine
 10
7259.125302
 20
618.333422
 30
0.0
 11
7299.425433
 21
406.865647
 31
0.0
  0
LINE
  5
18A
330
18
100
AcDbEntity
  8
ISOMETRIC
100
AcDbLine
 10
7137.249708
 20
897.502141
 30
0.0
 11
7147.195619
 21
874.978471
 31
0.0
  0
LINE
  5
18B
330
18
100
AcDbEntity
  8
ISOMETRIC
100
AcDbLine
 10
7248.96093
 20
641.874445
 30
0.0
 11
7259.125302
 21
618.333422
 31
0.0
  0
LINE
  5
18C
330
18
100
AcDbEntity
  8
ISOMETRIC
100
AcDbLine
 10
7138.875894
 20
913.722707
 30
0.0
 11
7147.195619
 21
874.978471
 31
0.0
  0
LINE
  5
18D
330
18
100
AcDbEntity
  8
ISOMETRIC
100
AcDbLine
 10
7240.641205
 20
680.618681
 30
0.0
 11
7248.96093
 21
641.874445
 31
0.0
  0
LINE
  5
18E
330
18
100
AcDbEntity
  8
ISOMETRIC
100
AcDbLine
 10
7665.773059
 20
775.63008
 30
0.0
 11
7721.389926
 21
648.233863
 31
0.0
  0
LINE
  5
18F
330
18
100
AcDbEntity
  8
ISOMETRIC
100
AcDbLine
 10
7721.389926
 20
648.233863
 30
0.0
 11
7777.006793
 21
520.837647
 31
0.0
  0
LINE
  5
190
330
18
100
AcDbEntity
  8
ISOMETRIC
100
AcDbLine
 10
7605.593232
 20
1031.945103
 30
0.0
 11
7665.773059
 21
775.63008
 31
0.0
  0
LINE
  5
191
330
18
100
AcDbEntity
  8
ISOMETRIC
100
AcDbLine
 10
7737.058638
 20
730.809921
 30
0.0
 11
7777.006793
 21
520.837647
 31
0.0
  0
LINE
  5
192
330
18
100
AcDbEntity
  8
ISOMETRIC
100
AcDbLine
 10
7605.593232
 20
1031.945103
 30
0.0
 11
7615.709068
 21
1008.773729
 31
0.0
  0
LINE
  5
193
330
18
100
AcDbEntity
  8
ISOMETRIC
100
AcDbLine
 10
7726.942802
 20
753.981296
 30
0.0
 11
7737.058638
 21
730.809921
 31
0.0
  0
LINE
  5
194
330
18
100
AcDbEntity
  8
ISOMETRIC
100
AcDbLine
 10
7606.606524
 20
1051.163483
 30
0.0
 11
7615.709068
 21
1008.773729
 31
0.0
  0
LINE
  5
195
330
18
100
AcDbEntity
  8
ISOMETRIC
100
AcDbLine
 10
7717.840258
 20
796.37105
 30
0.0
 11
7726.942802
 21
753.981296
 31
0.0
  0
LINE
  5
196
330
18
100
AcDbEntity
  8
ISOMETRIC
100
AcDbLine
 10
8141.487162
 20
895.473144
 30
0.0
 11
8193.563486
 21
776.186908
 31
0.0
  0
LINE
  5
197
330
18
100
AcDbEntity
  8
ISOMETRIC
100
AcDbLine
 10
8193.563486
 20
776.186908
 30
0.0
 11
8245.639811
 21
656.900673
 31
0.0
  0
LINE
  5
198
330
18
100
AcDbEntity
  8
ISOMETRIC
100
AcDbLine
 10
8081.167774
 20
1152.581713
 30
0.0
 11
8141.487162
 21
895.473144
 31
0.0
  0
LINE
  5
199
330
18
100
AcDbEntity
  8
ISOMETRIC
100
AcDbLine
 10
8205.430705
 20
867.94455
 30
0.0
 11
8245.639811
 21
656.900673
 31
0.0
  0
LINE
  5
19A
330
18
100
AcDbEntity
  8
ISOMETRIC
100
AcDbLine
 10
8081.167774
 20
1152.581713
 30
0.0
 11
8091.13189
 21
1129.973265
 31
0.0
  0
LINE
  5
19B
330
18
100
AcDbEntity
  8
ISOMETRIC
100
AcDbLine
 10
8195.284538
 20
891.400794
 30
0.0
 11
8205.430705
 21
867.94455
 31
0.0
  0
LINE
  5
19C
330
18
100
AcDbEntity
  8
ISOMETRIC
100
AcDbLine
 10
8082.611908
 20
1169.650075
 30
0.0
 11
8091.13189
 21
1129.973265
 31
0.0
  0
LINE
  5
19D
330
18
100
AcDbEntity
  8
ISOMETRIC
100
AcDbLine
 10
8186.764557
 20
931.077604
 30
0.0
 11
8195.284538
 21
891.400794
 31
0.0
  0
LINE
  5
19E
330
18
100
AcDbEntity
  8
ISOMETRIC
100
AcDbLine
 10
8625.825376
 20
999.617671
 30
0.0
 11
8666.025709
 21
907.534629
 31
0.0
  0
LINE
  5
19F
330
18
100
AcDbEntity
  8
ISOMETRIC
100
AcDbLine
 10
8666.025709
 20
907.534629
 30
0.0
 11
8706.226041
 21
815.451587
 31
0.0
  0
LINE
  5
1A0
330
18
100
AcDbEntity
  8
ISOMETRIC
100
AcDbLine
 10
8564.516833
 20
1261.189024
 30
0.0
 11
8625.825376
 21
999.617671
 31
0.0
  0
LINE
  5
1A1
330
18
100
AcDbEntity
  8
ISOMETRIC
100
AcDbLine
 10
8665.149171
 20
1030.680191
 30
0.0
 11
8706.226041
 21
815.451587
 31
0.0
  0
LINE
  5
1A2
330
18
100
AcDbEntity
  8
ISOMETRIC
100
AcDbLine
 10
8564.516833
 20
1261.189024
 30
0.0
 11
8574.487029
 21
1238.695885
 31
0.0
  0
LINE
  5
1A3
330
18
100
AcDbEntity
  8
ISOMETRIC
100
AcDbLine
 10
8654.887694
 20
1054.529802
 30
0.0
 11
8665.149171
 21
1030.680191
 31
0.0
  0
LINE
  5
1A4
330
18
100
AcDbEntity
  8
ISOMETRIC
100
AcDbLine
 10
8567.914992
 20
1269.301288
 30
0.0
 11
8574.487029
 21
1238.695885
 31
0.0
  0
LINE
  5
1A5
330
18
100
AcDbEntity
  8
ISOMETRIC
100
AcDbLine
 10
8648.315658
 20
1085.135204
 30
0.0
 11
8654.887694
 21
1054.529802
 31
0.0
  0
LINE
  5
1A6
330
18
100
AcDbEntity
  8
ISOMETRIC
100
AcDbLine
 10
9116.764069
 20
1087.818144
 30
0.0
 11
9136.833887
 21
1041.846137
 31
0.0
  0
LINE
  5
1A7
330
18
100
AcDbEntity
  8
ISOMETRIC
100
AcDbLine
 10
9136.833887
 20
1041.846137
 30
0.0
 11
9156.903706
 21
995.87413
 31
0.0
  0
LINE
  5
1A8
330
18
100
AcDbEntity
  8
ISOMETRIC
100
AcDbLine
 10
9053.618805
 20
1357.559954
 30
0.0
 11
9116.764069
 21
1087.818144
 31
0.0
  0
LINE
  5
1A9
330
18
100
AcDbEntity
  8
ISOMETRIC
100
AcDbLine
 10
9114.313821
 20
1218.531707
 30
0.0
 11
9156.903706
 21
995.87413
 31
0.0
  0
LINE
  5
1AA
330
18
100
AcDbEntity
  8
ISOMETRIC
100
AcDbLine
 10
9053.618805
 20
1357.559954
 30
0.0
 11
9063.787263
 21
1334.526514
 31
0.0
  0
LINE
  5
1AB
330
18
100
AcDbEntity
  8
ISOMETRIC
100
AcDbLine
 10
9103.926901
 20
1242.582501
 30
0.0
 11
9114.313821
 21
1218.531707
 31
0.0
  0
LINE
  5
1AC
330
18
100
AcDbEntity
  8
ISOMETRIC
100
AcDbLine
 10
9060.510348
 20
1349.786826
 30
0.0
 11
9063.787263
 21
1334.526514
 31
0.0
  0
LINE
  5
1AD
330
18
100
AcDbEntity
  8
ISOMETRIC
100
AcDbLine
 10
9100.649985
 20
1257.842812
 30
0.0
 11
9103.926901
 21
1242.582501
 31
0.0
  0
LINE
  5
1AE
330
18
100
AcDbEntity
  8
ISOMETRIC
 62
     6
100
AcDbLine
 10
5803.260022
 20
434.625288
 30
0.0
 11
6018.467074
 21
214.351447
 31
0.0
  0
LINE
  5
1AF
330
18
100
AcDbEntity
  8
ISOMETRIC
 62
     6
100
AcDbLine
 10
5803.260022
 20
434.625288
 30
0.0
 11
6018.467074
 21
214.351447
 31
0.0
  0
LINE
  5
1B0
330
18
100
AcDbEntity
  8
ISOMETRIC
 62
     6
100
AcDbLine
 10
6018.467074
 20
214.351447
 30
0.0
 11
6299.829055
 21
283.107504
 31
0.0
  0
LINE
  5
1B1
330
18
100
AcDbEntity
  8
ISOMETRIC
 62
     6
100
AcDbLine
 10
6018.467074
 20
214.351447
 30
0.0
 11
6299.829055
 21
283.107504
 31
0.0
  0
LINE
  5
1B2
330
18
100
AcDbEntity
  8
ISOMETRIC
 62
     6
100
AcDbLine
 10
6299.829055
 20
283.107504
 30
0.0
 11
6775.003835
 21
401.823078
 31
0.0
  0
LINE
  5
1B3
330
18
100
AcDbEntity
  8
ISOMETRIC
 62
     6
100
AcDbLine
 10
6299.829055
 20
283.107504
 30
0.0
 11
6775.003835
 21
401.823078
 31
0.0
  0
LINE
  5
1B4
330
18
100
AcDbEntity
  8
ISOMETRIC
 62
     6
100
AcDbLine
 10
6775.003835
 20
401.823078
 30
0.0
 11
7248.542777
 21
523.41766
 31
0.0
  0
LINE
  5
1B5
330
18
100
AcDbEntity
  8
ISOMETRIC
 62
     6
100
AcDbLine
 10
6775.003835
 20
401.823078
 30
0.0
 11
7248.542777
 21
523.41766
 31
0.0
  0
LINE
  5
1B6
330
18
100
AcDbEntity
  8
ISOMETRIC
 62
     6
100
AcDbLine
 10
7248.542777
 20
523.41766
 30
0.0
 11
7721.389926
 21
648.233863
 31
0.0
  0
LINE
  5
1B7
330
18
100
AcDbEntity
  8
ISOMETRIC
 62
     6
100
AcDbLine
 10
7248.542777
 20
523.41766
 30
0.0
 11
7721.389926
 21
648.233863
 31
0.0
  0
LINE
  5
1B8
330
18
100
AcDbEntity
  8
ISOMETRIC
 62
     6
100
AcDbLine
 10
7721.389926
 20
648.233863
 30
0.0
 11
7755.068683
 21
657.258059
 31
0.0
  0
LINE
  5
1B9
330
18
100
AcDbEntity
  8
ISOMETRIC
 62
     6
100
AcDbLine
 10
7721.389926
 20
648.233863
 30
0.0
 11
7755.068683
 21
657.258059
 31
0.0
  0
LINE
  5
1BA
330
18
100
AcDbEntity
  8
ISOMETRIC
 62
     6
100
AcDbLine
 10
7755.068683
 20
657.258059
 30
0.0
 11
8193.563486
 21
776.186908
 31
0.0
  0
LINE
  5
1BB
330
18
100
AcDbEntity
  8
ISOMETRIC
 62
     6
100
AcDbLine
 10
7755.068683
 20
657.258059
 30
0.0
 11
8193.563486
 21
776.186908
 31
0.0
  0
LINE
  5
1BC
330
18
100
AcDbEntity
  8
ISOMETRIC
 62
     6
100
AcDbLine
 10
8193.563486
 20
776.186908
 30
0.0
 11
8666.025709
 21
907.534629
 31
0.0
  0
LINE
  5
1BD
330
18
100
AcDbEntity
  8
ISOMETRIC
 62
     6
100
AcDbLine
 10
8193.563486
 20
776.186908
 30
0.0
 11
8666.025709
 21
907.534629
 31
0.0
  0
LINE
  5
1BE
330
18
100
AcDbEntity
  8
ISOMETRIC
 62
     6
100
AcDbLine
 10
8666.025709
 20
907.534629
 30
0.0
 11
9136.833887
 21
1041.846137
 31
0.0
  0
LINE
  5
1BF
330
18
100
AcDbEntity
  8
ISOMETRIC
 62
     6
100
AcDbLine
 10
8666.025709
 20
907.534629
 30
0.0
 11
9136.833887
 21
1041.846137
 31
0.0
  0
LINE
  5
1C0
330
18
100
AcDbEntity
  8
ISOMETRIC
 62
     6
100
AcDbLine
 10
9136.833887
 20
1041.846137
 30
0.0
 11
9482.567747
 21
1142.554425
 31
0.0
  0
LINE
  5
1C1
330
18
100
AcDbEntity
  8
ISOMETRIC
 62
     6
100
AcDbLine
 10
9136.833887
 20
1041.846137
 30
0.0
 11
9482.567747
 21
1142.554425
 31
0.0
  0
LINE
  5
1C2
330
18
100
AcDbEntity
  8
ISOMETRIC
 62
     6
100
AcDbLine
 10
9482.567747
 20
1142.554425
 30
0.0
 11
9584.903256
 21
1447.913538
 31
0.0
  0
LINE
  5
1C3
330
18
100
AcDbEntity
  8
ISOMETRIC
 62
     6
100
AcDbLine
 10
9482.567747
 20
1142.554425
 30
0.0
 11
9584.903256
 21
1447.913538
 31
0.0
  0
LINE
  5
1C4
330
18
100
AcDbEntity
  8
ISOMETRIC
 62
     5
100
AcDbLine
 10
5803.260022
 20
434.625288
 30
0.0
 11
6018.467074
 21
214.351447
 31
0.0
  0
LINE
  5
1C5
330
18
100
AcDbEntity
  8
ISOMETRIC
 62
     5
100
AcDbLine
 10
5803.260022
 20
434.625288
 30
0.0
 11
6018.467074
 21
214.351447
 31
0.0
  0
LINE
  5
1C6
330
18
100
AcDbEntity
  8
ISOMETRIC
 62
     5
100
AcDbLine
 10
6018.467074
 20
214.351447
 30
0.0
 11
6283.299779
 21
320.96953
 31
0.0
  0
LINE
  5
1C7
330
18
100
AcDbEntity
  8
ISOMETRIC
 62
     5
100
AcDbLine
 10
6018.467074
 20
214.351447
 30
0.0
 11
6316.358331
 21
245.245479
 31
0.0
  0
LINE
  5
1C8
330
18
100
AcDbEntity
  8
ISOMETRIC
 62
     5
100
AcDbLine
 10
6283.299779
 20
320.96953
 30
0.0
 11
6737.130145
 21
488.576704
 31
0.0
  0
LINE
  5
1C9
330
18
100
AcDbEntity
  8
ISOMETRIC
 62
     5
100
AcDbLine
 10
6316.358331
 20
245.245479
 30
0.0
 11
6812.877526
 21
315.069453
 31
0.0
  0
LINE
  5
1CA
330
18
100
AcDbEntity
  8
ISOMETRIC
 62
     5
100
AcDbLine
 10
6737.130145
 20
488.576704
 30
0.0
 11
7197.660122
 21
639.969673
 31
0.0
  0
LINE
  5
1CB
330
18
100
AcDbEntity
  8
ISOMETRIC
 62
     5
100
AcDbLine
 10
6812.877526
 20
315.069453
 30
0.0
 11
7299.425433
 21
406.865647
 31
0.0
  0
LINE
  5
1CC
330
18
100
AcDbEntity
  8
ISOMETRIC
 62
     5
100
AcDbLine
 10
7197.660122
 20
639.969673
 30
0.0
 11
7665.773059
 21
775.63008
 31
0.0
  0
LINE
  5
1CD
330
18
100
AcDbEntity
  8
ISOMETRIC
 62
     5
100
AcDbLine
 10
7299.425433
 20
406.865647
 30
0.0
 11
7777.006793
 21
520.837647
 31
0.0
  0
LINE
  5
1CE
330
18
100
AcDbEntity
  8
ISOMETRIC
 62
     5
100
AcDbLine
 10
7665.773059
 20
775.63008
 30
0.0
 11
7699.431584
 21
784.700618
 31
0.0
  0
LINE
  5
1CF
330
18
100
AcDbEntity
  8
ISOMETRIC
 62
     5
100
AcDbLine
 10
7777.006793
 20
520.837647
 30
0.0
 11
7810.705781
 21
529.8155
 31
0.0
  0
LINE
  5
1D0
330
18
100
AcDbEntity
  8
ISOMETRIC
 62
     5
100
AcDbLine
 10
7699.431584
 20
784.700618
 30
0.0
 11
8141.487162
 21
895.473144
 31
0.0
  0
LINE
  5
1D1
330
18
100
AcDbEntity
  8
ISOMETRIC
 62
     5
100
AcDbLine
 10
7810.705781
 20
529.8155
 30
0.0
 11
8245.639811
 21
656.900673
 31
0.0
  0
LINE
  5
1D2
330
18
100
AcDbEntity
  8
ISOMETRIC
 62
     5
100
AcDbLine
 10
8141.487162
 20
895.473144
 30
0.0
 11
8625.825376
 21
999.617671
 31
0.0
  0
LINE
  5
1D3
330
18
100
AcDbEntity
  8
ISOMETRIC
 62
     5
100
AcDbLine
 10
8245.639811
 20
656.900673
 30
0.0
 11
8706.226041
 21
815.451587
 31
0.0
  0
LINE
  5
1D4
330
18
100
AcDbEntity
  8
ISOMETRIC
 62
     5
100
AcDbLine
 10
8625.825376
 20
999.617671
 30
0.0
 11
9116.764069
 21
1087.818144
 31
0.0
  0
LINE
  5
1D5
330
18
100
AcDbEntity
  8
ISOMETRIC
 62
     5
100
AcDbLine
 10
8706.226041
 20
815.451587
 30
0.0
 11
9156.903706
 21
995.87413
 31
0.0
  0
LINE
  5
1D6
330
18
100
AcDbEntity
  8
ISOMETRIC
 62
     5
100
AcDbLine
 10
9116.764069
 20
1087.818144
 30
0.0
 11
9482.567747
 21
1142.554425
 31
0.0
  0
LINE
  5
1D7
330
18
100
AcDbEntity
  8
ISOMETRIC
 62
     5
100
AcDbLine
 10
9156.903706
 20
995.87413
 30
0.0
 11
9482.567747
 21
1142.554425
 31
0.0
  0
LINE
  5
1D8
330
18
100
AcDbEntity
  8
ISOMETRIC
 62
     5
100
AcDbLine
 10
9482.567747
 20
1142.554425
 30
0.0
 11
9584.903256
 21
1447.913538
 31
0.0
  0
LINE
  5
1D9
330
18
100
AcDbEntity
  8
ISOMETRIC
 62
     5
100
AcDbLine
 10
9482.567747
 20
1142.554425
 30
0.0
 11
9584.903256
 21
1447.913538
 31
0.0
  0
LINE
  5
1DA
330
18
100
AcDbEntity
  8
ISOMETRIC
 62
     2
100
AcDbLine
 10
5803.260022
 20
434.625288
 30
0.0
 11
5953.331342
 21
492.788203
 31
0.0
  0
LINE
  5
1DB
330
18
100
AcDbEntity
  8
ISOMETRIC
 62
     2
100
AcDbLine
 10
5803.260022
 20
434.625288
 30
0.0
 11
5974.372281
 21
444.591744
 31
0.0
  0
LINE
  5
1DC
330
18
100
AcDbEntity
  8
ISOMETRIC
 62
     2
100
AcDbLine
 10
5953.331342
 20
492.788203
 30
0.0
 11
6219.82277
 21
592.160497
 31
0.0
  0
LINE
  5
1DD
330
18
100
AcDbEntity
  8
ISOMETRIC
 62
     2
100
AcDbLine
 10
5974.372281
 20
444.591744
 30
0.0
 11
6273.517628
 21
469.166842
 31
0.0
  0
LINE
  5
1DE
330
18
100
AcDbEntity
  8
ISOMETRIC
 62
     2
100
AcDbLine
 10
6219.82277
 20
592.160497
 30
0.0
 11
6675.639551
 21
750.995852
 31
0.0
  0
LINE
  5
1DF
330
18
100
AcDbEntity
  8
ISOMETRIC
 62
     2
100
AcDbLine
 10
6273.517628
 20
469.166842
 30
0.0
 11
6771.618605
 21
531.145852
 31
0.0
  0
LINE
  5
1E0
330
18
100
AcDbEntity
  8
ISOMETRIC
 62
     2
100
AcDbLine
 10
6675.639551
 20
750.995852
 30
0.0
 11
7137.249708
 21
897.502141
 31
0.0
  0
LINE
  5
1E1
330
18
100
AcDbEntity
  8
ISOMETRIC
 62
     2
100
AcDbLine
 10
6771.618605
 20
531.145852
 30
0.0
 11
7259.125302
 21
618.333422
 31
0.0
  0
LINE
  5
1E2
330
18
100
AcDbEntity
  8
ISOMETRIC
 62
     2
100
AcDbLine
 10
7137.249708
 20
897.502141
 30
0.0
 11
7605.593232
 21
1031.945103
 31
0.0
  0
LINE
  5
1E3
330
18
100
AcDbEntity
  8
ISOMETRIC
 62
     2
100
AcDbLine
 10
7259.125302
 20
618.333422
 30
0.0
 11
7737.058638
 21
730.809921
 31
0.0
  0
LINE
  5
1E4
330
18
100
AcDbEntity
  8
ISOMETRIC
 62
     2
100
AcDbLine
 10
7605.593232
 20
1031.945103
 30
0.0
 11
7639.251757
 21
1041.015641
 31
0.0
  0
LINE
  5
1E5
330
18
100
AcDbEntity
  8
ISOMETRIC
 62
     2
100
AcDbLine
 10
7737.058638
 20
730.809921
 30
0.0
 11
7770.757626
 21
739.787774
 31
0.0
  0
LINE
  5
1E6
330
18
100
AcDbEntity
  8
ISOMETRIC
 62
     2
100
AcDbLine
 10
7639.251757
 20
1041.015641
 30
0.0
 11
8081.167774
 21
1152.581713
 31
0.0
  0
LINE
  5
1E7
330
18
100
AcDbEntity
  8
ISOMETRIC
 62
     2
100
AcDbLine
 10
7770.757626
 20
739.787774
 30
0.0
 11
8205.430705
 21
867.94455
 31
0.0
  0
LINE
  5
1E8
330
18
100
AcDbEntity
  8
ISOMETRIC
 62
     2
100
AcDbLine
 10
8081.167774
 20
1152.581713
 30
0.0
 11
8564.516833
 21
1261.189024
 31
0.0
  0
LINE
  5
1E9
330
18
100
AcDbEntity
  8
ISOMETRIC
 62
     2
100
AcDbLine
 10
8205.430705
 20
867.94455
 30
0.0
 11
8665.149171
 21
1030.680191
 31
0.0
  0
LINE
  5
1EA
330
18
100
AcDbEntity
  8
ISOMETRIC
 62
     2
100
AcDbLine
 10
8564.516833
 20
1261.189024
 30
0.0
 11
9053.618805
 21
1357.559954
 31
0.0
  0
LINE
  5
1EB
330
18
100
AcDbEntity
  8
ISOMETRIC
 62
     2
100
AcDbLine
 10
8665.149171
 20
1030.680191
 30
0.0
 11
9114.313821
 21
1218.531707
 31
0.0
  0
LINE
  5
1EC
330
18
100
AcDbEntity
  8
ISOMETRIC
 62
     2
100
AcDbLine
 10
9053.618805
 20
1357.559954
 30
0.0
 11
9417.432014
 21
1420.99118
 31
0.0
  0
LINE
  5
1ED
330
18
100
AcDbEntity
  8
ISOMETRIC
 62
     2
100
AcDbLine
 10
9114.313821
 20
1218.531707
 30
0.0
 11
9438.472954
 21
1372.794722
 31
0.0
  0
LINE
  5
1EE
330
18
100
AcDbEntity
  8
ISOMETRIC
 62
     2
100
AcDbLine
 10
9417.432014
 20
1420.99118
 30
0.0
 11
9584.903256
 21
1447.913538
 31
0.0
  0
LINE
  5
1EF
330
18
100
AcDbEntity
  8
ISOMETRIC
 62
     2
100
AcDbLine
 10
9438.472954
 20
1372.794722
 30
0.0
 11
9584.903256
 21
1447.913538
 31
0.0
  0
LINE
  5
1F0
330
18
100
AcDbEntity
  8
ISOMETRIC
 62
     3
100
AcDbLine
 10
5803.260022
 20
434.625288
 30
0.0
 11
5963.851811
 21
468.689973
 31
0.0
  0
LINE
  5
1F1
330
18
100
AcDbEntity
  8
ISOMETRIC
 62
     3
100
AcDbLine
 10
5803.260022
 20
434.625288
 30
0.0
 11
5963.851811
 21
468.689973
 31
0.0
  0
LINE
  5
1F2
330
18
100
AcDbEntity
  8
ISOMETRIC
 62
     3
100
AcDbLine
 10
5963.851811
 20
468.689973
 30
0.0
 11
6230.049897
 21
568.949593
 31
0.0
  0
LINE
  5
1F3
330
18
100
AcDbEntity
  8
ISOMETRIC
 62
     3
100
AcDbLine
 10
5963.851811
 20
468.689973
 30
0.0
 11
6263.10845
 21
493.225541
 31
0.0
  0
LINE
  5
1F4
330
18
100
AcDbEntity
  8
ISOMETRIC
 62
     3
100
AcDbLine
 10
6230.049897
 20
568.949593
 30
0.0
 11
6685.609747
 21
728.502714
 31
0.0
  0
LINE
  5
1F5
330
18
100
AcDbEntity
  8
ISOMETRIC
 62
     3
100
AcDbLine
 10
6263.10845
 20
493.225541
 30
0.0
 11
6761.357128
 21
554.995462
 31
0.0
  0
LINE
  5
1F6
330
18
100
AcDbEntity
  8
ISOMETRIC
 62
     3
100
AcDbLine
 10
6685.609747
 20
728.502714
 30
0.0
 11
7147.195619
 21
874.978471
 31
0.0
  0
LINE
  5
1F7
330
18
100
AcDbEntity
  8
ISOMETRIC
 62
     3
100
AcDbLine
 10
6761.357128
 20
554.995462
 30
0.0
 11
7248.96093
 21
641.874445
 31
0.0
  0
LINE
  5
1F8
330
18
100
AcDbEntity
  8
ISOMETRIC
 62
     3
100
AcDbLine
 10
7147.195619
 20
874.978471
 30
0.0
 11
7615.709068
 21
1008.773729
 31
0.0
  0
LINE
  5
1F9
330
18
100
AcDbEntity
  8
ISOMETRIC
 62
     3
100
AcDbLine
 10
7248.96093
 20
641.874445
 30
0.0
 11
7726.942802
 21
753.981296
 31
0.0
  0
LINE
  5
1FA
330
18
100
AcDbEntity
  8
ISOMETRIC
 62
     3
100
AcDbLine
 10
7615.709068
 20
1008.773729
 30
0.0
 11
7649.367593
 21
1017.844267
 31
0.0
  0
LINE
  5
1FB
330
18
100
AcDbEntity
  8
ISOMETRIC
 62
     3
100
AcDbLine
 10
7726.942802
 20
753.981296
 30
0.0
 11
7760.64179
 21
762.959149
 31
0.0
  0
LINE
  5
1FC
330
18
100
AcDbEntity
  8
ISOMETRIC
 62
     3
100
AcDbLine
 10
7649.367593
 20
1017.844267
 30
0.0
 11
8091.13189
 21
1129.973265
 31
0.0
  0
LINE
  5
1FD
330
18
100
AcDbEntity
  8
ISOMETRIC
 62
     3
100
AcDbLine
 10
7760.64179
 20
762.959149
 30
0.0
 11
8195.284538
 21
891.400794
 31
0.0
  0
LINE
  5
1FE
330
18
100
AcDbEntity
  8
ISOMETRIC
 62
     3
100
AcDbLine
 10
8091.13189
 20
1129.973265
 30
0.0
 11
8574.487029
 21
1238.695885
 31
0.0
  0
LINE
  5
1FF
330
18
100
AcDbEntity
  8
ISOMETRIC
 62
     3
100
AcDbLine
 10
8195.284538
 20
891.400794
 30
0.0
 11
8654.887694
 21
1054.529802
 31
0.0
  0
LINE
  5
200
330
18
100
AcDbEntity
  8
ISOMETRIC
 62
     3
100
AcDbLine
 10
8574.487029
 20
1238.695885
 30
0.0
 11
9063.787263
 21
1334.526514
 31
0.0
  0
LINE
  5
201
330
18
100
AcDbEntity
  8
ISOMETRIC
 62
     3
100
AcDbLine
 10
8654.887694
 20
1054.529802
 30
0.0
 11
9103.926901
 21
1242.582501
 31
0.0
  0
LINE
  5
202
330
18
100
AcDbEntity
  8
ISOMETRIC
 62
     3
100
AcDbLine
 10
9063.787263
 20
1334.526514
 30
0.0
 11
9427.952484
 21
1396.892951
 31
0.0
  0
LINE
  5
203
330
18
100
AcDbEntity
  8
ISOMETRIC
 62
     3
100
AcDbLine
 10
9103.926901
 20
1242.582501
 30
0.0
 11
9427.952484
 21
1396.892951
 31
0.0
  0
LINE
  5
204
330
18
100
AcDbEntity
  8
ISOMETRIC
 62
     3
100
AcDbLine
 10
9427.952484
 20
1396.892951
 30
0.0
 11
9584.903256
 21
1447.913538
 31
0.0
  0
LINE
  5
205
330
18
100
AcDbEntity
  8
ISOMETRIC
 62
     3
100
AcDbLine
 10
9427.952484
 20
1396.892951
 30
0.0
 11
9584.903256
 21
1447.913538
 31
0.0
  0
LINE
  5
206
330
18
100
AcDbEntity
  8
ISOMETRIC
 62
     1
100
AcDbLine
 10
5803.260022
 20
434.625288
 30
0.0
 11
5963.851811
 21
468.689973
 31
0.0
  0
LINE
  5
207
330
18
100
AcDbEntity
  8
ISOMETRIC
 62
     1
100
AcDbLine
 10
5803.260022
 20
434.625288
 30
0.0
 11
5963.851811
 21
468.689973
 31
0.0
  0
LINE
  5
208
330
18
100
AcDbEntity
  8
ISOMETRIC
 62
     1
100
AcDbLine
 10
5963.851811
 20
468.689973
 30
0.0
 11
6227.337339
 21
581.58174
 31
0.0
  0
LINE
  5
209
330
18
100
AcDbEntity
  8
ISOMETRIC
 62
     1
100
AcDbLine
 10
5963.851811
 20
468.689973
 30
0.0
 11
6260.395892
 21
505.857688
 31
0.0
  0
LINE
  5
20A
330
18
100
AcDbEntity
  8
ISOMETRIC
 62
     1
100
AcDbLine
 10
6227.337339
 20
581.58174
 30
0.0
 11
6679.420017
 21
757.327747
 31
0.0
  0
LINE
  5
20B
330
18
100
AcDbEntity
  8
ISOMETRIC
 62
     1
100
AcDbLine
 10
6260.395892
 20
505.857688
 30
0.0
 11
6755.167398
 21
583.820495
 31
0.0
  0
LINE
  5
20C
330
18
100
AcDbEntity
  8
ISOMETRIC
 62
     1
100
AcDbLine
 10
6679.420017
 20
757.327747
 30
0.0
 11
7138.875894
 21
913.722707
 31
0.0
  0
LINE
  5
20D
330
18
100
AcDbEntity
  8
ISOMETRIC
 62
     1
100
AcDbLine
 10
6755.167398
 20
583.820495
 30
0.0
 11
7240.641205
 21
680.618681
 31
0.0
  0
LINE
  5
20E
330
18
100
AcDbEntity
  8
ISOMETRIC
 62
     1
100
AcDbLine
 10
7138.875894
 20
913.722707
 30
0.0
 11
7606.606524
 21
1051.163483
 31
0.0
  0
LINE
  5
20F
330
18
100
AcDbEntity
  8
ISOMETRIC
 62
     1
100
AcDbLine
 10
7240.641205
 20
680.618681
 30
0.0
 11
7717.840258
 21
796.37105
 31
0.0
  0
LINE
  5
210
330
18
100
AcDbEntity
  8
ISOMETRIC
 62
     1
100
AcDbLine
 10
7606.606524
 20
1051.163483
 30
0.0
 11
7640.265049
 21
1060.234021
 31
0.0
  0
LINE
  5
211
330
18
100
AcDbEntity
  8
ISOMETRIC
 62
     1
100
AcDbLine
 10
7717.840258
 20
796.37105
 30
0.0
 11
7751.539246
 21
805.348903
 31
0.0
  0
LINE
  5
212
330
18
100
AcDbEntity
  8
ISOMETRIC
 62
     1
100
AcDbLine
 10
7640.265049
 20
1060.234021
 30
0.0
 11
8082.611908
 21
1169.650075
 31
0.0
  0
LINE
  5
213
330
18
100
AcDbEntity
  8
ISOMETRIC
 62
     1
100
AcDbLine
 10
7751.539246
 20
805.348903
 30
0.0
 11
8186.764557
 21
931.077604
 31
0.0
  0
LINE
  5
214
330
18
100
AcDbEntity
  8
ISOMETRIC
 62
     1
100
AcDbLine
 10
8082.611908
 20
1169.650075
 30
0.0
 11
8567.914992
 21
1269.301288
 31
0.0
  0
LINE
  5
215
330
18
100
AcDbEntity
  8
ISOMETRIC
 62
     1
100
AcDbLine
 10
8186.764557
 20
931.077604
 30
0.0
 11
8648.315658
 21
1085.135204
 31
0.0
  0
LINE
  5
216
330
18
100
AcDbEntity
  8
ISOMETRIC
 62
     1
100
AcDbLine
 10
8567.914992
 20
1269.301288
 30
0.0
 11
9060.510348
 21
1349.786826
 31
0.0
  0
LINE
  5
217
330
18
100
AcDbEntity
  8
ISOMETRIC
 62
     1
100
AcDbLine
 10
8648.315658
 20
1085.135204
 30
0.0
 11
9100.649985
 21
1257.842812
 31
0.0
  0
LINE
  5
218
330
18
100
AcDbEntity
  8
ISOMETRIC
 62
     1
100
AcDbLine
 10
9060.510348
 20
1349.786826
 30
0.0
 11
9427.952484
 21
1396.892951
 31
0.0
  0
LINE
  5
219
330
18
100
AcDbEntity
  8
ISOMETRIC
 62
     1
100
AcDbLine
 10
9100.649985
 20
1257.842812
 30
0.0
 11
9427.952484
 21
1396.892951
 31
0.0
  0
LINE
  5
21A
330
18
100
AcDbEntity
  8
ISOMETRIC
 62
     1
100
AcDbLine
 10
9427.952484
 20
1396.892951
 30
0.0
 11
9584.903256
 21
1447.913538
 31
0.0
  0
LINE
  5
21B
330
18
100
AcDbEntity
  8
ISOMETRIC
 62
     1
100
AcDbLine
 10
9427.952484
 20
1396.892951
 30
0.0
 11
9584.903256
 21
1447.913538
 31
0.0
  0
LINE
  5
21C
330
18
100
AcDbEntity
  8
UNFOLD
 62
     6
100
AcDbLine
 10
351.176594
 20
650.0
 30
0.0
 11
642.270668
 21
650.0
 31
0.0
  0
LINE
  5
21D
330
18
100
AcDbEntity
  8
UNFOLD
 62
     6
100
AcDbLine
 10
351.176594
 20
650.0
 30
0.0
 11
642.270668
 21
731.7
 31
0.0
  0
LINE
  5
21E
330
18
100
AcDbEntity
  8
UNFOLD
 62
     6
100
AcDbLine
 10
642.270668
 20
650.0
 30
0.0
 11
1134.364318
 21
650.0
 31
0.0
  0
LINE
  5
21F
330
18
100
AcDbEntity
  8
UNFOLD
 62
     6
100
AcDbLine
 10
642.270668
 20
731.7
 30
0.0
 11
1134.364318
 21
837.2
 31
0.0
  0
LINE
  5
220
330
18
100
AcDbEntity
  8
UNFOLD
 62
     6
100
AcDbLine
 10
1134.364318
 20
650.0
 30
0.0
 11
1625.399764
 21
650.0
 31
0.0
  0
LINE
  5
221
330
18
100
AcDbEntity
  8
UNFOLD
 62
     6
100
AcDbLine
 10
1134.364318
 20
837.2
 30
0.0
 11
1625.399764
 21
901.5
 31
0.0
  0
LINE
  5
222
330
18
100
AcDbEntity
  8
UNFOLD
 62
     6
100
AcDbLine
 10
1625.399764
 20
650.0
 30
0.0
 11
2116.404255
 21
650.0
 31
0.0
  0
LINE
  5
223
330
18
100
AcDbEntity
  8
UNFOLD
 62
     6
100
AcDbLine
 10
1625.399764
 20
901.5
 30
0.0
 11
2116.404255
 21
924.9
 31
0.0
  0
LINE
  5
224
330
18
100
AcDbEntity
  8
UNFOLD
 62
     6
100
AcDbLine
 10
2116.404255
 20
650.0
 30
0.0
 11
2151.404255
 21
650.0
 31
0.0
  0
LINE
  5
225
330
18
100
AcDbEntity
  8
UNFOLD
 62
     6
100
AcDbLine
 10
2116.404255
 20
924.9
 30
0.0
 11
2151.404255
 21
925.0
 31
0.0
  0
LINE
  5
226
330
18
100
AcDbEntity
  8
UNFOLD
 62
     6
100
AcDbLine
 10
2151.404255
 20
650.0
 30
0.0
 11
2607.407062
 21
650.0
 31
0.0
  0
LINE
  5
227
330
18
100
AcDbEntity
  8
UNFOLD
 62
     6
100
AcDbLine
 10
2151.404255
 20
925.0
 30
0.0
 11
2607.407062
 21
907.4
 31
0.0
  0
LINE
  5
228
330
18
100
AcDbEntity
  8
UNFOLD
 62
     6
100
AcDbLine
 10
2607.407062
 20
650.0
 30
0.0
 11
3099.435608
 21
650.0
 31
0.0
  0
LINE
  5
229
330
18
100
AcDbEntity
  8
UNFOLD
 62
     6
100
AcDbLine
 10
2607.407062
 20
907.4
 30
0.0
 11
3099.435608
 21
848.7
 31
0.0
  0
LINE
  5
22A
330
18
100
AcDbEntity
  8
UNFOLD
 62
     6
100
AcDbLine
 10
3099.435608
 20
650.0
 30
0.0
 11
3590.519929
 21
650.0
 31
0.0
  0
LINE
  5
22B
330
18
100
AcDbEntity
  8
UNFOLD
 62
     6
100
AcDbLine
 10
3099.435608
 20
848.7
 30
0.0
 11
3590.519929
 21
749.2
 31
0.0
  0
LINE
  5
22C
330
18
100
AcDbEntity
  8
UNFOLD
 62
     6
100
AcDbLine
 10
3590.519929
 20
650.0
 30
0.0
 11
3951.6321
 21
650.0
 31
0.0
  0
LINE
  5
22D
330
18
100
AcDbEntity
  8
UNFOLD
 62
     6
100
AcDbLine
 10
3590.519929
 20
749.2
 30
0.0
 11
3951.6321
 21
650.0
 31
0.0
  0
LINE
  5
22E
330
18
100
AcDbEntity
  8
UNFOLD
 62
     5
100
AcDbLine
 10
0.0
 20
1257.723199
 30
0.0
 11
173.677283
 21
952.5
 31
0.0
  0
LINE
  5
22F
330
18
100
AcDbEntity
  8
UNFOLD
 62
     5
100
AcDbLine
 10
0.0
 20
1257.723199
 30
0.0
 11
173.287153
 21
1256.973066
 31
0.0
  0
LINE
  5
230
330
18
100
AcDbEntity
  8
UNFOLD
 62
     5
100
AcDbLine
 10
173.677283
 20
952.5
 30
0.0
 11
475.937035
 21
959.549296
 31
0.0
  0
LINE
  5
231
330
18
100
AcDbEntity
  8
UNFOLD
 62
     5
100
AcDbLine
 10
173.287153
 20
1256.973066
 30
0.0
 11
475.660503
 21
1255.969476
 31
0.0
  0
LINE
  5
232
330
18
100
AcDbEntity
  8
UNFOLD
 62
     5
100
AcDbLine
 10
475.937035
 20
959.549296
 30
0.0
 11
979.129272
 21
968.713478
 31
0.0
  0
LINE
  5
233
330
18
100
AcDbEntity
  8
UNFOLD
 62
     5
100
AcDbLine
 10
475.660503
 20
1255.969476
 30
0.0
 11
979.009461
 21
1255.308708
 31
0.0
  0
LINE
  5
234
330
18
100
AcDbEntity
  8
UNFOLD
 62
     5
100
AcDbLine
 10
979.129272
 20
968.713478
 30
0.0
 11
1474.324958
 21
974.32889
 31
0.0
  0
LINE
  5
235
330
18
100
AcDbEntity
  8
UNFOLD
 62
     5
100
AcDbLine
 10
979.009461
 20
1255.308708
 30
0.0
 11
1474.296496
 21
1255.358513
 31
0.0
  0
LINE
  5
236
330
18
100
AcDbEntity
  8
UNFOLD
 62
     5
100
AcDbLine
 10
1474.324958
 20
974.32889
 30
0.0
 11
1965.882147
 21
976.450056
 31
0.0
  0
LINE
  5
237
330
18
100
AcDbEntity
  8
UNFOLD
 62
     5
100
AcDbLine
 10
1474.296496
 20
1255.358513
 30
0.0
 11
1965.881707
 21
1255.958553
 31
0.0
  0
LINE
  5
238
330
18
100
AcDbEntity
  8
UNFOLD
 62
     5
100
AcDbLine
 10
1965.882147
 20
976.450056
 30
0.0
 11
2000.882286
 21
976.467999
 31
0.0
  0
LINE
  5
239
330
18
100
AcDbEntity
  8
UNFOLD
 62
     5
100
AcDbLine
 10
1965.881707
 20
1255.958553
 30
0.0
 11
2000.881846
 21
1255.976497
 31
0.0
  0
LINE
  5
23A
330
18
100
AcDbEntity
  8
UNFOLD
 62
     5
100
AcDbLine
 10
2000.882286
 20
976.467999
 30
0.0
 11
2457.221901
 21
974.894526
 31
0.0
  0
LINE
  5
23B
330
18
100
AcDbEntity
  8
UNFOLD
 62
     5
100
AcDbLine
 10
2000.881846
 20
1255.976497
 30
0.0
 11
2457.2407
 21
1255.432045
 31
0.0
  0
LINE
  5
23C
330
18
100
AcDbEntity
  8
UNFOLD
 62
     5
100
AcDbLine
 10
2457.221901
 20
974.894526
 30
0.0
 11
2952.712132
 21
969.678201
 31
0.0
  0
LINE
  5
23D
330
18
100
AcDbEntity
  8
UNFOLD
 62
     5
100
AcDbLine
 10
2457.2407
 20
1255.432045
 30
0.0
 11
2952.803712
 21
1255.288831
 31
0.0
  0
LINE
  5
23E
330
18
100
AcDbEntity
  8
UNFOLD
 62
     5
100
AcDbLine
 10
2952.712132
 20
969.678201
 30
0.0
 11
3453.700911
 21
961.058212
 31
0.0
  0
LINE
  5
23F
330
18
100
AcDbEntity
  8
UNFOLD
 62
     5
100
AcDbLine
 10
2952.803712
 20
1255.288831
 30
0.0
 11
3453.959621
 21
1255.867868
 31
0.0
  0
LINE
  5
240
330
18
100
AcDbEntity
  8
UNFOLD
 62
     5
100
AcDbLine
 10
3453.700911
 20
961.058212
 30
0.0
 11
3828.09298
 21
952.50144
 31
0.0
  0
LINE
  5
241
330
18
100
AcDbEntity
  8
UNFOLD
 62
     5
100
AcDbLine
 10
3453.959621
 20
1255.867868
 30
0.0
 11
3828.485635
 21
1256.974503
 31
0.0
  0
LINE
  5
242
330
18
100
AcDbEntity
  8
UNFOLD
 62
     5
100
AcDbLine
 10
3828.09298
 20
952.50144
 30
0.0
 11
4001.772794
 21
1257.723199
 31
0.0
  0
LINE
  5
243
330
18
100
AcDbEntity
  8
UNFOLD
 62
     5
100
AcDbLine
 10
3828.485635
 20
1256.974503
 30
0.0
 11
4001.772794
 21
1257.723199
 31
0.0
  0
LINE
  5
244
330
18
100
AcDbEntity
  8
UNFOLD
 62
     2
100
AcDbLine
 10
0.0
 20
1613.789617
 30
0.0
 11
165.27443
 21
1561.699667
 31
0.0
  0
LINE
  5
245
330
18
100
AcDbEntity
  8
UNFOLD
 62
     2
100
AcDbLine
 10
0.0
 20
1613.789617
 30
0.0
 11
165.302728
 21
1613.699659
 31
0.0
  0
LINE
  5
246
330
18
100
AcDbEntity
  8
UNFOLD
 62
     2
100
AcDbLine
 10
165.27443
 20
1561.699667
 30
0.0
 11
456.637676
 21
1480.841095
 31
0.0
  0
LINE
  5
247
330
18
100
AcDbEntity
  8
UNFOLD
 62
     2
100
AcDbLine
 10
165.302728
 20
1613.699659
 30
0.0
 11
456.640121
 21
1531.843546
 31
0.0
  0
LINE
  5
248
330
18
100
AcDbEntity
  8
UNFOLD
 62
     2
100
AcDbLine
 10
456.637676
 20
1480.841095
 30
0.0
 11
948.975653
 21
1376.132325
 31
0.0
  0
LINE
  5
249
330
18
100
AcDbEntity
  8
UNFOLD
 62
     2
100
AcDbLine
 10
456.640121
 20
1531.843546
 30
0.0
 11
948.966792
 21
1426.138724
 31
0.0
  0
LINE
  5
24A
330
18
100
AcDbEntity
  8
UNFOLD
 62
     2
100
AcDbLine
 10
948.975653
 20
1376.132325
 30
0.0
 11
1440.098734
 21
1312.043564
 31
0.0
  0
LINE
  5
24B
330
18
100
AcDbEntity
  8
UNFOLD
 62
     2
100
AcDbLine
 10
948.966792
 20
1426.138724
 30
0.0
 11
1440.094179
 21
1361.747186
 31
0.0
  0
LINE
  5
24C
330
18
100
AcDbEntity
  8
UNFOLD
 62
     2
100
AcDbLine
 10
1440.098734
 20
1312.043564
 30
0.0
 11
1931.112775
 21
1288.34563
 31
0.0
  0
LINE
  5
24D
330
18
100
AcDbEntity
  8
UNFOLD
 62
     2
100
AcDbLine
 10
1440.094179
 20
1361.747186
 30
0.0
 11
1931.112933
 21
1338.34563
 31
0.0
  0
LINE
  5
24E
330
18
100
AcDbEntity
  8
UNFOLD
 62
     2
100
AcDbLine
 10
1931.112775
 20
1288.34563
 30
0.0
 11
1966.112774
 21
1288.245519
 31
0.0
  0
LINE
  5
24F
330
18
100
AcDbEntity
  8
UNFOLD
 62
     2
100
AcDbLine
 10
1931.112933
 20
1338.34563
 30
0.0
 11
1966.112933
 21
1338.245519
 31
0.0
  0
LINE
  5
250
330
18
100
AcDbEntity
  8
UNFOLD
 62
     2
100
AcDbLine
 10
1966.112774
 20
1288.245519
 30
0.0
 11
2422.120824
 21
1306.144074
 31
0.0
  0
LINE
  5
251
330
18
100
AcDbEntity
  8
UNFOLD
 62
     2
100
AcDbLine
 10
1966.112933
 20
1338.245519
 30
0.0
 11
2422.124119
 21
1355.846589
 31
0.0
  0
LINE
  5
252
330
18
100
AcDbEntity
  8
UNFOLD
 62
     2
100
AcDbLine
 10
2422.120824
 20
1306.144074
 30
0.0
 11
2914.222532
 21
1364.613118
 31
0.0
  0
LINE
  5
253
330
18
100
AcDbEntity
  8
UNFOLD
 62
     2
100
AcDbLine
 10
2422.124119
 20
1355.846589
 30
0.0
 11
2914.231753
 21
1414.619517
 31
0.0
  0
LINE
  5
254
330
18
100
AcDbEntity
  8
UNFOLD
 62
     2
100
AcDbLine
 10
2914.222532
 20
1364.613118
 30
0.0
 11
3405.525329
 21
1463.502661
 31
0.0
  0
LINE
  5
255
330
18
100
AcDbEntity
  8
UNFOLD
 62
     2
100
AcDbLine
 10
2914.231753
 20
1414.619517
 30
0.0
 11
3405.527412
 21
1514.306204
 31
0.0
  0
LINE
  5
256
330
18
100
AcDbEntity
  8
UNFOLD
 62
     2
100
AcDbLine
 10
3405.525329
 20
1463.502661
 30
0.0
 11
3766.950438
 21
1561.70068
 31
0.0
  0
LINE
  5
257
330
18
100
AcDbEntity
  8
UNFOLD
 62
     2
100
AcDbLine
 10
3405.527412
 20
1514.306204
 30
0.0
 11
3766.922458
 21
1613.700673
 31
0.0
  0
LINE
  5
258
330
18
100
AcDbEntity
  8
UNFOLD
 62
     2
100
AcDbLine
 10
3766.950438
 20
1561.70068
 30
0.0
 11
3932.225187
 21
1613.789617
 31
0.0
  0
LINE
  5
259
330
18
100
AcDbEntity
  8
UNFOLD
 62
     2
100
AcDbLine
 10
3766.922458
 20
1613.700673
 30
0.0
 11
3932.225187
 21
1613.789617
 31
0.0
  0
LINE
  5
25A
330
18
100
AcDbEntity
  8
UNFOLD
 62
     3
100
AcDbLine
 10
165.102261
 20
1696.344027
 30
0.0
 11
467.35363
 21
1681.444027
 31
0.0
  0
LINE
  5
25B
330
18
100
AcDbEntity
  8
UNFOLD
 62
     3
100
AcDbLine
 10
165.102261
 20
1696.344027
 30
0.0
 11
467.35363
 21
1696.344027
 31
0.0
  0
LINE
  5
25C
330
18
100
AcDbEntity
  8
UNFOLD
 62
     3
100
AcDbLine
 10
467.35363
 20
1681.444027
 30
0.0
 11
970.537742
 21
1662.344027
 31
0.0
  0
LINE
  5
25D
330
18
100
AcDbEntity
  8
UNFOLD
 62
     3
100
AcDbLine
 10
467.35363
 20
1696.344027
 30
0.0
 11
970.537742
 21
1696.344027
 31
0.0
  0
LINE
  5
25E
330
18
100
AcDbEntity
  8
UNFOLD
 62
     3
100
AcDbLine
 10
970.537742
 20
1662.344027
 30
0.0
 11
1465.730118
 21
1650.644027
 31
0.0
  0
LINE
  5
25F
330
18
100
AcDbEntity
  8
UNFOLD
 62
     3
100
AcDbLine
 10
970.537742
 20
1696.344027
 30
0.0
 11
1465.730118
 21
1696.344027
 31
0.0
  0
LINE
  5
260
330
18
100
AcDbEntity
  8
UNFOLD
 62
     3
100
AcDbLine
 10
1465.730118
 20
1650.644027
 30
0.0
 11
1957.287399
 21
1646.344027
 31
0.0
  0
LINE
  5
261
330
18
100
AcDbEntity
  8
UNFOLD
 62
     3
100
AcDbLine
 10
1465.730118
 20
1696.344027
 30
0.0
 11
1957.287399
 21
1696.344027
 31
0.0
  0
LINE
  5
262
330
18
100
AcDbEntity
  8
UNFOLD
 62
     3
100
AcDbLine
 10
1957.287399
 20
1646.344027
 30
0.0
 11
1992.287542
 21
1646.344027
 31
0.0
  0
LINE
  5
263
330
18
100
AcDbEntity
  8
UNFOLD
 62
     3
100
AcDbLine
 10
1957.287399
 20
1696.344027
 30
0.0
 11
1992.287542
 21
1696.344027
 31
0.0
  0
LINE
  5
264
330
18
100
AcDbEntity
  8
UNFOLD
 62
     3
100
AcDbLine
 10
1992.287542
 20
1646.344027
 30
0.0
 11
2448.627064
 21
1649.544027
 31
0.0
  0
LINE
  5
265
330
18
100
AcDbEntity
  8
UNFOLD
 62
     3
100
AcDbLine
 10
1992.287542
 20
1696.344027
 30
0.0
 11
2448.627064
 21
1696.344027
 31
0.0
  0
LINE
  5
266
330
18
100
AcDbEntity
  8
UNFOLD
 62
     3
100
AcDbLine
 10
2448.627064
 20
1649.544027
 30
0.0
 11
2944.116408
 21
1660.244027
 31
0.0
  0
LINE
  5
267
330
18
100
AcDbEntity
  8
UNFOLD
 62
     3
100
AcDbLine
 10
2448.627064
 20
1696.344027
 30
0.0
 11
2944.116408
 21
1696.344027
 31
0.0
  0
LINE
  5
268
330
18
100
AcDbEntity
  8
UNFOLD
 62
     3
100
AcDbLine
 10
2944.116408
 20
1660.244027
 30
0.0
 11
3445.096697
 21
1678.344027
 31
0.0
  0
LINE
  5
269
330
18
100
AcDbEntity
  8
UNFOLD
 62
     3
100
AcDbLine
 10
2944.116408
 20
1696.344027
 30
0.0
 11
3445.096697
 21
1696.344027
 31
0.0
  0
LINE
  5
26A
330
18
100
AcDbEntity
  8
UNFOLD
 62
     3
100
AcDbLine
 10
3445.096697
 20
1678.344027
 30
0.0
 11
3819.478374
 21
1696.344027
 31
0.0
  0
LINE
  5
26B
330
18
100
AcDbEntity
  8
UNFOLD
 62
     3
100
AcDbLine
 10
3445.096697
 20
1696.344027
 30
0.0
 11
3819.478374
 21
1696.344032
 31
0.0
  0
TEXT
  5
26C
330
18
100
AcDbEntity
  8
CROSS_SECTIONS
100
AcDbText
 10
5876.172674
 20
-1220.560838
 30
0.0
 40
48.126316
  1
200
  7
Arial
100
AcDbText
  0
LINE
  5
26D
330
18
100
AcDbEntity
  8
CROSS_SECTIONS
100
AcDbLine
 10
5930.0
 20
-1246.000025
 30
0.0
 11
5930.00014
 21
-1246.000025
 31
0.0
  0
LINE
  5
26E
330
18
100
AcDbEntity
  8
CROSS_SECTIONS
100
AcDbLine
 10
5929.99986
 20
-1246.000025
 30
0.0
 11
5930.0
 21
-1246.000025
 31
0.0
  0
LINE
  5
26F
330
18
100
AcDbEntity
  8
CROSS_SECTIONS
100
AcDbLine
 10
5930.00014
 20
-1246.000025
 30
0.0
 11
5930.000281
 21
-1246.000025
 31
0.0
  0
LINE
  5
270
330
18
100
AcDbEntity
  8
CROSS_SECTIONS
100
AcDbLine
 10
5929.999719
 20
-1246.000025
 30
0.0
 11
5929.99986
 21
-1246.000025
 31
0.0
  0
LINE
  5
271
330
18
100
AcDbEntity
  8
CROSS_SECTIONS
100
AcDbLine
 10
5930.000281
 20
-1246.000025
 30
0.0
 11
5930.000458
 21
-1245.999008
 31
0.0
  0
LINE
  5
272
330
18
100
AcDbEntity
  8
CROSS_SECTIONS
100
AcDbLine
 10
5929.999542
 20
-1245.999008
 30
0.0
 11
5929.999719
 21
-1246.000025
 31
0.0
  0
LINE
  5
273
330
18
100
AcDbEntity
  8
CROSS_SECTIONS
100
AcDbLine
 10
5982.0001
 20
-946.00107
 30
0.0
 11
5982.000277
 21
-946.000053
 31
0.0
  0
LINE
  5
274
330
18
100
AcDbEntity
  8
CROSS_SECTIONS
100
AcDbLine
 10
5877.999723
 20
-946.000053
 30
0.0
 11
5877.9999
 21
-946.00107
 31
0.0
  0
LINE
  5
275
330
18
100
AcDbEntity
  8
CROSS_SECTIONS
100
AcDbLine
 10
5930.000458
 20
-1245.999008
 30
0.0
 11
5982.0001
 21
-946.00107
 31
0.0
  0
LINE
  5
276
330
18
100
AcDbEntity
  8
CROSS_SECTIONS
100
AcDbLine
 10
5877.9999
 20
-946.00107
 30
0.0
 11
5929.999542
 21
-1245.999008
 31
0.0
  0
LINE
  5
277
330
18
100
AcDbEntity
  8
CROSS_SECTIONS
100
AcDbLine
 10
5982.0001
 20
-946.000052
 30
0.0
 11
5982.000277
 21
-946.000053
 31
0.0
  0
LINE
  5
278
330
18
100
AcDbEntity
  8
CROSS_SECTIONS
100
AcDbLine
 10
5877.999723
 20
-946.000053
 30
0.0
 11
5877.9999
 21
-946.000052
 31
0.0
  0
LINE
  5
279
330
18
100
AcDbEntity
  8
CROSS_SECTIONS
100
AcDbLine
 10
5930.000281
 20
-946.000051
 30
0.0
 11
5930.000458
 21
-946.000052
 31
0.0
  0
LINE
  5
27A
330
18
100
AcDbEntity
  8
CROSS_SECTIONS
100
AcDbLine
 10
5929.999542
 20
-946.000052
 30
0.0
 11
5929.999719
 21
-946.000051
 31
0.0
  0
LINE
  5
27B
330
18
100
AcDbEntity
  8
CROSS_SECTIONS
100
AcDbLine
 10
5930.000458
 20
-946.000052
 30
0.0
 11
5982.0001
 21
-946.000052
 31
0.0
  0
LINE
  5
27C
330
18
100
AcDbEntity
  8
CROSS_SECTIONS
100
AcDbLine
 10
5877.9999
 20
-946.000052
 30
0.0
 11
5929.999542
 21
-946.000052
 31
0.0
  0
LINE
  5
27D
330
18
100
AcDbEntity
  8
CROSS_SECTIONS
100
AcDbLine
 10
5930.000281
 20
-946.000051
 30
0.0
 11
5930.000281
 21
-946.000026
 31
0.0
  0
LINE
  5
27E
330
18
100
AcDbEntity
  8
CROSS_SECTIONS
100
AcDbLine
 10
5929.999719
 20
-946.000051
 30
0.0
 11
5929.999719
 21
-946.000026
 31
0.0
  0
LINE
  5
27F
330
18
100
AcDbEntity
  8
CROSS_SECTIONS
100
AcDbLine
 10
5930.000281
 20
-946.000026
 30
0.0
 11
5930.000281
 21
-946.0
 31
0.0
  0
LINE
  5
280
330
18
100
AcDbEntity
  8
CROSS_SECTIONS
100
AcDbLine
 10
5929.999719
 20
-946.000026
 30
0.0
 11
5929.999719
 21
-946.0
 31
0.0
  0
TEXT
  5
281
330
18
100
AcDbEntity
  8
CROSS_SECTIONS
100
AcDbText
 10
5875.618895
 20
-1589.060838
 30
0.0
 40
48.126316
  1
400
  7
Arial
100
AcDbText
  0
LINE
  5
282
330
18
100
AcDbEntity
  8
CROSS_SECTIONS
100
AcDbLine
 10
5930.0
 20
-1619.585911
 30
0.0
 11
5942.774399
 21
-1619.585911
 31
0.0
  0
LINE
  5
283
330
18
100
AcDbEntity
  8
CROSS_SECTIONS
100
AcDbLine
 10
5917.225601
 20
-1619.585911
 30
0.0
 11
5930.0
 21
-1619.585911
 31
0.0
  0
LINE
  5
284
330
18
100
AcDbEntity
  8
CROSS_SECTIONS
100
AcDbLine
 10
5942.774399
 20
-1619.585911
 30
0.0
 11
5973.376804
 21
-1619.585911
 31
0.0
  0
LINE
  5
285
330
18
100
AcDbEntity
  8
CROSS_SECTIONS
100
AcDbLine
 10
5886.623196
 20
-1619.585911
 30
0.0
 11
5917.225601
 21
-1619.585911
 31
0.0
  0
LINE
  5
286
330
18
100
AcDbEntity
  8
CROSS_SECTIONS
100
AcDbLine
 10
5973.376804
 20
-1619.585911
 30
0.0
 11
5986.151203
 21
-1619.585911
 31
0.0
  0
LINE
  5
287
330
18
100
AcDbEntity
  8
CROSS_SECTIONS
100
AcDbLine
 10
5873.848797
 20
-1619.585911
 30
0.0
 11
5886.623196
 21
-1619.585911
 31
0.0
  0
LINE
  5
288
330
18
100
AcDbEntity
  8
CROSS_SECTIONS
100
AcDbLine
 10
5986.151203
 20
-1619.585911
 30
0.0
 11
6002.256014
 21
-1527.022337
 31
0.0
  0
LINE
  5
289
330
18
100
AcDbEntity
  8
CROSS_SECTIONS
100
AcDbLine
 10
5857.743986
 20
-1527.022337
 30
0.0
 11
5873.848797
 21
-1619.585911
 31
0.0
  0
LINE
  5
28A
330
18
100
AcDbEntity
  8
CROSS_SECTIONS
100
AcDbLine
 10
6002.256014
 20
-1527.022337
 30
0.0
 11
6021.359107
 21
-1417.647766
 31
0.0
  0
LINE
  5
28B
330
18
100
AcDbEntity
  8
CROSS_SECTIONS
100
AcDbLine
 10
5838.640893
 20
-1417.647766
 30
0.0
 11
5857.743986
 21
-1527.022337
 31
0.0
  0
LINE
  5
28C
330
18
100
AcDbEntity
  8
CROSS_SECTIONS
100
AcDbLine
 10
6021.359107
 20
-1417.647766
 30
0.0
 11
6037.463918
 21
-1325.084192
 31
0.0
  0
LINE
  5
28D
330
18
100
AcDbEntity
  8
CROSS_SECTIONS
100
AcDbLine
 10
5822.536082
 20
-1325.084192
 30
0.0
 11
5838.640893
 21
-1417.647766
 31
0.0
  0
LINE
  5
28E
330
18
100
AcDbEntity
  8
CROSS_SECTIONS
100
AcDbLine
 10
6021.359107
 20
-1325.006014
 30
0.0
 11
6037.463918
 21
-1325.084192
 31
0.0
  0
LINE
  5
28F
330
18
100
AcDbEntity
  8
CROSS_SECTIONS
100
AcDbLine
 10
5822.536082
 20
-1325.084192
 30
0.0
 11
5838.640893
 21
-1325.006014
 31
0.0
  0
LINE
  5
290
330
18
100
AcDbEntity
  8
CROSS_SECTIONS
100
AcDbLine
 10
6002.256014
 20
-1324.818729
 30
0.0
 11
6021.359107
 21
-1325.006014
 31
0.0
  0
LINE
  5
291
330
18
100
AcDbEntity
  8
CROSS_SECTIONS
100
AcDbLine
 10
5838.640893
 20
-1325.006014
 30
0.0
 11
5857.743986
 21
-1324.818729
 31
0.0
  0
LINE
  5
292
330
18
100
AcDbEntity
  8
CROSS_SECTIONS
100
AcDbLine
 10
5986.151203
 20
-1324.74055
 30
0.0
 11
6002.256014
 21
-1324.818729
 31
0.0
  0
LINE
  5
293
330
18
100
AcDbEntity
  8
CROSS_SECTIONS
100
AcDbLine
 10
5857.743986
 20
-1324.818729
 30
0.0
 11
5873.848797
 21
-1324.74055
 31
0.0
  0
LINE
  5
294
330
18
100
AcDbEntity
  8
CROSS_SECTIONS
100
AcDbLine
 10
5986.151203
 20
-1324.74055
 30
0.0
 11
5986.151203
 21
-1322.410825
 31
0.0
  0
LINE
  5
295
330
18
100
AcDbEntity
  8
CROSS_SECTIONS
100
AcDbLine
 10
5873.848797
 20
-1324.74055
 30
0.0
 11
5873.848797
 21
-1322.410825
 31
0.0
  0
LINE
  5
296
330
18
100
AcDbEntity
  8
CROSS_SECTIONS
100
AcDbLine
 10
5986.151203
 20
-1322.410825
 30
0.0
 11
5986.151203
 21
-1316.829725
 31
0.0
  0
LINE
  5
297
330
18
100
AcDbEntity
  8
CROSS_SECTIONS
100
AcDbLine
 10
5873.848797
 20
-1322.410825
 30
0.0
 11
5873.848797
 21
-1316.829725
 31
0.0
  0
LINE
  5
298
330
18
100
AcDbEntity
  8
CROSS_SECTIONS
100
AcDbLine
 10
5986.151203
 20
-1316.829725
 30
0.0
 11
5986.151203
 21
-1314.5
 31
0.0
  0
LINE
  5
299
330
18
100
AcDbEntity
  8
CROSS_SECTIONS
100
AcDbLine
 10
5873.848797
 20
-1316.829725
 30
0.0
 11
5873.848797
 21
-1314.5
 31
0.0
  0
TEXT
  5
29A
330
18
100
AcDbEntity
  8
CROSS_SECTIONS
100
AcDbText
 10
5876.468023
 20
-1957.560838
 30
0.0
 40
48.126316
  1
600
  7
Arial
100
AcDbText
  0
LINE
  5
29B
330
18
100
AcDbEntity
  8
CROSS_SECTIONS
100
AcDbLine
 10
5930.0
 20
-1992.526829
 30
0.0
 11
5959.786687
 21
-1992.526829
 31
0.0
  0
LINE
  5
29C
330
18
100
AcDbEntity
  8
CROSS_SECTIONS
100
AcDbLine
 10
5900.213313
 20
-1992.526829
 30
0.0
 11
5930.0
 21
-1992.526829
 31
0.0
  0
LINE
  5
29D
330
18
100
AcDbEntity
  8
CROSS_SECTIONS
100
AcDbLine
 10
6005.28628
 20
-1992.526829
 30
0.0
 11
6035.072967
 21
-1992.526829
 31
0.0
  0
LINE
  5
29E
330
18
100
AcDbEntity
  8
CROSS_SECTIONS
100
AcDbLine
 10
5824.927033
 20
-1992.526829
 30
0.0
 11
5854.71372
 21
-1992.526829
 31
0.0
  0
LINE
  5
29F
330
18
100
AcDbEntity
  8
CROSS_SECTIONS
100
AcDbLine
 10
5959.786687
 20
-1992.526829
 30
0.0
 11
6005.28628
 21
-1992.526829
 31
0.0
  0
LINE
  5
2A0
330
18
100
AcDbEntity
  8
CROSS_SECTIONS
100
AcDbLine
 10
5854.71372
 20
-1992.526829
 30
0.0
 11
5900.213313
 21
-1992.526829
 31
0.0
  0
LINE
  5
2A1
330
18
100
AcDbEntity
  8
CROSS_SECTIONS
100
AcDbLine
 10
6035.072967
 20
-1992.526829
 30
0.0
 11
6046.260976
 21
-1928.921341
 31
0.0
  0
LINE
  5
2A2
330
18
100
AcDbEntity
  8
CROSS_SECTIONS
100
AcDbLine
 10
5813.739024
 20
-1928.921341
 30
0.0
 11
5824.927033
 21
-1992.526829
 31
0.0
  0
LINE
  5
2A3
330
18
100
AcDbEntity
  8
CROSS_SECTIONS
100
AcDbLine
 10
6074.663415
 20
-1766.303455
 30
0.0
 11
6085.851423
 21
-1702.697967
 31
0.0
  0
LINE
  5
2A4
330
18
100
AcDbEntity
  8
CROSS_SECTIONS
100
AcDbLine
 10
5774.148577
 20
-1702.697967
 30
0.0
 11
5785.336585
 21
-1766.303455
 31
0.0
  0
LINE
  5
2A5
330
18
100
AcDbEntity
  8
CROSS_SECTIONS
100
AcDbLine
 10
6046.260976
 20
-1928.921341
 30
0.0
 11
6074.663415
 21
-1766.303455
 31
0.0
  0
LINE
  5
2A6
330
18
100
AcDbEntity
  8
CROSS_SECTIONS
100
AcDbLine
 10
5785.336585
 20
-1766.303455
 30
0.0
 11
5813.739024
 21
-1928.921341
 31
0.0
  0
LINE
  5
2A7
330
18
100
AcDbEntity
  8
CROSS_SECTIONS
100
AcDbLine
 10
6074.663415
 20
-1702.553963
 30
0.0
 11
6085.851423
 21
-1702.697967
 31
0.0
  0
LINE
  5
2A8
330
18
100
AcDbEntity
  8
CROSS_SECTIONS
100
AcDbLine
 10
5774.148577
 20
-1702.697967
 30
0.0
 11
5785.336585
 21
-1702.553963
 31
0.0
  0
LINE
  5
2A9
330
18
100
AcDbEntity
  8
CROSS_SECTIONS
100
AcDbLine
 10
6035.072967
 20
-1702.131504
 30
0.0
 11
6046.260976
 21
-1702.275508
 31
0.0
  0
LINE
  5
2AA
330
18
100
AcDbEntity
  8
CROSS_SECTIONS
100
AcDbLine
 10
5813.739024
 20
-1702.275508
 30
0.0
 11
5824.927033
 21
-1702.131504
 31
0.0
  0
LINE
  5
2AB
330
18
100
AcDbEntity
  8
CROSS_SECTIONS
100
AcDbLine
 10
6046.260976
 20
-1702.275508
 30
0.0
 11
6074.663415
 21
-1702.553963
 31
0.0
  0
LINE
  5
2AC
330
18
100
AcDbEntity
  8
CROSS_SECTIONS
100
AcDbLine
 10
5785.336585
 20
-1702.553963
 30
0.0
 11
5813.739024
 21
-1702.275508
 31
0.0
  0
LINE
  5
2AD
330
18
100
AcDbEntity
  8
CROSS_SECTIONS
100
AcDbLine
 10
6035.072967
 20
-1702.131504
 30
0.0
 11
6035.072967
 21
-1696.714736
 31
0.0
  0
LINE
  5
2AE
330
18
100
AcDbEntity
  8
CROSS_SECTIONS
100
AcDbLine
 10
5824.927033
 20
-1702.131504
 30
0.0
 11
5824.927033
 21
-1696.714736
 31
0.0
  0
LINE
  5
2AF
330
18
100
AcDbEntity
  8
CROSS_SECTIONS
100
AcDbLine
 10
6035.072967
 20
-1688.416768
 30
0.0
 11
6035.072967
 21
-1683.0
 31
0.0
  0
LINE
  5
2B0
330
18
100
AcDbEntity
  8
CROSS_SECTIONS
100
AcDbLine
 10
5824.927033
 20
-1688.416768
 30
0.0
 11
5824.927033
 21
-1683.0
 31
0.0
  0
LINE
  5
2B1
330
18
100
AcDbEntity
  8
CROSS_SECTIONS
100
AcDbLine
 10
6035.072967
 20
-1696.714736
 30
0.0
 11
6035.072967
 21
-1688.416768
 31
0.0
  0
LINE
  5
2B2
330
18
100
AcDbEntity
  8
CROSS_SECTIONS
100
AcDbLine
 10
5824.927033
 20
-1696.714736
 30
0.0
 11
5824.927033
 21
-1688.416768
 31
0.0
  0
TEXT
  5
2B3
330
18
100
AcDbEntity
  8
CROSS_SECTIONS
100
AcDbText
 10
5876.56032
 20
-2326.060838
 30
0.0
 40
48.126316
  1
800
  7
Arial
100
AcDbText
  0
LINE
  5
2B4
330
18
100
AcDbEntity
  8
CROSS_SECTIONS
100
AcDbLine
 10
5930.0
 20
-2364.929268
 30
0.0
 11
5980.008841
 21
-2364.929268
 31
0.0
  0
LINE
  5
2B5
330
18
100
AcDbEntity
  8
CROSS_SECTIONS
100
AcDbLine
 10
5879.991159
 20
-2364.929268
 30
0.0
 11
5930.0
 21
-2364.929268
 31
0.0
  0
LINE
  5
2B6
330
18
100
AcDbEntity
  8
CROSS_SECTIONS
100
AcDbLine
 10
5980.008841
 20
-2364.929268
 30
0.0
 11
6027.950305
 21
-2364.929268
 31
0.0
  0
LINE
  5
2B7
330
18
100
AcDbEntity
  8
CROSS_SECTIONS
100
AcDbLine
 10
5832.049695
 20
-2364.929268
 30
0.0
 11
5879.991159
 21
-2364.929268
 31
0.0
  0
LINE
  5
2B8
330
18
100
AcDbEntity
  8
CROSS_SECTIONS
100
AcDbLine
 10
6027.950305
 20
-2364.929268
 30
0.0
 11
6077.959146
 21
-2364.929268
 31
0.0
  0
LINE
  5
2B9
330
18
100
AcDbEntity
  8
CROSS_SECTIONS
100
AcDbLine
 10
5782.040854
 20
-2364.929268
 30
0.0
 11
5832.049695
 21
-2364.929268
 31
0.0
  0
LINE
  5
2BA
330
18
100
AcDbEntity
  8
CROSS_SECTIONS
100
AcDbLine
 10
6077.959146
 20
-2364.929268
 30
0.0
 11
6096.742683
 21
-2258.142073
 31
0.0
  0
LINE
  5
2BB
330
18
100
AcDbEntity
  8
CROSS_SECTIONS
100
AcDbLine
 10
5763.257317
 20
-2258.142073
 30
0.0
 11
5782.040854
 21
-2364.929268
 31
0.0
  0
LINE
  5
2BC
330
18
100
AcDbEntity
  8
CROSS_SECTIONS
100
AcDbLine
 10
6096.742683
 20
-2258.142073
 30
0.0
 11
6109.547561
 21
-2185.871341
 31
0.0
  0
LINE
  5
2BD
330
18
100
AcDbEntity
  8
CROSS_SECTIONS
100
AcDbLine
 10
5750.452439
 20
-2185.871341
 30
0.0
 11
5763.257317
 21
-2258.142073
 31
0.0
  0
LINE
  5
2BE
330
18
100
AcDbEntity
  8
CROSS_SECTIONS
100
AcDbLine
 10
6109.547561
 20
-2185.871341
 30
0.0
 11
6128.331098
 21
-2079.084146
 31
0.0
  0
LINE
  5
2BF
330
18
100
AcDbEntity
  8
CROSS_SECTIONS
100
AcDbLine
 10
5731.668902
 20
-2079.084146
 30
0.0
 11
5750.452439
 21
-2185.871341
 31
0.0
  0
LINE
  5
2C0
330
18
100
AcDbEntity
  8
CROSS_SECTIONS
100
AcDbLine
 10
6109.547561
 20
-2078.842378
 30
0.0
 11
6128.331098
 21
-2079.084146
 31
0.0
  0
LINE
  5
2C1
330
18
100
AcDbEntity
  8
CROSS_SECTIONS
100
AcDbLine
 10
5731.668902
 20
-2079.084146
 30
0.0
 11
5750.452439
 21
-2078.842378
 31
0.0
  0
LINE
  5
2C2
330
18
100
AcDbEntity
  8
CROSS_SECTIONS
100
AcDbLine
 10
6096.742683
 20
-2078.6375
 30
0.0
 11
6109.547561
 21
-2078.842378
 31
0.0
  0
LINE
  5
2C3
330
18
100
AcDbEntity
  8
CROSS_SECTIONS
100
AcDbLine
 10
5750.452439
 20
-2078.842378
 30
0.0
 11
5763.257317
 21
-2078.6375
 31
0.0
  0
LINE
  5
2C4
330
18
100
AcDbEntity
  8
CROSS_SECTIONS
100
AcDbLine
 10
6077.959146
 20
-2078.395732
 30
0.0
 11
6096.742683
 21
-2078.6375
 31
0.0
  0
LINE
  5
2C5
330
18
100
AcDbEntity
  8
CROSS_SECTIONS
100
AcDbLine
 10
5763.257317
 20
-2078.6375
 30
0.0
 11
5782.040854
 21
-2078.395732
 31
0.0
  0
LINE
  5
2C6
330
18
100
AcDbEntity
  8
CROSS_SECTIONS
100
AcDbLine
 10
6077.959146
 20
-2078.395732
 30
0.0
 11
6077.959146
 21
-2069.301524
 31
0.0
  0
LINE
  5
2C7
330
18
100
AcDbEntity
  8
CROSS_SECTIONS
100
AcDbLine
 10
5782.040854
 20
-2078.395732
 30
0.0
 11
5782.040854
 21
-2069.301524
 31
0.0
  0
LINE
  5
2C8
330
18
100
AcDbEntity
  8
CROSS_SECTIONS
100
AcDbLine
 10
6077.959146
 20
-2069.301524
 30
0.0
 11
6077.959146
 21
-2060.594207
 31
0.0
  0
LINE
  5
2C9
330
18
100
AcDbEntity
  8
CROSS_SECTIONS
100
AcDbLine
 10
5782.040854
 20
-2069.301524
 30
0.0
 11
5782.040854
 21
-2060.594207
 31
0.0
  0
LINE
  5
2CA
330
18
100
AcDbEntity
  8
CROSS_SECTIONS
100
AcDbLine
 10
6077.959146
 20
-2060.594207
 30
0.0
 11
6077.959146
 21
-2051.5
 31
0.0
  0
LINE
  5
2CB
330
18
100
AcDbEntity
  8
CROSS_SECTIONS
100
AcDbLine
 10
5782.040854
 20
-2060.594207
 30
0.0
 11
5782.040854
 21
-2051.5
 31
0.0
  0
TEXT
  5
2CC
330
18
100
AcDbEntity
  8
CROSS_SECTIONS
100
AcDbText
 10
5860.057703
 20
-2694.560838
 30
0.0
 40
48.126316
  1
1000
  7
Arial
100
AcDbText
  0
LINE
  5
2CD
330
18
100
AcDbEntity
  8
CROSS_SECTIONS
100
AcDbLine
 10
5930.0
 20
-2737.204277
 30
0.0
 11
5937.594603
 21
-2737.204277
 31
0.0
  0
LINE
  5
2CE
330
18
100
AcDbEntity
  8
CROSS_SECTIONS
100
AcDbLine
 10
5922.405397
 20
-2737.204277
 30
0.0
 11
5930.0
 21
-2737.204277
 31
0.0
  0
LINE
  5
2CF
330
18
100
AcDbEntity
  8
CROSS_SECTIONS
100
AcDbLine
 10
6111.83167
 20
-2737.204277
 30
0.0
 11
6119.426273
 21
-2737.204277
 31
0.0
  0
LINE
  5
2D0
330
18
100
AcDbEntity
  8
CROSS_SECTIONS
100
AcDbLine
 10
5740.573727
 20
-2737.204277
 30
0.0
 11
5748.16833
 21
-2737.204277
 31
0.0
  0
LINE
  5
2D1
330
18
100
AcDbEntity
  8
CROSS_SECTIONS
100
AcDbLine
 10
5937.594603
 20
-2737.204277
 30
0.0
 11
6111.83167
 21
-2737.204277
 31
0.0
  0
LINE
  5
2D2
330
18
100
AcDbEntity
  8
CROSS_SECTIONS
100
AcDbLine
 10
5748.16833
 20
-2737.204277
 30
0.0
 11
5922.405397
 21
-2737.204277
 31
0.0
  0
LINE
  5
2D3
330
18
100
AcDbEntity
  8
CROSS_SECTIONS
100
AcDbLine
 10
6119.426273
 20
-2737.204277
 30
0.0
 11
6121.15224
 21
-2727.53055
 31
0.0
  0
LINE
  5
2D4
330
18
100
AcDbEntity
  8
CROSS_SECTIONS
100
AcDbLine
 10
5738.84776
 20
-2727.53055
 30
0.0
 11
5740.573727
 21
-2737.204277
 31
0.0
  0
LINE
  5
2D5
330
18
100
AcDbEntity
  8
CROSS_SECTIONS
100
AcDbLine
 10
6167.689919
 20
-2464.871894
 30
0.0
 11
6169.415886
 21
-2455.198167
 31
0.0
  0
LINE
  5
2D6
330
18
100
AcDbEntity
  8
CROSS_SECTIONS
100
AcDbLine
 10
5690.584114
 20
-2455.198167
 30
0.0
 11
5692.310081
 21
-2464.871894
 31
0.0
  0
LINE
  5
2D7
330
18
100
AcDbEntity
  8
CROSS_SECTIONS
100
AcDbLine
 10
6121.15224
 20
-2727.53055
 30
0.0
 11
6167.689919
 21
-2464.871894
 31
0.0
  0
LINE
  5
2D8
330
18
100
AcDbEntity
  8
CROSS_SECTIONS
100
AcDbLine
 10
5692.310081
 20
-2464.871894
 30
0.0
 11
5738.84776
 21
-2727.53055
 31
0.0
  0
LINE
  5
2D9
330
18
100
AcDbEntity
  8
CROSS_SECTIONS
100
AcDbLine
 10
6167.689919
 20
-2455.173931
 30
0.0
 11
6169.415886
 21
-2455.198167
 31
0.0
  0
LINE
  5
2DA
330
18
100
AcDbEntity
  8
CROSS_SECTIONS
100
AcDbLine
 10
5690.584114
 20
-2455.198167
 30
0.0
 11
5692.310081
 21
-2455.173931
 31
0.0
  0
LINE
  5
2DB
330
18
100
AcDbEntity
  8
CROSS_SECTIONS
100
AcDbLine
 10
6119.426273
 20
-2454.405092
 30
0.0
 11
6121.15224
 21
-2454.429328
 31
0.0
  0
LINE
  5
2DC
330
18
100
AcDbEntity
  8
CROSS_SECTIONS
100
AcDbLine
 10
5738.84776
 20
-2454.429328
 30
0.0
 11
5740.573727
 21
-2454.405092
 31
0.0
  0
LINE
  5
2DD
330
18
100
AcDbEntity
  8
CROSS_SECTIONS
100
AcDbLine
 10
6121.15224
 20
-2454.429328
 30
0.0
 11
6167.689919
 21
-2455.173931
 31
0.0
  0
LINE
  5
2DE
330
18
100
AcDbEntity
  8
CROSS_SECTIONS
100
AcDbLine
 10
5692.310081
 20
-2455.173931
 30
0.0
 11
5738.84776
 21
-2454.429328
 31
0.0
  0
LINE
  5
2DF
330
18
100
AcDbEntity
  8
CROSS_SECTIONS
100
AcDbLine
 10
6119.426273
 20
-2454.405092
 30
0.0
 11
6119.426273
 21
-2453.025356
 31
0.0
  0
LINE
  5
2E0
330
18
100
AcDbEntity
  8
CROSS_SECTIONS
100
AcDbLine
 10
5740.573727
 20
-2454.405092
 30
0.0
 11
5740.573727
 21
-2453.025356
 31
0.0
  0
LINE
  5
2E1
330
18
100
AcDbEntity
  8
CROSS_SECTIONS
100
AcDbLine
 10
6119.426273
 20
-2421.379735
 30
0.0
 11
6119.426273
 21
-2420.0
 31
0.0
  0
LINE
  5
2E2
330
18
100
AcDbEntity
  8
CROSS_SECTIONS
100
AcDbLine
 10
5740.573727
 20
-2421.379735
 30
0.0
 11
5740.573727
 21
-2420.0
 31
0.0
  0
LINE
  5
2E3
330
18
100
AcDbEntity
  8
CROSS_SECTIONS
100
AcDbLine
 10
6119.426273
 20
-2453.025356
 30
0.0
 11
6119.426273
 21
-2421.379735
 31
0.0
  0
LINE
  5
2E4
330
18
100
AcDbEntity
  8
CROSS_SECTIONS
100
AcDbLine
 10
5740.573727
 20
-2453.025356
 30
0.0
 11
5740.573727
 21
-2421.379735
 31
0.0
  0
TEXT
  5
2E5
330
18
100
AcDbEntity
  8
CROSS_SECTIONS
100
AcDbText
 10
5860.057703
 20
-3063.060838
 30
0.0
 40
48.126316
  1
1200
  7
Arial
100
AcDbText
  0
LINE
  5
2E6
330
18
100
AcDbEntity
  8
CROSS_SECTIONS
100
AcDbLine
 10
5930.0
 20
-3108.107536
 30
0.0
 11
6026.942872
 21
-3108.107536
 31
0.0
  0
LINE
  5
2E7
330
18
100
AcDbEntity
  8
CROSS_SECTIONS
100
AcDbLine
 10
5833.057128
 20
-3108.107536
 30
0.0
 11
5930.0
 21
-3108.107536
 31
0.0
  0
LINE
  5
2E8
330
18
100
AcDbEntity
  8
CROSS_SECTIONS
100
AcDbLine
 10
6048.674847
 20
-3108.107536
 30
0.0
 11
6145.617719
 21
-3108.107536
 31
0.0
  0
LINE
  5
2E9
330
18
100
AcDbEntity
  8
CROSS_SECTIONS
100
AcDbLine
 10
5714.382281
 20
-3108.107536
 30
0.0
 11
5811.325153
 21
-3108.107536
 31
0.0
  0
LINE
  5
2EA
330
18
100
AcDbEntity
  8
CROSS_SECTIONS
100
AcDbLine
 10
6026.942872
 20
-3108.107536
 30
0.0
 11
6048.674847
 21
-3108.107536
 31
0.0
  0
LINE
  5
2EB
330
18
100
AcDbEntity
  8
CROSS_SECTIONS
100
AcDbLine
 10
5811.325153
 20
-3108.107536
 30
0.0
 11
5833.057128
 21
-3108.107536
 31
0.0
  0
LINE
  5
2EC
330
18
100
AcDbEntity
  8
CROSS_SECTIONS
100
AcDbLine
 10
6145.617719
 20
-3108.107536
 30
0.0
 11
6167.649185
 21
-2984.625255
 31
0.0
  0
LINE
  5
2ED
330
18
100
AcDbEntity
  8
CROSS_SECTIONS
100
AcDbLine
 10
5692.350815
 20
-2984.625255
 30
0.0
 11
5714.382281
 21
-3108.107536
 31
0.0
  0
LINE
  5
2EE
330
18
100
AcDbEntity
  8
CROSS_SECTIONS
100
AcDbLine
 10
6173.453666
 20
-2951.864766
 30
0.0
 11
6195.485132
 21
-2828.382485
 31
0.0
  0
LINE
  5
2EF
330
18
100
AcDbEntity
  8
CROSS_SECTIONS
100
AcDbLine
 10
5664.514868
 20
-2828.382485
 30
0.0
 11
5686.546334
 21
-2951.864766
 31
0.0
  0
LINE
  5
2F0
330
18
100
AcDbEntity
  8
CROSS_SECTIONS
100
AcDbLine
 10
6167.649185
 20
-2984.625255
 30
0.0
 11
6173.453666
 21
-2951.864766
 31
0.0
  0
LINE
  5
2F1
330
18
100
AcDbEntity
  8
CROSS_SECTIONS
100
AcDbLine
 10
5686.546334
 20
-2951.864766
 30
0.0
 11
5692.350815
 21
-2984.625255
 31
0.0
  0
LINE
  5
2F2
330
18
100
AcDbEntity
  8
CROSS_SECTIONS
100
AcDbLine
 10
6173.453666
 20
-2828.073116
 30
0.0
 11
6195.485132
 21
-2828.382485
 31
0.0
  0
LINE
  5
2F3
330
18
100
AcDbEntity
  8
CROSS_SECTIONS
100
AcDbLine
 10
5664.514868
 20
-2828.382485
 30
0.0
 11
5686.546334
 21
-2828.073116
 31
0.0
  0
LINE
  5
2F4
330
18
100
AcDbEntity
  8
CROSS_SECTIONS
100
AcDbLine
 10
6145.617719
 20
-2827.670876
 30
0.0
 11
6167.649185
 21
-2827.980244
 31
0.0
  0
LINE
  5
2F5
330
18
100
AcDbEntity
  8
CROSS_SECTIONS
100
AcDbLine
 10
5692.350815
 20
-2827.980244
 30
0.0
 11
5714.382281
 21
-2827.670876
 31
0.0
  0
LINE
  5
2F6
330
18
100
AcDbEntity
  8
CROSS_SECTIONS
100
AcDbLine
 10
6167.649185
 20
-2827.980244
 30
0.0
 11
6173.453666
 21
-2828.073116
 31
0.0
  0
LINE
  5
2F7
330
18
100
AcDbEntity
  8
CROSS_SECTIONS
100
AcDbLine
 10
5686.546334
 20
-2828.073116
 30
0.0
 11
5692.350815
 21
-2827.980244
 31
0.0
  0
LINE
  5
2F8
330
18
100
AcDbEntity
  8
CROSS_SECTIONS
100
AcDbLine
 10
6145.617719
 20
-2827.670876
 30
0.0
 11
6145.617719
 21
-2810.058961
 31
0.0
  0
LINE
  5
2F9
330
18
100
AcDbEntity
  8
CROSS_SECTIONS
100
AcDbLine
 10
5714.382281
 20
-2827.670876
 30
0.0
 11
5714.382281
 21
-2810.058961
 31
0.0
  0
LINE
  5
2FA
330
18
100
AcDbEntity
  8
CROSS_SECTIONS
100
AcDbLine
 10
6145.617719
 20
-2806.111914
 30
0.0
 11
6145.617719
 21
-2788.5
 31
0.0
  0
LINE
  5
2FB
330
18
100
AcDbEntity
  8
CROSS_SECTIONS
100
AcDbLine
 10
5714.382281
 20
-2806.111914
 30
0.0
 11
5714.382281
 21
-2788.5
 31
0.0
  0
LINE
  5
2FC
330
18
100
AcDbEntity
  8
CROSS_SECTIONS
100
AcDbLine
 10
6145.617719
 20
-2810.058961
 30
0.0
 11
6145.617719
 21
-2806.111914
 31
0.0
  0
LINE
  5
2FD
330
18
100
AcDbEntity
  8
CROSS_SECTIONS
100
AcDbLine
 10
5714.382281
 20
-2810.058961
 30
0.0
 11
5714.382281
 21
-2806.111914
 31
0.0
  0
TEXT
  5
2FE
330
18
100
AcDbEntity
  8
CROSS_SECTIONS
100
AcDbText
 10
5860.057703
 20
-3431.560838
 30
0.0
 40
48.126316
  1
1400
  7
Arial
100
AcDbText
  0
LINE
  5
2FF
330
18
100
AcDbEntity
  8
CROSS_SECTIONS
100
AcDbLine
 10
5930.0
 20
-3479.010794
 30
0.0
 11
5963.058859
 21
-3479.010794
 31
0.0
  0
LINE
  5
300
330
18
100
AcDbEntity
  8
CROSS_SECTIONS
100
AcDbLine
 10
5896.941141
 20
-3479.010794
 30
0.0
 11
5930.0
 21
-3479.010794
 31
0.0
  0
LINE
  5
301
330
18
100
AcDbEntity
  8
CROSS_SECTIONS
100
AcDbLine
 10
5963.058859
 20
-3479.010794
 30
0.0
 11
6138.750305
 21
-3479.010794
 31
0.0
  0
LINE
  5
302
330
18
100
AcDbEntity
  8
CROSS_SECTIONS
100
AcDbLine
 10
5721.249695
 20
-3479.010794
 30
0.0
 11
5896.941141
 21
-3479.010794
 31
0.0
  0
LINE
  5
303
330
18
100
AcDbEntity
  8
CROSS_SECTIONS
100
AcDbLine
 10
6138.750305
 20
-3479.010794
 30
0.0
 11
6171.809165
 21
-3479.010794
 31
0.0
  0
LINE
  5
304
330
18
100
AcDbEntity
  8
CROSS_SECTIONS
100
AcDbLine
 10
5688.190835
 20
-3479.010794
 30
0.0
 11
5721.249695
 21
-3479.010794
 31
0.0
  0
LINE
  5
305
330
18
100
AcDbEntity
  8
CROSS_SECTIONS
100
AcDbLine
 10
6171.809165
 20
-3479.010794
 30
0.0
 11
6179.3222
 21
-3436.901629
 31
0.0
  0
LINE
  5
306
330
18
100
AcDbEntity
  8
CROSS_SECTIONS
100
AcDbLine
 10
5680.6778
 20
-3436.901629
 30
0.0
 11
5688.190835
 21
-3479.010794
 31
0.0
  0
LINE
  5
307
330
18
100
AcDbEntity
  8
CROSS_SECTIONS
100
AcDbLine
 10
6179.3222
 20
-3436.901629
 30
0.0
 11
6214.041344
 21
-3243.675967
 31
0.0
  0
LINE
  5
308
330
18
100
AcDbEntity
  8
CROSS_SECTIONS
100
AcDbLine
 10
5645.958656
 20
-3243.675967
 30
0.0
 11
5680.6778
 21
-3436.901629
 31
0.0
  0
LINE
  5
309
330
18
100
AcDbEntity
  8
CROSS_SECTIONS
100
AcDbLine
 10
6214.041344
 20
-3243.675967
 30
0.0
 11
6221.554379
 21
-3201.566802
 31
0.0
  0
LINE
  5
30A
330
18
100
AcDbEntity
  8
CROSS_SECTIONS
100
AcDbLine
 10
5638.445621
 20
-3201.566802
 30
0.0
 11
5645.958656
 21
-3243.675967
 31
0.0
  0
LINE
  5
30B
330
18
100
AcDbEntity
  8
CROSS_SECTIONS
100
AcDbLine
 10
6214.041344
 20
-3201.461303
 30
0.0
 11
6221.554379
 21
-3201.566802
 31
0.0
  0
LINE
  5
30C
330
18
100
AcDbEntity
  8
CROSS_SECTIONS
100
AcDbLine
 10
5638.445621
 20
-3201.566802
 30
0.0
 11
5645.958656
 21
-3201.461303
 31
0.0
  0
LINE
  5
30D
330
18
100
AcDbEntity
  8
CROSS_SECTIONS
100
AcDbLine
 10
6179.3222
 20
-3201.042159
 30
0.0
 11
6214.041344
 21
-3201.461303
 31
0.0
  0
LINE
  5
30E
330
18
100
AcDbEntity
  8
CROSS_SECTIONS
100
AcDbLine
 10
5645.958656
 20
-3201.461303
 30
0.0
 11
5680.6778
 21
-3201.042159
 31
0.0
  0
LINE
  5
30F
330
18
100
AcDbEntity
  8
CROSS_SECTIONS
100
AcDbLine
 10
6171.809165
 20
-3200.93666
 30
0.0
 11
6179.3222
 21
-3201.042159
 31
0.0
  0
LINE
  5
310
330
18
100
AcDbEntity
  8
CROSS_SECTIONS
100
AcDbLine
 10
5680.6778
 20
-3201.042159
 30
0.0
 11
5688.190835
 21
-3200.93666
 31
0.0
  0
LINE
  5
311
330
18
100
AcDbEntity
  8
CROSS_SECTIONS
100
AcDbLine
 10
6171.809165
 20
-3200.93666
 30
0.0
 11
6171.809165
 21
-3194.930754
 31
0.0
  0
LINE
  5
312
330
18
100
AcDbEntity
  8
CROSS_SECTIONS
100
AcDbLine
 10
5688.190835
 20
-3200.93666
 30
0.0
 11
5688.190835
 21
-3194.930754
 31
0.0
  0
LINE
  5
313
330
18
100
AcDbEntity
  8
CROSS_SECTIONS
100
AcDbLine
 10
6171.809165
 20
-3194.930754
 30
0.0
 11
6171.809165
 21
-3163.005906
 31
0.0
  0
LINE
  5
314
330
18
100
AcDbEntity
  8
CROSS_SECTIONS
100
AcDbLine
 10
5688.190835
 20
-3194.930754
 30
0.0
 11
5688.190835
 21
-3163.005906
 31
0.0
  0
LINE
  5
315
330
18
100
AcDbEntity
  8
CROSS_SECTIONS
100
AcDbLine
 10
6171.809165
 20
-3163.005906
 30
0.0
 11
6171.809165
 21
-3157.0
 31
0.0
  0
LINE
  5
316
330
18
100
AcDbEntity
  8
CROSS_SECTIONS
100
AcDbLine
 10
5688.190835
 20
-3163.005906
 30
0.0
 11
5688.190835
 21
-3157.0
 31
0.0
  0
TEXT
  5
317
330
18
100
AcDbEntity
  8
CROSS_SECTIONS
100
AcDbText
 10
5860.057703
 20
-3800.060838
 30
0.0
 40
48.126316
  1
1600
  7
Arial
100
AcDbText
  0
LINE
  5
318
330
18
100
AcDbEntity
  8
CROSS_SECTIONS
100
AcDbLine
 10
5930.0
 20
-3848.9389
 30
0.0
 11
5997.542159
 21
-3848.9389
 31
0.0
  0
LINE
  5
319
330
18
100
AcDbEntity
  8
CROSS_SECTIONS
100
AcDbLine
 10
5862.457841
 20
-3848.9389
 30
0.0
 11
5930.0
 21
-3848.9389
 31
0.0
  0
LINE
  5
31A
330
18
100
AcDbEntity
  8
CROSS_SECTIONS
100
AcDbLine
 10
6119.962729
 20
-3848.9389
 30
0.0
 11
6187.504888
 21
-3848.9389
 31
0.0
  0
LINE
  5
31B
330
18
100
AcDbEntity
  8
CROSS_SECTIONS
100
AcDbLine
 10
5672.495112
 20
-3848.9389
 30
0.0
 11
5740.037271
 21
-3848.9389
 31
0.0
  0
LINE
  5
31C
330
18
100
AcDbEntity
  8
CROSS_SECTIONS
100
AcDbLine
 10
5997.542159
 20
-3848.9389
 30
0.0
 11
6119.962729
 21
-3848.9389
 31
0.0
  0
LINE
  5
31D
330
18
100
AcDbEntity
  8
CROSS_SECTIONS
100
AcDbLine
 10
5740.037271
 20
-3848.9389
 30
0.0
 11
5862.457841
 21
-3848.9389
 31
0.0
  0
LINE
  5
31E
330
18
100
AcDbEntity
  8
CROSS_SECTIONS
100
AcDbLine
 10
6187.504888
 20
-3848.9389
 30
0.0
 11
6200.297352
 21
-3778.16334
 31
0.0
  0
LINE
  5
31F
330
18
100
AcDbEntity
  8
CROSS_SECTIONS
100
AcDbLine
 10
5659.702648
 20
-3778.16334
 30
0.0
 11
5672.495112
 21
-3848.9389
 31
0.0
  0
LINE
  5
320
330
18
100
AcDbEntity
  8
CROSS_SECTIONS
100
AcDbLine
 10
6224.489409
 20
-3643.525051
 30
0.0
 11
6237.281874
 21
-3572.749491
 31
0.0
  0
LINE
  5
321
330
18
100
AcDbEntity
  8
CROSS_SECTIONS
100
AcDbLine
 10
5622.718126
 20
-3572.749491
 30
0.0
 11
5635.510591
 21
-3643.525051
 31
0.0
  0
LINE
  5
322
330
18
100
AcDbEntity
  8
CROSS_SECTIONS
100
AcDbLine
 10
6200.297352
 20
-3778.16334
 30
0.0
 11
6224.489409
 21
-3643.525051
 31
0.0
  0
LINE
  5
323
330
18
100
AcDbEntity
  8
CROSS_SECTIONS
100
AcDbLine
 10
5635.510591
 20
-3643.525051
 30
0.0
 11
5659.702648
 21
-3778.16334
 31
0.0
  0
LINE
  5
324
330
18
100
AcDbEntity
  8
CROSS_SECTIONS
100
AcDbLine
 10
6224.489409
 20
-3572.672505
 30
0.0
 11
6237.281874
 21
-3572.749491
 31
0.0
  0
LINE
  5
325
330
18
100
AcDbEntity
  8
CROSS_SECTIONS
100
AcDbLine
 10
5622.718126
 20
-3572.749491
 30
0.0
 11
5635.510591
 21
-3572.672505
 31
0.0
  0
LINE
  5
326
330
18
100
AcDbEntity
  8
CROSS_SECTIONS
100
AcDbLine
 10
6187.504888
 20
-3572.303462
 30
0.0
 11
6200.297352
 21
-3572.380448
 31
0.0
  0
LINE
  5
327
330
18
100
AcDbEntity
  8
CROSS_SECTIONS
100
AcDbLine
 10
5659.702648
 20
-3572.380448
 30
0.0
 11
5672.495112
 21
-3572.303462
 31
0.0
  0
LINE
  5
328
330
18
100
AcDbEntity
  8
CROSS_SECTIONS
100
AcDbLine
 10
6200.297352
 20
-3572.380448
 30
0.0
 11
6224.489409
 21
-3572.672505
 31
0.0
  0
LINE
  5
329
330
18
100
AcDbEntity
  8
CROSS_SECTIONS
100
AcDbLine
 10
5635.510591
 20
-3572.672505
 30
0.0
 11
5659.702648
 21
-3572.380448
 31
0.0
  0
LINE
  5
32A
330
18
100
AcDbEntity
  8
CROSS_SECTIONS
100
AcDbLine
 10
6187.504888
 20
-3572.303462
 30
0.0
 11
6187.504888
 21
-3560.024236
 31
0.0
  0
LINE
  5
32B
330
18
100
AcDbEntity
  8
CROSS_SECTIONS
100
AcDbLine
 10
5672.495112
 20
-3572.303462
 30
0.0
 11
5672.495112
 21
-3560.024236
 31
0.0
  0
LINE
  5
32C
330
18
100
AcDbEntity
  8
CROSS_SECTIONS
100
AcDbLine
 10
6187.504888
 20
-3537.779226
 30
0.0
 11
6187.504888
 21
-3525.5
 31
0.0
  0
LINE
  5
32D
330
18
100
AcDbEntity
  8
CROSS_SECTIONS
100
AcDbLine
 10
5672.495112
 20
-3537.779226
 30
0.0
 11
5672.495112
 21
-3525.5
 31
0.0
  0
LINE
  5
32E
330
18
100
AcDbEntity
  8
CROSS_SECTIONS
100
AcDbLine
 10
6187.504888
 20
-3560.024236
 30
0.0
 11
6187.504888
 21
-3537.779226
 31
0.0
  0
LINE
  5
32F
330
18
100
AcDbEntity
  8
CROSS_SECTIONS
100
AcDbLine
 10
5672.495112
 20
-3560.024236
 30
0.0
 11
5672.495112
 21
-3537.779226
 31
0.0
  0
TEXT
  5
330
330
18
100
AcDbEntity
  8
CROSS_SECTIONS
100
AcDbText
 10
5860.057703
 20
-4168.560838
 30
0.0
 40
48.126316
  1
1800
  7
Arial
100
AcDbText
  0
LINE
  5
331
330
18
100
AcDbEntity
  8
CROSS_SECTIONS
100
AcDbLine
 10
5930.0
 20
-4218.294297
 30
0.0
 11
6018.448065
 21
-4218.294297
 31
0.0
  0
LINE
  5
332
330
18
100
AcDbEntity
  8
CROSS_SECTIONS
100
AcDbLine
 10
5841.551935
 20
-4218.294297
 30
0.0
 11
5930.0
 21
-4218.294297
 31
0.0
  0
LINE
  5
333
330
18
100
AcDbEntity
  8
CROSS_SECTIONS
100
AcDbLine
 10
6018.448065
 20
-4218.294297
 30
0.0
 11
6108.588391
 21
-4218.294297
 31
0.0
  0
LINE
  5
334
330
18
100
AcDbEntity
  8
CROSS_SECTIONS
100
AcDbLine
 10
5751.411609
 20
-4218.294297
 30
0.0
 11
5841.551935
 21
-4218.294297
 31
0.0
  0
LINE
  5
335
330
18
100
AcDbEntity
  8
CROSS_SECTIONS
100
AcDbLine
 10
6108.588391
 20
-4218.294297
 30
0.0
 11
6197.036456
 21
-4218.294297
 31
0.0
  0
LINE
  5
336
330
18
100
AcDbEntity
  8
CROSS_SECTIONS
100
AcDbLine
 10
5662.963544
 20
-4218.294297
 30
0.0
 11
5751.411609
 21
-4218.294297
 31
0.0
  0
LINE
  5
337
330
18
100
AcDbEntity
  8
CROSS_SECTIONS
100
AcDbLine
 10
6197.036456
 20
-4218.294297
 30
0.0
 11
6213.788493
 21
-4125.612016
 31
0.0
  0
LINE
  5
338
330
18
100
AcDbEntity
  8
CROSS_SECTIONS
100
AcDbLine
 10
5646.211507
 20
-4125.612016
 30
0.0
 11
5662.963544
 21
-4218.294297
 31
0.0
  0
LINE
  5
339
330
18
100
AcDbEntity
  8
CROSS_SECTIONS
100
AcDbLine
 10
6213.788493
 20
-4125.612016
 30
0.0
 11
6230.183605
 21
-4035.4389
 31
0.0
  0
LINE
  5
33A
330
18
100
AcDbEntity
  8
CROSS_SECTIONS
100
AcDbLine
 10
5629.816395
 20
-4035.4389
 30
0.0
 11
5646.211507
 21
-4125.612016
 31
0.0
  0
LINE
  5
33B
330
18
100
AcDbEntity
  8
CROSS_SECTIONS
100
AcDbLine
 10
6230.183605
 20
-4035.4389
 30
0.0
 11
6246.935642
 21
-3942.756619
 31
0.0
  0
LINE
  5
33C
330
18
100
AcDbEntity
  8
CROSS_SECTIONS
100
AcDbLine
 10
5613.064358
 20
-3942.756619
 30
0.0
 11
5629.816395
 21
-4035.4389
 31
0.0
  0
LINE
  5
33D
330
18
100
AcDbEntity
  8
CROSS_SECTIONS
100
AcDbLine
 10
6230.183605
 20
-3942.655804
 30
0.0
 11
6246.935642
 21
-3942.756619
 31
0.0
  0
LINE
  5
33E
330
18
100
AcDbEntity
  8
CROSS_SECTIONS
100
AcDbLine
 10
5613.064358
 20
-3942.756619
 30
0.0
 11
5629.816395
 21
-3942.655804
 31
0.0
  0
LINE
  5
33F
330
18
100
AcDbEntity
  8
CROSS_SECTIONS
100
AcDbLine
 10
6213.788493
 20
-3942.655804
 30
0.0
 11
6230.183605
 21
-3942.655804
 31
0.0
  0
LINE
  5
340
330
18
100
AcDbEntity
  8
CROSS_SECTIONS
100
AcDbLine
 10
5629.816395
 20
-3942.655804
 30
0.0
 11
5646.211507
 21
-3942.655804
 31
0.0
  0
LINE
  5
341
330
18
100
AcDbEntity
  8
CROSS_SECTIONS
100
AcDbLine
 10
6197.036456
 20
-3942.55499
 30
0.0
 11
6213.788493
 21
-3942.655804
 31
0.0
  0
LINE
  5
342
330
18
100
AcDbEntity
  8
CROSS_SECTIONS
100
AcDbLine
 10
5646.211507
 20
-3942.655804
 30
0.0
 11
5662.963544
 21
-3942.55499
 31
0.0
  0
LINE
  5
343
330
18
100
AcDbEntity
  8
CROSS_SECTIONS
100
AcDbLine
 10
6197.036456
 20
-3942.55499
 30
0.0
 11
6197.036456
 21
-3926.475051
 31
0.0
  0
LINE
  5
344
330
18
100
AcDbEntity
  8
CROSS_SECTIONS
100
AcDbLine
 10
5662.963544
 20
-3942.55499
 30
0.0
 11
5662.963544
 21
-3926.475051
 31
0.0
  0
LINE
  5
345
330
18
100
AcDbEntity
  8
CROSS_SECTIONS
100
AcDbLine
 10
6197.036456
 20
-3926.475051
 30
0.0
 11
6197.036456
 21
-3910.079939
 31
0.0
  0
LINE
  5
346
330
18
100
AcDbEntity
  8
CROSS_SECTIONS
100
AcDbLine
 10
5662.963544
 20
-3926.475051
 30
0.0
 11
5662.963544
 21
-3910.079939
 31
0.0
  0
LINE
  5
347
330
18
100
AcDbEntity
  8
CROSS_SECTIONS
100
AcDbLine
 10
6197.036456
 20
-3910.079939
 30
0.0
 11
6197.036456
 21
-3894.0
 31
0.0
  0
LINE
  5
348
330
18
100
AcDbEntity
  8
CROSS_SECTIONS
100
AcDbLine
 10
5662.963544
 20
-3910.079939
 30
0.0
 11
5662.963544
 21
-3894.0
 31
0.0
  0
TEXT
  5
349
330
18
100
AcDbEntity
  8
CROSS_SECTIONS
100
AcDbText
 10
5857.362645
 20
-4537.060838
 30
0.0
 40
48.126316
  1
2000
  7
Arial
100
AcDbText
  0
LINE
  5
34A
330
18
100
AcDbEntity
  8
CROSS_SECTIONS
100
AcDbLine
 10
5930.0
 20
-4587.499996
 30
0.0
 11
5930.000584
 21
-4587.499996
 31
0.0
  0
LINE
  5
34B
330
18
100
AcDbEntity
  8
CROSS_SECTIONS
100
AcDbLine
 10
5929.999416
 20
-4587.499996
 30
0.0
 11
5930.0
 21
-4587.499996
 31
0.0
  0
LINE
  5
34C
330
18
100
AcDbEntity
  8
CROSS_SECTIONS
100
AcDbLine
 10
6204.999378
 20
-4587.499996
 30
0.0
 11
6204.999961
 21
-4587.499996
 31
0.0
  0
LINE
  5
34D
330
18
100
AcDbEntity
  8
CROSS_SECTIONS
100
AcDbLine
 10
5655.000039
 20
-4587.499996
 30
0.0
 11
5655.000622
 21
-4587.499996
 31
0.0
  0
LINE
  5
34E
330
18
100
AcDbEntity
  8
CROSS_SECTIONS
100
AcDbLine
 10
5930.000584
 20
-4587.499996
 30
0.0
 11
6204.999378
 21
-4587.499996
 31
0.0
  0
LINE
  5
34F
330
18
100
AcDbEntity
  8
CROSS_SECTIONS
100
AcDbLine
 10
5655.000622
 20
-4587.499996
 30
0.0
 11
5929.999416
 21
-4587.499996
 31
0.0
  0
LINE
  5
350
330
18
100
AcDbEntity
  8
CROSS_SECTIONS
100
AcDbLine
 10
6204.999961
 20
-4587.499996
 30
0.0
 11
6205.000071
 21
-4587.499392
 31
0.0
  0
LINE
  5
351
330
18
100
AcDbEntity
  8
CROSS_SECTIONS
100
AcDbLine
 10
5654.999929
 20
-4587.499392
 30
0.0
 11
5655.000039
 21
-4587.499996
 31
0.0
  0
LINE
  5
352
330
18
100
AcDbEntity
  8
CROSS_SECTIONS
100
AcDbLine
 10
6254.999851
 20
-4312.500598
 30
0.0
 11
6254.999961
 21
-4312.499994
 31
0.0
  0
LINE
  5
353
330
18
100
AcDbEntity
  8
CROSS_SECTIONS
100
AcDbLine
 10
5605.000039
 20
-4312.499994
 30
0.0
 11
5605.000149
 21
-4312.500598
 31
0.0
  0
LINE
  5
354
330
18
100
AcDbEntity
  8
CROSS_SECTIONS
100
AcDbLine
 10
6205.000071
 20
-4587.499392
 30
0.0
 11
6254.999851
 21
-4312.500598
 31
0.0
  0
LINE
  5
355
330
18
100
AcDbEntity
  8
CROSS_SECTIONS
100
AcDbLine
 10
5605.000149
 20
-4312.500598
 30
0.0
 11
5654.999929
 21
-4587.499392
 31
0.0
  0
LINE
  5
356
330
18
100
AcDbEntity
  8
CROSS_SECTIONS
100
AcDbLine
 10
6254.999851
 20
-4312.499994
 30
0.0
 11
6254.999961
 21
-4312.499994
 31
0.0
  0
LINE
  5
357
330
18
100
AcDbEntity
  8
CROSS_SECTIONS
100
AcDbLine
 10
5605.000039
 20
-4312.499994
 30
0.0
 11
5605.000149
 21
-4312.499994
 31
0.0
  0
LINE
  5
358
330
18
100
AcDbEntity
  8
CROSS_SECTIONS
100
AcDbLine
 10
6204.999961
 20
-4312.499993
 30
0.0
 11
6205.000071
 21
-4312.499994
 31
0.0
  0
LINE
  5
359
330
18
100
AcDbEntity
  8
CROSS_SECTIONS
100
AcDbLine
 10
5654.999929
 20
-4312.499994
 30
0.0
 11
5655.000039
 21
-4312.499993
 31
0.0
  0
LINE
  5
35A
330
18
100
AcDbEntity
  8
CROSS_SECTIONS
100
AcDbLine
 10
6205.000071
 20
-4312.499994
 30
0.0
 11
6254.999851
 21
-4312.499994
 31
0.0
  0
LINE
  5
35B
330
18
100
AcDbEntity
  8
CROSS_SECTIONS
100
AcDbLine
 10
5605.000149
 20
-4312.499994
 30
0.0
 11
5654.999929
 21
-4312.499994
 31
0.0
  0
LINE
  5
35C
330
18
100
AcDbEntity
  8
CROSS_SECTIONS
100
AcDbLine
 10
6204.999961
 20
-4312.499993
 30
0.0
 11
6204.999961
 21
-4312.499887
 31
0.0
  0
LINE
  5
35D
330
18
100
AcDbEntity
  8
CROSS_SECTIONS
100
AcDbLine
 10
5655.000039
 20
-4312.499993
 30
0.0
 11
5655.000039
 21
-4312.499887
 31
0.0
  0
LINE
  5
35E
330
18
100
AcDbEntity
  8
CROSS_SECTIONS
100
AcDbLine
 10
6204.999961
 20
-4262.500106
 30
0.0
 11
6204.999961
 21
-4262.5
 31
0.0
  0
LINE
  5
35F
330
18
100
AcDbEntity
  8
CROSS_SECTIONS
100
AcDbLine
 10
5655.000039
 20
-4262.500106
 30
0.0
 11
5655.000039
 21
-4262.5
 31
0.0
  0
LINE
  5
360
330
18
100
AcDbEntity
  8
CROSS_SECTIONS
100
AcDbLine
 10
6204.999961
 20
-4312.499887
 30
0.0
 11
6204.999961
 21
-4262.500106
 31
0.0
  0
LINE
  5
361
330
18
100
AcDbEntity
  8
CROSS_SECTIONS
100
AcDbLine
 10
5655.000039
 20
-4312.499887
 30
0.0
 11
5655.000039
 21
-4262.500106
 31
0.0
  0
TEXT
  5
362
330
18
100
AcDbEntity
  8
CROSS_SECTIONS
100
AcDbText
 10
5857.362645
 20
-4905.560838
 30
0.0
 40
48.126316
  1
2200
  7
Arial
100
AcDbText
  0
LINE
  5
363
330
18
100
AcDbEntity
  8
CROSS_SECTIONS
100
AcDbLine
 10
5930.0
 20
-4955.298246
 30
0.0
 11
6046.754386
 21
-4955.298246
 31
0.0
  0
LINE
  5
364
330
18
100
AcDbEntity
  8
CROSS_SECTIONS
100
AcDbLine
 10
5813.245614
 20
-4955.298246
 30
0.0
 11
5930.0
 21
-4955.298246
 31
0.0
  0
LINE
  5
365
330
18
100
AcDbEntity
  8
CROSS_SECTIONS
100
AcDbLine
 10
6080.526316
 20
-4955.298246
 30
0.0
 11
6197.280702
 21
-4955.298246
 31
0.0
  0
LINE
  5
366
330
18
100
AcDbEntity
  8
CROSS_SECTIONS
100
AcDbLine
 10
5662.719298
 20
-4955.298246
 30
0.0
 11
5779.473684
 21
-4955.298246
 31
0.0
  0
LINE
  5
367
330
18
100
AcDbEntity
  8
CROSS_SECTIONS
100
AcDbLine
 10
6046.754386
 20
-4955.298246
 30
0.0
 11
6080.526316
 21
-4955.298246
 31
0.0
  0
LINE
  5
368
330
18
100
AcDbEntity
  8
CROSS_SECTIONS
100
AcDbLine
 10
5779.473684
 20
-4955.298246
 30
0.0
 11
5813.245614
 21
-4955.298246
 31
0.0
  0
LINE
  5
369
330
18
100
AcDbEntity
  8
CROSS_SECTIONS
100
AcDbLine
 10
6197.280702
 20
-4955.298246
 30
0.0
 11
6219.144737
 21
-4834.442982
 31
0.0
  0
LINE
  5
36A
330
18
100
AcDbEntity
  8
CROSS_SECTIONS
100
AcDbLine
 10
5640.855263
 20
-4834.442982
 30
0.0
 11
5662.719298
 21
-4955.298246
 31
0.0
  0
LINE
  5
36B
330
18
100
AcDbEntity
  8
CROSS_SECTIONS
100
AcDbLine
 10
6225.285088
 20
-4800.671053
 30
0.0
 11
6247.149123
 21
-4679.815789
 31
0.0
  0
LINE
  5
36C
330
18
100
AcDbEntity
  8
CROSS_SECTIONS
100
AcDbLine
 10
5612.850877
 20
-4679.815789
 30
0.0
 11
5634.714912
 21
-4800.671053
 31
0.0
  0
LINE
  5
36D
330
18
100
AcDbEntity
  8
CROSS_SECTIONS
100
AcDbLine
 10
6219.144737
 20
-4834.442982
 30
0.0
 11
6225.285088
 21
-4800.671053
 31
0.0
  0
LINE
  5
36E
330
18
100
AcDbEntity
  8
CROSS_SECTIONS
100
AcDbLine
 10
5634.714912
 20
-4800.671053
 30
0.0
 11
5640.855263
 21
-4834.442982
 31
0.0
  0
LINE
  5
36F
330
18
100
AcDbEntity
  8
CROSS_SECTIONS
100
AcDbLine
 10
6225.285088
 20
-4679.70614
 30
0.0
 11
6247.149123
 21
-4679.815789
 31
0.0
  0
LINE
  5
370
330
18
100
AcDbEntity
  8
CROSS_SECTIONS
100
AcDbLine
 10
5612.850877
 20
-4679.815789
 30
0.0
 11
5634.714912
 21
-4679.70614
 31
0.0
  0
LINE
  5
371
330
18
100
AcDbEntity
  8
CROSS_SECTIONS
100
AcDbLine
 10
6197.280702
 20
-4679.596491
 30
0.0
 11
6219.144737
 21
-4679.70614
 31
0.0
  0
LINE
  5
372
330
18
100
AcDbEntity
  8
CROSS_SECTIONS
100
AcDbLine
 10
5640.855263
 20
-4679.70614
 30
0.0
 11
5662.719298
 21
-4679.596491
 31
0.0
  0
LINE
  5
373
330
18
100
AcDbEntity
  8
CROSS_SECTIONS
100
AcDbLine
 10
6219.144737
 20
-4679.70614
 30
0.0
 11
6225.285088
 21
-4679.70614
 31
0.0
  0
LINE
  5
374
330
18
100
AcDbEntity
  8
CROSS_SECTIONS
100
AcDbLine
 10
5634.714912
 20
-4679.70614
 30
0.0
 11
5640.855263
 21
-4679.70614
 31
0.0
  0
LINE
  5
375
330
18
100
AcDbEntity
  8
CROSS_SECTIONS
100
AcDbLine
 10
6197.280702
 20
-4679.596491
 30
0.0
 11
6197.280702
 21
-4658.368421
 31
0.0
  0
LINE
  5
376
330
18
100
AcDbEntity
  8
CROSS_SECTIONS
100
AcDbLine
 10
5662.719298
 20
-4679.596491
 30
0.0
 11
5662.719298
 21
-4658.368421
 31
0.0
  0
LINE
  5
377
330
18
100
AcDbEntity
  8
CROSS_SECTIONS
100
AcDbLine
 10
6197.280702
 20
-4652.22807
 30
0.0
 11
6197.280702
 21
-4631.0
 31
0.0
  0
LINE
  5
378
330
18
100
AcDbEntity
  8
CROSS_SECTIONS
100
AcDbLine
 10
5662.719298
 20
-4652.22807
 30
0.0
 11
5662.719298
 21
-4631.0
 31
0.0
  0
LINE
  5
379
330
18
100
AcDbEntity
  8
CROSS_SECTIONS
100
AcDbLine
 10
6197.280702
 20
-4658.368421
 30
0.0
 11
6197.280702
 21
-4652.22807
 31
0.0
  0
LINE
  5
37A
330
18
100
AcDbEntity
  8
CROSS_SECTIONS
100
AcDbLine
 10
5662.719298
 20
-4658.368421
 30
0.0
 11
5662.719298
 21
-4652.22807
 31
0.0
  0
TEXT
  5
37B
330
18
100
AcDbEntity
  8
CROSS_SECTIONS
100
AcDbText
 10
5857.362645
 20
-5274.060838
 30
0.0
 40
48.126316
  1
2400
  7
Arial
100
AcDbText
  0
LINE
  5
37C
330
18
100
AcDbEntity
  8
CROSS_SECTIONS
100
AcDbLine
 10
5930.0
 20
-5323.096491
 30
0.0
 11
5962.691228
 21
-5323.096491
 31
0.0
  0
LINE
  5
37D
330
18
100
AcDbEntity
  8
CROSS_SECTIONS
100
AcDbLine
 10
5897.308772
 20
-5323.096491
 30
0.0
 11
5930.0
 21
-5323.096491
 31
0.0
  0
LINE
  5
37E
330
18
100
AcDbEntity
  8
CROSS_SECTIONS
100
AcDbLine
 10
5962.691228
 20
-5323.096491
 30
0.0
 11
6156.870175
 21
-5323.096491
 31
0.0
  0
LINE
  5
37F
330
18
100
AcDbEntity
  8
CROSS_SECTIONS
100
AcDbLine
 10
5703.129825
 20
-5323.096491
 30
0.0
 11
5897.308772
 21
-5323.096491
 31
0.0
  0
LINE
  5
380
330
18
100
AcDbEntity
  8
CROSS_SECTIONS
100
AcDbLine
 10
6156.870175
 20
-5323.096491
 30
0.0
 11
6189.561404
 21
-5323.096491
 31
0.0
  0
LINE
  5
381
330
18
100
AcDbEntity
  8
CROSS_SECTIONS
100
AcDbLine
 10
5670.438596
 20
-5323.096491
 30
0.0
 11
5703.129825
 21
-5323.096491
 31
0.0
  0
LINE
  5
382
330
18
100
AcDbEntity
  8
CROSS_SECTIONS
100
AcDbLine
 10
6189.561404
 20
-5323.096491
 30
0.0
 11
6195.683333
 21
-5289.257018
 31
0.0
  0
LINE
  5
383
330
18
100
AcDbEntity
  8
CROSS_SECTIONS
100
AcDbLine
 10
5664.316667
 20
-5289.257018
 30
0.0
 11
5670.438596
 21
-5323.096491
 31
0.0
  0
LINE
  5
384
330
18
100
AcDbEntity
  8
CROSS_SECTIONS
100
AcDbLine
 10
6195.683333
 20
-5289.257018
 30
0.0
 11
6233.176316
 21
-5080.971053
 31
0.0
  0
LINE
  5
385
330
18
100
AcDbEntity
  8
CROSS_SECTIONS
100
AcDbLine
 10
5626.823684
 20
-5080.971053
 30
0.0
 11
5664.316667
 21
-5289.257018
 31
0.0
  0
LINE
  5
386
330
18
100
AcDbEntity
  8
CROSS_SECTIONS
100
AcDbLine
 10
6233.176316
 20
-5080.971053
 30
0.0
 11
6239.298246
 21
-5047.131579
 31
0.0
  0
LINE
  5
387
330
18
100
AcDbEntity
  8
CROSS_SECTIONS
100
AcDbLine
 10
5620.701754
 20
-5047.131579
 30
0.0
 11
5626.823684
 21
-5080.971053
 31
0.0
  0
LINE
  5
388
330
18
100
AcDbEntity
  8
CROSS_SECTIONS
100
AcDbLine
 10
6233.176316
 20
-5047.100877
 30
0.0
 11
6239.298246
 21
-5047.131579
 31
0.0
  0
LINE
  5
389
330
18
100
AcDbEntity
  8
CROSS_SECTIONS
100
AcDbLine
 10
5620.701754
 20
-5047.131579
 30
0.0
 11
5626.823684
 21
-5047.100877
 31
0.0
  0
LINE
  5
38A
330
18
100
AcDbEntity
  8
CROSS_SECTIONS
100
AcDbLine
 10
6195.683333
 20
-5046.723684
 30
0.0
 11
6233.176316
 21
-5047.100877
 31
0.0
  0
LINE
  5
38B
330
18
100
AcDbEntity
  8
CROSS_SECTIONS
100
AcDbLine
 10
5626.823684
 20
-5047.100877
 30
0.0
 11
5664.316667
 21
-5046.723684
 31
0.0
  0
LINE
  5
38C
330
18
100
AcDbEntity
  8
CROSS_SECTIONS
100
AcDbLine
 10
6189.561404
 20
-5046.692982
 30
0.0
 11
6195.683333
 21
-5046.723684
 31
0.0
  0
LINE
  5
38D
330
18
100
AcDbEntity
  8
CROSS_SECTIONS
100
AcDbLine
 10
5664.316667
 20
-5046.723684
 30
0.0
 11
5670.438596
 21
-5046.692982
 31
0.0
  0
LINE
  5
38E
330
18
100
AcDbEntity
  8
CROSS_SECTIONS
100
AcDbLine
 10
6189.561404
 20
-5046.692982
 30
0.0
 11
6189.561404
 21
-5040.749123
 31
0.0
  0
LINE
  5
38F
330
18
100
AcDbEntity
  8
CROSS_SECTIONS
100
AcDbLine
 10
5670.438596
 20
-5046.692982
 30
0.0
 11
5670.438596
 21
-5040.749123
 31
0.0
  0
LINE
  5
390
330
18
100
AcDbEntity
  8
CROSS_SECTIONS
100
AcDbLine
 10
6189.561404
 20
-5040.749123
 30
0.0
 11
6189.561404
 21
-5005.44386
 31
0.0
  0
LINE
  5
391
330
18
100
AcDbEntity
  8
CROSS_SECTIONS
100
AcDbLine
 10
5670.438596
 20
-5040.749123
 30
0.0
 11
5670.438596
 21
-5005.44386
 31
0.0
  0
LINE
  5
392
330
18
100
AcDbEntity
  8
CROSS_SECTIONS
100
AcDbLine
 10
6189.561404
 20
-5005.44386
 30
0.0
 11
6189.561404
 21
-4999.5
 31
0.0
  0
LINE
  5
393
330
18
100
AcDbEntity
  8
CROSS_SECTIONS
100
AcDbLine
 10
5670.438596
 20
-5005.44386
 30
0.0
 11
5670.438596
 21
-4999.5
 31
0.0
  0
TEXT
  5
394
330
18
100
AcDbEntity
  8
CROSS_SECTIONS
100
AcDbText
 10
5857.362645
 20
-5642.560838
 30
0.0
 40
48.126316
  1
2600
  7
Arial
100
AcDbText
  0
LINE
  5
395
330
18
100
AcDbEntity
  8
CROSS_SECTIONS
100
AcDbLine
 10
5930.0
 20
-5689.84878
 30
0.0
 11
5996.746341
 21
-5689.84878
 31
0.0
  0
LINE
  5
396
330
18
100
AcDbEntity
  8
CROSS_SECTIONS
100
AcDbLine
 10
5863.253659
 20
-5689.84878
 30
0.0
 11
5930.0
 21
-5689.84878
 31
0.0
  0
LINE
  5
397
330
18
100
AcDbEntity
  8
CROSS_SECTIONS
100
AcDbLine
 10
6103.473171
 20
-5689.84878
 30
0.0
 11
6170.219512
 21
-5689.84878
 31
0.0
  0
LINE
  5
398
330
18
100
AcDbEntity
  8
CROSS_SECTIONS
100
AcDbLine
 10
5689.780488
 20
-5689.84878
 30
0.0
 11
5756.526829
 21
-5689.84878
 31
0.0
  0
LINE
  5
399
330
18
100
AcDbEntity
  8
CROSS_SECTIONS
100
AcDbLine
 10
5996.746341
 20
-5689.84878
 30
0.0
 11
6103.473171
 21
-5689.84878
 31
0.0
  0
LINE
  5
39A
330
18
100
AcDbEntity
  8
CROSS_SECTIONS
100
AcDbLine
 10
5756.526829
 20
-5689.84878
 30
0.0
 11
5863.253659
 21
-5689.84878
 31
0.0
  0
LINE
  5
39B
330
18
100
AcDbEntity
  8
CROSS_SECTIONS
100
AcDbLine
 10
6170.219512
 20
-5689.84878
 30
0.0
 11
6184.809756
 21
-5608.292683
 31
0.0
  0
LINE
  5
39C
330
18
100
AcDbEntity
  8
CROSS_SECTIONS
100
AcDbLine
 10
5675.190244
 20
-5608.292683
 30
0.0
 11
5689.780488
 21
-5689.84878
 31
0.0
  0
LINE
  5
39D
330
18
100
AcDbEntity
  8
CROSS_SECTIONS
100
AcDbLine
 10
6205.417073
 20
-5493.812195
 30
0.0
 11
6220.007317
 21
-5412.256098
 31
0.0
  0
LINE
  5
39E
330
18
100
AcDbEntity
  8
CROSS_SECTIONS
100
AcDbLine
 10
5639.992683
 20
-5412.256098
 30
0.0
 11
5654.582927
 21
-5493.812195
 31
0.0
  0
LINE
  5
39F
330
18
100
AcDbEntity
  8
CROSS_SECTIONS
100
AcDbLine
 10
6184.809756
 20
-5608.292683
 30
0.0
 11
6205.417073
 21
-5493.812195
 31
0.0
  0
LINE
  5
3A0
330
18
100
AcDbEntity
  8
CROSS_SECTIONS
100
AcDbLine
 10
5654.582927
 20
-5493.812195
 30
0.0
 11
5675.190244
 21
-5608.292683
 31
0.0
  0
LINE
  5
3A1
330
18
100
AcDbEntity
  8
CROSS_SECTIONS
100
AcDbLine
 10
6205.417073
 20
-5412.065854
 30
0.0
 11
6220.007317
 21
-5412.256098
 31
0.0
  0
LINE
  5
3A2
330
18
100
AcDbEntity
  8
CROSS_SECTIONS
100
AcDbLine
 10
5639.992683
 20
-5412.256098
 30
0.0
 11
5654.582927
 21
-5412.065854
 31
0.0
  0
LINE
  5
3A3
330
18
100
AcDbEntity
  8
CROSS_SECTIONS
100
AcDbLine
 10
6170.219512
 20
-5411.668293
 30
0.0
 11
6184.809756
 21
-5411.858537
 31
0.0
  0
LINE
  5
3A4
330
18
100
AcDbEntity
  8
CROSS_SECTIONS
100
AcDbLine
 10
5675.190244
 20
-5411.858537
 30
0.0
 11
5689.780488
 21
-5411.668293
 31
0.0
  0
LINE
  5
3A5
330
18
100
AcDbEntity
  8
CROSS_SECTIONS
100
AcDbLine
 10
6184.809756
 20
-5411.858537
 30
0.0
 11
6205.417073
 21
-5412.065854
 31
0.0
  0
LINE
  5
3A6
330
18
100
AcDbEntity
  8
CROSS_SECTIONS
100
AcDbLine
 10
5654.582927
 20
-5412.065854
 30
0.0
 11
5675.190244
 21
-5411.858537
 31
0.0
  0
LINE
  5
3A7
330
18
100
AcDbEntity
  8
CROSS_SECTIONS
100
AcDbLine
 10
6170.219512
 20
-5411.668293
 30
0.0
 11
6170.219512
 21
-5399.536585
 31
0.0
  0
LINE
  5
3A8
330
18
100
AcDbEntity
  8
CROSS_SECTIONS
100
AcDbLine
 10
5689.780488
 20
-5411.668293
 30
0.0
 11
5689.780488
 21
-5399.536585
 31
0.0
  0
LINE
  5
3A9
330
18
100
AcDbEntity
  8
CROSS_SECTIONS
100
AcDbLine
 10
6170.219512
 20
-5380.131707
 30
0.0
 11
6170.219512
 21
-5368.0
 31
0.0
  0
LINE
  5
3AA
330
18
100
AcDbEntity
  8
CROSS_SECTIONS
100
AcDbLine
 10
5689.780488
 20
-5380.131707
 30
0.0
 11
5689.780488
 21
-5368.0
 31
0.0
  0
LINE
  5
3AB
330
18
100
AcDbEntity
  8
CROSS_SECTIONS
100
AcDbLine
 10
6170.219512
 20
-5399.536585
 30
0.0
 11
6170.219512
 21
-5380.131707
 31
0.0
  0
LINE
  5
3AC
330
18
100
AcDbEntity
  8
CROSS_SECTIONS
100
AcDbLine
 10
5689.780488
 20
-5399.536585
 30
0.0
 11
5689.780488
 21
-5380.131707
 31
0.0
  0
TEXT
  5
3AD
330
18
100
AcDbEntity
  8
CROSS_SECTIONS
100
AcDbText
 10
5857.362645
 20
-6011.060838
 30
0.0
 40
48.126316
  1
2800
  7
Arial
100
AcDbText
  0
LINE
  5
3AE
330
18
100
AcDbEntity
  8
CROSS_SECTIONS
100
AcDbLine
 10
5930.0
 20
-6056.194309
 30
0.0
 11
5998.600407
 21
-6056.194309
 31
0.0
  0
LINE
  5
3AF
330
18
100
AcDbEntity
  8
CROSS_SECTIONS
100
AcDbLine
 10
5861.399593
 20
-6056.194309
 30
0.0
 11
5930.0
 21
-6056.194309
 31
0.0
  0
LINE
  5
3B0
330
18
100
AcDbEntity
  8
CROSS_SECTIONS
100
AcDbLine
 10
5998.600407
 20
-6056.194309
 30
0.0
 11
6077.757317
 21
-6056.194309
 31
0.0
  0
LINE
  5
3B1
330
18
100
AcDbEntity
  8
CROSS_SECTIONS
100
AcDbLine
 10
5782.242683
 20
-6056.194309
 30
0.0
 11
5861.399593
 21
-6056.194309
 31
0.0
  0
LINE
  5
3B2
330
18
100
AcDbEntity
  8
CROSS_SECTIONS
100
AcDbLine
 10
6077.757317
 20
-6056.194309
 30
0.0
 11
6146.357724
 21
-6056.194309
 31
0.0
  0
LINE
  5
3B3
330
18
100
AcDbEntity
  8
CROSS_SECTIONS
100
AcDbLine
 10
5713.642276
 20
-6056.194309
 30
0.0
 11
5782.242683
 21
-6056.194309
 31
0.0
  0
LINE
  5
3B4
330
18
100
AcDbEntity
  8
CROSS_SECTIONS
100
AcDbLine
 10
6146.357724
 20
-6056.194309
 30
0.0
 11
6161.353252
 21
-5972.372764
 31
0.0
  0
LINE
  5
3B5
330
18
100
AcDbEntity
  8
CROSS_SECTIONS
100
AcDbLine
 10
5698.646748
 20
-5972.372764
 30
0.0
 11
5713.642276
 21
-6056.194309
 31
0.0
  0
LINE
  5
3B6
330
18
100
AcDbEntity
  8
CROSS_SECTIONS
100
AcDbLine
 10
6161.353252
 20
-5972.372764
 30
0.0
 11
6181.271951
 21
-5860.35
 31
0.0
  0
LINE
  5
3B7
330
18
100
AcDbEntity
  8
CROSS_SECTIONS
100
AcDbLine
 10
5678.728049
 20
-5860.35
 30
0.0
 11
5698.646748
 21
-5972.372764
 31
0.0
  0
LINE
  5
3B8
330
18
100
AcDbEntity
  8
CROSS_SECTIONS
100
AcDbLine
 10
6181.271951
 20
-5860.35
 30
0.0
 11
6196.26748
 21
-5776.528455
 31
0.0
  0
LINE
  5
3B9
330
18
100
AcDbEntity
  8
CROSS_SECTIONS
100
AcDbLine
 10
5663.73252
 20
-5776.528455
 30
0.0
 11
5678.728049
 21
-5860.35
 31
0.0
  0
LINE
  5
3BA
330
18
100
AcDbEntity
  8
CROSS_SECTIONS
100
AcDbLine
 10
6181.271951
 20
-5776.332927
 30
0.0
 11
6196.26748
 21
-5776.528455
 31
0.0
  0
LINE
  5
3BB
330
18
100
AcDbEntity
  8
CROSS_SECTIONS
100
AcDbLine
 10
5663.73252
 20
-5776.528455
 30
0.0
 11
5678.728049
 21
-5776.332927
 31
0.0
  0
LINE
  5
3BC
330
18
100
AcDbEntity
  8
CROSS_SECTIONS
100
AcDbLine
 10
6161.353252
 20
-5776.014228
 30
0.0
 11
6181.271951
 21
-5776.332927
 31
0.0
  0
LINE
  5
3BD
330
18
100
AcDbEntity
  8
CROSS_SECTIONS
100
AcDbLine
 10
5678.728049
 20
-5776.332927
 30
0.0
 11
5698.646748
 21
-5776.014228
 31
0.0
  0
LINE
  5
3BE
330
18
100
AcDbEntity
  8
CROSS_SECTIONS
100
AcDbLine
 10
6146.357724
 20
-5775.818699
 30
0.0
 11
6161.353252
 21
-5776.014228
 31
0.0
  0
LINE
  5
3BF
330
18
100
AcDbEntity
  8
CROSS_SECTIONS
100
AcDbLine
 10
5698.646748
 20
-5776.014228
 30
0.0
 11
5713.642276
 21
-5775.818699
 31
0.0
  0
LINE
  5
3C0
330
18
100
AcDbEntity
  8
CROSS_SECTIONS
100
AcDbLine
 10
6146.357724
 20
-5775.818699
 30
0.0
 11
6146.357724
 21
-5763.35
 31
0.0
  0
LINE
  5
3C1
330
18
100
AcDbEntity
  8
CROSS_SECTIONS
100
AcDbLine
 10
5713.642276
 20
-5775.818699
 30
0.0
 11
5713.642276
 21
-5763.35
 31
0.0
  0
LINE
  5
3C2
330
18
100
AcDbEntity
  8
CROSS_SECTIONS
100
AcDbLine
 10
6146.357724
 20
-5763.35
 30
0.0
 11
6146.357724
 21
-5748.968699
 31
0.0
  0
LINE
  5
3C3
330
18
100
AcDbEntity
  8
CROSS_SECTIONS
100
AcDbLine
 10
5713.642276
 20
-5763.35
 30
0.0
 11
5713.642276
 21
-5748.968699
 31
0.0
  0
LINE
  5
3C4
330
18
100
AcDbEntity
  8
CROSS_SECTIONS
100
AcDbLine
 10
6146.357724
 20
-5748.968699
 30
0.0
 11
6146.357724
 21
-5736.5
 31
0.0
  0
LINE
  5
3C5
330
18
100
AcDbEntity
  8
CROSS_SECTIONS
100
AcDbLine
 10
5713.642276
 20
-5748.968699
 30
0.0
 11
5713.642276
 21
-5736.5
 31
0.0
  0
TEXT
  5
3C6
330
18
100
AcDbEntity
  8
CROSS_SECTIONS
100
AcDbText
 10
5857.805669
 20
-6379.560838
 30
0.0
 40
48.126316
  1
3000
  7
Arial
100
AcDbText
  0
LINE
  5
3C7
330
18
100
AcDbEntity
  8
CROSS_SECTIONS
100
AcDbLine
 10
5930.0
 20
-6422.136253
 30
0.0
 11
5945.774745
 21
-6422.136253
 31
0.0
  0
LINE
  5
3C8
330
18
100
AcDbEntity
  8
CROSS_SECTIONS
100
AcDbLine
 10
5914.225255
 20
-6422.136253
 30
0.0
 11
5930.0
 21
-6422.136253
 31
0.0
  0
LINE
  5
3C9
330
18
100
AcDbEntity
  8
CROSS_SECTIONS
100
AcDbLine
 10
6102.387576
 20
-6422.136253
 30
0.0
 11
6118.162322
 21
-6422.136253
 31
0.0
  0
LINE
  5
3CA
330
18
100
AcDbEntity
  8
CROSS_SECTIONS
100
AcDbLine
 10
5741.837678
 20
-6422.136253
 30
0.0
 11
5757.612424
 21
-6422.136253
 31
0.0
  0
LINE
  5
3CB
330
18
100
AcDbEntity
  8
CROSS_SECTIONS
100
AcDbLine
 10
5945.774745
 20
-6422.136253
 30
0.0
 11
6102.387576
 21
-6422.136253
 31
0.0
  0
LINE
  5
3CC
330
18
100
AcDbEntity
  8
CROSS_SECTIONS
100
AcDbLine
 10
5757.612424
 20
-6422.136253
 30
0.0
 11
5914.225255
 21
-6422.136253
 31
0.0
  0
LINE
  5
3CD
330
18
100
AcDbEntity
  8
CROSS_SECTIONS
100
AcDbLine
 10
6118.162322
 20
-6422.136253
 30
0.0
 11
6123.5
 21
-6391.868228
 31
0.0
  0
LINE
  5
3CE
330
18
100
AcDbEntity
  8
CROSS_SECTIONS
100
AcDbLine
 10
5736.5
 20
-6391.868228
 30
0.0
 11
5741.837678
 21
-6422.136253
 31
0.0
  0
LINE
  5
3CF
330
18
100
AcDbEntity
  8
CROSS_SECTIONS
100
AcDbLine
 10
6162.909369
 20
-6170.229939
 30
0.0
 11
6168.247047
 21
-6139.961914
 31
0.0
  0
LINE
  5
3D0
330
18
100
AcDbEntity
  8
CROSS_SECTIONS
100
AcDbLine
 10
5691.752953
 20
-6139.961914
 30
0.0
 11
5697.090631
 21
-6170.229939
 31
0.0
  0
LINE
  5
3D1
330
18
100
AcDbEntity
  8
CROSS_SECTIONS
100
AcDbLine
 10
6123.5
 20
-6391.868228
 30
0.0
 11
6162.909369
 21
-6170.229939
 31
0.0
  0
LINE
  5
3D2
330
18
100
AcDbEntity
  8
CROSS_SECTIONS
100
AcDbLine
 10
5697.090631
 20
-6170.229939
 30
0.0
 11
5736.5
 21
-6391.868228
 31
0.0
  0
LINE
  5
3D3
330
18
100
AcDbEntity
  8
CROSS_SECTIONS
100
AcDbLine
 10
6162.909369
 20
-6139.88778
 30
0.0
 11
6168.247047
 21
-6139.961914
 31
0.0
  0
LINE
  5
3D4
330
18
100
AcDbEntity
  8
CROSS_SECTIONS
100
AcDbLine
 10
5691.752953
 20
-6139.961914
 30
0.0
 11
5697.090631
 21
-6139.88778
 31
0.0
  0
LINE
  5
3D5
330
18
100
AcDbEntity
  8
CROSS_SECTIONS
100
AcDbLine
 10
6118.162322
 20
-6139.183096
 30
0.0
 11
6123.5
 21
-6139.25723
 31
0.0
  0
LINE
  5
3D6
330
18
100
AcDbEntity
  8
CROSS_SECTIONS
100
AcDbLine
 10
5736.5
 20
-6139.25723
 30
0.0
 11
5741.837678
 21
-6139.183096
 31
0.0
  0
LINE
  5
3D7
330
18
100
AcDbEntity
  8
CROSS_SECTIONS
100
AcDbLine
 10
6123.5
 20
-6139.25723
 30
0.0
 11
6162.909369
 21
-6139.88778
 31
0.0
  0
LINE
  5
3D8
330
18
100
AcDbEntity
  8
CROSS_SECTIONS
100
AcDbLine
 10
5697.090631
 20
-6139.88778
 30
0.0
 11
5736.5
 21
-6139.25723
 31
0.0
  0
LINE
  5
3D9
330
18
100
AcDbEntity
  8
CROSS_SECTIONS
100
AcDbLine
 10
6118.162322
 20
-6139.183096
 30
0.0
 11
6118.162322
 21
-6136.31833
 31
0.0
  0
LINE
  5
3DA
330
18
100
AcDbEntity
  8
CROSS_SECTIONS
100
AcDbLine
 10
5741.837678
 20
-6139.183096
 30
0.0
 11
5741.837678
 21
-6136.31833
 31
0.0
  0
LINE
  5
3DB
330
18
100
AcDbEntity
  8
CROSS_SECTIONS
100
AcDbLine
 10
6118.162322
 20
-6107.864766
 30
0.0
 11
6118.162322
 21
-6105.0
 31
0.0
  0
LINE
  5
3DC
330
18
100
AcDbEntity
  8
CROSS_SECTIONS
100
AcDbLine
 10
5741.837678
 20
-6107.864766
 30
0.0
 11
5741.837678
 21
-6105.0
 31
0.0
  0
LINE
  5
3DD
330
18
100
AcDbEntity
  8
CROSS_SECTIONS
100
AcDbLine
 10
6118.162322
 20
-6136.31833
 30
0.0
 11
6118.162322
 21
-6107.864766
 31
0.0
  0
LINE
  5
3DE
330
18
100
AcDbEntity
  8
CROSS_SECTIONS
100
AcDbLine
 10
5741.837678
 20
-6136.31833
 30
0.0
 11
5741.837678
 21
-6107.864766
 31
0.0
  0
TEXT
  5
3DF
330
18
100
AcDbEntity
  8
CROSS_SECTIONS
100
AcDbText
 10
5857.805669
 20
-6748.060838
 30
0.0
 40
48.126316
  1
3200
  7
Arial
100
AcDbText
  0
LINE
  5
3E0
330
18
100
AcDbEntity
  8
CROSS_SECTIONS
100
AcDbLine
 10
5930.0
 20
-6786.929532
 30
0.0
 11
6002.503157
 21
-6786.929532
 31
0.0
  0
LINE
  5
3E1
330
18
100
AcDbEntity
  8
CROSS_SECTIONS
100
AcDbLine
 10
5857.496843
 20
-6786.929532
 30
0.0
 11
5930.0
 21
-6786.929532
 31
0.0
  0
LINE
  5
3E2
330
18
100
AcDbEntity
  8
CROSS_SECTIONS
100
AcDbLine
 10
6002.503157
 20
-6786.929532
 30
0.0
 11
6005.129633
 21
-6786.929532
 31
0.0
  0
LINE
  5
3E3
330
18
100
AcDbEntity
  8
CROSS_SECTIONS
100
AcDbLine
 10
5854.870367
 20
-6786.929532
 30
0.0
 11
5857.496843
 21
-6786.929532
 31
0.0
  0
LINE
  5
3E4
330
18
100
AcDbEntity
  8
CROSS_SECTIONS
100
AcDbLine
 10
6005.129633
 20
-6786.929532
 30
0.0
 11
6077.63279
 21
-6786.929532
 31
0.0
  0
LINE
  5
3E5
330
18
100
AcDbEntity
  8
CROSS_SECTIONS
100
AcDbLine
 10
5782.36721
 20
-6786.929532
 30
0.0
 11
5854.870367
 21
-6786.929532
 31
0.0
  0
LINE
  5
3E6
330
18
100
AcDbEntity
  8
CROSS_SECTIONS
100
AcDbLine
 10
6077.63279
 20
-6786.929532
 30
0.0
 11
6102.16558
 21
-6647.813035
 31
0.0
  0
LINE
  5
3E7
330
18
100
AcDbEntity
  8
CROSS_SECTIONS
100
AcDbLine
 10
5757.83442
 20
-6647.813035
 30
0.0
 11
5782.36721
 21
-6786.929532
 31
0.0
  0
LINE
  5
3E8
330
18
100
AcDbEntity
  8
CROSS_SECTIONS
100
AcDbLine
 10
6102.16558
 20
-6647.813035
 30
0.0
 11
6103.510591
 21
-6640.124236
 31
0.0
  0
LINE
  5
3E9
330
18
100
AcDbEntity
  8
CROSS_SECTIONS
100
AcDbLine
 10
5756.489409
 20
-6640.124236
 30
0.0
 11
5757.83442
 21
-6647.813035
 31
0.0
  0
LINE
  5
3EA
330
18
100
AcDbEntity
  8
CROSS_SECTIONS
100
AcDbLine
 10
6103.510591
 20
-6640.124236
 30
0.0
 11
6128.043381
 21
-6501.007739
 31
0.0
  0
LINE
  5
3EB
330
18
100
AcDbEntity
  8
CROSS_SECTIONS
100
AcDbLine
 10
5731.956619
 20
-6501.007739
 30
0.0
 11
5756.489409
 21
-6640.124236
 31
0.0
  0
LINE
  5
3EC
330
18
100
AcDbEntity
  8
CROSS_SECTIONS
100
AcDbLine
 10
6103.510591
 20
-6500.667006
 30
0.0
 11
6128.043381
 21
-6501.007739
 31
0.0
  0
LINE
  5
3ED
330
18
100
AcDbEntity
  8
CROSS_SECTIONS
100
AcDbLine
 10
5731.956619
 20
-6501.007739
 30
0.0
 11
5756.489409
 21
-6500.667006
 31
0.0
  0
LINE
  5
3EE
330
18
100
AcDbEntity
  8
CROSS_SECTIONS
100
AcDbLine
 10
6102.16558
 20
-6500.65112
 30
0.0
 11
6103.510591
 21
-6500.667006
 31
0.0
  0
LINE
  5
3EF
330
18
100
AcDbEntity
  8
CROSS_SECTIONS
100
AcDbLine
 10
5756.489409
 20
-6500.667006
 30
0.0
 11
5757.83442
 21
-6500.65112
 31
0.0
  0
LINE
  5
3F0
330
18
100
AcDbEntity
  8
CROSS_SECTIONS
100
AcDbLine
 10
6077.63279
 20
-6500.310387
 30
0.0
 11
6102.16558
 21
-6500.65112
 31
0.0
  0
LINE
  5
3F1
330
18
100
AcDbEntity
  8
CROSS_SECTIONS
100
AcDbLine
 10
5757.83442
 20
-6500.65112
 30
0.0
 11
5782.36721
 21
-6500.310387
 31
0.0
  0
LINE
  5
3F2
330
18
100
AcDbEntity
  8
CROSS_SECTIONS
100
AcDbLine
 10
6077.63279
 20
-6500.310387
 30
0.0
 11
6077.63279
 21
-6487.143483
 31
0.0
  0
LINE
  5
3F3
330
18
100
AcDbEntity
  8
CROSS_SECTIONS
100
AcDbLine
 10
5782.36721
 20
-6500.310387
 30
0.0
 11
5782.36721
 21
-6487.143483
 31
0.0
  0
LINE
  5
3F4
330
18
100
AcDbEntity
  8
CROSS_SECTIONS
100
AcDbLine
 10
6077.63279
 20
-6487.143483
 30
0.0
 11
6077.63279
 21
-6486.666904
 31
0.0
  0
LINE
  5
3F5
330
18
100
AcDbEntity
  8
CROSS_SECTIONS
100
AcDbLine
 10
5782.36721
 20
-6487.143483
 30
0.0
 11
5782.36721
 21
-6486.666904
 31
0.0
  0
LINE
  5
3F6
330
18
100
AcDbEntity
  8
CROSS_SECTIONS
100
AcDbLine
 10
6077.63279
 20
-6486.666904
 30
0.0
 11
6077.63279
 21
-6473.5
 31
0.0
  0
LINE
  5
3F7
330
18
100
AcDbEntity
  8
CROSS_SECTIONS
100
AcDbLine
 10
5782.36721
 20
-6486.666904
 30
0.0
 11
5782.36721
 21
-6473.5
 31
0.0
  0
TEXT
  5
3F8
330
18
100
AcDbEntity
  8
CROSS_SECTIONS
100
AcDbText
 10
5857.805669
 20
-7116.560838
 30
0.0
 40
48.126316
  1
3400
  7
Arial
100
AcDbText
  0
LINE
  5
3F9
330
18
100
AcDbEntity
  8
CROSS_SECTIONS
100
AcDbLine
 10
5930.0
 20
-7151.722811
 30
0.0
 11
5941.831059
 21
-7151.722811
 31
0.0
  0
LINE
  5
3FA
330
18
100
AcDbEntity
  8
CROSS_SECTIONS
100
AcDbLine
 10
5918.168941
 20
-7151.722811
 30
0.0
 11
5930.0
 21
-7151.722811
 31
0.0
  0
LINE
  5
3FB
330
18
100
AcDbEntity
  8
CROSS_SECTIONS
100
AcDbLine
 10
5941.831059
 20
-7151.722811
 30
0.0
 11
6025.2722
 21
-7151.722811
 31
0.0
  0
LINE
  5
3FC
330
18
100
AcDbEntity
  8
CROSS_SECTIONS
100
AcDbLine
 10
5834.7278
 20
-7151.722811
 30
0.0
 11
5918.168941
 21
-7151.722811
 31
0.0
  0
LINE
  5
3FD
330
18
100
AcDbEntity
  8
CROSS_SECTIONS
100
AcDbLine
 10
6025.2722
 20
-7151.722811
 30
0.0
 11
6037.103259
 21
-7151.722811
 31
0.0
  0
LINE
  5
3FE
330
18
100
AcDbEntity
  8
CROSS_SECTIONS
100
AcDbLine
 10
5822.896741
 20
-7151.722811
 30
0.0
 11
5834.7278
 21
-7151.722811
 31
0.0
  0
LINE
  5
3FF
330
18
100
AcDbEntity
  8
CROSS_SECTIONS
100
AcDbLine
 10
6037.103259
 20
-7151.722811
 30
0.0
 11
6041.106517
 21
-7129.021792
 31
0.0
  0
LINE
  5
400
330
18
100
AcDbEntity
  8
CROSS_SECTIONS
100
AcDbLine
 10
5818.893483
 20
-7129.021792
 30
0.0
 11
5822.896741
 21
-7151.722811
 31
0.0
  0
LINE
  5
401
330
18
100
AcDbEntity
  8
CROSS_SECTIONS
100
AcDbLine
 10
6041.106517
 20
-7129.021792
 30
0.0
 11
6083.836456
 21
-6884.754582
 31
0.0
  0
LINE
  5
402
330
18
100
AcDbEntity
  8
CROSS_SECTIONS
100
AcDbLine
 10
5776.163544
 20
-6884.754582
 30
0.0
 11
5818.893483
 21
-7129.021792
 31
0.0
  0
LINE
  5
403
330
18
100
AcDbEntity
  8
CROSS_SECTIONS
100
AcDbLine
 10
6083.836456
 20
-6884.754582
 30
0.0
 11
6087.839715
 21
-6862.053564
 31
0.0
  0
LINE
  5
404
330
18
100
AcDbEntity
  8
CROSS_SECTIONS
100
AcDbLine
 10
5772.160285
 20
-6862.053564
 30
0.0
 11
5776.163544
 21
-6884.754582
 31
0.0
  0
LINE
  5
405
330
18
100
AcDbEntity
  8
CROSS_SECTIONS
100
AcDbLine
 10
6083.836456
 20
-6861.997963
 30
0.0
 11
6087.839715
 21
-6862.053564
 31
0.0
  0
LINE
  5
406
330
18
100
AcDbEntity
  8
CROSS_SECTIONS
100
AcDbLine
 10
5772.160285
 20
-6862.053564
 30
0.0
 11
5776.163544
 21
-6861.997963
 31
0.0
  0
LINE
  5
407
330
18
100
AcDbEntity
  8
CROSS_SECTIONS
100
AcDbLine
 10
6041.106517
 20
-6861.493279
 30
0.0
 11
6083.836456
 21
-6861.997963
 31
0.0
  0
LINE
  5
408
330
18
100
AcDbEntity
  8
CROSS_SECTIONS
100
AcDbLine
 10
5776.163544
 20
-6861.997963
 30
0.0
 11
5818.893483
 21
-6861.493279
 31
0.0
  0
LINE
  5
409
330
18
100
AcDbEntity
  8
CROSS_SECTIONS
100
AcDbLine
 10
6037.103259
 20
-6861.437678
 30
0.0
 11
6041.106517
 21
-6861.493279
 31
0.0
  0
LINE
  5
40A
330
18
100
AcDbEntity
  8
CROSS_SECTIONS
100
AcDbLine
 10
5818.893483
 20
-6861.493279
 30
0.0
 11
5822.896741
 21
-6861.437678
 31
0.0
  0
LINE
  5
40B
330
18
100
AcDbEntity
  8
CROSS_SECTIONS
100
AcDbLine
 10
6037.103259
 20
-6861.437678
 30
0.0
 11
6037.103259
 21
-6859.289104
 31
0.0
  0
LINE
  5
40C
330
18
100
AcDbEntity
  8
CROSS_SECTIONS
100
AcDbLine
 10
5822.896741
 20
-6861.437678
 30
0.0
 11
5822.896741
 21
-6859.289104
 31
0.0
  0
LINE
  5
40D
330
18
100
AcDbEntity
  8
CROSS_SECTIONS
100
AcDbLine
 10
6037.103259
 20
-6859.289104
 30
0.0
 11
6037.103259
 21
-6844.148574
 31
0.0
  0
LINE
  5
40E
330
18
100
AcDbEntity
  8
CROSS_SECTIONS
100
AcDbLine
 10
5822.896741
 20
-6859.289104
 30
0.0
 11
5822.896741
 21
-6844.148574
 31
0.0
  0
LINE
  5
40F
330
18
100
AcDbEntity
  8
CROSS_SECTIONS
100
AcDbLine
 10
6037.103259
 20
-6844.148574
 30
0.0
 11
6037.103259
 21
-6842.0
 31
0.0
  0
LINE
  5
410
330
18
100
AcDbEntity
  8
CROSS_SECTIONS
100
AcDbLine
 10
5822.896741
 20
-6844.148574
 30
0.0
 11
5822.896741
 21
-6842.0
 31
0.0
  0
TEXT
  5
411
330
18
100
AcDbEntity
  8
CROSS_SECTIONS
100
AcDbText
 10
5857.805669
 20
-7485.060838
 30
0.0
 40
48.126316
  1
3600
  7
Arial
100
AcDbText
  0
LINE
  5
412
330
18
100
AcDbEntity
  8
CROSS_SECTIONS
100
AcDbLine
 10
5930.0
 20
-7515.48615
 30
0.0
 11
5952.120776
 21
-7515.48615
 31
0.0
  0
LINE
  5
413
330
18
100
AcDbEntity
  8
CROSS_SECTIONS
100
AcDbLine
 10
5907.879224
 20
-7515.48615
 30
0.0
 11
5930.0
 21
-7515.48615
 31
0.0
  0
LINE
  5
414
330
18
100
AcDbEntity
  8
CROSS_SECTIONS
100
AcDbLine
 10
5962.837673
 20
-7515.48615
 30
0.0
 11
5984.958449
 21
-7515.48615
 31
0.0
  0
LINE
  5
415
330
18
100
AcDbEntity
  8
CROSS_SECTIONS
100
AcDbLine
 10
5875.041551
 20
-7515.48615
 30
0.0
 11
5897.162327
 21
-7515.48615
 31
0.0
  0
LINE
  5
416
330
18
100
AcDbEntity
  8
CROSS_SECTIONS
100
AcDbLine
 10
5952.120776
 20
-7515.48615
 30
0.0
 11
5962.837673
 21
-7515.48615
 31
0.0
  0
LINE
  5
417
330
18
100
AcDbEntity
  8
CROSS_SECTIONS
100
AcDbLine
 10
5897.162327
 20
-7515.48615
 30
0.0
 11
5907.879224
 21
-7515.48615
 31
0.0
  0
LINE
  5
418
330
18
100
AcDbEntity
  8
CROSS_SECTIONS
100
AcDbLine
 10
5984.958449
 20
-7515.48615
 30
0.0
 11
6007.881994
 21
-7383.831856
 31
0.0
  0
LINE
  5
419
330
18
100
AcDbEntity
  8
CROSS_SECTIONS
100
AcDbLine
 10
5852.118006
 20
-7383.831856
 30
0.0
 11
5875.041551
 21
-7515.48615
 31
0.0
  0
LINE
  5
41A
330
18
100
AcDbEntity
  8
CROSS_SECTIONS
100
AcDbLine
 10
6013.370083
 20
-7352.459003
 30
0.0
 11
6036.293629
 21
-7220.804709
 31
0.0
  0
LINE
  5
41B
330
18
100
AcDbEntity
  8
CROSS_SECTIONS
100
AcDbLine
 10
5823.706371
 20
-7220.804709
 30
0.0
 11
5846.629917
 21
-7352.459003
 31
0.0
  0
LINE
  5
41C
330
18
100
AcDbEntity
  8
CROSS_SECTIONS
100
AcDbLine
 10
6007.881994
 20
-7383.831856
 30
0.0
 11
6013.370083
 21
-7352.459003
 31
0.0
  0
LINE
  5
41D
330
18
100
AcDbEntity
  8
CROSS_SECTIONS
100
AcDbLine
 10
5846.629917
 20
-7352.459003
 30
0.0
 11
5852.118006
 21
-7383.831856
 31
0.0
  0
LINE
  5
41E
330
18
100
AcDbEntity
  8
CROSS_SECTIONS
100
AcDbLine
 10
6013.370083
 20
-7220.670914
 30
0.0
 11
6036.293629
 21
-7220.804709
 31
0.0
  0
LINE
  5
41F
330
18
100
AcDbEntity
  8
CROSS_SECTIONS
100
AcDbLine
 10
5823.706371
 20
-7220.804709
 30
0.0
 11
5846.629917
 21
-7220.670914
 31
0.0
  0
LINE
  5
420
330
18
100
AcDbEntity
  8
CROSS_SECTIONS
100
AcDbLine
 10
5984.958449
 20
-7220.472299
 30
0.0
 11
6007.881994
 21
-7220.606094
 31
0.0
  0
LINE
  5
421
330
18
100
AcDbEntity
  8
CROSS_SECTIONS
100
AcDbLine
 10
5852.118006
 20
-7220.606094
 30
0.0
 11
5875.041551
 21
-7220.472299
 31
0.0
  0
LINE
  5
422
330
18
100
AcDbEntity
  8
CROSS_SECTIONS
100
AcDbLine
 10
6007.881994
 20
-7220.606094
 30
0.0
 11
6013.370083
 21
-7220.670914
 31
0.0
  0
LINE
  5
423
330
18
100
AcDbEntity
  8
CROSS_SECTIONS
100
AcDbLine
 10
5846.629917
 20
-7220.670914
 30
0.0
 11
5852.118006
 21
-7220.606094
 31
0.0
  0
LINE
  5
424
330
18
100
AcDbEntity
  8
CROSS_SECTIONS
100
AcDbLine
 10
5984.958449
 20
-7220.472299
 30
0.0
 11
5984.958449
 21
-7216.458449
 31
0.0
  0
LINE
  5
425
330
18
100
AcDbEntity
  8
CROSS_SECTIONS
100
AcDbLine
 10
5875.041551
 20
-7220.472299
 30
0.0
 11
5875.041551
 21
-7216.458449
 31
0.0
  0
LINE
  5
426
330
18
100
AcDbEntity
  8
CROSS_SECTIONS
100
AcDbLine
 10
5984.958449
 20
-7214.51385
 30
0.0
 11
5984.958449
 21
-7210.5
 31
0.0
  0
LINE
  5
427
330
18
100
AcDbEntity
  8
CROSS_SECTIONS
100
AcDbLine
 10
5875.041551
 20
-7214.51385
 30
0.0
 11
5875.041551
 21
-7210.5
 31
0.0
  0
LINE
  5
428
330
18
100
AcDbEntity
  8
CROSS_SECTIONS
100
AcDbLine
 10
5984.958449
 20
-7216.458449
 30
0.0
 11
5984.958449
 21
-7214.51385
 31
0.0
  0
LINE
  5
429
330
18
100
AcDbEntity
  8
CROSS_SECTIONS
100
AcDbLine
 10
5875.041551
 20
-7216.458449
 30
0.0
 11
5875.041551
 21
-7214.51385
 31
0.0
  0
TEXT
  5
42A
330
18
100
AcDbEntity
  8
CROSS_SECTIONS
100
AcDbText
 10
5857.805669
 20
-7853.560838
 30
0.0
 40
48.126316
  1
3800
  7
Arial
100
AcDbText
  0
LINE
  5
42B
330
18
100
AcDbEntity
  8
CROSS_SECTIONS
100
AcDbLine
 10
5930.0
 20
-7878.998121
 30
0.0
 11
5930.000158
 21
-7878.997212
 31
0.0
  0
LINE
  5
42C
330
18
100
AcDbEntity
  8
CROSS_SECTIONS
100
AcDbLine
 10
5929.999842
 20
-7878.997212
 30
0.0
 11
5930.0
 21
-7878.998121
 31
0.0
  0
LINE
  5
42D
330
18
100
AcDbEntity
  8
CROSS_SECTIONS
100
AcDbLine
 10
5981.999527
 20
-7579.000848
 30
0.0
 11
5981.999685
 21
-7578.999939
 31
0.0
  0
LINE
  5
42E
330
18
100
AcDbEntity
  8
CROSS_SECTIONS
100
AcDbLine
 10
5878.000315
 20
-7578.999939
 30
0.0
 11
5878.000473
 21
-7579.000848
 31
0.0
  0
LINE
  5
42F
330
18
100
AcDbEntity
  8
CROSS_SECTIONS
100
AcDbLine
 10
5930.000158
 20
-7878.997212
 30
0.0
 11
5981.999527
 21
-7579.000848
 31
0.0
  0
LINE
  5
430
330
18
100
AcDbEntity
  8
CROSS_SECTIONS
100
AcDbLine
 10
5878.000473
 20
-7579.000848
 30
0.0
 11
5929.999842
 21
-7878.997212
 31
0.0
  0
LINE
  5
431
330
18
100
AcDbEntity
  8
CROSS_SECTIONS
100
AcDbLine
 10
5981.999527
 20
-7578.999939
 30
0.0
 11
5981.999685
 21
-7578.999939
 31
0.0
  0
LINE
  5
432
330
18
100
AcDbEntity
  8
CROSS_SECTIONS
100
AcDbLine
 10
5878.000315
 20
-7578.999939
 30
0.0
 11
5878.000473
 21
-7578.999939
 31
0.0
  0
LINE
  5
433
330
18
100
AcDbEntity
  8
CROSS_SECTIONS
100
AcDbLine
 10
5930.0
 20
-7578.999939
 30
0.0
 11
5930.000158
 21
-7578.999939
 31
0.0
  0
LINE
  5
434
330
18
100
AcDbEntity
  8
CROSS_SECTIONS
100
AcDbLine
 10
5929.999842
 20
-7578.999939
 30
0.0
 11
5930.0
 21
-7578.999939
 31
0.0
  0
LINE
  5
435
330
18
100
AcDbEntity
  8
CROSS_SECTIONS
100
AcDbLine
 10
5930.000158
 20
-7578.999939
 30
0.0
 11
5981.999527
 21
-7578.999939
 31
0.0
  0
LINE
  5
436
330
18
100
AcDbEntity
  8
CROSS_SECTIONS
100
AcDbLine
 10
5878.000473
 20
-7578.999939
 30
0.0
 11
5929.999842
 21
-7578.999939
 31
0.0
  0
ENDSEC
  0
SECTION
  2
OBJECTS
  0
DICTIONARY
  5
C
330
0
100
AcDbDictionary
281
     1
  3
ACAD_DETAILVIEWSTYLE
350
4AE
  3
ACAD_GROUP
350
D
  3
ACAD_LAYOUT
350
459
  3
ACAD_MATERIAL
350
475
  3
ACAD_MLEADERSTYLE
350
4AC
  3
ACAD_MLINESTYLE
350
1B
  3
ACAD_SCALELIST
350
437
  3
ACAD_SECTIONVIEWSTYLE
350
4AF
  3
ACAD_TABLESTYLE
350
4AB
  3
ACAD_VISUALSTYLE
350
45C
  3
AcDbVariableDictionary
350
479
  0
DICTIONARY
  5
4AE
102
{ACAD_REACTORS
330
C
102
}
330
C
100
AcDbDictionary
281
     1
  0
DICTIONARY
  5
D
102
{ACAD_REACTORS
330
C
102
}
330
C
100
AcDbDictionary
281
     1
  0
DICTIONARY
  5
459
102
{ACAD_REACTORS
330
C
102
}
330
C
100
AcDbDictionary
281
     1
  3
Layout1
350
45B
  3
Model
350
45A
  0
DICTIONARY
  5
475
102
{ACAD_REACTORS
330
C
102
}
330
C
100
AcDbDictionary
281
     1
  3
ByBlock
350
477
  3
ByLayer
350
476
  3
Global
350
478
  0
DICTIONARY
  5
4AC
102
{ACAD_REACTORS
330
C
102
}
330
C
100
AcDbDictionary
281
     1
  0
DICTIONARY
  5
1B
102
{ACAD_REACTORS
330
C
102
}
330
C
100
AcDbDictionary
281
     1
  3
STANDARD
350
1C
  0
DICTIONARY
  5
437
102
{ACAD_REACTORS
330
C
102
}
330
C
100
AcDbDictionary
281
     1
  3
A0
350
438
  3
A1
350
439
  3
A2
350
43A
  3
A3
350
43B
  3
A4
350
43C
  3
A5
350
43D
  3
A6
350
43E
  3
A7
350
43F
  3
A8
350
440
  3
A9
350
441
  3
B0
350
442
  3
B1
350
443
  3
B2
350
444
  3
B3
350
445
  3
B4
350
446
  3
B5
350
447
  3
B6
350
448
  3
B7
350
449
  3
B8
350
44A
  3
B9
350
44B
  3
C0
350
44C
  3
C1
350
44D
  3
C2
350
44E
  3
C3
350
44F
  3
C4
350
450
  3
C5
350
451
  3
C6
350
452
  3
C7
350
453
  3
C8
350
454
  3
C9
350
455
  3
D0
350
456
  3
D1
350
457
  3
D2
350
458
  0
DICTIONARY
  5
4AF
102
{ACAD_REACTORS
330
C
102
}
330
C
100
AcDbDictionary
281
     1
  0
DICTIONARY
  5
4AB
102
{ACAD_REACTORS
330
C
102
}
330
C
100
AcDbDictionary
281
     1
  0
DICTIONARY
  5
45C
102
{ACAD_REACTORS
330
C
102
}
330
C
100
AcDbDictionary
281
     1
  3
2dWireframe
350
461
  3
Basic
350
464
  3
Brighten
350
468
  3
ColorChange
350
46C
  3
Conceptual
350
466
  3
Dim
350
467
  3
EdgeColorOff
350
46F
  3
Facepattern
350
46B
  3
Flat
350
45D
  3
FlatWithEdges
350
45E
  3
Gouraud
350
45F
  3
GouraudWithEdges
350
460
  3
Hidden
350
463
  3
JitterOff
350
46D
  3
Linepattern
350
46A
  3
OverhangOff
350
46E
  3
Realistic
350
465
  3
Shaded
350
474
  3
Shaded with edges
350
473
  3
Shades of Gray
350
470
  3
Sketchy
350
471
  3
Thicken
350
469
  3
Wireframe
350
462
  3
X-Ray
350
472
  0
DICTIONARY
  5
479
102
{ACAD_REACTORS
330
C
102
}
330
C
100
AcDbDictionary
281
     1
  3
CANNOSCALE
350
47A
  3
MSLTSCALE
350
4AD
  0
LAYOUT
  5
45B
102
{ACAD_REACTORS
330
459
102
}
330
459
100
AcDbPlotSettings
  1

  2
none_device
  4

  6

 40
0.0
 41
0.0
 42
0.0
 43
0.0
 44
0.0
 45
0.0
 46
0.0
 47
0.0
 48
0.0
 49
0.0
140
0.0
141
0.0
142
1.0
143
1.0
 70
   688
 72
     1
 73
     0
 74
     5
  7

 75
    16
 76
     0
 77
     2
 78
   300
147
1.0
148
0.0
149
0.0
100
AcDbLayout
  1
Layout1
 70
     1
 71
     1
 10
0.0
 20
0.0
 11
12.0
 21
9.0
 12
0.0
 22
0.0
 32
0.0
 14
1.000000000000000E+20
 24
1.000000000000000E+20
 34
1.000000000000000E+20
 15
-1.000000000000000E+20
 25
-1.000000000000000E+20
 35
-1.000000000000000E+20
146
0.0
 13
0.0
 23
0.0
 33
0.0
 16
1.0
 26
0.0
 36
0.0
 17
0.0
 27
1.0
 37
0.0
 76
     0
330
15
  0
LAYOUT
  5
45A
102
{ACAD_REACTORS
330
459
102
}
330
459
100
AcDbPlotSettings
  1

  2
none_device
  4
Letter_(8.50_x_11.00_Inches)
  6

 40
6.35
 41
6.35
 42
6.35000508
 43
6.35000508
 44
215.9
 45
279.4
 46
0.0
 47
0.0
 48
0.0
 49
0.0
140
0.0
141
0.0
142
1.0
143
47.17040212027725
 70
  1712
 72
     1
 73
     0
 74
     0
  7

 75
     0
 76
     0
 77
     2
 78
   300
147
0.0211997344743883
148
0.0611076073473669
149
7879.0616215
100
AcDbLayout
  1
Model
 70
     1
 71
     0
 10
0.0
 20
0.0
 11
9584.966756
 21
1696.407532
 12
0.0
 22
0.0
 32
0.0
 14
-0.0635
 24
-7879.061621
 34
0.0
 15
9584.966756
 25
1696.407532
 35
0.0
146
0.0
 13
0.0
 23
0.0
 33
0.0
 16
1.0
 26
0.0
 36
0.0
 17
0.0
 27
1.0
 37
0.0
 76
     0
330
18
331
1E
  0
MATERIAL
  5
477
102
{ACAD_REACTORS
330
475
102
}
330
475
100
AcDbMaterial
  1
ByBlock
 72
     1
 94
      127
  0
MATERIAL
  5
476
102
{ACAD_REACTORS
330
475
102
}
330
475
100
AcDbMaterial
  1
ByLayer
 72
     1
 94
      127
  0
MATERIAL
  5
478
102
{ACAD_REACTORS
330
475
102
}
330
475
100
AcDbMaterial
  1
Global
 72
     1
 94
      127
  0
MLINESTYLE
  5
1C
102
{ACAD_REACTORS
330
1B
102
}
330
1B
100
AcDbMlineStyle
  2
STANDARD
 70
     0
  3

 62
   256
 51
90.0
 52
90.0
 71
     2
 49
0.5
 62
   256
  6
BYLAYER
 49
-0.5
 62
   256
  6
BYLAYER
  0
SCALE
  5
438
102
{ACAD_REACTORS
330
437
102
}
330
437
100
AcDbScale
 70
     0
300
1:1
140
1.0
141
1.0
290
     1
  0
SCALE
  5
439
102
{ACAD_REACTORS
330
437
102
}
330
437
100
AcDbScale
 70
     0
300
1:2
140
1.0
141
2.0
290
     0
  0
SCALE
  5
43A
102
{ACAD_REACTORS
330
437
102
}
330
437
100
AcDbScale
 70
     0
300
1:4
140
1.0
141
4.0
290
     0
  0
SCALE
  5
43B
102
{ACAD_REACTORS
330
437
102
}
330
437
100
AcDbScale
 70
     0
300
1:5
140
1.0
141
5.0
290
     0
  0
SCALE
  5
43C
102
{ACAD_REACTORS
330
437
102
}
330
437
100
AcDbScale
 70
     0
300
1:8
140
1.0
141
8.0
290
     0
  0
SCALE
  5
43D
102
{ACAD_REACTORS
330
437
102
}
330
437
100
AcDbScale
 70
     0
300
1:10
140
1.0
141
10.0
290
     0
  0
SCALE
  5
43E
102
{ACAD_REACTORS
330
437
102
}
330
437
100
AcDbScale
 70
     0
300
1:16
140
1.0
141
16.0
290
     0
  0
SCALE
  5
43F
102
{ACAD_REACTORS
330
437
102
}
330
437
100
AcDbScale
 70
     0
300
1:20
140
1.0
141
20.0
290
     0
  0
SCALE
  5
440
102
{ACAD_REACTORS
330
437
102
}
330
437
100
AcDbScale
 70
     0
300
1:30
140
1.0
141
30.0
290
     0
  0
SCALE
  5
441
102
{ACAD_REACTORS
330
437
102
}
330
437
100
AcDbScale
 70
     0
300
1:40
140
1.0
141
40.0
290
     0
  0
SCALE
  5
442
102
{ACAD_REACTORS
330
437
102
}
330
437
100
AcDbScale
 70
     0
300
1:50
140
1.0
141
50.0
290
     0
  0
SCALE
  5
443
102
{ACAD_REACTORS
330
437
102
}
330
437
100
AcDbScale
 70
     0
300
1:100
140
1.0
141
100.0
290
     0
  0
SCALE
  5
444
102
{ACAD_REACTORS
330
437
102
}
330
437
100
AcDbScale
 70
     0
300
2:1
140
2.0
141
1.0
290
     0
  0
SCALE
  5
445
102
{ACAD_REACTORS
330
437
102
}
330
437
100
AcDbScale
 70
     0
300
4:1
140
4.0
141
1.0
290
     0
  0
SCALE
  5
446
102
{ACAD_REACTORS
330
437
102
}
330
437
100
AcDbScale
 70
     0
300
8:1
140
8.0
141
1.0
290
     0
  0
SCALE
  5
447
102
{ACAD_REACTORS
330
437
102
}
330
437
100
AcDbScale
 70
     0
300
10:1
140
10.0
141
1.0
290
     0
  0
SCALE
  5
448
102
{ACAD_REACTORS
330
437
102
}
330
437
100
AcDbScale
 70
     0
300
100:1
140
100.0
141
1.0
290
     0
  0
SCALE
  5
449
102
{ACAD_REACTORS
330
437
102
}
330
437
100
AcDbScale
 70
     0
300
1/128" = 1'-0"
140
0.0078125
141
12.0
290
     0
  0
SCALE
  5
44A
102
{ACAD_REACTORS
330
437
102
}
330
437
100
AcDbScale
 70
     0
300
1/64" = 1'-0"
140
0.015625
141
12.0
290
     0
  0
SCALE
  5
44B
102
{ACAD_REACTORS
330
437
102
}
330
437
100
AcDbScale
 70
     0
300
1/32" = 1'-0"
140
0.03125
141
12.0
290
     0
  0
SCALE
  5
44C
102
{ACAD_REACTORS
330
437
102
}
330
437
100
AcDbScale
 70
     0
300
1/16" = 1'-0"
140
0.0625
141
12.0
290
     0
  0
SCALE
  5
44D
102
{ACAD_REACTORS
330
437
102
}
330
437
100
AcDbScale
 70
     0
300
3/32" = 1'-0"
140
0.09375
141
12.0
290
     0
  0
SCALE
  5
44E
102
{ACAD_REACTORS
330
437
102
}
330
437
100
AcDbScale
 70
     0
300
1/8" = 1'-0"
140
0.125
141
12.0
290
     0
  0
SCALE
  5
44F
102
{ACAD_REACTORS
330
437
102
}
330
437
100
AcDbScale
 70
     0
300
3/16" = 1'-0"
140
0.1875
141
12.0
290
     0
  0
SCALE
  5
450
102
{ACAD_REACTORS
330
437
102
}
330
437
100
AcDbScale
 70
     0
300
1/4" = 1'-0"
140
0.25
141
12.0
290
     0
  0
SCALE
  5
451
102
{ACAD_REACTORS
330
437
102
}
330
437
100
AcDbScale
 70
     0
300
3/8" = 1'-0"
140
0.375
141
12.0
290
     0
  0
SCALE
  5
452
102
{ACAD_REACTORS
330
437
102
}
330
437
100
AcDbScale
 70
     0
300
1/2" = 1'-0"
140
0.5
141
12.0
290
     0
  0
SCALE
  5
453
102
{ACAD_REACTORS
330
437
102
}
330
437
100
AcDbScale
 70
     0
300
3/4" = 1'-0"
140
0.75
141
12.0
290
     0
  0
SCALE
  5
454
102
{ACAD_REACTORS
330
437
102
}
330
437
100
AcDbScale
 70
     0
300
1" = 1'-0"
140
1.0
141
12.0
290
     0
  0
SCALE
  5
455
102
{ACAD_REACTORS
330
437
102
}
330
437
100
AcDbScale
 70
     0
300
1-1/2" = 1'-0"
140
1.5
141
12.0
290
     0
  0
SCALE
  5
456
102
{ACAD_REACTORS
330
437
102
}
330
437
100
AcDbScale
 70
     0
300
3" = 1'-0"
140
3.0
141
12.0
290
     0
  0
SCALE
  5
457
102
{ACAD_REACTORS
330
437
102
}
330
437
100
AcDbScale
 70
     0
300
6" = 1'-0"
140
6.0
141
12.0
290
     0
  0
SCALE
  5
458
102
{ACAD_REACTORS
330
437
102
}
330
437
100
AcDbScale
 70
     0
300
1'-0" = 1'-0"
140
12.0
141
12.0
290
     0
  0
VISUALSTYLE
  5
461
102
{ACAD_REACTORS
330
45C
102
}
102
{ACAD_XDICTIONARY
360
483
102
}
330
45C
100
AcDbVisualStyle
  2
2dWireframe
 70
     4
177
     2
291
     0
 71
     0
176
     1
 72
     2
176
     1
 73
     0
176
     1
 90
        0
176
     1
 40
0.6
176
     1
 41
30.0
176
     1
 62
     5
 63
     7
421
 16777215
176
     1
 74
     1
176
     1
 91
        4
176
     1
 64
     7
176
     1
 65
   257
176
     1
 75
     1
176
     1
175
     1
176
     1
 42
1.0
176
     1
 92
        0
176
     1
 66
   257
176
     1
 43
1.0
176
     1
 76
     1
176
     1
 77
     6
176
     1
 78
     2
176
     1
 67
     7
176
     1
 79
     5
176
     1
170
     0
176
     1
171
     0
176
     1
290
     0
176
     1
 93
        1
176
     1
 44
0.0
176
     1
173
     0
176
     1
  0
VISUALSTYLE
  5
464
102
{ACAD_REACTORS
330
45C
102
}
102
{ACAD_XDICTIONARY
360
489
102
}
330
45C
100
AcDbVisualStyle
  2
Basic
 70
     7
177
     2
291
     1
 71
     1
176
     1
 72
     0
176
     1
 73
     1
176
     1
 90
        0
176
     1
 40
0.6
176
     1
 41
30.0
176
     1
 62
     5
 63
     7
421
 16777215
176
     1
 74
     0
176
     1
 91
        4
176
     1
 64
     7
176
     1
 65
   257
176
     1
 75
     1
176
     1
175
     1
176
     1
 42
1.0
176
     1
 92
        8
176
     1
 66
     7
176
     1
 43
1.0
176
     1
 76
     1
176
     1
 77
     6
176
     1
 78
     2
176
     1
 67
     7
176
     1
 79
     5
176
     1
170
     0
176
     1
171
     0
176
     1
290
     0
176
     1
 93
        1
176
     1
 44
0.0
176
     1
173
     0
176
     1
  0
VISUALSTYLE
  5
468
102
{ACAD_REACTORS
330
45C
102
}
102
{ACAD_XDICTIONARY
360
491
102
}
330
45C
100
AcDbVisualStyle
  2
Brighten
 70
    12
177
     2
291
     1
 71
     2
176
     1
 72
     2
176
     1
 73
     0
176
     1
 90
        0
176
     1
 40
0.6
176
     1
 41
30.0
176
     1
 62
     5
 63
     7
421
 16777215
176
     1
 74
     1
176
     1
 91
        4
176
     1
 64
     7
176
     1
 65
   257
176
     1
 75
     1
176
     1
175
     1
176
     1
 42
1.0
176
     1
 92
        8
176
     1
 66
     7
176
     1
 43
1.0
176
     1
 76
     1
176
     1
 77
     6
176
     1
 78
     2
176
     1
 67
     7
176
     1
 79
     5
176
     1
170
     0
176
     1
171
     0
176
     1
290
     0
176
     1
 93
        1
176
     1
 44
50.0
176
     1
173
     0
176
     1
  0
VISUALSTYLE
  5
46C
102
{ACAD_REACTORS
330
45C
102
}
102
{ACAD_XDICTIONARY
360
499
102
}
330
45C
100
AcDbVisualStyle
  2
ColorChange
 70
    16
177
     2
291
     1
 71
     2
176
     1
 72
     2
176
     1
 73
     3
176
     1
 90
        0
176
     1
 40
0.6
176
     1
 41
30.0
176
     1
 62
     5
 63
     8
421
  8421504
176
     1
 74
     1
176
     1
 91
        4
176
     1
 64
     7
176
     1
 65
   257
176
     1
 75
     1
176
     1
175
     1
176
     1
 42
1.0
176
     1
 92
        8
176
     1
 66
     8
424
  8421504
176
     1
 43
1.0
176
     1
 76
     1
176
     1
 77
     6
176
     1
 78
     2
176
     1
 67
     7
176
     1
 79
     5
176
     1
170
     0
176
     1
171
     0
176
     1
290
     0
176
     1
 93
        1
176
     1
 44
0.0
176
     1
173
     0
176
     1
  0
VISUALSTYLE
  5
466
102
{ACAD_REACTORS
330
45C
102
}
102
{ACAD_XDICTIONARY
360
48D
102
}
330
45C
100
AcDbVisualStyle
  2
Conceptual
 70
     9
177
     2
291
     0
 71
     3
176
     1
 72
     2
176
     1
 73
     0
176
     1
 90
        0
176
     1
 40
0.6
176
     1
 41
30.0
176
     1
 62
     5
 63
     7
421
 16777215
176
     1
 74
     2
176
     1
 91
        2
176
     1
 64
     7
176
     1
 65
   257
176
     1
 75
     1
176
     1
175
     1
176
     1
 42
179.0
176
     1
 92
        8
176
     1
 66
     7
176
     1
 43
1.0
176
     1
 76
     1
176
     1
 77
     6
176
     1
 78
     2
176
     1
 67
     7
176
     1
 79
     3
176
     1
170
     0
176
     1
171
     0
176
     1
290
     0
176
     1
 93
        1
176
     1
 44
0.0
176
     1
173
     0
176
     1
  0
VISUALSTYLE
  5
467
102
{ACAD_REACTORS
330
45C
102
}
102
{ACAD_XDICTIONARY
360
48F
102
}
330
45C
100
AcDbVisualStyle
  2
Dim
 70
    11
177
     2
291
     1
 71
     2
176
     1
 72
     2
176
     1
 73
     0
176
     1
 90
        0
176
     1
 40
0.6
176
     1
 41
30.0
176
     1
 62
     5
 63
     7
421
 16777215
176
     1
 74
     1
176
     1
 91
        4
176
     1
 64
     7
176
     1
 65
   257
176
     1
 75
     1
176
     1
175
     1
176
     1
 42
1.0
176
     1
 92
        8
176
     1
 66
     7
176
     1
 43
1.0
176
     1
 76
     1
176
     1
 77
     6
176
     1
 78
     2
176
     1
 67
     7
176
     1
 79
     5
176
     1
170
     0
176
     1
171
     0
176
     1
290
     0
176
     1
 93
        1
176
     1
 44
-50.0
176
     1
173
     0
176
     1
  0
VISUALSTYLE
  5
46F
102
{ACAD_REACTORS
330
45C
102
}
102
{ACAD_XDICTIONARY
360
49F
102
}
330
45C
100
AcDbVisualStyle
  2
EdgeColorOff
 70
    22
177
     2
291
     1
 71
     2
176
     0
 72
     2
176
     0
 73
     0
176
     0
 90
        0
176
     0
 40
0.6
176
     0
 41
30.0
176
     0
 62
     5
 63
     7
421
 16777215
176
     0
 74
     1
176
     0
 91
        4
176
     0
 64
     7
176
     0
 65
   257
176
     0
 75
     1
176
     0
175
     1
176
     0
 42
1.0
176
     0
 92
        8
176
     2
 66
     7
176
     0
 43
1.0
176
     0
 76
     1
176
     0
 77
     6
176
     0
 78
     2
176
     0
 67
     7
176
     0
 79
     5
176
     0
170
     0
176
     0
171
     0
176
     0
290
     0
176
     0
 93
        1
176
     0
 44
0.0
176
     0
173
     0
176
     0
  0
VISUALSTYLE
  5
46B
102
{ACAD_REACTORS
330
45C
102
}
102
{ACAD_XDICTIONARY
360
497
102
}
330
45C
100
AcDbVisualStyle
  2
Facepattern
 70
    15
177
     2
291
     1
 71
     2
176
     1
 72
     2
176
     1
 73
     0
176
     1
 90
        0
176
     1
 40
0.6
176
     1
 41
30.0
176
     1
 62
     5
 63
     7
421
 16777215
176
     1
 74
     1
176
     1
 91
        4
176
     1
 64
     7
176
     1
 65
   257
176
     1
 75
     1
176
     1
175
     1
176
     1
 42
1.0
176
     1
 92
        8
176
     1
 66
     7
176
     1
 43
1.0
176
     1
 76
     1
176
     1
 77
     6
176
     1
 78
     2
176
     1
 67
     7
176
     1
 79
     5
176
     1
170
     0
176
     1
171
     0
176
     1
290
     0
176
     1
 93
        1
176
     1
 44
0.0
176
     1
173
     0
176
     1
  0
VISUALSTYLE
  5
45D
102
{ACAD_REACTORS
330
45C
102
}
102
{ACAD_XDICTIONARY
360
47B
102
}
330
45C
100
AcDbVisualStyle
  2
Flat
 70
     0
177
     2
291
     1
 71
     2
176
     1
 72
     1
176
     1
 73
     1
176
     1
 90
        2
176
     1
 40
0.6
176
     1
 41
30.0
176
     1
 62
     5
 63
     7
421
 16777215
176
     1
 74
     0
176
     1
 91
        0
176
     1
 64
     7
176
     1
 65
   257
176
     1
 75
     1
176
     1
175
     1
176
     1
 42
1.0
176
     1
 92
        8
176
     1
 66
     7
176
     1
 43
1.0
176
     1
 76
     1
176
     1
 77
     6
176
     1
 78
     2
176
     1
 67
     7
176
     1
 79
     5
176
     1
170
     0
176
     1
171
     0
176
     1
290
     0
176
     1
 93
       13
176
     1
 44
0.0
176
     1
173
     0
176
     1
  0
VISUALSTYLE
  5
45E
102
{ACAD_REACTORS
330
45C
102
}
102
{ACAD_XDICTIONARY
360
47D
102
}
330
45C
100
AcDbVisualStyle
  2
FlatWithEdges
 70
     1
177
     2
291
     1
 71
     2
176
     1
 72
     1
176
     1
 73
     1
176
     1
 90
        2
176
     1
 40
0.6
176
     1
 41
30.0
176
     1
 62
     5
 63
     7
421
 16777215
176
     1
 74
     1
176
     1
 91
        0
176
     1
 64
     7
176
     1
 65
   257
176
     1
 75
     1
176
     1
175
     1
176
     1
 42
1.0
176
     1
 92
        0
176
     1
 66
   257
176
     1
 43
1.0
176
     1
 76
     1
176
     1
 77
     6
176
     1
 78
     2
176
     1
 67
     7
176
     1
 79
     5
176
     1
170
     0
176
     1
171
     0
176
     1
290
     0
176
     1
 93
       13
176
     1
 44
0.0
176
     1
173
     0
176
     1
  0
VISUALSTYLE
  5
45F
102
{ACAD_REACTORS
330
45C
102
}
102
{ACAD_XDICTIONARY
360
47F
102
}
330
45C
100
AcDbVisualStyle
  2
Gouraud
 70
     2
177
     2
291
     1
 71
     2
176
     1
 72
     2
176
     1
 73
     1
176
     1
 90
        2
176
     1
 40
0.6
176
     1
 41
30.0
176
     1
 62
     5
 63
     7
421
 16777215
176
     1
 74
     0
176
     1
 91
        0
176
     1
 64
     7
176
     1
 65
   257
176
     1
 75
     1
176
     1
175
     1
176
     1
 42
1.0
176
     1
 92
        0
176
     1
 66
     7
176
     1
 43
1.0
176
     1
 76
     1
176
     1
 77
     6
176
     1
 78
     2
176
     1
 67
     7
176
     1
 79
     5
176
     1
170
     0
176
     1
171
     0
176
     1
290
     0
176
     1
 93
       13
176
     1
 44
0.0
176
     1
173
     0
176
     1
  0
VISUALSTYLE
  5
460
102
{ACAD_REACTORS
330
45C
102
}
102
{ACAD_XDICTIONARY
360
481
102
}
330
45C
100
AcDbVisualStyle
  2
GouraudWithEdges
 70
     3
177
     2
291
     1
 71
     2
176
     1
 72
     2
176
     1
 73
     1
176
     1
 90
        2
176
     1
 40
0.6
176
     1
 41
30.0
176
     1
 62
     5
 63
     7
421
 16777215
176
     1
 74
     1
176
     1
 91
        0
176
     1
 64
     7
176
     1
 65
   257
176
     1
 75
     1
176
     1
175
     1
176
     1
 42
1.0
176
     1
 92
        0
176
     1
 66
   257
176
     1
 43
1.0
176
     1
 76
     1
176
     1
 77
     6
176
     1
 78
     2
176
     1
 67
     7
176
     1
 79
     5
176
     1
170
     0
176
     1
171
     0
176
     1
290
     0
176
     1
 93
       13
176
     1
 44
0.0
176
     1
173
     0
176
     1
  0
VISUALSTYLE
  5
463
102
{ACAD_REACTORS
330
45C
102
}
102
{ACAD_XDICTIONARY
360
487
102
}
330
45C
100
AcDbVisualStyle
  2
Hidden
 70
     6
177
     2
291
     0
 71
     1
176
     1
 72
     2
176
     1
 73
     2
176
     1
 90
        0
176
     1
 40
0.6
176
     1
 41
30.0
176
     1
 62
     5
 63
     7
421
 16777215
176
     1
 74
     2
176
     1
 91
        2
176
     1
 64
     7
176
     1
 65
   257
176
     1
 75
     2
176
     1
175
     1
176
     1
 42
40.0
176
     1
 92
        0
176
     1
 66
   257
176
     1
 43
1.0
176
     1
 76
     1
176
     1
 77
     6
176
     1
 78
     2
176
     1
 67
     7
176
     1
 79
     3
176
     1
170
     0
176
     1
171
     0
176
     1
290
     0
176
     1
 93
        1
176
     1
 44
0.0
176
     1
173
     0
176
     1
  0
VISUALSTYLE
  5
46D
102
{ACAD_REACTORS
330
45C
102
}
102
{ACAD_XDICTIONARY
360
49B
102
}
330
45C
100
AcDbVisualStyle
  2
JitterOff
 70
    20
177
     2
291
     1
 71
     2
176
     0
 72
     2
176
     0
 73
     0
176
     0
 90
        0
176
     0
 40
0.6
176
     0
 41
30.0
176
     0
 62
     5
 63
     7
421
 16777215
176
     0
 74
     1
176
     0
 91
        4
176
     0
 64
     7
176
     0
 65
   257
176
     0
 75
     1
176
     0
175
     1
176
     0
 42
1.0
176
     0
 92
       10
176
     2
 66
     7
176
     0
 43
1.0
176
     0
 76
     1
176
     0
 77
     6
176
     0
 78
     2
176
     0
 67
     7
176
     0
 79
     5
176
     0
170
     0
176
     0
171
     0
176
     0
290
     0
176
     0
 93
        1
176
     0
 44
0.0
176
     0
173
     0
176
     0
  0
VISUALSTYLE
  5
46A
102
{ACAD_REACTORS
330
45C
102
}
102
{ACAD_XDICTIONARY
360
495
102
}
330
45C
100
AcDbVisualStyle
  2
Linepattern
 70
    14
177
     2
291
     1
 71
     2
176
     1
 72
     2
176
     1
 73
     0
176
     1
 90
        0
176
     1
 40
0.6
176
     1
 41
30.0
176
     1
 62
     5
 63
     7
421
 16777215
176
     1
 74
     1
176
     1
 91
        4
176
     1
 64
     7
176
     1
 65
   257
176
     1
 75
     7
176
     1
175
     7
176
     1
 42
1.0
176
     1
 92
        8
176
     1
 66
     7
176
     1
 43
1.0
176
     1
 76
     1
176
     1
 77
     6
176
     1
 78
     2
176
     1
 67
     7
176
     1
 79
     5
176
     1
170
     0
176
     1
171
     0
176
     1
290
     0
176
     1
 93
        1
176
     1
 44
0.0
176
     1
173
     0
176
     1
  0
VISUALSTYLE
  5
46E
102
{ACAD_REACTORS
330
45C
102
}
102
{ACAD_XDICTIONARY
360
49D
102
}
330
45C
100
AcDbVisualStyle
  2
OverhangOff
 70
    21
177
     2
291
     1
 71
     2
176
     0
 72
     2
176
     0
 73
     0
176
     0
 90
        0
176
     0
 40
0.6
176
     0
 41
30.0
176
     0
 62
     5
 63
     7
421
 16777215
176
     0
 74
     1
176
     0
 91
        4
176
     0
 64
     7
176
     0
 65
   257
176
     0
 75
     1
176
     0
175
     1
176
     0
 42
1.0
176
     0
 92
        9
176
     2
 66
     7
176
     0
 43
1.0
176
     0
 76
     1
176
     0
 77
     6
176
     0
 78
     2
176
     0
 67
     7
176
     0
 79
     5
176
     0
170
     0
176
     0
171
     0
176
     0
290
     0
176
     0
 93
        1
176
     0
 44
0.0
176
     0
173
     0
176
     0
  0
VISUALSTYLE
  5
465
102
{ACAD_REACTORS
330
45C
102
}
102
{ACAD_XDICTIONARY
360
48B
102
}
330
45C
100
AcDbVisualStyle
  2
Realistic
 70
     8
177
     2
291
     0
 71
     2
176
     1
 72
     3
176
     1
 73
     0
176
     1
 90
        2
176
     1
 40
0.6
176
     1
 41
30.0
176
     1
 62
     5
 63
     7
421
 16777215
176
     1
 74
     0
176
     1
 91
        0
176
     1
 64
     7
176
     1
 65
   257
176
     1
 75
     1
176
     1
175
     1
176
     1
 42
1.0
176
     1
 92
        8
176
     1
 66
   257
176
     1
 43
1.0
176
     1
 76
     1
176
     1
 77
     6
176
     1
 78
     2
176
     1
 67
     7
176
     1
 79
     3
176
     1
170
     0
176
     1
171
     0
176
     1
290
     0
176
     1
 93
       13
176
     1
 44
0.0
176
     1
173
     0
176
     1
  0
VISUALSTYLE
  5
474
102
{ACAD_REACTORS
330
45C
102
}
102
{ACAD_XDICTIONARY
360
4A9
102
}
330
45C
100
AcDbVisualStyle
  2
Shaded
 70
    27
177
     2
291
     0
 71
     2
176
     1
 72
     2
176
     1
 73
     1
176
     1
 90
        2
176
     1
 40
0.6
176
     1
 41
30.0
176
     1
 62
     5
 63
     7
421
 16777215
176
     1
 74
     0
176
     1
 91
        4
176
     1
 64
     7
176
     1
 65
   257
176
     1
 75
     1
176
     1
175
     1
176
     1
 42
1.0
176
     1
 92
        8
176
     1
 66
   257
176
     1
 43
1.0
176
     1
 76
     1
176
     1
 77
     6
176
     1
 78
     2
176
     1
 67
     8
425
  7895160
176
     1
 79
     3
176
     1
170
     0
176
     1
171
     0
176
     1
290
     0
176
     1
 93
        5
176
     1
 44
0.0
176
     1
173
     0
176
     1
  0
VISUALSTYLE
  5
473
102
{ACAD_REACTORS
330
45C
102
}
102
{ACAD_XDICTIONARY
360
4A7
102
}
330
45C
100
AcDbVisualStyle
  2
Shaded with edges
 70
    26
177
     2
291
     0
 71
     2
176
     1
 72
     2
176
     1
 73
     1
176
     1
 90
        2
176
     1
 40
0.6
176
     1
 41
30.0
176
     1
 62
     5
 63
     7
421
 16777215
176
     1
 74
     1
176
     1
 91
       10
176
     1
 64
     7
176
     1
 65
   257
176
     1
 75
     2
176
     1
175
     1
176
     1
 42
1.0
176
     1
 92
        8
176
     1
 66
   257
176
     1
 43
1.0
176
     1
 76
     1
176
     1
 77
     6
176
     1
 78
     2
176
     1
 67
     7
176
     1
 79
     3
176
     1
170
     0
176
     1
171
     0
176
     1
290
     0
176
     1
 93
        5
176
     1
 44
0.0
176
     1
173
     0
176
     1
  0
VISUALSTYLE
  5
470
102
{ACAD_REACTORS
330
45C
102
}
102
{ACAD_XDICTIONARY
360
4A1
102
}
330
45C
100
AcDbVisualStyle
  2
Shades of Gray
 70
    23
177
     2
291
     0
 71
     2
176
     1
 72
     2
176
     1
 73
     3
176
     1
 90
        0
176
     1
 40
0.6
176
     1
 41
30.0
176
     1
 62
     5
 63
     7
421
 16777215
176
     1
 74
     2
176
     1
 91
        2
176
     1
 64
     7
176
     1
 65
     7
176
     1
 75
     1
176
     1
175
     1
176
     1
 42
40.0
176
     1
 92
        8
176
     1
 66
     7
176
     1
 43
1.0
176
     1
 76
     1
176
     1
 77
     6
176
     1
 78
     2
176
     1
 67
     7
176
     1
 79
     3
176
     1
170
     0
176
     1
171
     0
176
     1
290
     0
176
     1
 93
        1
176
     1
 44
0.0
176
     1
173
     0
176
     1
  0
VISUALSTYLE
  5
471
102
{ACAD_REACTORS
330
45C
102
}
102
{ACAD_XDICTIONARY
360
4A3
102
}
330
45C
100
AcDbVisualStyle
  2
Sketchy
 70
    24
177
     2
291
     0
 71
     1
176
     1
 72
     2
176
     1
 73
     2
176
     1
 90
        0
176
     1
 40
0.6
176
     1
 41
30.0
176
     1
 62
     5
 63
     7
421
 16777215
176
     1
 74
     2
176
     1
 91
        2
176
     1
 64
     7
176
     1
 65
     7
176
     1
 75
     1
176
     1
175
     1
176
     1
 42
40.0
176
     1
 92
       11
176
     1
 66
     7
176
     1
 43
1.0
176
     1
 76
     1
176
     1
 77
     6
176
     1
 78
     2
176
     1
 67
     7
176
     1
 79
     6
176
     1
170
     0
176
     1
171
     0
176
     1
290
     0
176
     1
 93
        1
176
     1
 44
0.0
176
     1
173
     0
176
     1
  0
VISUALSTYLE
  5
469
102
{ACAD_REACTORS
330
45C
102
}
102
{ACAD_XDICTIONARY
360
493
102
}
330
45C
100
AcDbVisualStyle
  2
Thicken
 70
    13
177
     2
291
     1
 71
     2
176
     1
 72
     2
176
     1
 73
     0
176
     1
 90
        0
176
     1
 40
0.6
176
     1
 41
30.0
176
     1
 62
     5
 63
     7
421
 16777215
176
     1
 74
     1
176
     1
 91
        4
176
     1
 64
     7
176
     1
 65
   257
176
     1
 75
     1
176
     1
175
     1
176
     1
 42
1.0
176
     1
 92
       12
176
     1
 66
     7
176
     1
 43
1.0
176
     1
 76
     1
176
     1
 77
     6
176
     1
 78
     2
176
     1
 67
     7
176
     1
 79
     5
176
     1
170
     0
176
     1
171
     0
176
     1
290
     0
176
     1
 93
        1
176
     1
 44
0.0
176
     1
173
     0
176
     1
  0
VISUALSTYLE
  5
462
102
{ACAD_REACTORS
330
45C
102
}
102
{ACAD_XDICTIONARY
360
485
102
}
330
45C
100
AcDbVisualStyle
  2
Wireframe
 70
     5
177
     2
291
     0
 71
     0
176
     1
 72
     2
176
     1
 73
     0
176
     1
 90
        0
176
     1
 40
0.6
176
     1
 41
30.0
176
     1
 62
     5
 63
     7
421
 16777215
176
     1
 74
     1
176
     1
 91
        4
176
     1
 64
     7
176
     1
 65
   257
176
     1
 75
     1
176
     1
175
     1
176
     1
 42
1.0
176
     1
 92
        0
176
     1
 66
   257
176
     1
 43
1.0
176
     1
 76
     1
176
     1
 77
     6
176
     1
 78
     2
176
     1
 67
     7
176
     1
 79
     3
176
     1
170
     0
176
     1
171
     0
176
     1
290
     0
176
     1
 93
        1
176
     1
 44
0.0
176
     1
173
     0
176
     1
  0
VISUALSTYLE
  5
472
102
{ACAD_REACTORS
330
45C
102
}
102
{ACAD_XDICTIONARY
360
4A5
102
}
330
45C
100
AcDbVisualStyle
  2
X-Ray
 70
    25
177
     2
291
     0
 71
     2
176
     1
 72
     2
176
     1
 73
     1
176
     1
 90
        1
176
     1
 40
0.5
176
     1
 41
30.0
176
     1
 62
     5
 63
     7
421
 16777215
176
     1
 74
     1
176
     1
 91
        0
176
     1
 64
     7
176
     1
 65
   257
176
     1
 75
     1
176
     1
175
     1
176
     1
 42
1.0
176
     1
 92
        8
176
     1
 66
     7
176
     1
 43
1.0
176
     1
 76
     1
176
     1
 77
     6
176
     1
 78
     2
176
     1
 67
     7
176
     1
 79
     3
176
     1
170
     0
176
     1
171
     0
176
     1
290
     0
176
     1
 93
       13
176
     1
 44
0.0
176
     1
173
     0
176
     1
  0
DICTIONARYVAR
  5
47A
102
{ACAD_REACTORS
330
479
102
}
330
479
100
DictionaryVariables
280
     0
  1
1:1
  0
DICTIONARYVAR
  5
4AD
102
{ACAD_REACTORS
330
479
102
}
330
479
100
DictionaryVariables
280
     0
  1
0
  0
DICTIONARY
  5
483
330
461
100
AcDbDictionary
280
     1
281
     1
  3
ACAD_XREC_ROUNDTRIP
360
484
  0
DICTIONARY
  5
489
330
464
100
AcDbDictionary
280
     1
281
     1
  3
ACAD_XREC_ROUNDTRIP
360
48A
  0
DICTIONARY
  5
491
330
468
100
AcDbDictionary
280
     1
281
     1
  3
ACAD_XREC_ROUNDTRIP
360
492
  0
DICTIONARY
  5
499
330
46C
100
AcDbDictionary
280
     1
281
     1
  3
ACAD_XREC_ROUNDTRIP
360
49A
  0
DICTIONARY
  5
48D
330
466
100
AcDbDictionary
280
     1
281
     1
  3
ACAD_XREC_ROUNDTRIP
360
48E
  0
DICTIONARY
  5
48F
330
467
100
AcDbDictionary
280
     1
281
     1
  3
ACAD_XREC_ROUNDTRIP
360
490
  0
DICTIONARY
  5
49F
330
46F
100
AcDbDictionary
280
     1
281
     1
  3
ACAD_XREC_ROUNDTRIP
360
4A0
  0
DICTIONARY
  5
497
330
46B
100
AcDbDictionary
280
     1
281
     1
  3
ACAD_XREC_ROUNDTRIP
360
498
  0
DICTIONARY
  5
47B
330
45D
100
AcDbDictionary
280
     1
281
     1
  3
ACAD_XREC_ROUNDTRIP
360
47C
  0
DICTIONARY
  5
47D
330
45E
100
AcDbDictionary
280
     1
281
     1
  3
ACAD_XREC_ROUNDTRIP
360
47E
  0
DICTIONARY
  5
47F
330
45F
100
AcDbDictionary
280
     1
281
     1
  3
ACAD_XREC_ROUNDTRIP
360
480
  0
DICTIONARY
  5
481
330
460
100
AcDbDictionary
280
     1
281
     1
  3
ACAD_XREC_ROUNDTRIP
360
482
  0
DICTIONARY
  5
487
330
463
100
AcDbDictionary
280
     1
281
     1
  3
ACAD_XREC_ROUNDTRIP
360
488
  0
DICTIONARY
  5
49B
330
46D
100
AcDbDictionary
280
     1
281
     1
  3
ACAD_XREC_ROUNDTRIP
360
49C
  0
DICTIONARY
  5
495
330
46A
100
AcDbDictionary
280
     1
281
     1
  3
ACAD_XREC_ROUNDTRIP
360
496
  0
DICTIONARY
  5
49D
330
46E
100
AcDbDictionary
280
     1
281
     1
  3
ACAD_XREC_ROUNDTRIP
360
49E
  0
DICTIONARY
  5
48B
330
465
100
AcDbDictionary
280
     1
281
     1
  3
ACAD_XREC_ROUNDTRIP
360
48C
  0
DICTIONARY
  5
4A9
330
474
100
AcDbDictionary
280
     1
281
     1
  3
ACAD_XREC_ROUNDTRIP
360
4AA
  0
DICTIONARY
  5
4A7
330
473
100
AcDbDictionary
280
     1
281
     1
  3
ACAD_XREC_ROUNDTRIP
360
4A8
  0
DICTIONARY
  5
4A1
330
470
100
AcDbDictionary
280
     1
281
     1
  3
ACAD_XREC_ROUNDTRIP
360
4A2
  0
DICTIONARY
  5
4A3
330
471
100
AcDbDictionary
280
     1
281
     1
  3
ACAD_XREC_ROUNDTRIP
360
4A4
  0
DICTIONARY
  5
493
330
469
100
AcDbDictionary
280
     1
281
     1
  3
ACAD_XREC_ROUNDTRIP
360
494
  0
DICTIONARY
  5
485
330
462
100
AcDbDictionary
280
     1
281
     1
  3
ACAD_XREC_ROUNDTRIP
360
486
  0
DICTIONARY
  5
4A5
330
472
100
AcDbDictionary
280
     1
281
     1
  3
ACAD_XREC_ROUNDTRIP
360
4A6
  0
XRECORD
  5
484
102
{ACAD_REACTORS
330
483
102
}
330
483
100
AcDbXrecord
280
     1
102
RTVSPost2010Prop28
280
     1
102
RTVSPost2010PropOp28
 70
     1
102
RTVSPost2010Prop29
280
     1
102
RTVSPost2010PropOp29
 70
     1
102
RTVSPost2010Prop30
280
     0
102
RTVSPost2010PropOp30
 70
     1
102
RTVSPost2010Prop31
280
     0
102
RTVSPost2010PropOp31
 70
     1
102
RTVSPost2010Prop32
280
     0
102
RTVSPost2010PropOp32
 70
     1
102
RTVSPost2010Prop33
280
     0
102
RTVSPost2010PropOp33
 70
     1
102
RTVSPost2010Prop34
280
     0
102
RTVSPost2010PropOp34
 70
     1
102
RTVSPost2010Prop35
280
     0
102
RTVSPost2010PropOp35
 70
     1
102
RTVSPost2010Prop36
280
     0
102
RTVSPost2010PropOp36
 70
     1
102
RTVSPost2010Prop37
 90
       50
102
RTVSPost2010PropOp37
 70
     1
102
RTVSPost2010Prop38
140
0.0
102
RTVSPost2010PropOp38
 70
     1
102
RTVSPost2010Prop39
140
1.0
102
RTVSPost2010PropOp39
 70
     1
102
RTVSPost2010Prop40
 90
        0
102
RTVSPost2010PropOp40
 70
     1
102
RTVSPost2010Prop41ColorIndex
 90
       18
102
RTVSPost2010Prop41ColorRGB
 90
        0
102
RTVSPost2010PropOp41
 70
     1
102
RTVSPost2010Prop42
 90
       50
102
RTVSPost2010PropOp42
 70
     1
102
RTVSPost2010Prop43
 90
        3
102
RTVSPost2010PropOp43
 70
     1
102
RTVSPost2010Prop44ColorIndex
 90
        5
102
RTVSPost2010Prop44ColorRGB
 90
      255
102
RTVSPost2010PropOp44
 70
     1
102
RTVSPost2010Prop45
280
     0
102
RTVSPost2010PropOp45
 70
     1
102
RTVSPost2010Prop46
 90
       50
102
RTVSPost2010PropOp46
 70
     1
102
RTVSPost2010Prop47
 90
       50
102
RTVSPost2010PropOp47
 70
     1
102
RTVSPost2010Prop48
 90
       50
102
RTVSPost2010PropOp48
 70
     1
102
RTVSPost2010Prop49
280
     0
102
RTVSPost2010PropOp49
 70
     1
102
RTVSPost2010Prop50
 90
       50
102
RTVSPost2010PropOp50
 70
     1
102
RTVSPost2010Prop51ColorIndex
 90
      256
102
RTVSPost2010Prop51ColorRGB
 90
-16777216
102
RTVSPost2010PropOp51
 70
     0
102
RTVSPost2010Prop52
140
1.0
102
RTVSPost2010PropOp52
 70
     0
102
RTVSPost2010Prop53
 90
        2
102
RTVSPost2010PropOp53
 70
     1
102
RTVSPost2010Prop54
  1
strokes_ogs.tif
102
RTVSPost2010PropOp54
 70
     1
102
RTVSPost2010Prop55
280
     0
102
RTVSPost2010PropOp55
 70
     1
102
RTVSPost2010Prop56
140
1.0
102
RTVSPost2010PropOp56
 70
     1
102
RTVSPost2010Prop57
140
1.0
102
RTVSPost2010PropOp57
 70
     1
  0
XRECORD
  5
48A
102
{ACAD_REACTORS
330
489
102
}
330
489
100
AcDbXrecord
280
     1
102
RTVSPost2010Prop28
280
     0
102
RTVSPost2010PropOp28
 70
     1
102
RTVSPost2010Prop29
280
     1
102
RTVSPost2010PropOp29
 70
     1
102
RTVSPost2010Prop30
280
     1
102
RTVSPost2010PropOp30
 70
     1
102
RTVSPost2010Prop31
280
     0
102
RTVSPost2010PropOp31
 70
     1
102
RTVSPost2010Prop32
280
     0
102
RTVSPost2010PropOp32
 70
     1
102
RTVSPost2010Prop33
280
     0
102
RTVSPost2010PropOp33
 70
     1
102
RTVSPost2010Prop34
280
     0
102
RTVSPost2010PropOp34
 70
     1
102
RTVSPost2010Prop35
280
     0
102
RTVSPost2010PropOp35
 70
     1
102
RTVSPost2010Prop36
280
     0
102
RTVSPost2010PropOp36
 70
     1
102
RTVSPost2010Prop37
 90
       50
102
RTVSPost2010PropOp37
 70
     1
102
RTVSPost2010Prop38
140
0.0
102
RTVSPost2010PropOp38
 70
     1
102
RTVSPost2010Prop39
140
1.0
102
RTVSPost2010PropOp39
 70
     1
102
RTVSPost2010Prop40
 90
        0
102
RTVSPost2010PropOp40
 70
     1
102
RTVSPost2010Prop41ColorIndex
 90
       18
102
RTVSPost2010Prop41ColorRGB
 90
        0
102
RTVSPost2010PropOp41
 70
     1
102
RTVSPost2010Prop42
 90
       50
102
RTVSPost2010PropOp42
 70
     1
102
RTVSPost2010Prop43
 90
        3
102
RTVSPost2010PropOp43
 70
     1
102
RTVSPost2010Prop44ColorIndex
 90
        5
102
RTVSPost2010Prop44ColorRGB
 90
      255
102
RTVSPost2010PropOp44
 70
     1
102
RTVSPost2010Prop45
280
     0
102
RTVSPost2010PropOp45
 70
     1
102
RTVSPost2010Prop46
 90
       50
102
RTVSPost2010PropOp46
 70
     1
102
RTVSPost2010Prop47
 90
       50
102
RTVSPost2010PropOp47
 70
     1
102
RTVSPost2010Prop48
 90
       50
102
RTVSPost2010PropOp48
 70
     1
102
RTVSPost2010Prop49
280
     0
102
RTVSPost2010PropOp49
 70
     1
102
RTVSPost2010Prop50
 90
       50
102
RTVSPost2010PropOp50
 70
     1
102
RTVSPost2010Prop51ColorIndex
 90
      256
102
RTVSPost2010Prop51ColorRGB
 90
-16777216
102
RTVSPost2010PropOp51
 70
     0
102
RTVSPost2010Prop52
140
1.0
102
RTVSPost2010PropOp52
 70
     0
102
RTVSPost2010Prop53
 90
        2
102
RTVSPost2010PropOp53
 70
     1
102
RTVSPost2010Prop54
  1
strokes_ogs.tif
102
RTVSPost2010PropOp54
 70
     1
102
RTVSPost2010Prop55
280
     0
102
RTVSPost2010PropOp55
 70
     1
102
RTVSPost2010Prop56
140
1.0
102
RTVSPost2010PropOp56
 70
     1
102
RTVSPost2010Prop57
140
1.0
102
RTVSPost2010PropOp57
 70
     1
  0
XRECORD
  5
492
102
{ACAD_REACTORS
330
491
102
}
330
491
100
AcDbXrecord
280
     1
102
RTVSPost2010Prop28
280
     0
102
RTVSPost2010PropOp28
 70
     1
102
RTVSPost2010Prop29
280
     1
102
RTVSPost2010PropOp29
 70
     1
102
RTVSPost2010Prop30
280
     1
102
RTVSPost2010PropOp30
 70
     1
102
RTVSPost2010Prop31
280
     0
102
RTVSPost2010PropOp31
 70
     1
102
RTVSPost2010Prop32
280
     0
102
RTVSPost2010PropOp32
 70
     1
102
RTVSPost2010Prop33
280
     0
102
RTVSPost2010PropOp33
 70
     1
102
RTVSPost2010Prop34
280
     0
102
RTVSPost2010PropOp34
 70
     1
102
RTVSPost2010Prop35
280
     0
102
RTVSPost2010PropOp35
 70
     1
102
RTVSPost2010Prop36
280
     0
102
RTVSPost2010PropOp36
 70
     1
102
RTVSPost2010Prop37
 90
       50
102
RTVSPost2010PropOp37
 70
     1
102
RTVSPost2010Prop38
140
0.0
102
RTVSPost2010PropOp38
 70
     1
102
RTVSPost2010Prop39
140
1.0
102
RTVSPost2010PropOp39
 70
     1
102
RTVSPost2010Prop40
 90
        0
102
RTVSPost2010PropOp40
 70
     1
102
RTVSPost2010Prop41ColorIndex
 90
       18
102
RTVSPost2010Prop41ColorRGB
 90
        0
102
RTVSPost2010PropOp41
 70
     1
102
RTVSPost2010Prop42
 90
       50
102
RTVSPost2010PropOp42
 70
     1
102
RTVSPost2010Prop43
 90
        3
102
RTVSPost2010PropOp43
 70
     1
102
RTVSPost2010Prop44ColorIndex
 90
        5
102
RTVSPost2010Prop44ColorRGB
 90
      255
102
RTVSPost2010PropOp44
 70
     1
102
RTVSPost2010Prop45
280
     0
102
RTVSPost2010PropOp45
 70
     1
102
RTVSPost2010Prop46
 90
       50
102
RTVSPost2010PropOp46
 70
     1
102
RTVSPost2010Prop47
 90
       50
102
RTVSPost2010PropOp47
 70
     1
102
RTVSPost2010Prop48
 90
       50
102
RTVSPost2010PropOp48
 70
     1
102
RTVSPost2010Prop49
280
     0
102
RTVSPost2010PropOp49
 70
     1
102
RTVSPost2010Prop50
 90
       50
102
RTVSPost2010PropOp50
 70
     1
102
RTVSPost2010Prop51ColorIndex
 90
      256
102
RTVSPost2010Prop51ColorRGB
 90
-16777216
102
RTVSPost2010PropOp51
 70
     0
102
RTVSPost2010Prop52
140
1.0
102
RTVSPost2010PropOp52
 70
     0
102
RTVSPost2010Prop53
 90
        2
102
RTVSPost2010PropOp53
 70
     1
102
RTVSPost2010Prop54
  1
strokes_ogs.tif
102
RTVSPost2010PropOp54
 70
     1
102
RTVSPost2010Prop55
280
     0
102
RTVSPost2010PropOp55
 70
     1
102
RTVSPost2010Prop56
140
1.0
102
RTVSPost2010PropOp56
 70
     1
102
RTVSPost2010Prop57
140
1.0
102
RTVSPost2010PropOp57
 70
     1
  0
XRECORD
  5
49A
102
{ACAD_REACTORS
330
499
102
}
330
499
100
AcDbXrecord
280
     1
102
RTVSPost2010Prop28
280
     0
102
RTVSPost2010PropOp28
 70
     1
102
RTVSPost2010Prop29
280
     1
102
RTVSPost2010PropOp29
 70
     1
102
RTVSPost2010Prop30
280
     1
102
RTVSPost2010PropOp30
 70
     1
102
RTVSPost2010Prop31
280
     0
102
RTVSPost2010PropOp31
 70
     1
102
RTVSPost2010Prop32
280
     0
102
RTVSPost2010PropOp32
 70
     1
102
RTVSPost2010Prop33
280
     0
102
RTVSPost2010PropOp33
 70
     1
102
RTVSPost2010Prop34
280
     0
102
RTVSPost2010PropOp34
 70
     1
102
RTVSPost2010Prop35
280
     0
102
RTVSPost2010PropOp35
 70
     1
102
RTVSPost2010Prop36
280
     0
102
RTVSPost2010PropOp36
 70
     1
102
RTVSPost2010Prop37
 90
       50
102
RTVSPost2010PropOp37
 70
     1
102
RTVSPost2010Prop38
140
0.0
102
RTVSPost2010PropOp38
 70
     1
102
RTVSPost2010Prop39
140
1.0
102
RTVSPost2010PropOp39
 70
     1
102
RTVSPost2010Prop40
 90
        0
102
RTVSPost2010PropOp40
 70
     1
102
RTVSPost2010Prop41ColorIndex
 90
       18
102
RTVSPost2010Prop41ColorRGB
 90
        0
102
RTVSPost2010PropOp41
 70
     1
102
RTVSPost2010Prop42
 90
       50
102
RTVSPost2010PropOp42
 70
     1
102
RTVSPost2010Prop43
 90
        3
102
RTVSPost2010PropOp43
 70
     1
102
RTVSPost2010Prop44ColorIndex
 90
        5
102
RTVSPost2010Prop44ColorRGB
 90
      255
102
RTVSPost2010PropOp44
 70
     1
102
RTVSPost2010Prop45
280
     0
102
RTVSPost2010PropOp45
 70
     1
102
RTVSPost2010Prop46
 90
       50
102
RTVSPost2010PropOp46
 70
     1
102
RTVSPost2010Prop47
 90
       50
102
RTVSPost2010PropOp47
 70
     1
102
RTVSPost2010Prop48
 90
       50
102
RTVSPost2010PropOp48
 70
     1
102
RTVSPost2010Prop49
280
     0
102
RTVSPost2010PropOp49
 70
     1
102
RTVSPost2010Prop50
 90
       50
102
RTVSPost2010PropOp50
 70
     1
102
RTVSPost2010Prop51ColorIndex
 90
      256
102
RTVSPost2010Prop51ColorRGB
 90
-16777216
102
RTVSPost2010PropOp51
 70
     0
102
RTVSPost2010Prop52
140
1.0
102
RTVSPost2010PropOp52
 70
     0
102
RTVSPost2010Prop53
 90
        2
102
RTVSPost2010PropOp53
 70
     1
102
RTVSPost2010Prop54
  1
strokes_ogs.tif
102
RTVSPost2010PropOp54
 70
     1
102
RTVSPost2010Prop55
280
     0
102
RTVSPost2010PropOp55
 70
     1
102
RTVSPost2010Prop56
140
1.0
102
RTVSPost2010PropOp56
 70
     1
102
RTVSPost2010Prop57
140
1.0
102
RTVSPost2010PropOp57
 70
     1
  0
XRECORD
  5
48E
102
{ACAD_REACTORS
330
48D
102
}
330
48D
100
AcDbXrecord
280
     1
102
RTVSPost2010Prop28
280
     0
102
RTVSPost2010PropOp28
 70
     1
102
RTVSPost2010Prop29
280
     1
102
RTVSPost2010PropOp29
 70
     1
102
RTVSPost2010Prop30
280
     1
102
RTVSPost2010PropOp30
 70
     1
102
RTVSPost2010Prop31
280
     0
102
RTVSPost2010PropOp31
 70
     1
102
RTVSPost2010Prop32
280
     0
102
RTVSPost2010PropOp32
 70
     1
102
RTVSPost2010Prop33
280
     0
102
RTVSPost2010PropOp33
 70
     1
102
RTVSPost2010Prop34
280
     0
102
RTVSPost2010PropOp34
 70
     1
102
RTVSPost2010Prop35
280
     0
102
RTVSPost2010PropOp35
 70
     1
102
RTVSPost2010Prop36
280
     0
102
RTVSPost2010PropOp36
 70
     1
102
RTVSPost2010Prop37
 90
       50
102
RTVSPost2010PropOp37
 70
     1
102
RTVSPost2010Prop38
140
0.0
102
RTVSPost2010PropOp38
 70
     1
102
RTVSPost2010Prop39
140
1.0
102
RTVSPost2010PropOp39
 70
     1
102
RTVSPost2010Prop40
 90
        0
102
RTVSPost2010PropOp40
 70
     1
102
RTVSPost2010Prop41ColorIndex
 90
       18
102
RTVSPost2010Prop41ColorRGB
 90
        0
102
RTVSPost2010PropOp41
 70
     1
102
RTVSPost2010Prop42
 90
       50
102
RTVSPost2010PropOp42
 70
     1
102
RTVSPost2010Prop43
 90
        3
102
RTVSPost2010PropOp43
 70
     1
102
RTVSPost2010Prop44ColorIndex
 90
        5
102
RTVSPost2010Prop44ColorRGB
 90
      255
102
RTVSPost2010PropOp44
 70
     1
102
RTVSPost2010Prop45
280
     0
102
RTVSPost2010PropOp45
 70
     1
102
RTVSPost2010Prop46
 90
       50
102
RTVSPost2010PropOp46
 70
     1
102
RTVSPost2010Prop47
 90
       50
102
RTVSPost2010PropOp47
 70
     1
102
RTVSPost2010Prop48
 90
       50
102
RTVSPost2010PropOp48
 70
     1
102
RTVSPost2010Prop49
280
     0
102
RTVSPost2010PropOp49
 70
     1
102
RTVSPost2010Prop50
 90
       50
102
RTVSPost2010PropOp50
 70
     1
102
RTVSPost2010Prop51ColorIndex
 90
      256
102
RTVSPost2010Prop51ColorRGB
 90
-16777216
102
RTVSPost2010PropOp51
 70
     0
102
RTVSPost2010Prop52
140
1.0
102
RTVSPost2010PropOp52
 70
     0
102
RTVSPost2010Prop53
 90
        2
102
RTVSPost2010PropOp53
 70
     1
102
RTVSPost2010Prop54
  1
strokes_ogs.tif
102
RTVSPost2010PropOp54
 70
     1
102
RTVSPost2010Prop55
280
     0
102
RTVSPost2010PropOp55
 70
     1
102
RTVSPost2010Prop56
140
1.0
102
RTVSPost2010PropOp56
 70
     1
102
RTVSPost2010Prop57
140
1.0
102
RTVSPost2010PropOp57
 70
     1
  0
XRECORD
  5
490
102
{ACAD_REACTORS
330
48F
102
}
330
48F
100
AcDbXrecord
280
     1
102
RTVSPost2010Prop28
280
     0
102
RTVSPost2010PropOp28
 70
     1
102
RTVSPost2010Prop29
280
     1
102
RTVSPost2010PropOp29
 70
     1
102
RTVSPost2010Prop30
280
     1
102
RTVSPost2010PropOp30
 70
     1
102
RTVSPost2010Prop31
280
     0
102
RTVSPost2010PropOp31
 70
     1
102
RTVSPost2010Prop32
280
     0
102
RTVSPost2010PropOp32
 70
     1
102
RTVSPost2010Prop33
280
     0
102
RTVSPost2010PropOp33
 70
     1
102
RTVSPost2010Prop34
280
     0
102
RTVSPost2010PropOp34
 70
     1
102
RTVSPost2010Prop35
280
     0
102
RTVSPost2010PropOp35
 70
     1
102
RTVSPost2010Prop36
280
     0
102
RTVSPost2010PropOp36
 70
     1
102
RTVSPost2010Prop37
 90
       50
102
RTVSPost2010PropOp37
 70
     1
102
RTVSPost2010Prop38
140
0.0
102
RTVSPost2010PropOp38
 70
     1
102
RTVSPost2010Prop39
140
1.0
102
RTVSPost2010PropOp39
 70
     1
102
RTVSPost2010Prop40
 90
        0
102
RTVSPost2010PropOp40
 70
     1
102
RTVSPost2010Prop41ColorIndex
 90
       18
102
RTVSPost2010Prop41ColorRGB
 90
        0
102
RTVSPost2010PropOp41
 70
     1
102
RTVSPost2010Prop42
 90
       50
102
RTVSPost2010PropOp42
 70
     1
102
RTVSPost2010Prop43
 90
        3
102
RTVSPost2010PropOp43
 70
     1
102
RTVSPost2010Prop44ColorIndex
 90
        5
102
RTVSPost2010Prop44ColorRGB
 90
      255
102
RTVSPost2010PropOp44
 70
     1
102
RTVSPost2010Prop45
280
     0
102
RTVSPost2010PropOp45
 70
     1
102
RTVSPost2010Prop46
 90
       50
102
RTVSPost2010PropOp46
 70
     1
102
RTVSPost2010Prop47
 90
       50
102
RTVSPost2010PropOp47
 70
     1
102
RTVSPost2010Prop48
 90
       50
102
RTVSPost2010PropOp48
 70
     1
102
RTVSPost2010Prop49
280
     0
102
RTVSPost2010PropOp49
 70
     1
102
RTVSPost2010Prop50
 90
       50
102
RTVSPost2010PropOp50
 70
     1
102
RTVSPost2010Prop51ColorIndex
 90
      256
102
RTVSPost2010Prop51ColorRGB
 90
-16777216
102
RTVSPost2010PropOp51
 70
     0
102
RTVSPost2010Prop52
140
1.0
102
RTVSPost2010PropOp52
 70
     0
102
RTVSPost2010Prop53
 90
        2
102
RTVSPost2010PropOp53
 70
     1
102
RTVSPost2010Prop54
  1
strokes_ogs.tif
102
RTVSPost2010PropOp54
 70
     1
102
RTVSPost2010Prop55
280
     0
102
RTVSPost2010PropOp55
 70
     1
102
RTVSPost2010Prop56
140
1.0
102
RTVSPost2010PropOp56
 70
     1
102
RTVSPost2010Prop57
140
1.0
102
RTVSPost2010PropOp57
 70
     1
  0
XRECORD
  5
4A0
102
{ACAD_REACTORS
330
49F
102
}
330
49F
100
AcDbXrecord
280
     1
102
RTVSPost2010Prop28
280
     0
102
RTVSPost2010PropOp28
 70
     0
102
RTVSPost2010Prop29
280
     1
102
RTVSPost2010PropOp29
 70
     0
102
RTVSPost2010Prop30
280
     1
102
RTVSPost2010PropOp30
 70
     0
102
RTVSPost2010Prop31
280
     0
102
RTVSPost2010PropOp31
 70
     0
102
RTVSPost2010Prop32
280
     0
102
RTVSPost2010PropOp32
 70
     0
102
RTVSPost2010Prop33
280
     0
102
RTVSPost2010PropOp33
 70
     0
102
RTVSPost2010Prop34
280
     0
102
RTVSPost2010PropOp34
 70
     0
102
RTVSPost2010Prop35
280
     0
102
RTVSPost2010PropOp35
 70
     0
102
RTVSPost2010Prop36
280
     0
102
RTVSPost2010PropOp36
 70
     0
102
RTVSPost2010Prop37
 90
       50
102
RTVSPost2010PropOp37
 70
     0
102
RTVSPost2010Prop38
140
0.0
102
RTVSPost2010PropOp38
 70
     0
102
RTVSPost2010Prop39
140
1.0
102
RTVSPost2010PropOp39
 70
     0
102
RTVSPost2010Prop40
 90
        0
102
RTVSPost2010PropOp40
 70
     0
102
RTVSPost2010Prop41ColorIndex
 90
       18
102
RTVSPost2010Prop41ColorRGB
 90
        0
102
RTVSPost2010PropOp41
 70
     0
102
RTVSPost2010Prop42
 90
       50
102
RTVSPost2010PropOp42
 70
     0
102
RTVSPost2010Prop43
 90
        3
102
RTVSPost2010PropOp43
 70
     0
102
RTVSPost2010Prop44ColorIndex
 90
        5
102
RTVSPost2010Prop44ColorRGB
 90
      255
102
RTVSPost2010PropOp44
 70
     0
102
RTVSPost2010Prop45
280
     0
102
RTVSPost2010PropOp45
 70
     0
102
RTVSPost2010Prop46
 90
       50
102
RTVSPost2010PropOp46
 70
     0
102
RTVSPost2010Prop47
 90
       50
102
RTVSPost2010PropOp47
 70
     0
102
RTVSPost2010Prop48
 90
       50
102
RTVSPost2010PropOp48
 70
     0
102
RTVSPost2010Prop49
280
     0
102
RTVSPost2010PropOp49
 70
     0
102
RTVSPost2010Prop50
 90
       50
102
RTVSPost2010PropOp50
 70
     0
102
RTVSPost2010Prop51ColorIndex
 90
      256
102
RTVSPost2010Prop51ColorRGB
 90
-16777216
102
RTVSPost2010PropOp51
 70
     0
102
RTVSPost2010Prop52
140
1.0
102
RTVSPost2010PropOp52
 70
     0
102
RTVSPost2010Prop53
 90
        2
102
RTVSPost2010PropOp53
 70
     0
102
RTVSPost2010Prop54
  1
strokes_ogs.tif
102
RTVSPost2010PropOp54
 70
     0
102
RTVSPost2010Prop55
280
     0
102
RTVSPost2010PropOp55
 70
     0
102
RTVSPost2010Prop56
140
1.0
102
RTVSPost2010PropOp56
 70
     0
102
RTVSPost2010Prop57
140
1.0
102
RTVSPost2010PropOp57
 70
     0
  0
XRECORD
  5
498
102
{ACAD_REACTORS
330
497
102
}
330
497
100
AcDbXrecord
280
     1
102
RTVSPost2010Prop28
280
     0
102
RTVSPost2010PropOp28
 70
     1
102
RTVSPost2010Prop29
280
     1
102
RTVSPost2010PropOp29
 70
     1
102
RTVSPost2010Prop30
280
     1
102
RTVSPost2010PropOp30
 70
     1
102
RTVSPost2010Prop31
280
     0
102
RTVSPost2010PropOp31
 70
     1
102
RTVSPost2010Prop32
280
     0
102
RTVSPost2010PropOp32
 70
     1
102
RTVSPost2010Prop33
280
     0
102
RTVSPost2010PropOp33
 70
     1
102
RTVSPost2010Prop34
280
     0
102
RTVSPost2010PropOp34
 70
     1
102
RTVSPost2010Prop35
280
     0
102
RTVSPost2010PropOp35
 70
     1
102
RTVSPost2010Prop36
280
     0
102
RTVSPost2010PropOp36
 70
     1
102
RTVSPost2010Prop37
 90
       50
102
RTVSPost2010PropOp37
 70
     1
102
RTVSPost2010Prop38
140
0.0
102
RTVSPost2010PropOp38
 70
     1
102
RTVSPost2010Prop39
140
1.0
102
RTVSPost2010PropOp39
 70
     1
102
RTVSPost2010Prop40
 90
        0
102
RTVSPost2010PropOp40
 70
     1
102
RTVSPost2010Prop41ColorIndex
 90
       18
102
RTVSPost2010Prop41ColorRGB
 90
        0
102
RTVSPost2010PropOp41
 70
     1
102
RTVSPost2010Prop42
 90
       50
102
RTVSPost2010PropOp42
 70
     1
102
RTVSPost2010Prop43
 90
        3
102
RTVSPost2010PropOp43
 70
     1
102
RTVSPost2010Prop44ColorIndex
 90
        5
102
RTVSPost2010Prop44ColorRGB
 90
      255
102
RTVSPost2010PropOp44
 70
     1
102
RTVSPost2010Prop45
280
     0
102
RTVSPost2010PropOp45
 70
     1
102
RTVSPost2010Prop46
 90
       50
102
RTVSPost2010PropOp46
 70
     1
102
RTVSPost2010Prop47
 90
       50
102
RTVSPost2010PropOp47
 70
     1
102
RTVSPost2010Prop48
 90
       50
102
RTVSPost2010PropOp48
 70
     1
102
RTVSPost2010Prop49
280
     0
102
RTVSPost2010PropOp49
 70
     1
102
RTVSPost2010Prop50
 90
       50
102
RTVSPost2010PropOp50
 70
     1
102
RTVSPost2010Prop51ColorIndex
 90
      256
102
RTVSPost2010Prop51ColorRGB
 90
-16777216
102
RTVSPost2010PropOp51
 70
     0
102
RTVSPost2010Prop52
140
1.0
102
RTVSPost2010PropOp52
 70
     0
102
RTVSPost2010Prop53
 90
        2
102
RTVSPost2010PropOp53
 70
     1
102
RTVSPost2010Prop54
  1
strokes_ogs.tif
102
RTVSPost2010PropOp54
 70
     1
102
RTVSPost2010Prop55
280
     0
102
RTVSPost2010PropOp55
 70
     1
102
RTVSPost2010Prop56
140
1.0
102
RTVSPost2010PropOp56
 70
     1
102
RTVSPost2010Prop57
140
1.0
102
RTVSPost2010PropOp57
 70
     1
  0
XRECORD
  5
47C
102
{ACAD_REACTORS
330
47B
102
}
330
47B
100
AcDbXrecord
280
     1
102
RTVSPost2010Prop28
280
     0
102
RTVSPost2010PropOp28
 70
     1
102
RTVSPost2010Prop29
280
     1
102
RTVSPost2010PropOp29
 70
     1
102
RTVSPost2010Prop30
280
     1
102
RTVSPost2010PropOp30
 70
     1
102
RTVSPost2010Prop31
280
     0
102
RTVSPost2010PropOp31
 70
     1
102
RTVSPost2010Prop32
280
     0
102
RTVSPost2010PropOp32
 70
     1
102
RTVSPost2010Prop33
280
     0
102
RTVSPost2010PropOp33
 70
     1
102
RTVSPost2010Prop34
280
     0
102
RTVSPost2010PropOp34
 70
     1
102
RTVSPost2010Prop35
280
     0
102
RTVSPost2010PropOp35
 70
     1
102
RTVSPost2010Prop36
280
     0
102
RTVSPost2010PropOp36
 70
     1
102
RTVSPost2010Prop37
 90
       50
102
RTVSPost2010PropOp37
 70
     1
102
RTVSPost2010Prop38
140
0.0
102
RTVSPost2010PropOp38
 70
     1
102
RTVSPost2010Prop39
140
1.0
102
RTVSPost2010PropOp39
 70
     1
102
RTVSPost2010Prop40
 90
        0
102
RTVSPost2010PropOp40
 70
     1
102
RTVSPost2010Prop41ColorIndex
 90
       18
102
RTVSPost2010Prop41ColorRGB
 90
        0
102
RTVSPost2010PropOp41
 70
     1
102
RTVSPost2010Prop42
 90
       50
102
RTVSPost2010PropOp42
 70
     1
102
RTVSPost2010Prop43
 90
        3
102
RTVSPost2010PropOp43
 70
     1
102
RTVSPost2010Prop44ColorIndex
 90
        5
102
RTVSPost2010Prop44ColorRGB
 90
      255
102
RTVSPost2010PropOp44
 70
     1
102
RTVSPost2010Prop45
280
     0
102
RTVSPost2010PropOp45
 70
     1
102
RTVSPost2010Prop46
 90
       50
102
RTVSPost2010PropOp46
 70
     1
102
RTVSPost2010Prop47
 90
       50
102
RTVSPost2010PropOp47
 70
     1
102
RTVSPost2010Prop48
 90
       50
102
RTVSPost2010PropOp48
 70
     1
102
RTVSPost2010Prop49
280
     0
102
RTVSPost2010PropOp49
 70
     1
102
RTVSPost2010Prop50
 90
       50
102
RTVSPost2010PropOp50
 70
     1
102
RTVSPost2010Prop51ColorIndex
 90
      256
102
RTVSPost2010Prop51ColorRGB
 90
-16777216
102
RTVSPost2010PropOp51
 70
     0
102
RTVSPost2010Prop52
140
1.0
102
RTVSPost2010PropOp52
 70
     0
102
RTVSPost2010Prop53
 90
        2
102
RTVSPost2010PropOp53
 70
     1
102
RTVSPost2010Prop54
  1
strokes_ogs.tif
102
RTVSPost2010PropOp54
 70
     1
102
RTVSPost2010Prop55
280
     0
102
RTVSPost2010PropOp55
 70
     1
102
RTVSPost2010Prop56
140
1.0
102
RTVSPost2010PropOp56
 70
     1
102
RTVSPost2010Prop57
140
1.0
102
RTVSPost2010PropOp57
 70
     1
  0
XRECORD
  5
47E
102
{ACAD_REACTORS
330
47D
102
}
330
47D
100
AcDbXrecord
280
     1
102
RTVSPost2010Prop28
280
     0
102
RTVSPost2010PropOp28
 70
     1
102
RTVSPost2010Prop29
280
     1
102
RTVSPost2010PropOp29
 70
     1
102
RTVSPost2010Prop30
280
     1
102
RTVSPost2010PropOp30
 70
     1
102
RTVSPost2010Prop31
280
     0
102
RTVSPost2010PropOp31
 70
     1
102
RTVSPost2010Prop32
280
     0
102
RTVSPost2010PropOp32
 70
     1
102
RTVSPost2010Prop33
280
     0
102
RTVSPost2010PropOp33
 70
     1
102
RTVSPost2010Prop34
280
     0
102
RTVSPost2010PropOp34
 70
     1
102
RTVSPost2010Prop35
280
     0
102
RTVSPost2010PropOp35
 70
     1
102
RTVSPost2010Prop36
280
     0
102
RTVSPost2010PropOp36
 70
     1
102
RTVSPost2010Prop37
 90
       50
102
RTVSPost2010PropOp37
 70
     1
102
RTVSPost2010Prop38
140
0.0
102
RTVSPost2010PropOp38
 70
     1
102
RTVSPost2010Prop39
140
1.0
102
RTVSPost2010PropOp39
 70
     1
102
RTVSPost2010Prop40
 90
        0
102
RTVSPost2010PropOp40
 70
     1
102
RTVSPost2010Prop41ColorIndex
 90
       18
102
RTVSPost2010Prop41ColorRGB
 90
        0
102
RTVSPost2010PropOp41
 70
     1
102
RTVSPost2010Prop42
 90
       50
102
RTVSPost2010PropOp42
 70
     1
102
RTVSPost2010Prop43
 90
        3
102
RTVSPost2010PropOp43
 70
     1
102
RTVSPost2010Prop44ColorIndex
 90
        5
102
RTVSPost2010Prop44ColorRGB
 90
      255
102
RTVSPost2010PropOp44
 70
     1
102
RTVSPost2010Prop45
280
     0
102
RTVSPost2010PropOp45
 70
     1
102
RTVSPost2010Prop46
 90
       50
102
RTVSPost2010PropOp46
 70
     1
102
RTVSPost2010Prop47
 90
       50
102
RTVSPost2010PropOp47
 70
     1
102
RTVSPost2010Prop48
 90
       50
102
RTVSPost2010PropOp48
 70
     1
102
RTVSPost2010Prop49
280
     0
102
RTVSPost2010PropOp49
 70
     1
102
RTVSPost2010Prop50
 90
       50
102
RTVSPost2010PropOp50
 70
     1
102
RTVSPost2010Prop51ColorIndex
 90
      256
102
RTVSPost2010Prop51ColorRGB
 90
-16777216
102
RTVSPost2010PropOp51
 70
     0
102
RTVSPost2010Prop52
140
1.0
102
RTVSPost2010PropOp52
 70
     0
102
RTVSPost2010Prop53
 90
        2
102
RTVSPost2010PropOp53
 70
     1
102
RTVSPost2010Prop54
  1
strokes_ogs.tif
102
RTVSPost2010PropOp54
 70
     1
102
RTVSPost2010Prop55
280
     0
102
RTVSPost2010PropOp55
 70
     1
102
RTVSPost2010Prop56
140
1.0
102
RTVSPost2010PropOp56
 70
     1
102
RTVSPost2010Prop57
140
1.0
102
RTVSPost2010PropOp57
 70
     1
  0
XRECORD
  5
480
102
{ACAD_REACTORS
330
47F
102
}
330
47F
100
AcDbXrecord
280
     1
102
RTVSPost2010Prop28
280
     0
102
RTVSPost2010PropOp28
 70
     1
102
RTVSPost2010Prop29
280
     1
102
RTVSPost2010PropOp29
 70
     1
102
RTVSPost2010Prop30
280
     1
102
RTVSPost2010PropOp30
 70
     1
102
RTVSPost2010Prop31
280
     0
102
RTVSPost2010PropOp31
 70
     1
102
RTVSPost2010Prop32
280
     0
102
RTVSPost2010PropOp32
 70
     1
102
RTVSPost2010Prop33
280
     0
102
RTVSPost2010PropOp33
 70
     1
102
RTVSPost2010Prop34
280
     0
102
RTVSPost2010PropOp34
 70
     1
102
RTVSPost2010Prop35
280
     0
102
RTVSPost2010PropOp35
 70
     1
102
RTVSPost2010Prop36
280
     0
102
RTVSPost2010PropOp36
 70
     1
102
RTVSPost2010Prop37
 90
       50
102
RTVSPost2010PropOp37
 70
     1
102
RTVSPost2010Prop38
140
0.0
102
RTVSPost2010PropOp38
 70
     1
102
RTVSPost2010Prop39
140
1.0
102
RTVSPost2010PropOp39
 70
     1
102
RTVSPost2010Prop40
 90
        0
102
RTVSPost2010PropOp40
 70
     1
102
RTVSPost2010Prop41ColorIndex
 90
       18
102
RTVSPost2010Prop41ColorRGB
 90
        0
102
RTVSPost2010PropOp41
 70
     1
102
RTVSPost2010Prop42
 90
       50
102
RTVSPost2010PropOp42
 70
     1
102
RTVSPost2010Prop43
 90
        3
102
RTVSPost2010PropOp43
 70
     1
102
RTVSPost2010Prop44ColorIndex
 90
        5
102
RTVSPost2010Prop44ColorRGB
 90
      255
102
RTVSPost2010PropOp44
 70
     1
102
RTVSPost2010Prop45
280
     0
102
RTVSPost2010PropOp45
 70
     1
102
RTVSPost2010Prop46
 90
       50
102
RTVSPost2010PropOp46
 70
     1
102
RTVSPost2010Prop47
 90
       50
102
RTVSPost2010PropOp47
 70
     1
102
RTVSPost2010Prop48
 90
       50
102
RTVSPost2010PropOp48
 70
     1
102
RTVSPost2010Prop49
280
     0
102
RTVSPost2010PropOp49
 70
     1
102
RTVSPost2010Prop50
 90
       50
102
RTVSPost2010PropOp50
 70
     1
102
RTVSPost2010Prop51ColorIndex
 90
      256
102
RTVSPost2010Prop51ColorRGB
 90
-16777216
102
RTVSPost2010PropOp51
 70
     0
102
RTVSPost2010Prop52
140
1.0
102
RTVSPost2010PropOp52
 70
     0
102
RTVSPost2010Prop53
 90
        2
102
RTVSPost2010PropOp53
 70
     1
102
RTVSPost2010Prop54
  1
strokes_ogs.tif
102
RTVSPost2010PropOp54
 70
     1
102
RTVSPost2010Prop55
280
     0
102
RTVSPost2010PropOp55
 70
     1
102
RTVSPost2010Prop56
140
1.0
102
RTVSPost2010PropOp56
 70
     1
102
RTVSPost2010Prop57
140
1.0
102
RTVSPost2010PropOp57
 70
     1
  0
XRECORD
  5
482
102
{ACAD_REACTORS
330
481
102
}
330
481
100
AcDbXrecord
280
     1
102
RTVSPost2010Prop28
280
     0
102
RTVSPost2010PropOp28
 70
     1
102
RTVSPost2010Prop29
280
     1
102
RTVSPost2010PropOp29
 70
     1
102
RTVSPost2010Prop30
280
     1
102
RTVSPost2010PropOp30
 70
     1
102
RTVSPost2010Prop31
280
     0
102
RTVSPost2010PropOp31
 70
     1
102
RTVSPost2010Prop32
280
     0
102
RTVSPost2010PropOp32
 70
     1
102
RTVSPost2010Prop33
280
     0
102
RTVSPost2010PropOp33
 70
     1
102
RTVSPost2010Prop34
280
     0
102
RTVSPost2010PropOp34
 70
     1
102
RTVSPost2010Prop35
280
     0
102
RTVSPost2010PropOp35
 70
     1
102
RTVSPost2010Prop36
280
     0
102
RTVSPost2010PropOp36
 70
     1
102
RTVSPost2010Prop37
 90
       50
102
RTVSPost2010PropOp37
 70
     1
102
RTVSPost2010Prop38
140
0.0
102
RTVSPost2010PropOp38
 70
     1
102
RTVSPost2010Prop39
140
1.0
102
RTVSPost2010PropOp39
 70
     1
102
RTVSPost2010Prop40
 90
        0
102
RTVSPost2010PropOp40
 70
     1
102
RTVSPost2010Prop41ColorIndex
 90
       18
102
RTVSPost2010Prop41ColorRGB
 90
        0
102
RTVSPost2010PropOp41
 70
     1
102
RTVSPost2010Prop42
 90
       50
102
RTVSPost2010PropOp42
 70
     1
102
RTVSPost2010Prop43
 90
        3
102
RTVSPost2010PropOp43
 70
     1
102
RTVSPost2010Prop44ColorIndex
 90
        5
102
RTVSPost2010Prop44ColorRGB
 90
      255
102
RTVSPost2010PropOp44
 70
     1
102
RTVSPost2010Prop45
280
     0
102
RTVSPost2010PropOp45
 70
     1
102
RTVSPost2010Prop46
 90
       50
102
RTVSPost2010PropOp46
 70
     1
102
RTVSPost2010Prop47
 90
       50
102
RTVSPost2010PropOp47
 70
     1
102
RTVSPost2010Prop48
 90
       50
102
RTVSPost2010PropOp48
 70
     1
102
RTVSPost2010Prop49
280
     0
102
RTVSPost2010PropOp49
 70
     1
102
RTVSPost2010Prop50
 90
       50
102
RTVSPost2010PropOp50
 70
     1
102
RTVSPost2010Prop51ColorIndex
 90
      256
102
RTVSPost2010Prop51ColorRGB
 90
-16777216
102
RTVSPost2010PropOp51
 70
     0
102
RTVSPost2010Prop52
140
1.0
102
RTVSPost2010PropOp52
 70
     0
102
RTVSPost2010Prop53
 90
        2
102
RTVSPost2010PropOp53
 70
     1
102
RTVSPost2010Prop54
  1
strokes_ogs.tif
102
RTVSPost2010PropOp54
 70
     1
102
RTVSPost2010Prop55
280
     0
102
RTVSPost2010PropOp55
 70
     1
102
RTVSPost2010Prop56
140
1.0
102
RTVSPost2010PropOp56
 70
     1
102
RTVSPost2010Prop57
140
1.0
102
RTVSPost2010PropOp57
 70
     1
  0
XRECORD
  5
488
102
{ACAD_REACTORS
330
487
102
}
330
487
100
AcDbXrecord
280
     1
102
RTVSPost2010Prop28
280
     0
102
RTVSPost2010PropOp28
 70
     1
102
RTVSPost2010Prop29
280
     1
102
RTVSPost2010PropOp29
 70
     1
102
RTVSPost2010Prop30
280
     1
102
RTVSPost2010PropOp30
 70
     1
102
RTVSPost2010Prop31
280
     0
102
RTVSPost2010PropOp31
 70
     1
102
RTVSPost2010Prop32
280
     0
102
RTVSPost2010PropOp32
 70
     1
102
RTVSPost2010Prop33
280
     0
102
RTVSPost2010PropOp33
 70
     1
102
RTVSPost2010Prop34
280
     0
102
RTVSPost2010PropOp34
 70
     1
102
RTVSPost2010Prop35
280
     0
102
RTVSPost2010PropOp35
 70
     1
102
RTVSPost2010Prop36
280
     0
102
RTVSPost2010PropOp36
 70
     1
102
RTVSPost2010Prop37
 90
       50
102
RTVSPost2010PropOp37
 70
     1
102
RTVSPost2010Prop38
140
0.0
102
RTVSPost2010PropOp38
 70
     1
102
RTVSPost2010Prop39
140
1.0
102
RTVSPost2010PropOp39
 70
     1
102
RTVSPost2010Prop40
 90
        0
102
RTVSPost2010PropOp40
 70
     1
102
RTVSPost2010Prop41ColorIndex
 90
       18
102
RTVSPost2010Prop41ColorRGB
 90
        0
102
RTVSPost2010PropOp41
 70
     1
102
RTVSPost2010Prop42
 90
       50
102
RTVSPost2010PropOp42
 70
     1
102
RTVSPost2010Prop43
 90
        3
102
RTVSPost2010PropOp43
 70
     1
102
RTVSPost2010Prop44ColorIndex
 90
        5
102
RTVSPost2010Prop44ColorRGB
 90
      255
102
RTVSPost2010PropOp44
 70
     1
102
RTVSPost2010Prop45
280
     0
102
RTVSPost2010PropOp45
 70
     1
102
RTVSPost2010Prop46
 90
       50
102
RTVSPost2010PropOp46
 70
     1
102
RTVSPost2010Prop47
 90
       50
102
RTVSPost2010PropOp47
 70
     1
102
RTVSPost2010Prop48
 90
       50
102
RTVSPost2010PropOp48
 70
     1
102
RTVSPost2010Prop49
280
     0
102
RTVSPost2010PropOp49
 70
     1
102
RTVSPost2010Prop50
 90
       50
102
RTVSPost2010PropOp50
 70
     1
102
RTVSPost2010Prop51ColorIndex
 90
      256
102
RTVSPost2010Prop51ColorRGB
 90
-16777216
102
RTVSPost2010PropOp51
 70
     0
102
RTVSPost2010Prop52
140
1.0
102
RTVSPost2010PropOp52
 70
     0
102
RTVSPost2010Prop53
 90
        2
102
RTVSPost2010PropOp53
 70
     1
102
RTVSPost2010Prop54
  1
strokes_ogs.tif
102
RTVSPost2010PropOp54
 70
     1
102
RTVSPost2010Prop55
280
     0
102
RTVSPost2010PropOp55
 70
     1
102
RTVSPost2010Prop56
140
1.0
102
RTVSPost2010PropOp56
 70
     1
102
RTVSPost2010Prop57
140
1.0
102
RTVSPost2010PropOp57
 70
     1
  0
XRECORD
  5
49C
102
{ACAD_REACTORS
330
49B
102
}
330
49B
100
AcDbXrecord
280
     1
102
RTVSPost2010Prop28
280
     0
102
RTVSPost2010PropOp28
 70
     0
102
RTVSPost2010Prop29
280
     1
102
RTVSPost2010PropOp29
 70
     0
102
RTVSPost2010Prop30
280
     1
102
RTVSPost2010PropOp30
 70
     0
102
RTVSPost2010Prop31
280
     0
102
RTVSPost2010PropOp31
 70
     0
102
RTVSPost2010Prop32
280
     0
102
RTVSPost2010PropOp32
 70
     0
102
RTVSPost2010Prop33
280
     0
102
RTVSPost2010PropOp33
 70
     0
102
RTVSPost2010Prop34
280
     0
102
RTVSPost2010PropOp34
 70
     0
102
RTVSPost2010Prop35
280
     0
102
RTVSPost2010PropOp35
 70
     0
102
RTVSPost2010Prop36
280
     0
102
RTVSPost2010PropOp36
 70
     0
102
RTVSPost2010Prop37
 90
       50
102
RTVSPost2010PropOp37
 70
     0
102
RTVSPost2010Prop38
140
0.0
102
RTVSPost2010PropOp38
 70
     0
102
RTVSPost2010Prop39
140
1.0
102
RTVSPost2010PropOp39
 70
     0
102
RTVSPost2010Prop40
 90
        0
102
RTVSPost2010PropOp40
 70
     0
102
RTVSPost2010Prop41ColorIndex
 90
       18
102
RTVSPost2010Prop41ColorRGB
 90
        0
102
RTVSPost2010PropOp41
 70
     0
102
RTVSPost2010Prop42
 90
       50
102
RTVSPost2010PropOp42
 70
     0
102
RTVSPost2010Prop43
 90
        3
102
RTVSPost2010PropOp43
 70
     0
102
RTVSPost2010Prop44ColorIndex
 90
        5
102
RTVSPost2010Prop44ColorRGB
 90
      255
102
RTVSPost2010PropOp44
 70
     0
102
RTVSPost2010Prop45
280
     0
102
RTVSPost2010PropOp45
 70
     0
102
RTVSPost2010Prop46
 90
       50
102
RTVSPost2010PropOp46
 70
     0
102
RTVSPost2010Prop47
 90
       50
102
RTVSPost2010PropOp47
 70
     0
102
RTVSPost2010Prop48
 90
       50
102
RTVSPost2010PropOp48
 70
     0
102
RTVSPost2010Prop49
280
     0
102
RTVSPost2010PropOp49
 70
     0
102
RTVSPost2010Prop50
 90
       50
102
RTVSPost2010PropOp50
 70
     0
102
RTVSPost2010Prop51ColorIndex
 90
      256
102
RTVSPost2010Prop51ColorRGB
 90
-16777216
102
RTVSPost2010PropOp51
 70
     0
102
RTVSPost2010Prop52
140
1.0
102
RTVSPost2010PropOp52
 70
     0
102
RTVSPost2010Prop53
 90
        2
102
RTVSPost2010PropOp53
 70
     0
102
RTVSPost2010Prop54
  1
strokes_ogs.tif
102
RTVSPost2010PropOp54
 70
     0
102
RTVSPost2010Prop55
280
     0
102
RTVSPost2010PropOp55
 70
     0
102
RTVSPost2010Prop56
140
1.0
102
RTVSPost2010PropOp56
 70
     0
102
RTVSPost2010Prop57
140
1.0
102
RTVSPost2010PropOp57
 70
     0
  0
XRECORD
  5
496
102
{ACAD_REACTORS
330
495
102
}
330
495
100
AcDbXrecord
280
     1
102
RTVSPost2010Prop28
280
     0
102
RTVSPost2010PropOp28
 70
     1
102
RTVSPost2010Prop29
280
     1
102
RTVSPost2010PropOp29
 70
     1
102
RTVSPost2010Prop30
280
     1
102
RTVSPost2010PropOp30
 70
     1
102
RTVSPost2010Prop31
280
     0
102
RTVSPost2010PropOp31
 70
     1
102
RTVSPost2010Prop32
280
     0
102
RTVSPost2010PropOp32
 70
     1
102
RTVSPost2010Prop33
280
     0
102
RTVSPost2010PropOp33
 70
     1
102
RTVSPost2010Prop34
280
     0
102
RTVSPost2010PropOp34
 70
     1
102
RTVSPost2010Prop35
280
     0
102
RTVSPost2010PropOp35
 70
     1
102
RTVSPost2010Prop36
280
     0
102
RTVSPost2010PropOp36
 70
     1
102
RTVSPost2010Prop37
 90
       50
102
RTVSPost2010PropOp37
 70
     1
102
RTVSPost2010Prop38
140
0.0
102
RTVSPost2010PropOp38
 70
     1
102
RTVSPost2010Prop39
140
1.0
102
RTVSPost2010PropOp39
 70
     1
102
RTVSPost2010Prop40
 90
        0
102
RTVSPost2010PropOp40
 70
     1
102
RTVSPost2010Prop41ColorIndex
 90
       18
102
RTVSPost2010Prop41ColorRGB
 90
        0
102
RTVSPost2010PropOp41
 70
     1
102
RTVSPost2010Prop42
 90
       50
102
RTVSPost2010PropOp42
 70
     1
102
RTVSPost2010Prop43
 90
        3
102
RTVSPost2010PropOp43
 70
     1
102
RTVSPost2010Prop44ColorIndex
 90
        5
102
RTVSPost2010Prop44ColorRGB
 90
      255
102
RTVSPost2010PropOp44
 70
     1
102
RTVSPost2010Prop45
280
     0
102
RTVSPost2010PropOp45
 70
     1
102
RTVSPost2010Prop46
 90
       50
102
RTVSPost2010PropOp46
 70
     1
102
RTVSPost2010Prop47
 90
       50
102
RTVSPost2010PropOp47
 70
     1
102
RTVSPost2010Prop48
 90
       50
102
RTVSPost2010PropOp48
 70
     1
102
RTVSPost2010Prop49
280
     0
102
RTVSPost2010PropOp49
 70
     1
102
RTVSPost2010Prop50
 90
       50
102
RTVSPost2010PropOp50
 70
     1
102
RTVSPost2010Prop51ColorIndex
 90
      256
102
RTVSPost2010Prop51ColorRGB
 90
-16777216
102
RTVSPost2010PropOp51
 70
     0
102
RTVSPost2010Prop52
140
1.0
102
RTVSPost2010PropOp52
 70
     0
102
RTVSPost2010Prop53
 90
        2
102
RTVSPost2010PropOp53
 70
     1
102
RTVSPost2010Prop54
  1
strokes_ogs.tif
102
RTVSPost2010PropOp54
 70
     1
102
RTVSPost2010Prop55
280
     0
102
RTVSPost2010PropOp55
 70
     1
102
RTVSPost2010Prop56
140
1.0
102
RTVSPost2010PropOp56
 70
     1
102
RTVSPost2010Prop57
140
1.0
102
RTVSPost2010PropOp57
 70
     1
  0
XRECORD
  5
49E
102
{ACAD_REACTORS
330
49D
102
}
330
49D
100
AcDbXrecord
280
     1
102
RTVSPost2010Prop28
280
     0
102
RTVSPost2010PropOp28
 70
     0
102
RTVSPost2010Prop29
280
     1
102
RTVSPost2010PropOp29
 70
     0
102
RTVSPost2010Prop30
280
     1
102
RTVSPost2010PropOp30
 70
     0
102
RTVSPost2010Prop31
280
     0
102
RTVSPost2010PropOp31
 70
     0
102
RTVSPost2010Prop32
280
     0
102
RTVSPost2010PropOp32
 70
     0
102
RTVSPost2010Prop33
280
     0
102
RTVSPost2010PropOp33
 70
     0
102
RTVSPost2010Prop34
280
     0
102
RTVSPost2010PropOp34
 70
     0
102
RTVSPost2010Prop35
280
     0
102
RTVSPost2010PropOp35
 70
     0
102
RTVSPost2010Prop36
280
     0
102
RTVSPost2010PropOp36
 70
     0
102
RTVSPost2010Prop37
 90
       50
102
RTVSPost2010PropOp37
 70
     0
102
RTVSPost2010Prop38
140
0.0
102
RTVSPost2010PropOp38
 70
     0
102
RTVSPost2010Prop39
140
1.0
102
RTVSPost2010PropOp39
 70
     0
102
RTVSPost2010Prop40
 90
        0
102
RTVSPost2010PropOp40
 70
     0
102
RTVSPost2010Prop41ColorIndex
 90
       18
102
RTVSPost2010Prop41ColorRGB
 90
        0
102
RTVSPost2010PropOp41
 70
     0
102
RTVSPost2010Prop42
 90
       50
102
RTVSPost2010PropOp42
 70
     0
102
RTVSPost2010Prop43
 90
        3
102
RTVSPost2010PropOp43
 70
     0
102
RTVSPost2010Prop44ColorIndex
 90
        5
102
RTVSPost2010Prop44ColorRGB
 90
      255
102
RTVSPost2010PropOp44
 70
     0
102
RTVSPost2010Prop45
280
     0
102
RTVSPost2010PropOp45
 70
     0
102
RTVSPost2010Prop46
 90
       50
102
RTVSPost2010PropOp46
 70
     0
102
RTVSPost2010Prop47
 90
       50
102
RTVSPost2010PropOp47
 70
     0
102
RTVSPost2010Prop48
 90
       50
102
RTVSPost2010PropOp48
 70
     0
102
RTVSPost2010Prop49
280
     0
102
RTVSPost2010PropOp49
 70
     0
102
RTVSPost2010Prop50
 90
       50
102
RTVSPost2010PropOp50
 70
     0
102
RTVSPost2010Prop51ColorIndex
 90
      256
102
RTVSPost2010Prop51ColorRGB
 90
-16777216
102
RTVSPost2010PropOp51
 70
     0
102
RTVSPost2010Prop52
140
1.0
102
RTVSPost2010PropOp52
 70
     0
102
RTVSPost2010Prop53
 90
        2
102
RTVSPost2010PropOp53
 70
     0
102
RTVSPost2010Prop54
  1
strokes_ogs.tif
102
RTVSPost2010PropOp54
 70
     0
102
RTVSPost2010Prop55
280
     0
102
RTVSPost2010PropOp55
 70
     0
102
RTVSPost2010Prop56
140
1.0
102
RTVSPost2010PropOp56
 70
     0
102
RTVSPost2010Prop57
140
1.0
102
RTVSPost2010PropOp57
 70
     0
  0
XRECORD
  5
48C
102
{ACAD_REACTORS
330
48B
102
}
330
48B
100
AcDbXrecord
280
     1
102
RTVSPost2010Prop28
280
     0
102
RTVSPost2010PropOp28
 70
     1
102
RTVSPost2010Prop29
280
     1
102
RTVSPost2010PropOp29
 70
     1
102
RTVSPost2010Prop30
280
     1
102
RTVSPost2010PropOp30
 70
     1
102
RTVSPost2010Prop31
280
     0
102
RTVSPost2010PropOp31
 70
     1
102
RTVSPost2010Prop32
280
     0
102
RTVSPost2010PropOp32
 70
     1
102
RTVSPost2010Prop33
280
     0
102
RTVSPost2010PropOp33
 70
     1
102
RTVSPost2010Prop34
280
     0
102
RTVSPost2010PropOp34
 70
     1
102
RTVSPost2010Prop35
280
     0
102
RTVSPost2010PropOp35
 70
     1
102
RTVSPost2010Prop36
280
     0
102
RTVSPost2010PropOp36
 70
     1
102
RTVSPost2010Prop37
 90
       50
102
RTVSPost2010PropOp37
 70
     1
102
RTVSPost2010Prop38
140
0.0
102
RTVSPost2010PropOp38
 70
     1
102
RTVSPost2010Prop39
140
1.0
102
RTVSPost2010PropOp39
 70
     1
102
RTVSPost2010Prop40
 90
        0
102
RTVSPost2010PropOp40
 70
     1
102
RTVSPost2010Prop41ColorIndex
 90
       18
102
RTVSPost2010Prop41ColorRGB
 90
        0
102
RTVSPost2010PropOp41
 70
     1
102
RTVSPost2010Prop42
 90
       50
102
RTVSPost2010PropOp42
 70
     1
102
RTVSPost2010Prop43
 90
        3
102
RTVSPost2010PropOp43
 70
     1
102
RTVSPost2010Prop44ColorIndex
 90
        5
102
RTVSPost2010Prop44ColorRGB
 90
      255
102
RTVSPost2010PropOp44
 70
     1
102
RTVSPost2010Prop45
280
     0
102
RTVSPost2010PropOp45
 70
     1
102
RTVSPost2010Prop46
 90
       50
102
RTVSPost2010PropOp46
 70
     1
102
RTVSPost2010Prop47
 90
       50
102
RTVSPost2010PropOp47
 70
     1
102
RTVSPost2010Prop48
 90
       50
102
RTVSPost2010PropOp48
 70
     1
102
RTVSPost2010Prop49
280
     0
102
RTVSPost2010PropOp49
 70
     1
102
RTVSPost2010Prop50
 90
       50
102
RTVSPost2010PropOp50
 70
     1
102
RTVSPost2010Prop51ColorIndex
 90
      256
102
RTVSPost2010Prop51ColorRGB
 90
-16777216
102
RTVSPost2010PropOp51
 70
     0
102
RTVSPost2010Prop52
140
1.0
102
RTVSPost2010PropOp52
 70
     0
102
RTVSPost2010Prop53
 90
        2
102
RTVSPost2010PropOp53
 70
     1
102
RTVSPost2010Prop54
  1
strokes_ogs.tif
102
RTVSPost2010PropOp54
 70
     1
102
RTVSPost2010Prop55
280
     0
102
RTVSPost2010PropOp55
 70
     1
102
RTVSPost2010Prop56
140
1.0
102
RTVSPost2010PropOp56
 70
     1
102
RTVSPost2010Prop57
140
1.0
102
RTVSPost2010PropOp57
 70
     1
  0
XRECORD
  5
4AA
102
{ACAD_REACTORS
330
4A9
102
}
330
4A9
100
AcDbXrecord
280
     1
102
RTVSPost2010Prop28
280
     0
102
RTVSPost2010PropOp28
 70
     1
102
RTVSPost2010Prop29
280
     1
102
RTVSPost2010PropOp29
 70
     1
102
RTVSPost2010Prop30
280
     1
102
RTVSPost2010PropOp30
 70
     1
102
RTVSPost2010Prop31
280
     0
102
RTVSPost2010PropOp31
 70
     1
102
RTVSPost2010Prop32
280
     0
102
RTVSPost2010PropOp32
 70
     1
102
RTVSPost2010Prop33
280
     0
102
RTVSPost2010PropOp33
 70
     1
102
RTVSPost2010Prop34
280
     0
102
RTVSPost2010PropOp34
 70
     1
102
RTVSPost2010Prop35
280
     0
102
RTVSPost2010PropOp35
 70
     1
102
RTVSPost2010Prop36
280
     0
102
RTVSPost2010PropOp36
 70
     1
102
RTVSPost2010Prop37
 90
       50
102
RTVSPost2010PropOp37
 70
     1
102
RTVSPost2010Prop38
140
0.0
102
RTVSPost2010PropOp38
 70
     1
102
RTVSPost2010Prop39
140
1.0
102
RTVSPost2010PropOp39
 70
     1
102
RTVSPost2010Prop40
 90
        0
102
RTVSPost2010PropOp40
 70
     1
102
RTVSPost2010Prop41ColorIndex
 90
       18
102
RTVSPost2010Prop41ColorRGB
 90
        0
102
RTVSPost2010PropOp41
 70
     1
102
RTVSPost2010Prop42
 90
       50
102
RTVSPost2010PropOp42
 70
     1
102
RTVSPost2010Prop43
 90
        3
102
RTVSPost2010PropOp43
 70
     1
102
RTVSPost2010Prop44ColorIndex
 90
        5
102
RTVSPost2010Prop44ColorRGB
 90
      255
102
RTVSPost2010PropOp44
 70
     1
102
RTVSPost2010Prop45
280
     0
102
RTVSPost2010PropOp45
 70
     1
102
RTVSPost2010Prop46
 90
       50
102
RTVSPost2010PropOp46
 70
     1
102
RTVSPost2010Prop47
 90
       50
102
RTVSPost2010PropOp47
 70
     1
102
RTVSPost2010Prop48
 90
       50
102
RTVSPost2010PropOp48
 70
     1
102
RTVSPost2010Prop49
280
     0
102
RTVSPost2010PropOp49
 70
     1
102
RTVSPost2010Prop50
 90
       50
102
RTVSPost2010PropOp50
 70
     1
102
RTVSPost2010Prop51ColorIndex
 90
      256
102
RTVSPost2010Prop51ColorRGB
 90
-16777216
102
RTVSPost2010PropOp51
 70
     0
102
RTVSPost2010Prop52
140
1.0
102
RTVSPost2010PropOp52
 70
     0
102
RTVSPost2010Prop53
 90
        2
102
RTVSPost2010PropOp53
 70
     1
102
RTVSPost2010Prop54
  1
strokes_ogs.tif
102
RTVSPost2010PropOp54
 70
     1
102
RTVSPost2010Prop55
280
     0
102
RTVSPost2010PropOp55
 70
     1
102
RTVSPost2010Prop56
140
1.0
102
RTVSPost2010PropOp56
 70
     1
102
RTVSPost2010Prop57
140
1.0
102
RTVSPost2010PropOp57
 70
     1
  0
XRECORD
  5
4A8
102
{ACAD_REACTORS
330
4A7
102
}
330
4A7
100
AcDbXrecord
280
     1
102
RTVSPost2010Prop28
280
     0
102
RTVSPost2010PropOp28
 70
     1
102
RTVSPost2010Prop29
280
     1
102
RTVSPost2010PropOp29
 70
     1
102
RTVSPost2010Prop30
280
     1
102
RTVSPost2010PropOp30
 70
     1
102
RTVSPost2010Prop31
280
     0
102
RTVSPost2010PropOp31
 70
     1
102
RTVSPost2010Prop32
280
     0
102
RTVSPost2010PropOp32
 70
     1
102
RTVSPost2010Prop33
280
     0
102
RTVSPost2010PropOp33
 70
     1
102
RTVSPost2010Prop34
280
     0
102
RTVSPost2010PropOp34
 70
     1
102
RTVSPost2010Prop35
280
     0
102
RTVSPost2010PropOp35
 70
     1
102
RTVSPost2010Prop36
280
     0
102
RTVSPost2010PropOp36
 70
     1
102
RTVSPost2010Prop37
 90
       50
102
RTVSPost2010PropOp37
 70
     1
102
RTVSPost2010Prop38
140
0.0
102
RTVSPost2010PropOp38
 70
     1
102
RTVSPost2010Prop39
140
1.0
102
RTVSPost2010PropOp39
 70
     1
102
RTVSPost2010Prop40
 90
        0
102
RTVSPost2010PropOp40
 70
     1
102
RTVSPost2010Prop41ColorIndex
 90
       18
102
RTVSPost2010Prop41ColorRGB
 90
        0
102
RTVSPost2010PropOp41
 70
     1
102
RTVSPost2010Prop42
 90
       50
102
RTVSPost2010PropOp42
 70
     1
102
RTVSPost2010Prop43
 90
        3
102
RTVSPost2010PropOp43
 70
     1
102
RTVSPost2010Prop44ColorIndex
 90
        5
102
RTVSPost2010Prop44ColorRGB
 90
      255
102
RTVSPost2010PropOp44
 70
     1
102
RTVSPost2010Prop45
280
     0
102
RTVSPost2010PropOp45
 70
     1
102
RTVSPost2010Prop46
 90
       50
102
RTVSPost2010PropOp46
 70
     1
102
RTVSPost2010Prop47
 90
       50
102
RTVSPost2010PropOp47
 70
     1
102
RTVSPost2010Prop48
 90
       50
102
RTVSPost2010PropOp48
 70
     1
102
RTVSPost2010Prop49
280
     0
102
RTVSPost2010PropOp49
 70
     1
102
RTVSPost2010Prop50
 90
       50
102
RTVSPost2010PropOp50
 70
     1
102
RTVSPost2010Prop51ColorIndex
 90
      256
102
RTVSPost2010Prop51ColorRGB
 90
-16777216
102
RTVSPost2010PropOp51
 70
     0
102
RTVSPost2010Prop52
140
1.0
102
RTVSPost2010PropOp52
 70
     0
102
RTVSPost2010Prop53
 90
        2
102
RTVSPost2010PropOp53
 70
     1
102
RTVSPost2010Prop54
  1
strokes_ogs.tif
102
RTVSPost2010PropOp54
 70
     1
102
RTVSPost2010Prop55
280
     0
102
RTVSPost2010PropOp55
 70
     1
102
RTVSPost2010Prop56
140
1.0
102
RTVSPost2010PropOp56
 70
     1
102
RTVSPost2010Prop57
140
1.0
102
RTVSPost2010PropOp57
 70
     1
  0
XRECORD
  5
4A2
102
{ACAD_REACTORS
330
4A1
102
}
330
4A1
100
AcDbXrecord
280
     1
102
RTVSPost2010Prop28
280
     0
102
RTVSPost2010PropOp28
 70
     1
102
RTVSPost2010Prop29
280
     1
102
RTVSPost2010PropOp29
 70
     1
102
RTVSPost2010Prop30
280
     1
102
RTVSPost2010PropOp30
 70
     1
102
RTVSPost2010Prop31
280
     0
102
RTVSPost2010PropOp31
 70
     1
102
RTVSPost2010Prop32
280
     0
102
RTVSPost2010PropOp32
 70
     1
102
RTVSPost2010Prop33
280
     0
102
RTVSPost2010PropOp33
 70
     1
102
RTVSPost2010Prop34
280
     0
102
RTVSPost2010PropOp34
 70
     1
102
RTVSPost2010Prop35
280
     0
102
RTVSPost2010PropOp35
 70
     1
102
RTVSPost2010Prop36
280
     0
102
RTVSPost2010PropOp36
 70
     1
102
RTVSPost2010Prop37
 90
       50
102
RTVSPost2010PropOp37
 70
     1
102
RTVSPost2010Prop38
140
0.0
102
RTVSPost2010PropOp38
 70
     1
102
RTVSPost2010Prop39
140
1.0
102
RTVSPost2010PropOp39
 70
     1
102
RTVSPost2010Prop40
 90
        0
102
RTVSPost2010PropOp40
 70
     1
102
RTVSPost2010Prop41ColorIndex
 90
       18
102
RTVSPost2010Prop41ColorRGB
 90
        0
102
RTVSPost2010PropOp41
 70
     1
102
RTVSPost2010Prop42
 90
       50
102
RTVSPost2010PropOp42
 70
     1
102
RTVSPost2010Prop43
 90
        3
102
RTVSPost2010PropOp43
 70
     1
102
RTVSPost2010Prop44ColorIndex
 90
        5
102
RTVSPost2010Prop44ColorRGB
 90
      255
102
RTVSPost2010PropOp44
 70
     1
102
RTVSPost2010Prop45
280
     0
102
RTVSPost2010PropOp45
 70
     1
102
RTVSPost2010Prop46
 90
       50
102
RTVSPost2010PropOp46
 70
     1
102
RTVSPost2010Prop47
 90
       50
102
RTVSPost2010PropOp47
 70
     1
102
RTVSPost2010Prop48
 90
       50
102
RTVSPost2010PropOp48
 70
     1
102
RTVSPost2010Prop49
280
     0
102
RTVSPost2010PropOp49
 70
     1
102
RTVSPost2010Prop50
 90
       50
102
RTVSPost2010PropOp50
 70
     1
102
RTVSPost2010Prop51ColorIndex
 90
      256
102
RTVSPost2010Prop51ColorRGB
 90
-16777216
102
RTVSPost2010PropOp51
 70
     0
102
RTVSPost2010Prop52
140
1.0
102
RTVSPost2010PropOp52
 70
     0
102
RTVSPost2010Prop53
 90
        2
102
RTVSPost2010PropOp53
 70
     1
102
RTVSPost2010Prop54
  1
strokes_ogs.tif
102
RTVSPost2010PropOp54
 70
     1
102
RTVSPost2010Prop55
280
     0
102
RTVSPost2010PropOp55
 70
     1
102
RTVSPost2010Prop56
140
1.0
102
RTVSPost2010PropOp56
 70
     1
102
RTVSPost2010Prop57
140
1.0
102
RTVSPost2010PropOp57
 70
     1
  0
XRECORD
  5
4A4
102
{ACAD_REACTORS
330
4A3
102
}
330
4A3
100
AcDbXrecord
280
     1
102
RTVSPost2010Prop28
280
     0
102
RTVSPost2010PropOp28
 70
     1
102
RTVSPost2010Prop29
280
     1
102
RTVSPost2010PropOp29
 70
     1
102
RTVSPost2010Prop30
280
     1
102
RTVSPost2010PropOp30
 70
     1
102
RTVSPost2010Prop31
280
     0
102
RTVSPost2010PropOp31
 70
     1
102
RTVSPost2010Prop32
280
     0
102
RTVSPost2010PropOp32
 70
     1
102
RTVSPost2010Prop33
280
     0
102
RTVSPost2010PropOp33
 70
     1
102
RTVSPost2010Prop34
280
     0
102
RTVSPost2010PropOp34
 70
     1
102
RTVSPost2010Prop35
280
     0
102
RTVSPost2010PropOp35
 70
     1
102
RTVSPost2010Prop36
280
     0
102
RTVSPost2010PropOp36
 70
     1
102
RTVSPost2010Prop37
 90
       50
102
RTVSPost2010PropOp37
 70
     1
102
RTVSPost2010Prop38
140
0.0
102
RTVSPost2010PropOp38
 70
     1
102
RTVSPost2010Prop39
140
1.0
102
RTVSPost2010PropOp39
 70
     1
102
RTVSPost2010Prop40
 90
        0
102
RTVSPost2010PropOp40
 70
     1
102
RTVSPost2010Prop41ColorIndex
 90
       18
102
RTVSPost2010Prop41ColorRGB
 90
        0
102
RTVSPost2010PropOp41
 70
     1
102
RTVSPost2010Prop42
 90
       50
102
RTVSPost2010PropOp42
 70
     1
102
RTVSPost2010Prop43
 90
        3
102
RTVSPost2010PropOp43
 70
     1
102
RTVSPost2010Prop44ColorIndex
 90
        5
102
RTVSPost2010Prop44ColorRGB
 90
      255
102
RTVSPost2010PropOp44
 70
     1
102
RTVSPost2010Prop45
280
     0
102
RTVSPost2010PropOp45
 70
     1
102
RTVSPost2010Prop46
 90
       50
102
RTVSPost2010PropOp46
 70
     1
102
RTVSPost2010Prop47
 90
       50
102
RTVSPost2010PropOp47
 70
     1
102
RTVSPost2010Prop48
 90
       50
102
RTVSPost2010PropOp48
 70
     1
102
RTVSPost2010Prop49
280
     0
102
RTVSPost2010PropOp49
 70
     1
102
RTVSPost2010Prop50
 90
       50
102
RTVSPost2010PropOp50
 70
     1
102
RTVSPost2010Prop51ColorIndex
 90
      256
102
RTVSPost2010Prop51ColorRGB
 90
-16777216
102
RTVSPost2010PropOp51
 70
     0
102
RTVSPost2010Prop52
140
1.0
102
RTVSPost2010PropOp52
 70
     0
102
RTVSPost2010Prop53
 90
        2
102
RTVSPost2010PropOp53
 70
     1
102
RTVSPost2010Prop54
  1
strokes_ogs.tif
102
RTVSPost2010PropOp54
 70
     1
102
RTVSPost2010Prop55
280
     0
102
RTVSPost2010PropOp55
 70
     1
102
RTVSPost2010Prop56
140
1.0
102
RTVSPost2010PropOp56
 70
     1
102
RTVSPost2010Prop57
140
1.0
102
RTVSPost2010PropOp57
 70
     1
  0
XRECORD
  5
494
102
{ACAD_REACTORS
330
493
102
}
330
493
100
AcDbXrecord
280
     1
102
RTVSPost2010Prop28
280
     0
102
RTVSPost2010PropOp28
 70
     1
102
RTVSPost2010Prop29
280
     1
102
RTVSPost2010PropOp29
 70
     1
102
RTVSPost2010Prop30
280
     1
102
RTVSPost2010PropOp30
 70
     1
102
RTVSPost2010Prop31
280
     0
102
RTVSPost2010PropOp31
 70
     1
102
RTVSPost2010Prop32
280
     0
102
RTVSPost2010PropOp32
 70
     1
102
RTVSPost2010Prop33
280
     0
102
RTVSPost2010PropOp33
 70
     1
102
RTVSPost2010Prop34
280
     0
102
RTVSPost2010PropOp34
 70
     1
102
RTVSPost2010Prop35
280
     0
102
RTVSPost2010PropOp35
 70
     1
102
RTVSPost2010Prop36
280
     0
102
RTVSPost2010PropOp36
 70
     1
102
RTVSPost2010Prop37
 90
       50
102
RTVSPost2010PropOp37
 70
     1
102
RTVSPost2010Prop38
140
0.0
102
RTVSPost2010PropOp38
 70
     1
102
RTVSPost2010Prop39
140
1.0
102
RTVSPost2010PropOp39
 70
     1
102
RTVSPost2010Prop40
 90
        0
102
RTVSPost2010PropOp40
 70
     1
102
RTVSPost2010Prop41ColorIndex
 90
       18
102
RTVSPost2010Prop41ColorRGB
 90
        0
102
RTVSPost2010PropOp41
 70
     1
102
RTVSPost2010Prop42
 90
       50
102
RTVSPost2010PropOp42
 70
     1
102
RTVSPost2010Prop43
 90
        3
102
RTVSPost2010PropOp43
 70
     1
102
RTVSPost2010Prop44ColorIndex
 90
        5
102
RTVSPost2010Prop44ColorRGB
 90
      255
102
RTVSPost2010PropOp44
 70
     1
102
RTVSPost2010Prop45
280
     0
102
RTVSPost2010PropOp45
 70
     1
102
RTVSPost2010Prop46
 90
       50
102
RTVSPost2010PropOp46
 70
     1
102
RTVSPost2010Prop47
 90
       50
102
RTVSPost2010PropOp47
 70
     1
102
RTVSPost2010Prop48
 90
       50
102
RTVSPost2010PropOp48
 70
     1
102
RTVSPost2010Prop49
280
     0
102
RTVSPost2010PropOp49
 70
     1
102
RTVSPost2010Prop50
 90
       50
102
RTVSPost2010PropOp50
 70
     1
102
RTVSPost2010Prop51ColorIndex
 90
      256
102
RTVSPost2010Prop51ColorRGB
 90
-16777216
102
RTVSPost2010PropOp51
 70
     0
102
RTVSPost2010Prop52
140
1.0
102
RTVSPost2010PropOp52
 70
     0
102
RTVSPost2010Prop53
 90
        2
102
RTVSPost2010PropOp53
 70
     1
102
RTVSPost2010Prop54
  1
strokes_ogs.tif
102
RTVSPost2010PropOp54
 70
     1
102
RTVSPost2010Prop55
280
     0
102
RTVSPost2010PropOp55
 70
     1
102
RTVSPost2010Prop56
140
1.0
102
RTVSPost2010PropOp56
 70
     1
102
RTVSPost2010Prop57
140
1.0
102
RTVSPost2010PropOp57
 70
     1
  0
XRECORD
  5
486
102
{ACAD_REACTORS
330
485
102
}
330
485
100
AcDbXrecord
280
     1
102
RTVSPost2010Prop28
280
     0
102
RTVSPost2010PropOp28
 70
     1
102
RTVSPost2010Prop29
280
     1
102
RTVSPost2010PropOp29
 70
     1
102
RTVSPost2010Prop30
280
     1
102
RTVSPost2010PropOp30
 70
     1
102
RTVSPost2010Prop31
280
     0
102
RTVSPost2010PropOp31
 70
     1
102
RTVSPost2010Prop32
280
     0
102
RTVSPost2010PropOp32
 70
     1
102
RTVSPost2010Prop33
280
     0
102
RTVSPost2010PropOp33
 70
     1
102
RTVSPost2010Prop34
280
     0
102
RTVSPost2010PropOp34
 70
     1
102
RTVSPost2010Prop35
280
     0
102
RTVSPost2010PropOp35
 70
     1
102
RTVSPost2010Prop36
280
     0
102
RTVSPost2010PropOp36
 70
     1
102
RTVSPost2010Prop37
 90
       50
102
RTVSPost2010PropOp37
 70
     1
102
RTVSPost2010Prop38
140
0.0
102
RTVSPost2010PropOp38
 70
     1
102
RTVSPost2010Prop39
140
1.0
102
RTVSPost2010PropOp39
 70
     1
102
RTVSPost2010Prop40
 90
        0
102
RTVSPost2010PropOp40
 70
     1
102
RTVSPost2010Prop41ColorIndex
 90
       18
102
RTVSPost2010Prop41ColorRGB
 90
        0
102
RTVSPost2010PropOp41
 70
     1
102
RTVSPost2010Prop42
 90
       50
102
RTVSPost2010PropOp42
 70
     1
102
RTVSPost2010Prop43
 90
        3
102
RTVSPost2010PropOp43
 70
     1
102
RTVSPost2010Prop44ColorIndex
 90
        5
102
RTVSPost2010Prop44ColorRGB
 90
      255
102
RTVSPost2010PropOp44
 70
     1
102
RTVSPost2010Prop45
280
     0
102
RTVSPost2010PropOp45
 70
     1
102
RTVSPost2010Prop46
 90
       50
102
RTVSPost2010PropOp46
 70
     1
102
RTVSPost2010Prop47
 90
       50
102
RTVSPost2010PropOp47
 70
     1
102
RTVSPost2010Prop48
 90
       50
102
RTVSPost2010PropOp48
 70
     1
102
RTVSPost2010Prop49
280
     0
102
RTVSPost2010PropOp49
 70
     1
102
RTVSPost2010Prop50
 90
       50
102
RTVSPost2010PropOp50
 70
     1
102
RTVSPost2010Prop51ColorIndex
 90
      256
102
RTVSPost2010Prop51ColorRGB
 90
-16777216
102
RTVSPost2010PropOp51
 70
     0
102
RTVSPost2010Prop52
140
1.0
102
RTVSPost2010PropOp52
 70
     0
102
RTVSPost2010Prop53
 90
        2
102
RTVSPost2010PropOp53
 70
     1
102
RTVSPost2010Prop54
  1
strokes_ogs.tif
102
RTVSPost2010PropOp54
 70
     1
102
RTVSPost2010Prop55
280
     0
102
RTVSPost2010PropOp55
 70
     1
102
RTVSPost2010Prop56
140
1.0
102
RTVSPost2010PropOp56
 70
     1
102
RTVSPost2010Prop57
140
1.0
102
RTVSPost2010PropOp57
 70
     1
  0
XRECORD
  5
4A6
102
{ACAD_REACTORS
330
4A5
102
}
330
4A5
100
AcDbXrecord
280
     1
102
RTVSPost2010Prop28
280
     0
102
RTVSPost2010PropOp28
 70
     1
102
RTVSPost2010Prop29
280
     1
102
RTVSPost2010PropOp29
 70
     1
102
RTVSPost2010Prop30
280
     1
102
RTVSPost2010PropOp30
 70
     1
102
RTVSPost2010Prop31
280
     0
102
RTVSPost2010PropOp31
 70
     1
102
RTVSPost2010Prop32
280
     0
102
RTVSPost2010PropOp32
 70
     1
102
RTVSPost2010Prop33
280
     0
102
RTVSPost2010PropOp33
 70
     1
102
RTVSPost2010Prop34
280
     0
102
RTVSPost2010PropOp34
 70
     1
102
RTVSPost2010Prop35
280
     0
102
RTVSPost2010PropOp35
 70
     1
102
RTVSPost2010Prop36
280
     0
102
RTVSPost2010PropOp36
 70
     1
102
RTVSPost2010Prop37
 90
       50
102
RTVSPost2010PropOp37
 70
     1
102
RTVSPost2010Prop38
140
0.0
102
RTVSPost2010PropOp38
 70
     1
102
RTVSPost2010Prop39
140
1.0
102
RTVSPost2010PropOp39
 70
     1
102
RTVSPost2010Prop40
 90
        0
102
RTVSPost2010PropOp40
 70
     1
102
RTVSPost2010Prop41ColorIndex
 90
       18
102
RTVSPost2010Prop41ColorRGB
 90
        0
102
RTVSPost2010PropOp41
 70
     1
102
RTVSPost2010Prop42
 90
       50
102
RTVSPost2010PropOp42
 70
     1
102
RTVSPost2010Prop43
 90
        3
102
RTVSPost2010PropOp43
 70
     1
102
RTVSPost2010Prop44ColorIndex
 90
        5
102
RTVSPost2010Prop44ColorRGB
 90
      255
102
RTVSPost2010PropOp44
 70
     1
102
RTVSPost2010Prop45
280
     0
102
RTVSPost2010PropOp45
 70
     1
102
RTVSPost2010Prop46
 90
       50
102
RTVSPost2010PropOp46
 70
     1
102
RTVSPost2010Prop47
 90
       50
102
RTVSPost2010PropOp47
 70
     1
102
RTVSPost2010Prop48
 90
       50
102
RTVSPost2010PropOp48
 70
     1
102
RTVSPost2010Prop49
280
     0
102
RTVSPost2010PropOp49
 70
     1
102
RTVSPost2010Prop50
 90
       50
102
RTVSPost2010PropOp50
 70
     1
102
RTVSPost2010Prop51ColorIndex
 90
      256
102
RTVSPost2010Prop51ColorRGB
 90
-16777216
102
RTVSPost2010PropOp51
 70
     0
102
RTVSPost2010Prop52
140
1.0
102
RTVSPost2010PropOp52
 70
     0
102
RTVSPost2010Prop53
 90
        2
102
RTVSPost2010PropOp53
 70
     1
102
RTVSPost2010Prop54
  1
strokes_ogs.tif
102
RTVSPost2010PropOp54
 70
     1
102
RTVSPost2010Prop55
280
     0
102
RTVSPost2010PropOp55
 70
     1
102
RTVSPost2010Prop56
140
1.0
102
RTVSPost2010PropOp56
 70
     1
102
RTVSPost2010Prop57
140
1.0
102
RTVSPost2010PropOp57
 70
     1
  0
ENDSEC
  0
EOF
