  0
SECTION
  2
HEADER
  9
$ACADVER
  1
AC1024
  9
$ACADMAINTVER
 70
     6
  9
$DWGCODEPAGE
  3
ANSI_1252
  9
$INSBASE
 10
0.0
 20
0.0
 30
0.0
  9
$EXTMIN
 10
-0.0635
 20
-1298.050773
 30
0.0
  9
$EXTMAX
 10
5719.961328
 20
1008.957885
 30
0.0
  9
$LIMMIN
 10
-0.0635
 20
-1298.050773
  9
$LIMMAX
 10
5719.961328
 20
1008.957885
  9
$ORTHOMODE
 70
     0
  9
$REGENMODE
 70
     1
  9
$FILLMODE
 70
     1
  9
$QTEXTMODE
 70
     0
  9
$MIRRTEXT
 70
     1
  9
$LTSCALE
 40
1.0
  9
$ATTMODE
 70
     1
  9
$TEXTSIZE
 40
0.2
  9
$TRACEWID
 40
0.05
  9
$TEXTSTYLE
  7
STANDARD
  9
$CLAYER
  8
default
  9
$CELTYPE
  6
BYLAYER
  9
$CECOLOR
 62
   256
  9
$CELTSCALE
 40
1.0
  9
$DISPSILH
 70
     0
  9
$DIMSCALE
 40
1.0
  9
$DIMASZ
 40
0.18
  9
$DIMEXO
 40
0.0625
  9
$DIMDLI
 40
0.38
  9
$DIMRND
 40
0.0
  9
$DIMDLE
 40
0.0
  9
$DIMEXE
 40
0.18
  9
$DIMTP
 40
0.0
  9
$DIMTM
 40
0.0
  9
$DIMTXT
 40
0.18
  9
$DIMCEN
 40
0.09
  9
$DIMTSZ
 40
0.0
  9
$DIMTOL
 70
     0
  9
$DIMLIM
 70
     0
  9
$DIMTIH
 70
     1
  9
$DIMTOH
 70
     1
  9
$DIMSE1
 70
     0
  9
$DIMSE2
 70
     0
  9
$DIMTAD
 70
     0
  9
$DIMZIN
 70
     0
  9
$DIMBLK
  1

  9
$DIMASO
 70
     1
  9
$DIMSHO
 70
     1
  9
$DIMPOST
  1

  9
$DIMAPOST
  1

  9
$DIMALT
 70
     0
  9
$DIMALTD
 70
     2
  9
$DIMALTF
 40
25.4
  9
$DIMLFAC
 40
1.0
  9
$DIMTOFL
 70
     0
  9
$DIMTVP
 40
0.0
  9
$DIMTIX
 70
     0
  9
$DIMSOXD
 70
     0
  9
$DIMSAH
 70
     0
  9
$DIMBLK1
  1

  9
$DIMBLK2
  1

  9
$DIMSTYLE
  2
STANDARD
  9
$DIMCLRD
 70
     0
  9
$DIMCLRE
 70
     0
  9
$DIMCLRT
 70
     0
  9
$DIMTFAC
 40
1.0
  9
$DIMGAP
 40
0.09
  9
$DIMJUST
 70
     0
  9
$DIMSD1
 70
     0
  9
$DIMSD2
 70
     0
  9
$DIMTOLJ
 70
     1
  9
$DIMTZIN
 70
     0
  9
$DIMALTZ
 70
     0
  9
$DIMALTTZ
 70
     0
  9
$DIMUPT
 70
     0
  9
$DIMDEC
 70
     4
  9
$DIMTDEC
 70
     4
  9
$DIMALTU
 70
     2
  9
$DIMALTTD
 70
     2
  9
$DIMTXSTY
  7
STANDARD
  9
$DIMAUNIT
 70
     0
  9
$DIMADEC
 70
     0
  9
$DIMALTRND
 40
0.0
  9
$DIMAZIN
 70
     0
  9
$DIMDSEP
 70
    46
  9
$DIMATFIT
 70
     3
  9
$DIMFRAC
 70
     0
  9
$DIMLDRBLK
  1

  9
$DIMLUNIT
 70
     2
  9
$DIMLWD
 70
    -2
  9
$DIMLWE
 70
    -2
  9
$DIMTMOVE
 70
     2
  9
$DIMFXL
 40
1.0
  9
$DIMFXLON
 70
     0
  9
$DIMJOGANG
 40
0.7853981633974483
  9
$DIMTFILL
 70
     0
  9
$DIMTFILLCLR
 70
     0
  9
$DIMARCSYM
 70
     0
  9
$DIMLTYPE
  6

  9
$DIMLTEX1
  6

  9
$DIMLTEX2
  6

  9
$DIMTXTDIRECTION
 70
     0
  9
$LUNITS
 70
     2
  9
$LUPREC
 70
     6
  9
$SKETCHINC
 40
0.1
  9
$FILLETRAD
 40
0.5
  9
$AUNITS
 70
     0
  9
$AUPREC
 70
     0
  9
$MENU
  1
.
  9
$ELEVATION
 40
0.0
  9
$PELEVATION
 40
0.0
  9
$THICKNESS
 40
0.0
  9
$LIMCHECK
 70
     0
  9
$CHAMFERA
 40
0.5
  9
$CHAMFERB
 40
0.5
  9
$CHAMFERC
 40
1.0
  9
$CHAMFERD
 40
0.0
  9
$SKPOLY
 70
     0
  9
$TDCREATE
 40
2457903.648287025
  9
$TDUCREATE
 40
2457903.314953692
  9
$TDUPDATE
 40
2457903.648301632
  9
$TDUUPDATE
 40
2457903.314968299
  9
$TDINDWG
 40
0.0
  9
$TDUSRTIMER
 40
0.0
  9
$USRTIMER
 70
     1
  9
$ANGBASE
 50
0.0
  9
$ANGDIR
 70
     0
  9
$PDMODE
 70
     0
  9
$PDSIZE
 40
0.0
  9
$PLINEWID
 40
0.0
  9
$SPLFRAME
 70
     0
  9
$SPLINETYPE
 70
     6
  9
$SPLINESEGS
 70
     8
  9
$HANDSEED
  5
3A1
  9
$SURFTAB1
 70
     6
  9
$SURFTAB2
 70
     6
  9
$SURFTYPE
 70
     6
  9
$SURFU
 70
     6
  9
$SURFV
 70
     6
  9
$UCSBASE
  2

  9
$UCSNAME
  2

  9
$UCSORG
 10
0.0
 20
0.0
 30
0.0
  9
$UCSXDIR
 10
1.0
 20
0.0
 30
0.0
  9
$UCSYDIR
 10
0.0
 20
1.0
 30
0.0
  9
$UCSORTHOREF
  2

  9
$UCSORTHOVIEW
 70
     0
  9
$UCSORGTOP
 10
0.0
 20
0.0
 30
0.0
  9
$UCSORGBOTTOM
 10
0.0
 20
0.0
 30
0.0
  9
$UCSORGLEFT
 10
0.0
 20
0.0
 30
0.0
  9
$UCSORGRIGHT
 10
0.0
 20
0.0
 30
0.0
  9
$UCSORGFRONT
 10
0.0
 20
0.0
 30
0.0
  9
$UCSORGBACK
 10
0.0
 20
0.0
 30
0.0
  9
$PUCSBASE
  2

  9
$PUCSNAME
  2

  9
$PUCSORG
 10
0.0
 20
0.0
 30
0.0
  9
$PUCSXDIR
 10
1.0
 20
0.0
 30
0.0
  9
$PUCSYDIR
 10
0.0
 20
1.0
 30
0.0
  9
$PUCSORTHOREF
  2

  9
$PUCSORTHOVIEW
 70
     0
  9
$PUCSORGTOP
 10
0.0
 20
0.0
 30
0.0
  9
$PUCSORGBOTTOM
 10
0.0
 20
0.0
 30
0.0
  9
$PUCSORGLEFT
 10
0.0
 20
0.0
 30
0.0
  9
$PUCSORGRIGHT
 10
0.0
 20
0.0
 30
0.0
  9
$PUCSORGFRONT
 10
0.0
 20
0.0
 30
0.0
  9
$PUCSORGBACK
 10
0.0
 20
0.0
 30
0.0
  9
$USERI1
 70
     0
  9
$USERI2
 70
     0
  9
$USERI3
 70
     0
  9
$USERI4
 70
     0
  9
$USERI5
 70
     0
  9
$USERR1
 40
0.0
  9
$USERR2
 40
0.0
  9
$USERR3
 40
0.0
  9
$USERR4
 40
0.0
  9
$USERR5
 40
0.0
  9
$WORLDVIEW
 70
     1
  9
$SHADEDGE
 70
     3
  9
$SHADEDIF
 70
    70
  9
$TILEMODE
 70
     1
  9
$MAXACTVP
 70
    48
  9
$PINSBASE
 10
0.0
 20
0.0
 30
0.0
  9
$PLIMCHECK
 70
     0
  9
$PEXTMIN
 10
1.000000000000000E+20
 20
1.000000000000000E+20
 30
1.000000000000000E+20
  9
$PEXTMAX
 10
-1.000000000000000E+20
 20
-1.000000000000000E+20
 30
-1.000000000000000E+20
  9
$PLIMMIN
 10
0.0
 20
0.0
  9
$PLIMMAX
 10
12.0
 20
9.0
  9
$UNITMODE
 70
     0
  9
$VISRETAIN
 70
     1
  9
$PLINEGEN
 70
     0
  9
$PSLTSCALE
 70
     1
  9
$TREEDEPTH
 70
  3020
  9
$CMLSTYLE
  2
STANDARD
  9
$CMLJUST
 70
     0
  9
$CMLSCALE
 40
1.0
  9
$PROXYGRAPHICS
 70
     1
  9
$MEASUREMENT
 70
     1
  9
$CELWEIGHT
370
    -1
  9
$ENDCAPS
280
     0
  9
$JOINSTYLE
280
     0
  9
$LWDISPLAY
290
     0
  9
$INSUNITS
 70
     4
  9
$HYPERLINKBASE
  1

  9
$STYLESHEET
  1

  9
$XEDIT
290
     1
  9
$CEPSNTYPE
380
     0
  9
$PSTYLEMODE
290
     1
  9
$FINGERPRINTGUID
  2
{F0C5CF04-07C6-42DC-AF44-0C45860F1330}
  9
$VERSIONGUID
  2
{FAEB1C32-E019-11D5-929B-00C0DF256EC4}
  9
$EXTNAMES
290
     1
  9
$PSVPSCALE
 40
0.0
  9
$OLESTARTUP
290
     0
  9
$SORTENTS
280
   127
  9
$INDEXCTL
280
     0
  9
$HIDETEXT
280
     1
  9
$XCLIPFRAME
280
     2
  9
$HALOGAP
280
     0
  9
$OBSCOLOR
 70
   257
  9
$OBSLTYPE
280
     0
  9
$INTERSECTIONDISPLAY
280
     0
  9
$INTERSECTIONCOLOR
 70
   257
  9
$DIMASSOC
280
     2
  9
$PROJECTNAME
  1

  9
$CAMERADISPLAY
290
     0
  9
$LENSLENGTH
 40
50.0
  9
$CAMERAHEIGHT
 40
0.0
  9
$STEPSPERSEC
 40
2.0
  9
$STEPSIZE
 40
6.0
  9
$3DDWFPREC
 40
2.0
  9
$PSOLWIDTH
 40
0.25
  9
$PSOLHEIGHT
 40
4.0
  9
$LOFTANG1
 40
1.570796326794897
  9
$LOFTANG2
 40
1.570796326794897
  9
$LOFTMAG1
 40
0.0
  9
$LOFTMAG2
 40
0.0
  9
$LOFTPARAM
 70
     7
  9
$LOFTNORMALS
280
     1
  9
$LATITUDE
 40
37.795
  9
$LONGITUDE
 40
-122.394
  9
$NORTHDIRECTION
 40
0.0
  9
$TIMEZONE
 70
 -8000
  9
$LIGHTGLYPHDISPLAY
280
     1
  9
$TILEMODELIGHTSYNCH
280
     1
  9
$SOLIDHIST
280
     1
  9
$SHOWHIST
280
     1
  9
$DWFFRAME
280
     2
  9
$DGNFRAME
280
     2
  9
$REALWORLDSCALE
290
     1
  9
$INTERFERECOLOR
 62
   256
  9
$CSHADOW
280
     0
  9
$SHADOWPLANELOCATION
 40
0.0
  0
ENDSEC
  0
SECTION
  2
CLASSES
  0
CLASS
  1
SCALE
  2
AcDbScale
  3
ObjectDBX Classes
 90
     1153
 91
        4
280
     0
281
     0
  0
CLASS
  1
VISUALSTYLE
  2
AcDbVisualStyle
  3
ObjectDBX Classes
 90
     4095
 91
        4
280
     0
281
     0
  0
CLASS
  1
MATERIAL
  2
AcDbMaterial
  3
ObjectDBX Classes
 90
     1153
 91
        4
280
     0
281
     0
  0
CLASS
  1
DICTIONARYVAR
  2
AcDbDictionaryVar
  3
ObjectDBX Classes
 90
        0
 91
        4
280
     0
281
     0
  0
ENDSEC
  0
SECTION
  2
TABLES
  0
TABLE
  2
VPORT
  5
8
330
0
100
AcDbSymbolTable
 70
     1
  0
VPORT
  5
1E
330
8
100
AcDbSymbolTableRecord
100
AcDbViewportTableRecord
  2
*ACTIVE
 70
     0
 10
0.0
 20
0.0
 11
1.0
 21
1.0
 12
2859.948914
 22
-144.546444
 13
0.0
 23
0.0
 14
0.25
 24
0.25
 15
0.25
 25
0.25
 16
0.0
 26
0.0
 36
1.0
 17
0.0
 27
0.0
 37
0.0
 40
2307.008658
 41
2.479412
 42
50.0
 43
0.0
 44
0.0
 50
0.0
 51
0.0
 71
     0
 72
   100
 73
     1
 74
     1
 75
     0
 76
     0
 77
     0
 78
     0
281
     0
 65
     1
110
0.0
120
0.0
130
0.0
111
1.0
121
0.0
131
0.0
112
0.0
122
1.0
132
0.0
 79
     0
146
0.0
348
352
 60
     3
 61
     5
292
     1
282
     1
141
0.0
142
0.0
 63
   256
  0
ENDTAB
  0
TABLE
  2
LTYPE
  5
5
330
0
100
AcDbSymbolTable
 70
     2
  0
LTYPE
  5
12
330
5
100
AcDbSymbolTableRecord
100
AcDbLinetypeTableRecord
  2
BYBLOCK
 70
     0
  3

 72
    65
 73
     0
 40
0.0
  0
LTYPE
  5
13
330
5
100
AcDbSymbolTableRecord
100
AcDbLinetypeTableRecord
  2
BYLAYER
 70
     0
  3

 72
    65
 73
     0
 40
0.0
  0
LTYPE
  5
14
330
5
100
AcDbSymbolTableRecord
100
AcDbLinetypeTableRecord
  2
CONTINUOUS
 70
     0
  3
Solid line
 72
    65
 73
     0
 40
0.0
  0
LTYPE
  5
20
330
5
100
AcDbSymbolTableRecord
100
AcDbLinetypeTableRecord
  2
CENTER
 70
     0
  3
____ _ ____ _ ____ _ ____ _ ____ _ ____ _ ____
 72
    65
 73
     4
 40
2.0
 49
1.25
 74
     0
 49
-0.25
 74
     0
 49
0.25
 74
     0
 49
-0.25
 74
     0
  0
ENDTAB
  0
TABLE
  2
LAYER
  5
2
330
0
100
AcDbSymbolTable
 70
    10
  0
LAYER
  5
E
330
2
100
AcDbSymbolTableRecord
100
AcDbLayerTableRecord
  2
0
 70
     0
 62
     7
  6
CONTINUOUS
370
    -3
390
0
347
369
  0
LAYER
  5
21
330
2
100
AcDbSymbolTableRecord
100
AcDbLayerTableRecord
  2
default
 70
     0
 62
     7
  6
CONTINUOUS
370
    -3
390
0
347
369
  0
LAYER
  5
22
330
2
100
AcDbSymbolTableRecord
100
AcDbLayerTableRecord
  2
ISOMETRIC
 70
     0
 62
     7
  6
CONTINUOUS
370
    -3
390
0
347
369
  0
LAYER
  5
23
330
2
100
AcDbSymbolTableRecord
100
AcDbLayerTableRecord
  2
PLAN
 70
     0
 62
     7
  6
CONTINUOUS
370
    -3
390
0
347
369
  0
LAYER
  5
24
330
2
100
AcDbSymbolTableRecord
100
AcDbLayerTableRecord
  2
LONG
 70
     0
 62
     7
  6
CONTINUOUS
370
    -3
390
0
347
369
  0
LAYER
  5
25
330
2
100
AcDbSymbolTableRecord
100
AcDbLayerTableRecord
  2
FRONT
 70
     0
 62
     7
  6
CONTINUOUS
370
    -3
390
0
347
369
  0
LAYER
  5
26
330
2
100
AcDbSymbolTableRecord
100
AcDbLayerTableRecord
  2
UNFOLD
 70
     0
 62
     7
  6
CONTINUOUS
370
    -3
390
0
347
369
  0
LAYER
  5
27
330
2
100
AcDbSymbolTableRecord
100
AcDbLayerTableRecord
  2
PLAN_SECTIONS
 70
     0
 62
     7
  6
CONTINUOUS
370
    -3
390
0
347
369
  0
LAYER
  5
28
330
2
100
AcDbSymbolTableRecord
100
AcDbLayerTableRecord
  2
CROSS_SECTIONS
 70
     0
 62
     7
  6
CONTINUOUS
370
    -3
390
0
347
369
  0
LAYER
  5
29
330
2
100
AcDbSymbolTableRecord
100
AcDbLayerTableRecord
  2
LONG_SECTIONS
 70
     0
 62
     7
  6
CONTINUOUS
370
    -3
390
0
347
369
  0
ENDTAB
  0
TABLE
  2
STYLE
  5
3
330
0
100
AcDbSymbolTable
 70
     2
  0
STYLE
  5
F
330
3
100
AcDbSymbolTableRecord
100
AcDbTextStyleTableRecord
  2
STANDARD
 70
     0
 40
0.0
 41
1.0
 50
0.0
 71
     0
 42
0.2
  3
txt
  4

  0
STYLE
  5
2A
330
3
100
AcDbSymbolTableRecord
100
AcDbTextStyleTableRecord
  2
Arial
 70
     0
 40
0.0
 41
1.0
 50
0.0
 71
     0
 42
0.2
  3
arial.ttf
  4

  0
ENDTAB
  0
TABLE
  2
VIEW
  5
6
330
0
100
AcDbSymbolTable
 70
     0
  0
ENDTAB
  0
TABLE
  2
UCS
  5
7
330
0
100
AcDbSymbolTable
 70
     0
  0
ENDTAB
  0
TABLE
  2
APPID
  5
9
330
0
100
AcDbSymbolTable
 70
     1
  0
APPID
  5
10
330
9
100
AcDbSymbolTableRecord
100
AcDbRegAppTableRecord
  2
ACAD
 70
     0
  0
ENDTAB
  0
TABLE
  2
DIMSTYLE
  5
A
330
0
100
AcDbSymbolTable
 70
     1
100
AcDbDimStyleTable
  0
DIMSTYLE
105
1D
330
A
100
AcDbSymbolTableRecord
100
AcDbDimStyleTableRecord
  2
STANDARD
 70
     0
178
     0
340
F
  0
ENDTAB
  0
TABLE
  2
BLOCK_RECORD
  5
1
330
0
100
AcDbSymbolTable
 70
     0
  0
BLOCK_RECORD
  5
18
330
1
100
AcDbSymbolTableRecord
100
AcDbBlockTableRecord
  2
*MODEL_SPACE
340
34B
 70
     0
280
     1
281
     0
  0
BLOCK_RECORD
  5
15
330
1
100
AcDbSymbolTableRecord
100
AcDbBlockTableRecord
  2
*PAPER_SPACE
340
34C
 70
     0
280
     1
281
     0
  0
ENDTAB
  0
ENDSEC
  0
SECTION
  2
BLOCKS
  0
BLOCK
  5
19
330
18
100
AcDbEntity
  8
0
100
AcDbBlockBegin
  2
*MODEL_SPACE
 70
     0
 10
0.0
 20
0.0
 30
0.0
  3
*MODEL_SPACE
  1
     0
  0
ENDBLK
  5
1A
330
18
100
AcDbEntity
  8
0
100
AcDbBlockEnd
  0
BLOCK
  5
16
330
15
100
AcDbEntity
 67
     1
  8
0
100
AcDbBlockBegin
  2
*PAPER_SPACE
 70
     0
 10
0.0
 20
0.0
 30
0.0
  3
*PAPER_SPACE
  1
     0
  0
ENDBLK
  5
17
330
15
100
AcDbEntity
 67
     1
  8
0
100
AcDbBlockEnd
  0
ENDSEC
  0
SECTION
  2
ENTITIES
  0
LINE
  5
2B
330
18
100
AcDbEntity
  8
PLAN
 62
     1
100
AcDbLine
 10
20.0
 20
0.2
 30
0.0
 11
135.0
 21
0.2
 31
0.0
  0
LINE
  5
2C
330
18
100
AcDbEntity
  8
PLAN
 62
     1
100
AcDbLine
 10
20.0
 20
-0.2
 30
0.0
 11
135.0
 21
-0.2
 31
0.0
  0
LINE
  5
2D
330
18
100
AcDbEntity
  8
PLAN
 62
     1
100
AcDbLine
 10
135.0
 20
0.2
 30
0.0
 11
195.0
 21
0.2
 31
0.0
  0
LINE
  5
2E
330
18
100
AcDbEntity
  8
PLAN
 62
     1
100
AcDbLine
 10
135.0
 20
-0.2
 30
0.0
 11
195.0
 21
-0.2
 31
0.0
  0
LINE
  5
2F
330
18
100
AcDbEntity
  8
PLAN
 62
     1
100
AcDbLine
 10
195.0
 20
0.2
 30
0.0
 11
391.0
 21
0.2
 31
0.0
  0
LINE
  5
30
330
18
100
AcDbEntity
  8
PLAN
 62
     1
100
AcDbLine
 10
195.0
 20
-0.2
 30
0.0
 11
391.0
 21
-0.2
 31
0.0
  0
LINE
  5
31
330
18
100
AcDbEntity
  8
PLAN
 62
     1
100
AcDbLine
 10
391.0
 20
0.2
 30
0.0
 11
586.0
 21
0.2
 31
0.0
  0
LINE
  5
32
330
18
100
AcDbEntity
  8
PLAN
 62
     1
100
AcDbLine
 10
391.0
 20
-0.2
 30
0.0
 11
586.0
 21
-0.2
 31
0.0
  0
LINE
  5
33
330
18
100
AcDbEntity
  8
PLAN
 62
     1
100
AcDbLine
 10
586.0
 20
0.2
 30
0.0
 11
604.0
 21
0.2
 31
0.0
  0
LINE
  5
34
330
18
100
AcDbEntity
  8
PLAN
 62
     1
100
AcDbLine
 10
586.0
 20
-0.2
 30
0.0
 11
604.0
 21
-0.2
 31
0.0
  0
LINE
  5
35
330
18
100
AcDbEntity
  8
PLAN
 62
     1
100
AcDbLine
 10
604.0
 20
0.2
 30
0.0
 11
781.0
 21
0.1
 31
0.0
  0
LINE
  5
36
330
18
100
AcDbEntity
  8
PLAN
 62
     1
100
AcDbLine
 10
604.0
 20
-0.2
 30
0.0
 11
781.0
 21
-0.1
 31
0.0
  0
LINE
  5
37
330
18
100
AcDbEntity
  8
PLAN
 62
     1
100
AcDbLine
 10
781.0
 20
0.1
 30
0.0
 11
977.0
 21
0.1
 31
0.0
  0
LINE
  5
38
330
18
100
AcDbEntity
  8
PLAN
 62
     1
100
AcDbLine
 10
781.0
 20
-0.1
 30
0.0
 11
977.0
 21
-0.1
 31
0.0
  0
LINE
  5
39
330
18
100
AcDbEntity
  8
PLAN
 62
     1
100
AcDbLine
 10
977.0
 20
0.1
 30
0.0
 11
1172.0
 21
0.0
 31
0.0
  0
LINE
  5
3A
330
18
100
AcDbEntity
  8
PLAN
 62
     1
100
AcDbLine
 10
977.0
 20
-0.1
 30
0.0
 11
1172.0
 21
0.0
 31
0.0
  0
LINE
  5
3B
330
18
100
AcDbEntity
  8
PLAN
 62
     1
100
AcDbLine
 10
1172.0
 20
0.0
 30
0.0
 11
1200.0
 21
0.0
 31
0.0
  0
LINE
  5
3C
330
18
100
AcDbEntity
  8
PLAN
 62
     1
100
AcDbLine
 10
1172.0
 20
0.0
 30
0.0
 11
1200.0
 21
0.0
 31
0.0
  0
LINE
  5
3D
330
18
100
AcDbEntity
  8
PLAN
 62
     1
100
AcDbLine
 10
1200.0
 20
0.0
 30
0.0
 11
1367.0
 21
0.0
 31
0.0
  0
LINE
  5
3E
330
18
100
AcDbEntity
  8
PLAN
 62
     1
100
AcDbLine
 10
1200.0
 20
0.0
 30
0.0
 11
1367.0
 21
0.0
 31
0.0
  0
LINE
  5
3F
330
18
100
AcDbEntity
  8
PLAN
 62
     1
100
AcDbLine
 10
1367.0
 20
0.0
 30
0.0
 11
1563.0
 21
0.0
 31
0.0
  0
LINE
  5
40
330
18
100
AcDbEntity
  8
PLAN
 62
     1
100
AcDbLine
 10
1367.0
 20
0.0
 30
0.0
 11
1563.0
 21
0.0
 31
0.0
  0
LINE
  5
41
330
18
100
AcDbEntity
  8
PLAN
 62
     1
100
AcDbLine
 10
1563.0
 20
0.0
 30
0.0
 11
1758.0
 21
0.0
 31
0.0
  0
LINE
  5
42
330
18
100
AcDbEntity
  8
PLAN
 62
     1
100
AcDbLine
 10
1563.0
 20
0.0
 30
0.0
 11
1758.0
 21
0.0
 31
0.0
  0
LINE
  5
43
330
18
100
AcDbEntity
  8
PLAN
 62
     1
100
AcDbLine
 10
1758.0
 20
0.0
 30
0.0
 11
1777.0
 21
0.0
 31
0.0
  0
LINE
  5
44
330
18
100
AcDbEntity
  8
PLAN
 62
     1
100
AcDbLine
 10
1758.0
 20
0.0
 30
0.0
 11
1777.0
 21
0.0
 31
0.0
  0
LINE
  5
45
330
18
100
AcDbEntity
  8
PLAN
 62
     1
100
AcDbLine
 10
1777.0
 20
0.0
 30
0.0
 11
1953.0
 21
0.0
 31
0.0
  0
LINE
  5
46
330
18
100
AcDbEntity
  8
PLAN
 62
     1
100
AcDbLine
 10
1777.0
 20
0.0
 30
0.0
 11
1953.0
 21
0.0
 31
0.0
  0
LINE
  5
47
330
18
100
AcDbEntity
  8
PLAN
 62
     1
100
AcDbLine
 10
1953.0
 20
0.0
 30
0.0
 11
2149.0
 21
0.0
 31
0.0
  0
LINE
  5
48
330
18
100
AcDbEntity
  8
PLAN
 62
     1
100
AcDbLine
 10
1953.0
 20
0.0
 30
0.0
 11
2149.0
 21
0.0
 31
0.0
  0
LINE
  5
49
330
18
100
AcDbEntity
  8
PLAN
 62
     1
100
AcDbLine
 10
2149.0
 20
0.0
 30
0.0
 11
2332.0
 21
0.0
 31
0.0
  0
LINE
  5
4A
330
18
100
AcDbEntity
  8
PLAN
 62
     1
100
AcDbLine
 10
2149.0
 20
0.0
 30
0.0
 11
2332.0
 21
0.0
 31
0.0
  0
LINE
  5
4B
330
18
100
AcDbEntity
  8
PLAN
 62
     1
100
AcDbLine
 10
2332.0
 20
0.0
 30
0.0
 11
2364.0
 21
0.0
 31
0.0
  0
LINE
  5
4C
330
18
100
AcDbEntity
  8
PLAN
 62
     1
100
AcDbLine
 10
2332.0
 20
0.0
 30
0.0
 11
2364.0
 21
0.0
 31
0.0
  0
LINE
  5
4D
330
18
100
AcDbEntity
  8
PLAN
 62
     3
100
AcDbLine
 10
20.0
 20
0.2
 30
0.0
 11
135.0
 21
0.2
 31
0.0
  0
LINE
  5
4E
330
18
100
AcDbEntity
  8
PLAN
 62
     3
100
AcDbLine
 10
20.0
 20
-0.2
 30
0.0
 11
135.0
 21
-0.2
 31
0.0
  0
LINE
  5
4F
330
18
100
AcDbEntity
  8
PLAN
 62
     3
100
AcDbLine
 10
135.0
 20
0.2
 30
0.0
 11
195.0
 21
22.0
 31
0.0
  0
LINE
  5
50
330
18
100
AcDbEntity
  8
PLAN
 62
     3
100
AcDbLine
 10
135.0
 20
-0.2
 30
0.0
 11
195.0
 21
-22.0
 31
0.0
  0
LINE
  5
51
330
18
100
AcDbEntity
  8
PLAN
 62
     3
100
AcDbLine
 10
195.0
 20
22.0
 30
0.0
 11
391.0
 21
83.0
 31
0.0
  0
LINE
  5
52
330
18
100
AcDbEntity
  8
PLAN
 62
     3
100
AcDbLine
 10
195.0
 20
-22.0
 30
0.0
 11
391.0
 21
-83.0
 31
0.0
  0
LINE
  5
53
330
18
100
AcDbEntity
  8
PLAN
 62
     3
100
AcDbLine
 10
391.0
 20
83.0
 30
0.0
 11
586.0
 21
128.6
 31
0.0
  0
LINE
  5
54
330
18
100
AcDbEntity
  8
PLAN
 62
     3
100
AcDbLine
 10
391.0
 20
-83.0
 30
0.0
 11
586.0
 21
-128.6
 31
0.0
  0
LINE
  5
55
330
18
100
AcDbEntity
  8
PLAN
 62
     3
100
AcDbLine
 10
586.0
 20
128.6
 30
0.0
 11
604.0
 21
132.1
 31
0.0
  0
LINE
  5
56
330
18
100
AcDbEntity
  8
PLAN
 62
     3
100
AcDbLine
 10
586.0
 20
-128.6
 30
0.0
 11
604.0
 21
-132.1
 31
0.0
  0
LINE
  5
57
330
18
100
AcDbEntity
  8
PLAN
 62
     3
100
AcDbLine
 10
604.0
 20
132.1
 30
0.0
 11
781.0
 21
160.1
 31
0.0
  0
LINE
  5
58
330
18
100
AcDbEntity
  8
PLAN
 62
     3
100
AcDbLine
 10
604.0
 20
-132.1
 30
0.0
 11
781.0
 21
-160.1
 31
0.0
  0
LINE
  5
59
330
18
100
AcDbEntity
  8
PLAN
 62
     3
100
AcDbLine
 10
781.0
 20
160.1
 30
0.0
 11
977.0
 21
178.5
 31
0.0
  0
LINE
  5
5A
330
18
100
AcDbEntity
  8
PLAN
 62
     3
100
AcDbLine
 10
781.0
 20
-160.1
 30
0.0
 11
977.0
 21
-178.5
 31
0.0
  0
LINE
  5
5B
330
18
100
AcDbEntity
  8
PLAN
 62
     3
100
AcDbLine
 10
977.0
 20
178.5
 30
0.0
 11
1172.0
 21
184.2
 31
0.0
  0
LINE
  5
5C
330
18
100
AcDbEntity
  8
PLAN
 62
     3
100
AcDbLine
 10
977.0
 20
-178.5
 30
0.0
 11
1172.0
 21
-184.2
 31
0.0
  0
LINE
  5
5D
330
18
100
AcDbEntity
  8
PLAN
 62
     3
100
AcDbLine
 10
1172.0
 20
184.2
 30
0.0
 11
1200.0
 21
184.1
 31
0.0
  0
LINE
  5
5E
330
18
100
AcDbEntity
  8
PLAN
 62
     3
100
AcDbLine
 10
1172.0
 20
-184.2
 30
0.0
 11
1200.0
 21
-184.1
 31
0.0
  0
LINE
  5
5F
330
18
100
AcDbEntity
  8
PLAN
 62
     3
100
AcDbLine
 10
1200.0
 20
184.1
 30
0.0
 11
1367.0
 21
178.8
 31
0.0
  0
LINE
  5
60
330
18
100
AcDbEntity
  8
PLAN
 62
     3
100
AcDbLine
 10
1200.0
 20
-184.1
 30
0.0
 11
1367.0
 21
-178.8
 31
0.0
  0
LINE
  5
61
330
18
100
AcDbEntity
  8
PLAN
 62
     3
100
AcDbLine
 10
1367.0
 20
178.8
 30
0.0
 11
1563.0
 21
162.2
 31
0.0
  0
LINE
  5
62
330
18
100
AcDbEntity
  8
PLAN
 62
     3
100
AcDbLine
 10
1367.0
 20
-178.8
 30
0.0
 11
1563.0
 21
-162.2
 31
0.0
  0
LINE
  5
63
330
18
100
AcDbEntity
  8
PLAN
 62
     3
100
AcDbLine
 10
1563.0
 20
162.2
 30
0.0
 11
1758.0
 21
135.3
 31
0.0
  0
LINE
  5
64
330
18
100
AcDbEntity
  8
PLAN
 62
     3
100
AcDbLine
 10
1563.0
 20
-162.2
 30
0.0
 11
1758.0
 21
-135.3
 31
0.0
  0
LINE
  5
65
330
18
100
AcDbEntity
  8
PLAN
 62
     3
100
AcDbLine
 10
1758.0
 20
135.3
 30
0.0
 11
1777.0
 21
132.1
 31
0.0
  0
LINE
  5
66
330
18
100
AcDbEntity
  8
PLAN
 62
     3
100
AcDbLine
 10
1758.0
 20
-135.3
 30
0.0
 11
1777.0
 21
-132.1
 31
0.0
  0
LINE
  5
67
330
18
100
AcDbEntity
  8
PLAN
 62
     3
100
AcDbLine
 10
1777.0
 20
132.1
 30
0.0
 11
1953.0
 21
98.3
 31
0.0
  0
LINE
  5
68
330
18
100
AcDbEntity
  8
PLAN
 62
     3
100
AcDbLine
 10
1777.0
 20
-132.1
 30
0.0
 11
1953.0
 21
-98.3
 31
0.0
  0
LINE
  5
69
330
18
100
AcDbEntity
  8
PLAN
 62
     3
100
AcDbLine
 10
1953.0
 20
98.3
 30
0.0
 11
2149.0
 21
51.7
 31
0.0
  0
LINE
  5
6A
330
18
100
AcDbEntity
  8
PLAN
 62
     3
100
AcDbLine
 10
1953.0
 20
-98.3
 30
0.0
 11
2149.0
 21
-51.7
 31
0.0
  0
LINE
  5
6B
330
18
100
AcDbEntity
  8
PLAN
 62
     3
100
AcDbLine
 10
2149.0
 20
51.7
 30
0.0
 11
2332.0
 21
0.0
 31
0.0
  0
LINE
  5
6C
330
18
100
AcDbEntity
  8
PLAN
 62
     3
100
AcDbLine
 10
2149.0
 20
-51.7
 30
0.0
 11
2332.0
 21
0.0
 31
0.0
  0
LINE
  5
6D
330
18
100
AcDbEntity
  8
PLAN
 62
     3
100
AcDbLine
 10
2332.0
 20
0.0
 30
0.0
 11
2364.0
 21
0.0
 31
0.0
  0
LINE
  5
6E
330
18
100
AcDbEntity
  8
PLAN
 62
     3
100
AcDbLine
 10
2332.0
 20
0.0
 30
0.0
 11
2364.0
 21
0.0
 31
0.0
  0
LINE
  5
6F
330
18
100
AcDbEntity
  8
PLAN
 62
     2
100
AcDbLine
 10
20.0
 20
0.2
 30
0.0
 11
135.0
 21
39.7
 31
0.0
  0
LINE
  5
70
330
18
100
AcDbEntity
  8
PLAN
 62
     2
100
AcDbLine
 10
20.0
 20
-0.2
 30
0.0
 11
135.0
 21
-39.7
 31
0.0
  0
LINE
  5
71
330
18
100
AcDbEntity
  8
PLAN
 62
     2
100
AcDbLine
 10
135.0
 20
39.7
 30
0.0
 11
195.0
 21
58.6
 31
0.0
  0
LINE
  5
72
330
18
100
AcDbEntity
  8
PLAN
 62
     2
100
AcDbLine
 10
135.0
 20
-39.7
 30
0.0
 11
195.0
 21
-58.6
 31
0.0
  0
LINE
  5
73
330
18
100
AcDbEntity
  8
PLAN
 62
     2
100
AcDbLine
 10
195.0
 20
58.6
 30
0.0
 11
391.0
 21
112.4
 31
0.0
  0
LINE
  5
74
330
18
100
AcDbEntity
  8
PLAN
 62
     2
100
AcDbLine
 10
195.0
 20
-58.6
 30
0.0
 11
391.0
 21
-112.4
 31
0.0
  0
LINE
  5
75
330
18
100
AcDbEntity
  8
PLAN
 62
     2
100
AcDbLine
 10
391.0
 20
112.4
 30
0.0
 11
586.0
 21
154.0
 31
0.0
  0
LINE
  5
76
330
18
100
AcDbEntity
  8
PLAN
 62
     2
100
AcDbLine
 10
391.0
 20
-112.4
 30
0.0
 11
586.0
 21
-154.0
 31
0.0
  0
LINE
  5
77
330
18
100
AcDbEntity
  8
PLAN
 62
     2
100
AcDbLine
 10
586.0
 20
154.0
 30
0.0
 11
604.0
 21
157.2
 31
0.0
  0
LINE
  5
78
330
18
100
AcDbEntity
  8
PLAN
 62
     2
100
AcDbLine
 10
586.0
 20
-154.0
 30
0.0
 11
604.0
 21
-157.2
 31
0.0
  0
LINE
  5
79
330
18
100
AcDbEntity
  8
PLAN
 62
     2
100
AcDbLine
 10
604.0
 20
157.2
 30
0.0
 11
781.0
 21
183.7
 31
0.0
  0
LINE
  5
7A
330
18
100
AcDbEntity
  8
PLAN
 62
     2
100
AcDbLine
 10
604.0
 20
-157.2
 30
0.0
 11
781.0
 21
-183.7
 31
0.0
  0
LINE
  5
7B
330
18
100
AcDbEntity
  8
PLAN
 62
     2
100
AcDbLine
 10
781.0
 20
183.7
 30
0.0
 11
977.0
 21
201.8
 31
0.0
  0
LINE
  5
7C
330
18
100
AcDbEntity
  8
PLAN
 62
     2
100
AcDbLine
 10
781.0
 20
-183.7
 30
0.0
 11
977.0
 21
-201.8
 31
0.0
  0
LINE
  5
7D
330
18
100
AcDbEntity
  8
PLAN
 62
     2
100
AcDbLine
 10
977.0
 20
201.8
 30
0.0
 11
1172.0
 21
208.3
 31
0.0
  0
LINE
  5
7E
330
18
100
AcDbEntity
  8
PLAN
 62
     2
100
AcDbLine
 10
977.0
 20
-201.8
 30
0.0
 11
1172.0
 21
-208.3
 31
0.0
  0
LINE
  5
7F
330
18
100
AcDbEntity
  8
PLAN
 62
     2
100
AcDbLine
 10
1172.0
 20
208.3
 30
0.0
 11
1200.0
 21
208.3
 31
0.0
  0
LINE
  5
80
330
18
100
AcDbEntity
  8
PLAN
 62
     2
100
AcDbLine
 10
1172.0
 20
-208.3
 30
0.0
 11
1200.0
 21
-208.3
 31
0.0
  0
LINE
  5
81
330
18
100
AcDbEntity
  8
PLAN
 62
     2
100
AcDbLine
 10
1200.0
 20
208.3
 30
0.0
 11
1367.0
 21
203.8
 31
0.0
  0
LINE
  5
82
330
18
100
AcDbEntity
  8
PLAN
 62
     2
100
AcDbLine
 10
1200.0
 20
-208.3
 30
0.0
 11
1367.0
 21
-203.8
 31
0.0
  0
LINE
  5
83
330
18
100
AcDbEntity
  8
PLAN
 62
     2
100
AcDbLine
 10
1367.0
 20
203.8
 30
0.0
 11
1563.0
 21
187.9
 31
0.0
  0
LINE
  5
84
330
18
100
AcDbEntity
  8
PLAN
 62
     2
100
AcDbLine
 10
1367.0
 20
-203.8
 30
0.0
 11
1563.0
 21
-187.9
 31
0.0
  0
LINE
  5
85
330
18
100
AcDbEntity
  8
PLAN
 62
     2
100
AcDbLine
 10
1563.0
 20
187.9
 30
0.0
 11
1758.0
 21
160.5
 31
0.0
  0
LINE
  5
86
330
18
100
AcDbEntity
  8
PLAN
 62
     2
100
AcDbLine
 10
1563.0
 20
-187.9
 30
0.0
 11
1758.0
 21
-160.5
 31
0.0
  0
LINE
  5
87
330
18
100
AcDbEntity
  8
PLAN
 62
     2
100
AcDbLine
 10
1758.0
 20
160.5
 30
0.0
 11
1777.0
 21
157.2
 31
0.0
  0
LINE
  5
88
330
18
100
AcDbEntity
  8
PLAN
 62
     2
100
AcDbLine
 10
1758.0
 20
-160.5
 30
0.0
 11
1777.0
 21
-157.2
 31
0.0
  0
LINE
  5
89
330
18
100
AcDbEntity
  8
PLAN
 62
     2
100
AcDbLine
 10
1777.0
 20
157.2
 30
0.0
 11
1953.0
 21
121.4
 31
0.0
  0
LINE
  5
8A
330
18
100
AcDbEntity
  8
PLAN
 62
     2
100
AcDbLine
 10
1777.0
 20
-157.2
 30
0.0
 11
1953.0
 21
-121.4
 31
0.0
  0
LINE
  5
8B
330
18
100
AcDbEntity
  8
PLAN
 62
     2
100
AcDbLine
 10
1953.0
 20
121.4
 30
0.0
 11
2149.0
 21
70.1
 31
0.0
  0
LINE
  5
8C
330
18
100
AcDbEntity
  8
PLAN
 62
     2
100
AcDbLine
 10
1953.0
 20
-121.4
 30
0.0
 11
2149.0
 21
-70.1
 31
0.0
  0
LINE
  5
8D
330
18
100
AcDbEntity
  8
PLAN
 62
     2
100
AcDbLine
 10
2149.0
 20
70.1
 30
0.0
 11
2332.0
 21
11.4
 31
0.0
  0
LINE
  5
8E
330
18
100
AcDbEntity
  8
PLAN
 62
     2
100
AcDbLine
 10
2149.0
 20
-70.1
 30
0.0
 11
2332.0
 21
-11.4
 31
0.0
  0
LINE
  5
8F
330
18
100
AcDbEntity
  8
PLAN
 62
     2
100
AcDbLine
 10
2332.0
 20
11.4
 30
0.0
 11
2364.0
 21
0.0
 31
0.0
  0
LINE
  5
90
330
18
100
AcDbEntity
  8
PLAN
 62
     2
100
AcDbLine
 10
2332.0
 20
-11.4
 30
0.0
 11
2364.0
 21
0.0
 31
0.0
  0
LINE
  5
91
330
18
100
AcDbEntity
  8
PLAN
 62
     5
100
AcDbLine
 10
20.0
 20
0.2
 30
0.0
 11
135.0
 21
0.1
 31
0.0
  0
LINE
  5
92
330
18
100
AcDbEntity
  8
PLAN
 62
     5
100
AcDbLine
 10
20.0
 20
-0.2
 30
0.0
 11
135.0
 21
-0.1
 31
0.0
  0
LINE
  5
93
330
18
100
AcDbEntity
  8
PLAN
 62
     5
100
AcDbLine
 10
135.0
 20
0.1
 30
0.0
 11
195.0
 21
0.1
 31
0.0
  0
LINE
  5
94
330
18
100
AcDbEntity
  8
PLAN
 62
     5
100
AcDbLine
 10
135.0
 20
-0.1
 30
0.0
 11
195.0
 21
-0.1
 31
0.0
  0
LINE
  5
95
330
18
100
AcDbEntity
  8
PLAN
 62
     5
100
AcDbLine
 10
195.0
 20
0.1
 30
0.0
 11
391.0
 21
0.0
 31
0.0
  0
LINE
  5
96
330
18
100
AcDbEntity
  8
PLAN
 62
     5
100
AcDbLine
 10
195.0
 20
-0.1
 30
0.0
 11
391.0
 21
0.0
 31
0.0
  0
LINE
  5
97
330
18
100
AcDbEntity
  8
PLAN
 62
     5
100
AcDbLine
 10
391.0
 20
0.0
 30
0.0
 11
586.0
 21
0.0
 31
0.0
  0
LINE
  5
98
330
18
100
AcDbEntity
  8
PLAN
 62
     5
100
AcDbLine
 10
391.0
 20
0.0
 30
0.0
 11
586.0
 21
0.0
 31
0.0
  0
LINE
  5
99
330
18
100
AcDbEntity
  8
PLAN
 62
     5
100
AcDbLine
 10
586.0
 20
0.0
 30
0.0
 11
604.0
 21
0.0
 31
0.0
  0
LINE
  5
9A
330
18
100
AcDbEntity
  8
PLAN
 62
     5
100
AcDbLine
 10
586.0
 20
0.0
 30
0.0
 11
604.0
 21
0.0
 31
0.0
  0
LINE
  5
9B
330
18
100
AcDbEntity
  8
PLAN
 62
     5
100
AcDbLine
 10
604.0
 20
0.0
 30
0.0
 11
781.0
 21
0.0
 31
0.0
  0
LINE
  5
9C
330
18
100
AcDbEntity
  8
PLAN
 62
     5
100
AcDbLine
 10
604.0
 20
0.0
 30
0.0
 11
781.0
 21
0.0
 31
0.0
  0
LINE
  5
9D
330
18
100
AcDbEntity
  8
PLAN
 62
     5
100
AcDbLine
 10
781.0
 20
0.0
 30
0.0
 11
977.0
 21
0.0
 31
0.0
  0
LINE
  5
9E
330
18
100
AcDbEntity
  8
PLAN
 62
     5
100
AcDbLine
 10
781.0
 20
0.0
 30
0.0
 11
977.0
 21
0.0
 31
0.0
  0
LINE
  5
9F
330
18
100
AcDbEntity
  8
PLAN
 62
     5
100
AcDbLine
 10
977.0
 20
0.0
 30
0.0
 11
1172.0
 21
0.0
 31
0.0
  0
LINE
  5
A0
330
18
100
AcDbEntity
  8
PLAN
 62
     5
100
AcDbLine
 10
977.0
 20
0.0
 30
0.0
 11
1172.0
 21
0.0
 31
0.0
  0
LINE
  5
A1
330
18
100
AcDbEntity
  8
PLAN
 62
     5
100
AcDbLine
 10
1172.0
 20
0.0
 30
0.0
 11
1200.0
 21
0.0
 31
0.0
  0
LINE
  5
A2
330
18
100
AcDbEntity
  8
PLAN
 62
     5
100
AcDbLine
 10
1172.0
 20
0.0
 30
0.0
 11
1200.0
 21
0.0
 31
0.0
  0
LINE
  5
A3
330
18
100
AcDbEntity
  8
PLAN
 62
     5
100
AcDbLine
 10
1200.0
 20
0.0
 30
0.0
 11
1367.0
 21
0.0
 31
0.0
  0
LINE
  5
A4
330
18
100
AcDbEntity
  8
PLAN
 62
     5
100
AcDbLine
 10
1200.0
 20
0.0
 30
0.0
 11
1367.0
 21
0.0
 31
0.0
  0
LINE
  5
A5
330
18
100
AcDbEntity
  8
PLAN
 62
     5
100
AcDbLine
 10
1367.0
 20
0.0
 30
0.0
 11
1563.0
 21
0.0
 31
0.0
  0
LINE
  5
A6
330
18
100
AcDbEntity
  8
PLAN
 62
     5
100
AcDbLine
 10
1367.0
 20
0.0
 30
0.0
 11
1563.0
 21
0.0
 31
0.0
  0
LINE
  5
A7
330
18
100
AcDbEntity
  8
PLAN
 62
     5
100
AcDbLine
 10
1563.0
 20
0.0
 30
0.0
 11
1758.0
 21
0.0
 31
0.0
  0
LINE
  5
A8
330
18
100
AcDbEntity
  8
PLAN
 62
     5
100
AcDbLine
 10
1563.0
 20
0.0
 30
0.0
 11
1758.0
 21
0.0
 31
0.0
  0
LINE
  5
A9
330
18
100
AcDbEntity
  8
PLAN
 62
     5
100
AcDbLine
 10
1758.0
 20
0.0
 30
0.0
 11
1777.0
 21
0.0
 31
0.0
  0
LINE
  5
AA
330
18
100
AcDbEntity
  8
PLAN
 62
     5
100
AcDbLine
 10
1758.0
 20
0.0
 30
0.0
 11
1777.0
 21
0.0
 31
0.0
  0
LINE
  5
AB
330
18
100
AcDbEntity
  8
PLAN
 62
     5
100
AcDbLine
 10
1777.0
 20
0.0
 30
0.0
 11
1953.0
 21
0.0
 31
0.0
  0
LINE
  5
AC
330
18
100
AcDbEntity
  8
PLAN
 62
     5
100
AcDbLine
 10
1777.0
 20
0.0
 30
0.0
 11
1953.0
 21
0.0
 31
0.0
  0
LINE
  5
AD
330
18
100
AcDbEntity
  8
PLAN
 62
     5
100
AcDbLine
 10
1953.0
 20
0.0
 30
0.0
 11
2149.0
 21
0.0
 31
0.0
  0
LINE
  5
AE
330
18
100
AcDbEntity
  8
PLAN
 62
     5
100
AcDbLine
 10
1953.0
 20
0.0
 30
0.0
 11
2149.0
 21
0.0
 31
0.0
  0
LINE
  5
AF
330
18
100
AcDbEntity
  8
PLAN
 62
     5
100
AcDbLine
 10
2149.0
 20
0.0
 30
0.0
 11
2332.0
 21
0.0
 31
0.0
  0
LINE
  5
B0
330
18
100
AcDbEntity
  8
PLAN
 62
     5
100
AcDbLine
 10
2149.0
 20
0.0
 30
0.0
 11
2332.0
 21
0.0
 31
0.0
  0
LINE
  5
B1
330
18
100
AcDbEntity
  8
PLAN
 62
     5
100
AcDbLine
 10
2332.0
 20
0.0
 30
0.0
 11
2364.0
 21
0.0
 31
0.0
  0
LINE
  5
B2
330
18
100
AcDbEntity
  8
PLAN
 62
     5
100
AcDbLine
 10
2332.0
 20
0.0
 30
0.0
 11
2364.0
 21
0.0
 31
0.0
  0
LINE
  5
B3
330
18
100
AcDbEntity
  8
LONG
  6
CENTER
 62
     5
100
AcDbLine
 10
20.0
 20
-463.55
 30
0.0
 11
2364.0
 21
-463.55
 31
0.0
  0
LINE
  5
B4
330
18
100
AcDbEntity
  8
LONG
 62
     1
100
AcDbLine
 10
20.0
 20
-316.65
 30
0.0
 11
135.0
 21
-463.55
 31
0.0
  0
LINE
  5
B5
330
18
100
AcDbEntity
  8
LONG
 62
     1
100
AcDbLine
 10
135.0
 20
-463.55
 30
0.0
 11
195.0
 21
-471.35
 31
0.0
  0
LINE
  5
B6
330
18
100
AcDbEntity
  8
LONG
 62
     1
100
AcDbLine
 10
195.0
 20
-471.35
 30
0.0
 11
391.0
 21
-493.55
 31
0.0
  0
LINE
  5
B7
330
18
100
AcDbEntity
  8
LONG
 62
     1
100
AcDbLine
 10
391.0
 20
-493.55
 30
0.0
 11
586.0
 21
-510.65
 31
0.0
  0
LINE
  5
B8
330
18
100
AcDbEntity
  8
LONG
 62
     1
100
AcDbLine
 10
586.0
 20
-510.65
 30
0.0
 11
604.0
 21
-511.95
 31
0.0
  0
LINE
  5
B9
330
18
100
AcDbEntity
  8
LONG
 62
     1
100
AcDbLine
 10
604.0
 20
-511.95
 30
0.0
 11
781.0
 21
-522.85
 31
0.0
  0
LINE
  5
BA
330
18
100
AcDbEntity
  8
LONG
 62
     1
100
AcDbLine
 10
781.0
 20
-522.85
 30
0.0
 11
977.0
 21
-530.35
 31
0.0
  0
LINE
  5
BB
330
18
100
AcDbEntity
  8
LONG
 62
     1
100
AcDbLine
 10
977.0
 20
-530.35
 30
0.0
 11
1172.0
 21
-533.25
 31
0.0
  0
LINE
  5
BC
330
18
100
AcDbEntity
  8
LONG
 62
     1
100
AcDbLine
 10
1172.0
 20
-533.25
 30
0.0
 11
1200.0
 21
-533.35
 31
0.0
  0
LINE
  5
BD
330
18
100
AcDbEntity
  8
LONG
 62
     1
100
AcDbLine
 10
1200.0
 20
-533.35
 30
0.0
 11
1367.0
 21
-531.75
 31
0.0
  0
LINE
  5
BE
330
18
100
AcDbEntity
  8
LONG
 62
     1
100
AcDbLine
 10
1367.0
 20
-531.75
 30
0.0
 11
1563.0
 21
-525.95
 31
0.0
  0
LINE
  5
BF
330
18
100
AcDbEntity
  8
LONG
 62
     1
100
AcDbLine
 10
1563.0
 20
-525.95
 30
0.0
 11
1758.0
 21
-515.95
 31
0.0
  0
LINE
  5
C0
330
18
100
AcDbEntity
  8
LONG
 62
     1
100
AcDbLine
 10
1758.0
 20
-515.95
 30
0.0
 11
1777.0
 21
-514.75
 31
0.0
  0
LINE
  5
C1
330
18
100
AcDbEntity
  8
LONG
 62
     1
100
AcDbLine
 10
1777.0
 20
-514.75
 30
0.0
 11
1953.0
 21
-501.95
 31
0.0
  0
LINE
  5
C2
330
18
100
AcDbEntity
  8
LONG
 62
     1
100
AcDbLine
 10
1953.0
 20
-501.95
 30
0.0
 11
2149.0
 21
-483.85
 31
0.0
  0
LINE
  5
C3
330
18
100
AcDbEntity
  8
LONG
 62
     1
100
AcDbLine
 10
2149.0
 20
-483.85
 30
0.0
 11
2332.0
 21
-463.55
 31
0.0
  0
LINE
  5
C4
330
18
100
AcDbEntity
  8
LONG
 62
     1
100
AcDbLine
 10
2332.0
 20
-463.55
 30
0.0
 11
2364.0
 21
-371.45
 31
0.0
  0
LINE
  5
C5
330
18
100
AcDbEntity
  8
LONG
 62
     3
100
AcDbLine
 10
20.0
 20
-316.65
 30
0.0
 11
135.0
 21
-463.55
 31
0.0
  0
LINE
  5
C6
330
18
100
AcDbEntity
  8
LONG
 62
     3
100
AcDbLine
 10
135.0
 20
-463.55
 30
0.0
 11
195.0
 21
-466.35
 31
0.0
  0
LINE
  5
C7
330
18
100
AcDbEntity
  8
LONG
 62
     3
100
AcDbLine
 10
195.0
 20
-466.35
 30
0.0
 11
391.0
 21
-476.35
 31
0.0
  0
LINE
  5
C8
330
18
100
AcDbEntity
  8
LONG
 62
     3
100
AcDbLine
 10
391.0
 20
-476.35
 30
0.0
 11
586.0
 21
-486.85
 31
0.0
  0
LINE
  5
C9
330
18
100
AcDbEntity
  8
LONG
 62
     3
100
AcDbLine
 10
586.0
 20
-486.85
 30
0.0
 11
604.0
 21
-487.75
 31
0.0
  0
LINE
  5
CA
330
18
100
AcDbEntity
  8
LONG
 62
     3
100
AcDbLine
 10
604.0
 20
-487.75
 30
0.0
 11
781.0
 21
-496.45
 31
0.0
  0
LINE
  5
CB
330
18
100
AcDbEntity
  8
LONG
 62
     3
100
AcDbLine
 10
781.0
 20
-496.45
 30
0.0
 11
977.0
 21
-504.25
 31
0.0
  0
LINE
  5
CC
330
18
100
AcDbEntity
  8
LONG
 62
     3
100
AcDbLine
 10
977.0
 20
-504.25
 30
0.0
 11
1172.0
 21
-508.85
 31
0.0
  0
LINE
  5
CD
330
18
100
AcDbEntity
  8
LONG
 62
     3
100
AcDbLine
 10
1172.0
 20
-508.85
 30
0.0
 11
1200.0
 21
-509.15
 31
0.0
  0
LINE
  5
CE
330
18
100
AcDbEntity
  8
LONG
 62
     3
100
AcDbLine
 10
1200.0
 20
-509.15
 30
0.0
 11
1367.0
 21
-506.45
 31
0.0
  0
LINE
  5
CF
330
18
100
AcDbEntity
  8
LONG
 62
     3
100
AcDbLine
 10
1367.0
 20
-506.45
 30
0.0
 11
1563.0
 21
-500.05
 31
0.0
  0
LINE
  5
D0
330
18
100
AcDbEntity
  8
LONG
 62
     3
100
AcDbLine
 10
1563.0
 20
-500.05
 30
0.0
 11
1758.0
 21
-491.45
 31
0.0
  0
LINE
  5
D1
330
18
100
AcDbEntity
  8
LONG
 62
     3
100
AcDbLine
 10
1758.0
 20
-491.45
 30
0.0
 11
1777.0
 21
-490.55
 31
0.0
  0
LINE
  5
D2
330
18
100
AcDbEntity
  8
LONG
 62
     3
100
AcDbLine
 10
1777.0
 20
-490.55
 30
0.0
 11
1953.0
 21
-481.65
 31
0.0
  0
LINE
  5
D3
330
18
100
AcDbEntity
  8
LONG
 62
     3
100
AcDbLine
 10
1953.0
 20
-481.65
 30
0.0
 11
2149.0
 21
-471.85
 31
0.0
  0
LINE
  5
D4
330
18
100
AcDbEntity
  8
LONG
 62
     3
100
AcDbLine
 10
2149.0
 20
-471.85
 30
0.0
 11
2332.0
 21
-463.55
 31
0.0
  0
LINE
  5
D5
330
18
100
AcDbEntity
  8
LONG
 62
     3
100
AcDbLine
 10
2332.0
 20
-463.55
 30
0.0
 11
2364.0
 21
-371.45
 31
0.0
  0
LINE
  5
D6
330
18
100
AcDbEntity
  8
LONG
 62
     2
100
AcDbLine
 10
20.0
 20
-316.65
 30
0.0
 11
135.0
 21
-327.45
 31
0.0
  0
LINE
  5
D7
330
18
100
AcDbEntity
  8
LONG
 62
     2
100
AcDbLine
 10
135.0
 20
-327.45
 30
0.0
 11
195.0
 21
-332.55
 31
0.0
  0
LINE
  5
D8
330
18
100
AcDbEntity
  8
LONG
 62
     2
100
AcDbLine
 10
195.0
 20
-332.55
 30
0.0
 11
391.0
 21
-346.45
 31
0.0
  0
LINE
  5
D9
330
18
100
AcDbEntity
  8
LONG
 62
     2
100
AcDbLine
 10
391.0
 20
-346.45
 30
0.0
 11
586.0
 21
-356.75
 31
0.0
  0
LINE
  5
DA
330
18
100
AcDbEntity
  8
LONG
 62
     2
100
AcDbLine
 10
586.0
 20
-356.75
 30
0.0
 11
604.0
 21
-357.55
 31
0.0
  0
LINE
  5
DB
330
18
100
AcDbEntity
  8
LONG
 62
     2
100
AcDbLine
 10
604.0
 20
-357.55
 30
0.0
 11
781.0
 21
-363.95
 31
0.0
  0
LINE
  5
DC
330
18
100
AcDbEntity
  8
LONG
 62
     2
100
AcDbLine
 10
781.0
 20
-363.95
 30
0.0
 11
977.0
 21
-368.65
 31
0.0
  0
LINE
  5
DD
330
18
100
AcDbEntity
  8
LONG
 62
     2
100
AcDbLine
 10
977.0
 20
-368.65
 30
0.0
 11
1172.0
 21
-371.25
 31
0.0
  0
LINE
  5
DE
330
18
100
AcDbEntity
  8
LONG
 62
     2
100
AcDbLine
 10
1172.0
 20
-371.25
 30
0.0
 11
1200.0
 21
-371.45
 31
0.0
  0
LINE
  5
DF
330
18
100
AcDbEntity
  8
LONG
 62
     2
100
AcDbLine
 10
1200.0
 20
-371.45
 30
0.0
 11
1367.0
 21
-372.25
 31
0.0
  0
LINE
  5
E0
330
18
100
AcDbEntity
  8
LONG
 62
     2
100
AcDbLine
 10
1367.0
 20
-372.25
 30
0.0
 11
1563.0
 21
-372.15
 31
0.0
  0
LINE
  5
E1
330
18
100
AcDbEntity
  8
LONG
 62
     2
100
AcDbLine
 10
1563.0
 20
-372.15
 30
0.0
 11
1758.0
 21
-371.55
 31
0.0
  0
LINE
  5
E2
330
18
100
AcDbEntity
  8
LONG
 62
     2
100
AcDbLine
 10
1758.0
 20
-371.55
 30
0.0
 11
1777.0
 21
-371.45
 31
0.0
  0
LINE
  5
E3
330
18
100
AcDbEntity
  8
LONG
 62
     2
100
AcDbLine
 10
1777.0
 20
-371.45
 30
0.0
 11
1953.0
 21
-370.85
 31
0.0
  0
LINE
  5
E4
330
18
100
AcDbEntity
  8
LONG
 62
     2
100
AcDbLine
 10
1953.0
 20
-370.85
 30
0.0
 11
2149.0
 21
-370.55
 31
0.0
  0
LINE
  5
E5
330
18
100
AcDbEntity
  8
LONG
 62
     2
100
AcDbLine
 10
2149.0
 20
-370.55
 30
0.0
 11
2332.0
 21
-371.25
 31
0.0
  0
LINE
  5
E6
330
18
100
AcDbEntity
  8
LONG
 62
     2
100
AcDbLine
 10
2332.0
 20
-371.25
 30
0.0
 11
2364.0
 21
-371.45
 31
0.0
  0
LINE
  5
E7
330
18
100
AcDbEntity
  8
LONG
 62
     5
100
AcDbLine
 10
20.0
 20
-316.65
 30
0.0
 11
135.0
 21
-318.65
 31
0.0
  0
LINE
  5
E8
330
18
100
AcDbEntity
  8
LONG
 62
     5
100
AcDbLine
 10
135.0
 20
-318.65
 30
0.0
 11
195.0
 21
-319.25
 31
0.0
  0
LINE
  5
E9
330
18
100
AcDbEntity
  8
LONG
 62
     5
100
AcDbLine
 10
195.0
 20
-319.25
 30
0.0
 11
391.0
 21
-320.05
 31
0.0
  0
LINE
  5
EA
330
18
100
AcDbEntity
  8
LONG
 62
     5
100
AcDbLine
 10
391.0
 20
-320.05
 30
0.0
 11
586.0
 21
-319.45
 31
0.0
  0
LINE
  5
EB
330
18
100
AcDbEntity
  8
LONG
 62
     5
100
AcDbLine
 10
586.0
 20
-319.45
 30
0.0
 11
604.0
 21
-319.35
 31
0.0
  0
LINE
  5
EC
330
18
100
AcDbEntity
  8
LONG
 62
     5
100
AcDbLine
 10
604.0
 20
-319.35
 30
0.0
 11
781.0
 21
-318.65
 31
0.0
  0
LINE
  5
ED
330
18
100
AcDbEntity
  8
LONG
 62
     5
100
AcDbLine
 10
781.0
 20
-318.65
 30
0.0
 11
977.0
 21
-318.75
 31
0.0
  0
LINE
  5
EE
330
18
100
AcDbEntity
  8
LONG
 62
     5
100
AcDbLine
 10
977.0
 20
-318.75
 30
0.0
 11
1172.0
 21
-320.75
 31
0.0
  0
LINE
  5
EF
330
18
100
AcDbEntity
  8
LONG
 62
     5
100
AcDbLine
 10
1172.0
 20
-320.75
 30
0.0
 11
1200.0
 21
-321.25
 31
0.0
  0
LINE
  5
F0
330
18
100
AcDbEntity
  8
LONG
 62
     5
100
AcDbLine
 10
1200.0
 20
-321.25
 30
0.0
 11
1367.0
 21
-328.75
 31
0.0
  0
LINE
  5
F1
330
18
100
AcDbEntity
  8
LONG
 62
     5
100
AcDbLine
 10
1367.0
 20
-328.75
 30
0.0
 11
1563.0
 21
-339.15
 31
0.0
  0
LINE
  5
F2
330
18
100
AcDbEntity
  8
LONG
 62
     5
100
AcDbLine
 10
1563.0
 20
-339.15
 30
0.0
 11
1758.0
 21
-350.05
 31
0.0
  0
LINE
  5
F3
330
18
100
AcDbEntity
  8
LONG
 62
     5
100
AcDbLine
 10
1758.0
 20
-350.05
 30
0.0
 11
1777.0
 21
-351.05
 31
0.0
  0
LINE
  5
F4
330
18
100
AcDbEntity
  8
LONG
 62
     5
100
AcDbLine
 10
1777.0
 20
-351.05
 30
0.0
 11
1953.0
 21
-359.95
 31
0.0
  0
LINE
  5
F5
330
18
100
AcDbEntity
  8
LONG
 62
     5
100
AcDbLine
 10
1953.0
 20
-359.95
 30
0.0
 11
2149.0
 21
-367.55
 31
0.0
  0
LINE
  5
F6
330
18
100
AcDbEntity
  8
LONG
 62
     5
100
AcDbLine
 10
2149.0
 20
-367.55
 30
0.0
 11
2332.0
 21
-371.25
 31
0.0
  0
LINE
  5
F7
330
18
100
AcDbEntity
  8
LONG
 62
     5
100
AcDbLine
 10
2332.0
 20
-371.25
 30
0.0
 11
2364.0
 21
-371.45
 31
0.0
  0
LINE
  5
F8
330
18
100
AcDbEntity
  8
FRONT
  6
CENTER
 62
     5
100
AcDbLine
 10
3327.7
 20
-463.55
 30
0.0
 11
3744.3
 21
-463.55
 31
0.0
  0
LINE
  5
F9
330
18
100
AcDbEntity
  8
FRONT
100
AcDbLine
 10
3536.2
 20
-471.35
 30
0.0
 11
3558.0
 21
-466.35
 31
0.0
  0
LINE
  5
FA
330
18
100
AcDbEntity
  8
FRONT
100
AcDbLine
 10
3514.0
 20
-466.35
 30
0.0
 11
3535.8
 21
-471.35
 31
0.0
  0
LINE
  5
FB
330
18
100
AcDbEntity
  8
FRONT
100
AcDbLine
 10
3558.0
 20
-466.35
 30
0.0
 11
3594.6
 21
-332.55
 31
0.0
  0
LINE
  5
FC
330
18
100
AcDbEntity
  8
FRONT
100
AcDbLine
 10
3477.4
 20
-332.55
 30
0.0
 11
3514.0
 21
-466.35
 31
0.0
  0
LINE
  5
FD
330
18
100
AcDbEntity
  8
FRONT
100
AcDbLine
 10
3536.1
 20
-319.25
 30
0.0
 11
3594.6
 21
-332.55
 31
0.0
  0
LINE
  5
FE
330
18
100
AcDbEntity
  8
FRONT
100
AcDbLine
 10
3477.4
 20
-332.55
 30
0.0
 11
3535.9
 21
-319.25
 31
0.0
  0
LINE
  5
FF
330
18
100
AcDbEntity
  8
FRONT
100
AcDbLine
 10
3536.2
 20
-493.55
 30
0.0
 11
3619.0
 21
-476.35
 31
0.0
  0
LINE
  5
100
330
18
100
AcDbEntity
  8
FRONT
100
AcDbLine
 10
3453.0
 20
-476.35
 30
0.0
 11
3535.8
 21
-493.55
 31
0.0
  0
LINE
  5
101
330
18
100
AcDbEntity
  8
FRONT
100
AcDbLine
 10
3619.0
 20
-476.35
 30
0.0
 11
3648.4
 21
-346.45
 31
0.0
  0
LINE
  5
102
330
18
100
AcDbEntity
  8
FRONT
100
AcDbLine
 10
3423.6
 20
-346.45
 30
0.0
 11
3453.0
 21
-476.35
 31
0.0
  0
LINE
  5
103
330
18
100
AcDbEntity
  8
FRONT
100
AcDbLine
 10
3536.0
 20
-320.05
 30
0.0
 11
3648.4
 21
-346.45
 31
0.0
  0
LINE
  5
104
330
18
100
AcDbEntity
  8
FRONT
100
AcDbLine
 10
3423.6
 20
-346.45
 30
0.0
 11
3536.0
 21
-320.05
 31
0.0
  0
LINE
  5
105
330
18
100
AcDbEntity
  8
FRONT
100
AcDbLine
 10
3536.2
 20
-510.65
 30
0.0
 11
3664.6
 21
-486.85
 31
0.0
  0
LINE
  5
106
330
18
100
AcDbEntity
  8
FRONT
100
AcDbLine
 10
3407.4
 20
-486.85
 30
0.0
 11
3535.8
 21
-510.65
 31
0.0
  0
LINE
  5
107
330
18
100
AcDbEntity
  8
FRONT
100
AcDbLine
 10
3664.6
 20
-486.85
 30
0.0
 11
3690.0
 21
-356.75
 31
0.0
  0
LINE
  5
108
330
18
100
AcDbEntity
  8
FRONT
100
AcDbLine
 10
3382.0
 20
-356.75
 30
0.0
 11
3407.4
 21
-486.85
 31
0.0
  0
LINE
  5
109
330
18
100
AcDbEntity
  8
FRONT
100
AcDbLine
 10
3536.0
 20
-319.45
 30
0.0
 11
3690.0
 21
-356.75
 31
0.0
  0
LINE
  5
10A
330
18
100
AcDbEntity
  8
FRONT
100
AcDbLine
 10
3382.0
 20
-356.75
 30
0.0
 11
3536.0
 21
-319.45
 31
0.0
  0
LINE
  5
10B
330
18
100
AcDbEntity
  8
FRONT
100
AcDbLine
 10
3536.1
 20
-522.85
 30
0.0
 11
3696.1
 21
-496.45
 31
0.0
  0
LINE
  5
10C
330
18
100
AcDbEntity
  8
FRONT
100
AcDbLine
 10
3375.9
 20
-496.45
 30
0.0
 11
3535.9
 21
-522.85
 31
0.0
  0
LINE
  5
10D
330
18
100
AcDbEntity
  8
FRONT
100
AcDbLine
 10
3696.1
 20
-496.45
 30
0.0
 11
3719.7
 21
-363.95
 31
0.0
  0
LINE
  5
10E
330
18
100
AcDbEntity
  8
FRONT
100
AcDbLine
 10
3352.3
 20
-363.95
 30
0.0
 11
3375.9
 21
-496.45
 31
0.0
  0
LINE
  5
10F
330
18
100
AcDbEntity
  8
FRONT
100
AcDbLine
 10
3536.0
 20
-318.65
 30
0.0
 11
3719.7
 21
-363.95
 31
0.0
  0
LINE
  5
110
330
18
100
AcDbEntity
  8
FRONT
100
AcDbLine
 10
3352.3
 20
-363.95
 30
0.0
 11
3536.0
 21
-318.65
 31
0.0
  0
LINE
  5
111
330
18
100
AcDbEntity
  8
FRONT
100
AcDbLine
 10
3536.1
 20
-530.35
 30
0.0
 11
3714.5
 21
-504.25
 31
0.0
  0
LINE
  5
112
330
18
100
AcDbEntity
  8
FRONT
100
AcDbLine
 10
3357.5
 20
-504.25
 30
0.0
 11
3535.9
 21
-530.35
 31
0.0
  0
LINE
  5
113
330
18
100
AcDbEntity
  8
FRONT
100
AcDbLine
 10
3714.5
 20
-504.25
 30
0.0
 11
3737.8
 21
-368.65
 31
0.0
  0
LINE
  5
114
330
18
100
AcDbEntity
  8
FRONT
100
AcDbLine
 10
3334.2
 20
-368.65
 30
0.0
 11
3357.5
 21
-504.25
 31
0.0
  0
LINE
  5
115
330
18
100
AcDbEntity
  8
FRONT
100
AcDbLine
 10
3536.0
 20
-318.75
 30
0.0
 11
3737.8
 21
-368.65
 31
0.0
  0
LINE
  5
116
330
18
100
AcDbEntity
  8
FRONT
100
AcDbLine
 10
3334.2
 20
-368.65
 30
0.0
 11
3536.0
 21
-318.75
 31
0.0
  0
LINE
  5
117
330
18
100
AcDbEntity
  8
FRONT
100
AcDbLine
 10
3536.0
 20
-533.25
 30
0.0
 11
3720.2
 21
-508.85
 31
0.0
  0
LINE
  5
118
330
18
100
AcDbEntity
  8
FRONT
100
AcDbLine
 10
3351.8
 20
-508.85
 30
0.0
 11
3536.0
 21
-533.25
 31
0.0
  0
LINE
  5
119
330
18
100
AcDbEntity
  8
FRONT
100
AcDbLine
 10
3720.2
 20
-508.85
 30
0.0
 11
3744.3
 21
-371.25
 31
0.0
  0
LINE
  5
11A
330
18
100
AcDbEntity
  8
FRONT
100
AcDbLine
 10
3327.7
 20
-371.25
 30
0.0
 11
3351.8
 21
-508.85
 31
0.0
  0
LINE
  5
11B
330
18
100
AcDbEntity
  8
FRONT
100
AcDbLine
 10
3536.0
 20
-320.75
 30
0.0
 11
3744.3
 21
-371.25
 31
0.0
  0
LINE
  5
11C
330
18
100
AcDbEntity
  8
FRONT
100
AcDbLine
 10
3327.7
 20
-371.25
 30
0.0
 11
3536.0
 21
-320.75
 31
0.0
  0
LINE
  5
11D
330
18
100
AcDbEntity
  8
FRONT
100
AcDbLine
 10
3536.0
 20
-531.75
 30
0.0
 11
3714.8
 21
-506.45
 31
0.0
  0
LINE
  5
11E
330
18
100
AcDbEntity
  8
FRONT
100
AcDbLine
 10
3357.2
 20
-506.45
 30
0.0
 11
3536.0
 21
-531.75
 31
0.0
  0
LINE
  5
11F
330
18
100
AcDbEntity
  8
FRONT
100
AcDbLine
 10
3714.8
 20
-506.45
 30
0.0
 11
3739.8
 21
-372.25
 31
0.0
  0
LINE
  5
120
330
18
100
AcDbEntity
  8
FRONT
100
AcDbLine
 10
3332.2
 20
-372.25
 30
0.0
 11
3357.2
 21
-506.45
 31
0.0
  0
LINE
  5
121
330
18
100
AcDbEntity
  8
FRONT
100
AcDbLine
 10
3536.0
 20
-328.75
 30
0.0
 11
3739.8
 21
-372.25
 31
0.0
  0
LINE
  5
122
330
18
100
AcDbEntity
  8
FRONT
100
AcDbLine
 10
3332.2
 20
-372.25
 30
0.0
 11
3536.0
 21
-328.75
 31
0.0
  0
LINE
  5
123
330
18
100
AcDbEntity
  8
FRONT
100
AcDbLine
 10
3536.0
 20
-525.95
 30
0.0
 11
3698.2
 21
-500.05
 31
0.0
  0
LINE
  5
124
330
18
100
AcDbEntity
  8
FRONT
100
AcDbLine
 10
3373.8
 20
-500.05
 30
0.0
 11
3536.0
 21
-525.95
 31
0.0
  0
LINE
  5
125
330
18
100
AcDbEntity
  8
FRONT
100
AcDbLine
 10
3698.2
 20
-500.05
 30
0.0
 11
3723.9
 21
-372.15
 31
0.0
  0
LINE
  5
126
330
18
100
AcDbEntity
  8
FRONT
100
AcDbLine
 10
3348.1
 20
-372.15
 30
0.0
 11
3373.8
 21
-500.05
 31
0.0
  0
LINE
  5
127
330
18
100
AcDbEntity
  8
FRONT
100
AcDbLine
 10
3536.0
 20
-339.15
 30
0.0
 11
3723.9
 21
-372.15
 31
0.0
  0
LINE
  5
128
330
18
100
AcDbEntity
  8
FRONT
100
AcDbLine
 10
3348.1
 20
-372.15
 30
0.0
 11
3536.0
 21
-339.15
 31
0.0
  0
LINE
  5
129
330
18
100
AcDbEntity
  8
FRONT
100
AcDbLine
 10
3536.0
 20
-515.95
 30
0.0
 11
3671.3
 21
-491.45
 31
0.0
  0
LINE
  5
12A
330
18
100
AcDbEntity
  8
FRONT
100
AcDbLine
 10
3400.7
 20
-491.45
 30
0.0
 11
3536.0
 21
-515.95
 31
0.0
  0
LINE
  5
12B
330
18
100
AcDbEntity
  8
FRONT
100
AcDbLine
 10
3671.3
 20
-491.45
 30
0.0
 11
3696.5
 21
-371.55
 31
0.0
  0
LINE
  5
12C
330
18
100
AcDbEntity
  8
FRONT
100
AcDbLine
 10
3375.5
 20
-371.55
 30
0.0
 11
3400.7
 21
-491.45
 31
0.0
  0
LINE
  5
12D
330
18
100
AcDbEntity
  8
FRONT
100
AcDbLine
 10
3536.0
 20
-350.05
 30
0.0
 11
3696.5
 21
-371.55
 31
0.0
  0
LINE
  5
12E
330
18
100
AcDbEntity
  8
FRONT
100
AcDbLine
 10
3375.5
 20
-371.55
 30
0.0
 11
3536.0
 21
-350.05
 31
0.0
  0
LINE
  5
12F
330
18
100
AcDbEntity
  8
FRONT
100
AcDbLine
 10
3536.0
 20
-501.95
 30
0.0
 11
3634.3
 21
-481.65
 31
0.0
  0
LINE
  5
130
330
18
100
AcDbEntity
  8
FRONT
100
AcDbLine
 10
3437.7
 20
-481.65
 30
0.0
 11
3536.0
 21
-501.95
 31
0.0
  0
LINE
  5
131
330
18
100
AcDbEntity
  8
FRONT
100
AcDbLine
 10
3634.3
 20
-481.65
 30
0.0
 11
3657.4
 21
-370.85
 31
0.0
  0
LINE
  5
132
330
18
100
AcDbEntity
  8
FRONT
100
AcDbLine
 10
3414.6
 20
-370.85
 30
0.0
 11
3437.7
 21
-481.65
 31
0.0
  0
LINE
  5
133
330
18
100
AcDbEntity
  8
FRONT
100
AcDbLine
 10
3536.0
 20
-359.95
 30
0.0
 11
3657.4
 21
-370.85
 31
0.0
  0
LINE
  5
134
330
18
100
AcDbEntity
  8
FRONT
100
AcDbLine
 10
3414.6
 20
-370.85
 30
0.0
 11
3536.0
 21
-359.95
 31
0.0
  0
LINE
  5
135
330
18
100
AcDbEntity
  8
FRONT
100
AcDbLine
 10
3536.0
 20
-483.85
 30
0.0
 11
3587.7
 21
-471.85
 31
0.0
  0
LINE
  5
136
330
18
100
AcDbEntity
  8
FRONT
100
AcDbLine
 10
3484.3
 20
-471.85
 30
0.0
 11
3536.0
 21
-483.85
 31
0.0
  0
LINE
  5
137
330
18
100
AcDbEntity
  8
FRONT
100
AcDbLine
 10
3587.7
 20
-471.85
 30
0.0
 11
3606.1
 21
-370.55
 31
0.0
  0
LINE
  5
138
330
18
100
AcDbEntity
  8
FRONT
100
AcDbLine
 10
3465.9
 20
-370.55
 30
0.0
 11
3484.3
 21
-471.85
 31
0.0
  0
LINE
  5
139
330
18
100
AcDbEntity
  8
FRONT
100
AcDbLine
 10
3536.0
 20
-367.55
 30
0.0
 11
3606.1
 21
-370.55
 31
0.0
  0
LINE
  5
13A
330
18
100
AcDbEntity
  8
FRONT
100
AcDbLine
 10
3465.9
 20
-370.55
 30
0.0
 11
3536.0
 21
-367.55
 31
0.0
  0
LINE
  5
13B
330
18
100
AcDbEntity
  8
FRONT
 62
     1
100
AcDbLine
 10
3536.2
 20
-463.55
 30
0.0
 11
3536.2
 21
-316.65
 31
0.0
  0
LINE
  5
13C
330
18
100
AcDbEntity
  8
FRONT
 62
     1
100
AcDbLine
 10
3535.8
 20
-463.55
 30
0.0
 11
3535.8
 21
-316.65
 31
0.0
  0
LINE
  5
13D
330
18
100
AcDbEntity
  8
FRONT
 62
     1
100
AcDbLine
 10
3536.2
 20
-471.35
 30
0.0
 11
3536.2
 21
-463.55
 31
0.0
  0
LINE
  5
13E
330
18
100
AcDbEntity
  8
FRONT
 62
     1
100
AcDbLine
 10
3535.8
 20
-471.35
 30
0.0
 11
3535.8
 21
-463.55
 31
0.0
  0
LINE
  5
13F
330
18
100
AcDbEntity
  8
FRONT
 62
     1
100
AcDbLine
 10
3536.2
 20
-493.55
 30
0.0
 11
3536.2
 21
-471.35
 31
0.0
  0
LINE
  5
140
330
18
100
AcDbEntity
  8
FRONT
 62
     1
100
AcDbLine
 10
3535.8
 20
-493.55
 30
0.0
 11
3535.8
 21
-471.35
 31
0.0
  0
LINE
  5
141
330
18
100
AcDbEntity
  8
FRONT
 62
     1
100
AcDbLine
 10
3536.2
 20
-510.65
 30
0.0
 11
3536.2
 21
-493.55
 31
0.0
  0
LINE
  5
142
330
18
100
AcDbEntity
  8
FRONT
 62
     1
100
AcDbLine
 10
3535.8
 20
-510.65
 30
0.0
 11
3535.8
 21
-493.55
 31
0.0
  0
LINE
  5
143
330
18
100
AcDbEntity
  8
FRONT
 62
     1
100
AcDbLine
 10
3536.2
 20
-511.95
 30
0.0
 11
3536.2
 21
-510.65
 31
0.0
  0
LINE
  5
144
330
18
100
AcDbEntity
  8
FRONT
 62
     1
100
AcDbLine
 10
3535.8
 20
-511.95
 30
0.0
 11
3535.8
 21
-510.65
 31
0.0
  0
LINE
  5
145
330
18
100
AcDbEntity
  8
FRONT
 62
     1
100
AcDbLine
 10
3536.1
 20
-522.85
 30
0.0
 11
3536.2
 21
-511.95
 31
0.0
  0
LINE
  5
146
330
18
100
AcDbEntity
  8
FRONT
 62
     1
100
AcDbLine
 10
3535.8
 20
-511.95
 30
0.0
 11
3535.9
 21
-522.85
 31
0.0
  0
LINE
  5
147
330
18
100
AcDbEntity
  8
FRONT
 62
     1
100
AcDbLine
 10
3536.1
 20
-530.35
 30
0.0
 11
3536.1
 21
-522.85
 31
0.0
  0
LINE
  5
148
330
18
100
AcDbEntity
  8
FRONT
 62
     1
100
AcDbLine
 10
3535.9
 20
-530.35
 30
0.0
 11
3535.9
 21
-522.85
 31
0.0
  0
LINE
  5
149
330
18
100
AcDbEntity
  8
FRONT
 62
     1
100
AcDbLine
 10
3536.0
 20
-533.25
 30
0.0
 11
3536.1
 21
-530.35
 31
0.0
  0
LINE
  5
14A
330
18
100
AcDbEntity
  8
FRONT
 62
     1
100
AcDbLine
 10
3535.9
 20
-530.35
 30
0.0
 11
3536.0
 21
-533.25
 31
0.0
  0
LINE
  5
14B
330
18
100
AcDbEntity
  8
FRONT
 62
     1
100
AcDbLine
 10
3536.0
 20
-533.35
 30
0.0
 11
3536.0
 21
-533.25
 31
0.0
  0
LINE
  5
14C
330
18
100
AcDbEntity
  8
FRONT
 62
     1
100
AcDbLine
 10
3536.0
 20
-533.35
 30
0.0
 11
3536.0
 21
-533.25
 31
0.0
  0
LINE
  5
14D
330
18
100
AcDbEntity
  8
FRONT
 62
     1
100
AcDbLine
 10
3536.0
 20
-533.35
 30
0.0
 11
3536.0
 21
-531.75
 31
0.0
  0
LINE
  5
14E
330
18
100
AcDbEntity
  8
FRONT
 62
     1
100
AcDbLine
 10
3536.0
 20
-533.35
 30
0.0
 11
3536.0
 21
-531.75
 31
0.0
  0
LINE
  5
14F
330
18
100
AcDbEntity
  8
FRONT
 62
     1
100
AcDbLine
 10
3536.0
 20
-531.75
 30
0.0
 11
3536.0
 21
-525.95
 31
0.0
  0
LINE
  5
150
330
18
100
AcDbEntity
  8
FRONT
 62
     1
100
AcDbLine
 10
3536.0
 20
-531.75
 30
0.0
 11
3536.0
 21
-525.95
 31
0.0
  0
LINE
  5
151
330
18
100
AcDbEntity
  8
FRONT
 62
     1
100
AcDbLine
 10
3536.0
 20
-525.95
 30
0.0
 11
3536.0
 21
-515.95
 31
0.0
  0
LINE
  5
152
330
18
100
AcDbEntity
  8
FRONT
 62
     1
100
AcDbLine
 10
3536.0
 20
-525.95
 30
0.0
 11
3536.0
 21
-515.95
 31
0.0
  0
LINE
  5
153
330
18
100
AcDbEntity
  8
FRONT
 62
     1
100
AcDbLine
 10
3536.0
 20
-515.95
 30
0.0
 11
3536.0
 21
-514.75
 31
0.0
  0
LINE
  5
154
330
18
100
AcDbEntity
  8
FRONT
 62
     1
100
AcDbLine
 10
3536.0
 20
-515.95
 30
0.0
 11
3536.0
 21
-514.75
 31
0.0
  0
LINE
  5
155
330
18
100
AcDbEntity
  8
FRONT
 62
     1
100
AcDbLine
 10
3536.0
 20
-514.75
 30
0.0
 11
3536.0
 21
-501.95
 31
0.0
  0
LINE
  5
156
330
18
100
AcDbEntity
  8
FRONT
 62
     1
100
AcDbLine
 10
3536.0
 20
-514.75
 30
0.0
 11
3536.0
 21
-501.95
 31
0.0
  0
LINE
  5
157
330
18
100
AcDbEntity
  8
FRONT
 62
     1
100
AcDbLine
 10
3536.0
 20
-501.95
 30
0.0
 11
3536.0
 21
-483.85
 31
0.0
  0
LINE
  5
158
330
18
100
AcDbEntity
  8
FRONT
 62
     1
100
AcDbLine
 10
3536.0
 20
-501.95
 30
0.0
 11
3536.0
 21
-483.85
 31
0.0
  0
LINE
  5
159
330
18
100
AcDbEntity
  8
FRONT
 62
     1
100
AcDbLine
 10
3536.0
 20
-483.85
 30
0.0
 11
3536.0
 21
-463.55
 31
0.0
  0
LINE
  5
15A
330
18
100
AcDbEntity
  8
FRONT
 62
     1
100
AcDbLine
 10
3536.0
 20
-483.85
 30
0.0
 11
3536.0
 21
-463.55
 31
0.0
  0
LINE
  5
15B
330
18
100
AcDbEntity
  8
FRONT
 62
     1
100
AcDbLine
 10
3536.0
 20
-463.55
 30
0.0
 11
3536.0
 21
-371.45
 31
0.0
  0
LINE
  5
15C
330
18
100
AcDbEntity
  8
FRONT
 62
     1
100
AcDbLine
 10
3536.0
 20
-463.55
 30
0.0
 11
3536.0
 21
-371.45
 31
0.0
  0
LINE
  5
15D
330
18
100
AcDbEntity
  8
FRONT
 62
     3
100
AcDbLine
 10
3536.2
 20
-463.55
 30
0.0
 11
3536.2
 21
-316.65
 31
0.0
  0
LINE
  5
15E
330
18
100
AcDbEntity
  8
FRONT
 62
     3
100
AcDbLine
 10
3535.8
 20
-463.55
 30
0.0
 11
3535.8
 21
-316.65
 31
0.0
  0
LINE
  5
15F
330
18
100
AcDbEntity
  8
FRONT
 62
     3
100
AcDbLine
 10
3536.2
 20
-463.55
 30
0.0
 11
3558.0
 21
-466.35
 31
0.0
  0
LINE
  5
160
330
18
100
AcDbEntity
  8
FRONT
 62
     3
100
AcDbLine
 10
3514.0
 20
-466.35
 30
0.0
 11
3535.8
 21
-463.55
 31
0.0
  0
LINE
  5
161
330
18
100
AcDbEntity
  8
FRONT
 62
     3
100
AcDbLine
 10
3558.0
 20
-466.35
 30
0.0
 11
3619.0
 21
-476.35
 31
0.0
  0
LINE
  5
162
330
18
100
AcDbEntity
  8
FRONT
 62
     3
100
AcDbLine
 10
3453.0
 20
-476.35
 30
0.0
 11
3514.0
 21
-466.35
 31
0.0
  0
LINE
  5
163
330
18
100
AcDbEntity
  8
FRONT
 62
     3
100
AcDbLine
 10
3619.0
 20
-476.35
 30
0.0
 11
3664.6
 21
-486.85
 31
0.0
  0
LINE
  5
164
330
18
100
AcDbEntity
  8
FRONT
 62
     3
100
AcDbLine
 10
3407.4
 20
-486.85
 30
0.0
 11
3453.0
 21
-476.35
 31
0.0
  0
LINE
  5
165
330
18
100
AcDbEntity
  8
FRONT
 62
     3
100
AcDbLine
 10
3664.6
 20
-486.85
 30
0.0
 11
3668.1
 21
-487.75
 31
0.0
  0
LINE
  5
166
330
18
100
AcDbEntity
  8
FRONT
 62
     3
100
AcDbLine
 10
3403.9
 20
-487.75
 30
0.0
 11
3407.4
 21
-486.85
 31
0.0
  0
LINE
  5
167
330
18
100
AcDbEntity
  8
FRONT
 62
     3
100
AcDbLine
 10
3668.1
 20
-487.75
 30
0.0
 11
3696.1
 21
-496.45
 31
0.0
  0
LINE
  5
168
330
18
100
AcDbEntity
  8
FRONT
 62
     3
100
AcDbLine
 10
3375.9
 20
-496.45
 30
0.0
 11
3403.9
 21
-487.75
 31
0.0
  0
LINE
  5
169
330
18
100
AcDbEntity
  8
FRONT
 62
     3
100
AcDbLine
 10
3696.1
 20
-496.45
 30
0.0
 11
3714.5
 21
-504.25
 31
0.0
  0
LINE
  5
16A
330
18
100
AcDbEntity
  8
FRONT
 62
     3
100
AcDbLine
 10
3357.5
 20
-504.25
 30
0.0
 11
3375.9
 21
-496.45
 31
0.0
  0
LINE
  5
16B
330
18
100
AcDbEntity
  8
FRONT
 62
     3
100
AcDbLine
 10
3714.5
 20
-504.25
 30
0.0
 11
3720.2
 21
-508.85
 31
0.0
  0
LINE
  5
16C
330
18
100
AcDbEntity
  8
FRONT
 62
     3
100
AcDbLine
 10
3351.8
 20
-508.85
 30
0.0
 11
3357.5
 21
-504.25
 31
0.0
  0
LINE
  5
16D
330
18
100
AcDbEntity
  8
FRONT
 62
     3
100
AcDbLine
 10
3720.1
 20
-509.15
 30
0.0
 11
3720.2
 21
-508.85
 31
0.0
  0
LINE
  5
16E
330
18
100
AcDbEntity
  8
FRONT
 62
     3
100
AcDbLine
 10
3351.8
 20
-508.85
 30
0.0
 11
3351.9
 21
-509.15
 31
0.0
  0
LINE
  5
16F
330
18
100
AcDbEntity
  8
FRONT
 62
     3
100
AcDbLine
 10
3714.8
 20
-506.45
 30
0.0
 11
3720.1
 21
-509.15
 31
0.0
  0
LINE
  5
170
330
18
100
AcDbEntity
  8
FRONT
 62
     3
100
AcDbLine
 10
3351.9
 20
-509.15
 30
0.0
 11
3357.2
 21
-506.45
 31
0.0
  0
LINE
  5
171
330
18
100
AcDbEntity
  8
FRONT
 62
     3
100
AcDbLine
 10
3698.2
 20
-500.05
 30
0.0
 11
3714.8
 21
-506.45
 31
0.0
  0
LINE
  5
172
330
18
100
AcDbEntity
  8
FRONT
 62
     3
100
AcDbLine
 10
3357.2
 20
-506.45
 30
0.0
 11
3373.8
 21
-500.05
 31
0.0
  0
LINE
  5
173
330
18
100
AcDbEntity
  8
FRONT
 62
     3
100
AcDbLine
 10
3671.3
 20
-491.45
 30
0.0
 11
3698.2
 21
-500.05
 31
0.0
  0
LINE
  5
174
330
18
100
AcDbEntity
  8
FRONT
 62
     3
100
AcDbLine
 10
3373.8
 20
-500.05
 30
0.0
 11
3400.7
 21
-491.45
 31
0.0
  0
LINE
  5
175
330
18
100
AcDbEntity
  8
FRONT
 62
     3
100
AcDbLine
 10
3668.1
 20
-490.55
 30
0.0
 11
3671.3
 21
-491.45
 31
0.0
  0
LINE
  5
176
330
18
100
AcDbEntity
  8
FRONT
 62
     3
100
AcDbLine
 10
3400.7
 20
-491.45
 30
0.0
 11
3403.9
 21
-490.55
 31
0.0
  0
LINE
  5
177
330
18
100
AcDbEntity
  8
FRONT
 62
     3
100
AcDbLine
 10
3634.3
 20
-481.65
 30
0.0
 11
3668.1
 21
-490.55
 31
0.0
  0
LINE
  5
178
330
18
100
AcDbEntity
  8
FRONT
 62
     3
100
AcDbLine
 10
3403.9
 20
-490.55
 30
0.0
 11
3437.7
 21
-481.65
 31
0.0
  0
LINE
  5
179
330
18
100
AcDbEntity
  8
FRONT
 62
     3
100
AcDbLine
 10
3587.7
 20
-471.85
 30
0.0
 11
3634.3
 21
-481.65
 31
0.0
  0
LINE
  5
17A
330
18
100
AcDbEntity
  8
FRONT
 62
     3
100
AcDbLine
 10
3437.7
 20
-481.65
 30
0.0
 11
3484.3
 21
-471.85
 31
0.0
  0
LINE
  5
17B
330
18
100
AcDbEntity
  8
FRONT
 62
     3
100
AcDbLine
 10
3536.0
 20
-463.55
 30
0.0
 11
3587.7
 21
-471.85
 31
0.0
  0
LINE
  5
17C
330
18
100
AcDbEntity
  8
FRONT
 62
     3
100
AcDbLine
 10
3484.3
 20
-471.85
 30
0.0
 11
3536.0
 21
-463.55
 31
0.0
  0
LINE
  5
17D
330
18
100
AcDbEntity
  8
FRONT
 62
     3
100
AcDbLine
 10
3536.0
 20
-463.55
 30
0.0
 11
3536.0
 21
-371.45
 31
0.0
  0
LINE
  5
17E
330
18
100
AcDbEntity
  8
FRONT
 62
     3
100
AcDbLine
 10
3536.0
 20
-463.55
 30
0.0
 11
3536.0
 21
-371.45
 31
0.0
  0
LINE
  5
17F
330
18
100
AcDbEntity
  8
FRONT
 62
     2
100
AcDbLine
 10
3536.2
 20
-316.65
 30
0.0
 11
3575.7
 21
-327.45
 31
0.0
  0
LINE
  5
180
330
18
100
AcDbEntity
  8
FRONT
 62
     2
100
AcDbLine
 10
3496.3
 20
-327.45
 30
0.0
 11
3535.8
 21
-316.65
 31
0.0
  0
LINE
  5
181
330
18
100
AcDbEntity
  8
FRONT
 62
     2
100
AcDbLine
 10
3575.7
 20
-327.45
 30
0.0
 11
3594.6
 21
-332.55
 31
0.0
  0
LINE
  5
182
330
18
100
AcDbEntity
  8
FRONT
 62
     2
100
AcDbLine
 10
3477.4
 20
-332.55
 30
0.0
 11
3496.3
 21
-327.45
 31
0.0
  0
LINE
  5
183
330
18
100
AcDbEntity
  8
FRONT
 62
     2
100
AcDbLine
 10
3594.6
 20
-332.55
 30
0.0
 11
3648.4
 21
-346.45
 31
0.0
  0
LINE
  5
184
330
18
100
AcDbEntity
  8
FRONT
 62
     2
100
AcDbLine
 10
3423.6
 20
-346.45
 30
0.0
 11
3477.4
 21
-332.55
 31
0.0
  0
LINE
  5
185
330
18
100
AcDbEntity
  8
FRONT
 62
     2
100
AcDbLine
 10
3648.4
 20
-346.45
 30
0.0
 11
3690.0
 21
-356.75
 31
0.0
  0
LINE
  5
186
330
18
100
AcDbEntity
  8
FRONT
 62
     2
100
AcDbLine
 10
3382.0
 20
-356.75
 30
0.0
 11
3423.6
 21
-346.45
 31
0.0
  0
LINE
  5
187
330
18
100
AcDbEntity
  8
FRONT
 62
     2
100
AcDbLine
 10
3690.0
 20
-356.75
 30
0.0
 11
3693.2
 21
-357.55
 31
0.0
  0
LINE
  5
188
330
18
100
AcDbEntity
  8
FRONT
 62
     2
100
AcDbLine
 10
3378.8
 20
-357.55
 30
0.0
 11
3382.0
 21
-356.75
 31
0.0
  0
LINE
  5
189
330
18
100
AcDbEntity
  8
FRONT
 62
     2
100
AcDbLine
 10
3693.2
 20
-357.55
 30
0.0
 11
3719.7
 21
-363.95
 31
0.0
  0
LINE
  5
18A
330
18
100
AcDbEntity
  8
FRONT
 62
     2
100
AcDbLine
 10
3352.3
 20
-363.95
 30
0.0
 11
3378.8
 21
-357.55
 31
0.0
  0
LINE
  5
18B
330
18
100
AcDbEntity
  8
FRONT
 62
     2
100
AcDbLine
 10
3719.7
 20
-363.95
 30
0.0
 11
3737.8
 21
-368.65
 31
0.0
  0
LINE
  5
18C
330
18
100
AcDbEntity
  8
FRONT
 62
     2
100
AcDbLine
 10
3334.2
 20
-368.65
 30
0.0
 11
3352.3
 21
-363.95
 31
0.0
  0
LINE
  5
18D
330
18
100
AcDbEntity
  8
FRONT
 62
     2
100
AcDbLine
 10
3737.8
 20
-368.65
 30
0.0
 11
3744.3
 21
-371.25
 31
0.0
  0
LINE
  5
18E
330
18
100
AcDbEntity
  8
FRONT
 62
     2
100
AcDbLine
 10
3327.7
 20
-371.25
 30
0.0
 11
3334.2
 21
-368.65
 31
0.0
  0
LINE
  5
18F
330
18
100
AcDbEntity
  8
FRONT
 62
     2
100
AcDbLine
 10
3744.3
 20
-371.45
 30
0.0
 11
3744.3
 21
-371.25
 31
0.0
  0
LINE
  5
190
330
18
100
AcDbEntity
  8
FRONT
 62
     2
100
AcDbLine
 10
3327.7
 20
-371.45
 30
0.0
 11
3327.7
 21
-371.25
 31
0.0
  0
LINE
  5
191
330
18
100
AcDbEntity
  8
FRONT
 62
     2
100
AcDbLine
 10
3739.8
 20
-372.25
 30
0.0
 11
3744.3
 21
-371.45
 31
0.0
  0
LINE
  5
192
330
18
100
AcDbEntity
  8
FRONT
 62
     2
100
AcDbLine
 10
3327.7
 20
-371.45
 30
0.0
 11
3332.2
 21
-372.25
 31
0.0
  0
LINE
  5
193
330
18
100
AcDbEntity
  8
FRONT
 62
     2
100
AcDbLine
 10
3723.9
 20
-372.15
 30
0.0
 11
3739.8
 21
-372.25
 31
0.0
  0
LINE
  5
194
330
18
100
AcDbEntity
  8
FRONT
 62
     2
100
AcDbLine
 10
3332.2
 20
-372.25
 30
0.0
 11
3348.1
 21
-372.15
 31
0.0
  0
LINE
  5
195
330
18
100
AcDbEntity
  8
FRONT
 62
     2
100
AcDbLine
 10
3696.5
 20
-371.55
 30
0.0
 11
3723.9
 21
-372.15
 31
0.0
  0
LINE
  5
196
330
18
100
AcDbEntity
  8
FRONT
 62
     2
100
AcDbLine
 10
3348.1
 20
-372.15
 30
0.0
 11
3375.5
 21
-371.55
 31
0.0
  0
LINE
  5
197
330
18
100
AcDbEntity
  8
FRONT
 62
     2
100
AcDbLine
 10
3693.2
 20
-371.45
 30
0.0
 11
3696.5
 21
-371.55
 31
0.0
  0
LINE
  5
198
330
18
100
AcDbEntity
  8
FRONT
 62
     2
100
AcDbLine
 10
3375.5
 20
-371.55
 30
0.0
 11
3378.8
 21
-371.45
 31
0.0
  0
LINE
  5
199
330
18
100
AcDbEntity
  8
FRONT
 62
     2
100
AcDbLine
 10
3657.4
 20
-370.85
 30
0.0
 11
3693.2
 21
-371.45
 31
0.0
  0
LINE
  5
19A
330
18
100
AcDbEntity
  8
FRONT
 62
     2
100
AcDbLine
 10
3378.8
 20
-371.45
 30
0.0
 11
3414.6
 21
-370.85
 31
0.0
  0
LINE
  5
19B
330
18
100
AcDbEntity
  8
FRONT
 62
     2
100
AcDbLine
 10
3606.1
 20
-370.55
 30
0.0
 11
3657.4
 21
-370.85
 31
0.0
  0
LINE
  5
19C
330
18
100
AcDbEntity
  8
FRONT
 62
     2
100
AcDbLine
 10
3414.6
 20
-370.85
 30
0.0
 11
3465.9
 21
-370.55
 31
0.0
  0
LINE
  5
19D
330
18
100
AcDbEntity
  8
FRONT
 62
     2
100
AcDbLine
 10
3547.4
 20
-371.25
 30
0.0
 11
3606.1
 21
-370.55
 31
0.0
  0
LINE
  5
19E
330
18
100
AcDbEntity
  8
FRONT
 62
     2
100
AcDbLine
 10
3465.9
 20
-370.55
 30
0.0
 11
3524.6
 21
-371.25
 31
0.0
  0
LINE
  5
19F
330
18
100
AcDbEntity
  8
FRONT
 62
     2
100
AcDbLine
 10
3536.0
 20
-371.45
 30
0.0
 11
3547.4
 21
-371.25
 31
0.0
  0
LINE
  5
1A0
330
18
100
AcDbEntity
  8
FRONT
 62
     2
100
AcDbLine
 10
3524.6
 20
-371.25
 30
0.0
 11
3536.0
 21
-371.45
 31
0.0
  0
LINE
  5
1A1
330
18
100
AcDbEntity
  8
FRONT
 62
     5
100
AcDbLine
 10
3536.1
 20
-318.65
 30
0.0
 11
3536.2
 21
-316.65
 31
0.0
  0
LINE
  5
1A2
330
18
100
AcDbEntity
  8
FRONT
 62
     5
100
AcDbLine
 10
3535.8
 20
-316.65
 30
0.0
 11
3535.9
 21
-318.65
 31
0.0
  0
LINE
  5
1A3
330
18
100
AcDbEntity
  8
FRONT
 62
     5
100
AcDbLine
 10
3536.1
 20
-319.25
 30
0.0
 11
3536.1
 21
-318.65
 31
0.0
  0
LINE
  5
1A4
330
18
100
AcDbEntity
  8
FRONT
 62
     5
100
AcDbLine
 10
3535.9
 20
-319.25
 30
0.0
 11
3535.9
 21
-318.65
 31
0.0
  0
LINE
  5
1A5
330
18
100
AcDbEntity
  8
FRONT
 62
     5
100
AcDbLine
 10
3536.0
 20
-320.05
 30
0.0
 11
3536.1
 21
-319.25
 31
0.0
  0
LINE
  5
1A6
330
18
100
AcDbEntity
  8
FRONT
 62
     5
100
AcDbLine
 10
3535.9
 20
-319.25
 30
0.0
 11
3536.0
 21
-320.05
 31
0.0
  0
LINE
  5
1A7
330
18
100
AcDbEntity
  8
FRONT
 62
     5
100
AcDbLine
 10
3536.0
 20
-320.05
 30
0.0
 11
3536.0
 21
-319.45
 31
0.0
  0
LINE
  5
1A8
330
18
100
AcDbEntity
  8
FRONT
 62
     5
100
AcDbLine
 10
3536.0
 20
-320.05
 30
0.0
 11
3536.0
 21
-319.45
 31
0.0
  0
LINE
  5
1A9
330
18
100
AcDbEntity
  8
FRONT
 62
     5
100
AcDbLine
 10
3536.0
 20
-319.45
 30
0.0
 11
3536.0
 21
-319.35
 31
0.0
  0
LINE
  5
1AA
330
18
100
AcDbEntity
  8
FRONT
 62
     5
100
AcDbLine
 10
3536.0
 20
-319.45
 30
0.0
 11
3536.0
 21
-319.35
 31
0.0
  0
LINE
  5
1AB
330
18
100
AcDbEntity
  8
FRONT
 62
     5
100
AcDbLine
 10
3536.0
 20
-319.35
 30
0.0
 11
3536.0
 21
-318.65
 31
0.0
  0
LINE
  5
1AC
330
18
100
AcDbEntity
  8
FRONT
 62
     5
100
AcDbLine
 10
3536.0
 20
-319.35
 30
0.0
 11
3536.0
 21
-318.65
 31
0.0
  0
LINE
  5
1AD
330
18
100
AcDbEntity
  8
FRONT
 62
     5
100
AcDbLine
 10
3536.0
 20
-318.75
 30
0.0
 11
3536.0
 21
-318.65
 31
0.0
  0
LINE
  5
1AE
330
18
100
AcDbEntity
  8
FRONT
 62
     5
100
AcDbLine
 10
3536.0
 20
-318.75
 30
0.0
 11
3536.0
 21
-318.65
 31
0.0
  0
LINE
  5
1AF
330
18
100
AcDbEntity
  8
FRONT
 62
     5
100
AcDbLine
 10
3536.0
 20
-320.75
 30
0.0
 11
3536.0
 21
-318.75
 31
0.0
  0
LINE
  5
1B0
330
18
100
AcDbEntity
  8
FRONT
 62
     5
100
AcDbLine
 10
3536.0
 20
-320.75
 30
0.0
 11
3536.0
 21
-318.75
 31
0.0
  0
LINE
  5
1B1
330
18
100
AcDbEntity
  8
FRONT
 62
     5
100
AcDbLine
 10
3536.0
 20
-321.25
 30
0.0
 11
3536.0
 21
-320.75
 31
0.0
  0
LINE
  5
1B2
330
18
100
AcDbEntity
  8
FRONT
 62
     5
100
AcDbLine
 10
3536.0
 20
-321.25
 30
0.0
 11
3536.0
 21
-320.75
 31
0.0
  0
LINE
  5
1B3
330
18
100
AcDbEntity
  8
FRONT
 62
     5
100
AcDbLine
 10
3536.0
 20
-328.75
 30
0.0
 11
3536.0
 21
-321.25
 31
0.0
  0
LINE
  5
1B4
330
18
100
AcDbEntity
  8
FRONT
 62
     5
100
AcDbLine
 10
3536.0
 20
-328.75
 30
0.0
 11
3536.0
 21
-321.25
 31
0.0
  0
LINE
  5
1B5
330
18
100
AcDbEntity
  8
FRONT
 62
     5
100
AcDbLine
 10
3536.0
 20
-339.15
 30
0.0
 11
3536.0
 21
-328.75
 31
0.0
  0
LINE
  5
1B6
330
18
100
AcDbEntity
  8
FRONT
 62
     5
100
AcDbLine
 10
3536.0
 20
-339.15
 30
0.0
 11
3536.0
 21
-328.75
 31
0.0
  0
LINE
  5
1B7
330
18
100
AcDbEntity
  8
FRONT
 62
     5
100
AcDbLine
 10
3536.0
 20
-350.05
 30
0.0
 11
3536.0
 21
-339.15
 31
0.0
  0
LINE
  5
1B8
330
18
100
AcDbEntity
  8
FRONT
 62
     5
100
AcDbLine
 10
3536.0
 20
-350.05
 30
0.0
 11
3536.0
 21
-339.15
 31
0.0
  0
LINE
  5
1B9
330
18
100
AcDbEntity
  8
FRONT
 62
     5
100
AcDbLine
 10
3536.0
 20
-351.05
 30
0.0
 11
3536.0
 21
-350.05
 31
0.0
  0
LINE
  5
1BA
330
18
100
AcDbEntity
  8
FRONT
 62
     5
100
AcDbLine
 10
3536.0
 20
-351.05
 30
0.0
 11
3536.0
 21
-350.05
 31
0.0
  0
LINE
  5
1BB
330
18
100
AcDbEntity
  8
FRONT
 62
     5
100
AcDbLine
 10
3536.0
 20
-359.95
 30
0.0
 11
3536.0
 21
-351.05
 31
0.0
  0
LINE
  5
1BC
330
18
100
AcDbEntity
  8
FRONT
 62
     5
100
AcDbLine
 10
3536.0
 20
-359.95
 30
0.0
 11
3536.0
 21
-351.05
 31
0.0
  0
LINE
  5
1BD
330
18
100
AcDbEntity
  8
FRONT
 62
     5
100
AcDbLine
 10
3536.0
 20
-367.55
 30
0.0
 11
3536.0
 21
-359.95
 31
0.0
  0
LINE
  5
1BE
330
18
100
AcDbEntity
  8
FRONT
 62
     5
100
AcDbLine
 10
3536.0
 20
-367.55
 30
0.0
 11
3536.0
 21
-359.95
 31
0.0
  0
LINE
  5
1BF
330
18
100
AcDbEntity
  8
FRONT
 62
     5
100
AcDbLine
 10
3536.0
 20
-371.25
 30
0.0
 11
3536.0
 21
-367.55
 31
0.0
  0
LINE
  5
1C0
330
18
100
AcDbEntity
  8
FRONT
 62
     5
100
AcDbLine
 10
3536.0
 20
-371.25
 30
0.0
 11
3536.0
 21
-367.55
 31
0.0
  0
LINE
  5
1C1
330
18
100
AcDbEntity
  8
FRONT
 62
     5
100
AcDbLine
 10
3536.0
 20
-371.45
 30
0.0
 11
3536.0
 21
-371.25
 31
0.0
  0
LINE
  5
1C2
330
18
100
AcDbEntity
  8
FRONT
 62
     5
100
AcDbLine
 10
3536.0
 20
-371.45
 30
0.0
 11
3536.0
 21
-371.25
 31
0.0
  0
LINE
  5
1C3
330
18
100
AcDbEntity
  8
ISOMETRIC
100
AcDbLine
 10
3645.602833
 20
208.650599
 30
0.0
 11
3650.923592
 21
194.308905
 31
0.0
  0
LINE
  5
1C4
330
18
100
AcDbEntity
  8
ISOMETRIC
100
AcDbLine
 10
3651.004518
 20
194.123534
 30
0.0
 11
3654.504769
 21
188.25979
 31
0.0
  0
LINE
  5
1C5
330
18
100
AcDbEntity
  8
ISOMETRIC
100
AcDbLine
 10
3613.839633
 20
339.047028
 30
0.0
 11
3645.602833
 21
208.650599
 31
0.0
  0
LINE
  5
1C6
330
18
100
AcDbEntity
  8
ISOMETRIC
100
AcDbLine
 10
3637.551153
 20
284.733326
 30
0.0
 11
3654.504769
 21
188.25979
 31
0.0
  0
LINE
  5
1C7
330
18
100
AcDbEntity
  8
ISOMETRIC
100
AcDbLine
 10
3613.839633
 20
339.047028
 30
0.0
 11
3623.253885
 21
323.212195
 31
0.0
  0
LINE
  5
1C8
330
18
100
AcDbEntity
  8
ISOMETRIC
100
AcDbLine
 10
3623.294348
 20
323.119509
 30
0.0
 11
3637.551153
 21
284.733326
 31
0.0
  0
LINE
  5
1C9
330
18
100
AcDbEntity
  8
ISOMETRIC
100
AcDbLine
 10
3823.683058
 20
278.977221
 30
0.0
 11
3843.566158
 21
226.023349
 31
0.0
  0
LINE
  5
1CA
330
18
100
AcDbEntity
  8
ISOMETRIC
100
AcDbLine
 10
3843.647085
 20
225.837978
 30
0.0
 11
3857.267634
 21
202.048258
 31
0.0
  0
LINE
  5
1CB
330
18
100
AcDbEntity
  8
ISOMETRIC
100
AcDbLine
 10
3794.086538
 20
402.730571
 30
0.0
 11
3823.683058
 21
278.977221
 31
0.0
  0
LINE
  5
1CC
330
18
100
AcDbEntity
  8
ISOMETRIC
100
AcDbLine
 10
3839.567337
 20
298.552071
 30
0.0
 11
3857.267634
 21
202.048258
 31
0.0
  0
LINE
  5
1CD
330
18
100
AcDbEntity
  8
ISOMETRIC
100
AcDbLine
 10
3794.086538
 20
402.730571
 30
0.0
 11
3812.020794
 21
373.023111
 31
0.0
  0
LINE
  5
1CE
330
18
100
AcDbEntity
  8
ISOMETRIC
100
AcDbLine
 10
3812.020794
 20
373.023111
 30
0.0
 11
3839.567337
 21
298.552071
 31
0.0
  0
LINE
  5
1CF
330
18
100
AcDbEntity
  8
ISOMETRIC
100
AcDbLine
 10
4004.007736
 20
341.485327
 30
0.0
 11
4034.318014
 21
261.803715
 31
0.0
  0
LINE
  5
1D0
330
18
100
AcDbEntity
  8
ISOMETRIC
100
AcDbLine
 10
4034.398941
 20
261.618344
 30
0.0
 11
4056.043597
 21
222.291777
 31
0.0
  0
LINE
  5
1D1
330
18
100
AcDbEntity
  8
ISOMETRIC
100
AcDbLine
 10
3975.184072
 20
463.554526
 30
0.0
 11
4004.007736
 21
341.485327
 31
0.0
  0
LINE
  5
1D2
330
18
100
AcDbEntity
  8
ISOMETRIC
100
AcDbLine
 10
4037.497623
 20
320.81886
 30
0.0
 11
4056.043597
 21
222.291777
 31
0.0
  0
LINE
  5
1D3
330
18
100
AcDbEntity
  8
ISOMETRIC
100
AcDbLine
 10
3975.184072
 20
463.554526
 30
0.0
 11
3999.55035
 21
423.80945
 31
0.0
  0
LINE
  5
1D4
330
18
100
AcDbEntity
  8
ISOMETRIC
100
AcDbLine
 10
3999.55035
 20
423.80945
 30
0.0
 11
4037.497623
 21
320.81886
 31
0.0
  0
LINE
  5
1D5
330
18
100
AcDbEntity
  8
ISOMETRIC
100
AcDbLine
 10
4187.021234
 20
398.222121
 30
0.0
 11
4224.198053
 21
301.691933
 31
0.0
  0
LINE
  5
1D6
330
18
100
AcDbEntity
  8
ISOMETRIC
100
AcDbLine
 10
4224.238516
 20
301.599248
 30
0.0
 11
4251.803049
 21
249.83264
 31
0.0
  0
LINE
  5
1D7
330
18
100
AcDbEntity
  8
ISOMETRIC
100
AcDbLine
 10
4158.124819
 20
521.491859
 30
0.0
 11
4187.021234
 21
398.222121
 31
0.0
  0
LINE
  5
1D8
330
18
100
AcDbEntity
  8
ISOMETRIC
100
AcDbLine
 10
4232.455982
 20
351.2286
 30
0.0
 11
4251.803049
 21
249.83264
 31
0.0
  0
LINE
  5
1D9
330
18
100
AcDbEntity
  8
ISOMETRIC
100
AcDbLine
 10
4158.124819
 20
521.491859
 30
0.0
 11
4187.043496
 21
474.765347
 31
0.0
  0
LINE
  5
1DA
330
18
100
AcDbEntity
  8
ISOMETRIC
100
AcDbLine
 10
4187.043496
 20
474.765347
 30
0.0
 11
4232.455982
 21
351.2286
 31
0.0
  0
LINE
  5
1DB
330
18
100
AcDbEntity
  8
ISOMETRIC
100
AcDbLine
 10
4373.31964
 20
450.671881
 30
0.0
 11
4414.164471
 21
345.868965
 31
0.0
  0
LINE
  5
1DC
330
18
100
AcDbEntity
  8
ISOMETRIC
100
AcDbLine
 10
4414.204935
 20
345.77628
 30
0.0
 11
4445.54671
 21
285.228268
 31
0.0
  0
LINE
  5
1DD
330
18
100
AcDbEntity
  8
ISOMETRIC
100
AcDbLine
 10
4343.919562
 20
576.430755
 30
0.0
 11
4373.31964
 21
450.671881
 31
0.0
  0
LINE
  5
1DE
330
18
100
AcDbEntity
  8
ISOMETRIC
100
AcDbLine
 10
4425.574591
 20
389.391421
 30
0.0
 11
4445.54671
 21
285.228268
 31
0.0
  0
LINE
  5
1DF
330
18
100
AcDbEntity
  8
ISOMETRIC
100
AcDbLine
 10
4343.919562
 20
576.430755
 30
0.0
 11
4375.662737
 21
525.216063
 31
0.0
  0
LINE
  5
1E0
330
18
100
AcDbEntity
  8
ISOMETRIC
100
AcDbLine
 10
4375.662737
 20
525.216063
 30
0.0
 11
4425.574591
 21
389.391421
 31
0.0
  0
LINE
  5
1E1
330
18
100
AcDbEntity
  8
ISOMETRIC
100
AcDbLine
 10
4560.642655
 20
499.691221
 30
0.0
 11
4602.351437
 21
393.641678
 31
0.0
  0
LINE
  5
1E2
330
18
100
AcDbEntity
  8
ISOMETRIC
100
AcDbLine
 10
4602.351437
 20
393.641678
 30
0.0
 11
4635.176136
 21
328.964535
 31
0.0
  0
LINE
  5
1E3
330
18
100
AcDbEntity
  8
ISOMETRIC
100
AcDbLine
 10
4530.716622
 20
627.516428
 30
0.0
 11
4560.642655
 21
499.691221
 31
0.0
  0
LINE
  5
1E4
330
18
100
AcDbEntity
  8
ISOMETRIC
100
AcDbLine
 10
4615.001768
 20
434.452536
 30
0.0
 11
4635.176136
 21
328.964535
 31
0.0
  0
LINE
  5
1E5
330
18
100
AcDbEntity
  8
ISOMETRIC
100
AcDbLine
 10
4530.716622
 20
627.516428
 30
0.0
 11
4563.665626
 21
573.798134
 31
0.0
  0
LINE
  5
1E6
330
18
100
AcDbEntity
  8
ISOMETRIC
100
AcDbLine
 10
4563.665626
 20
573.798134
 30
0.0
 11
4615.001768
 21
434.452536
 31
0.0
  0
LINE
  5
1E7
330
18
100
AcDbEntity
  8
ISOMETRIC
100
AcDbLine
 10
4748.93703
 20
549.501083
 30
0.0
 11
4789.717147
 21
445.191032
 31
0.0
  0
LINE
  5
1E8
330
18
100
AcDbEntity
  8
ISOMETRIC
100
AcDbLine
 10
4789.717147
 20
445.191032
 30
0.0
 11
4821.28549
 21
383.779413
 31
0.0
  0
LINE
  5
1E9
330
18
100
AcDbEntity
  8
ISOMETRIC
100
AcDbLine
 10
4719.447884
 20
674.86087
 30
0.0
 11
4748.93703
 21
549.501083
 31
0.0
  0
LINE
  5
1EA
330
18
100
AcDbEntity
  8
ISOMETRIC
100
AcDbLine
 10
4801.91218
 20
485.967826
 30
0.0
 11
4821.28549
 21
383.779413
 31
0.0
  0
LINE
  5
1EB
330
18
100
AcDbEntity
  8
ISOMETRIC
100
AcDbLine
 10
4719.447884
 20
674.86087
 30
0.0
 11
4752.760819
 21
617.293435
 31
0.0
  0
LINE
  5
1EC
330
18
100
AcDbEntity
  8
ISOMETRIC
100
AcDbLine
 10
4752.760819
 20
617.293435
 30
0.0
 11
4801.91218
 21
485.967826
 31
0.0
  0
LINE
  5
1ED
330
18
100
AcDbEntity
  8
ISOMETRIC
100
AcDbLine
 10
4939.731399
 20
597.76957
 30
0.0
 11
4977.262289
 21
500.643739
 31
0.0
  0
LINE
  5
1EE
330
18
100
AcDbEntity
  8
ISOMETRIC
100
AcDbLine
 10
4977.262289
 20
500.643739
 30
0.0
 11
5005.362943
 21
447.433693
 31
0.0
  0
LINE
  5
1EF
330
18
100
AcDbEntity
  8
ISOMETRIC
100
AcDbLine
 10
4911.247552
 20
718.112648
 30
0.0
 11
4939.731399
 21
597.76957
 31
0.0
  0
LINE
  5
1F0
330
18
100
AcDbEntity
  8
ISOMETRIC
100
AcDbLine
 10
4987.278176
 20
543.956598
 30
0.0
 11
5005.362943
 21
447.433693
 31
0.0
  0
LINE
  5
1F1
330
18
100
AcDbEntity
  8
ISOMETRIC
100
AcDbLine
 10
4911.247552
 20
718.112648
 30
0.0
 11
4943.255185
 21
659.011861
 31
0.0
  0
LINE
  5
1F2
330
18
100
AcDbEntity
  8
ISOMETRIC
100
AcDbLine
 10
4943.255185
 20
659.011861
 30
0.0
 11
4987.278176
 21
543.956598
 31
0.0
  0
LINE
  5
1F3
330
18
100
AcDbEntity
  8
ISOMETRIC
100
AcDbLine
 10
5131.246867
 20
642.87207
 30
0.0
 11
5163.080566
 21
559.399351
 31
0.0
  0
LINE
  5
1F4
330
18
100
AcDbEntity
  8
ISOMETRIC
100
AcDbLine
 10
5163.080566
 20
559.399351
 30
0.0
 11
5185.993772
 21
517.468592
 31
0.0
  0
LINE
  5
1F5
330
18
100
AcDbEntity
  8
ISOMETRIC
100
AcDbLine
 10
5104.320586
 20
756.201074
 30
0.0
 11
5131.246867
 21
642.87207
 31
0.0
  0
LINE
  5
1F6
330
18
100
AcDbEntity
  8
ISOMETRIC
100
AcDbLine
 10
5169.264254
 20
607.44085
 30
0.0
 11
5185.993772
 21
517.468592
 31
0.0
  0
LINE
  5
1F7
330
18
100
AcDbEntity
  8
ISOMETRIC
100
AcDbLine
 10
5104.320586
 20
756.201074
 30
0.0
 11
5132.878326
 21
700.048556
 31
0.0
  0
LINE
  5
1F8
330
18
100
AcDbEntity
  8
ISOMETRIC
100
AcDbLine
 10
5132.878326
 20
700.048556
 30
0.0
 11
5169.264254
 21
607.44085
 31
0.0
  0
LINE
  5
1F9
330
18
100
AcDbEntity
  8
ISOMETRIC
100
AcDbLine
 10
5324.587274
 20
684.311306
 30
0.0
 11
5348.17064
 21
621.546144
 31
0.0
  0
LINE
  5
1FA
330
18
100
AcDbEntity
  8
ISOMETRIC
100
AcDbLine
 10
5348.17064
 20
621.546144
 30
0.0
 11
5364.362741
 21
593.201462
 31
0.0
  0
LINE
  5
1FB
330
18
100
AcDbEntity
  8
ISOMETRIC
100
AcDbLine
 10
5299.74252
 20
788.952177
 30
0.0
 11
5324.587274
 21
684.311306
 31
0.0
  0
LINE
  5
1FC
330
18
100
AcDbEntity
  8
ISOMETRIC
100
AcDbLine
 10
5348.865021
 20
676.431983
 30
0.0
 11
5364.362741
 21
593.201462
 31
0.0
  0
LINE
  5
1FD
330
18
100
AcDbEntity
  8
ISOMETRIC
100
AcDbLine
 10
5299.74252
 20
788.952177
 30
0.0
 11
5322.319416
 21
741.933046
 31
0.0
  0
LINE
  5
1FE
330
18
100
AcDbEntity
  8
ISOMETRIC
100
AcDbLine
 10
5322.319416
 20
741.933046
 30
0.0
 11
5348.865021
 21
676.431983
 31
0.0
  0
LINE
  5
1FF
330
18
100
AcDbEntity
  8
ISOMETRIC
100
AcDbLine
 10
5520.832171
 20
721.559472
 30
0.0
 11
5533.476556
 21
687.42673
 31
0.0
  0
LINE
  5
200
330
18
100
AcDbEntity
  8
ISOMETRIC
100
AcDbLine
 10
5533.476556
 20
687.42673
 30
0.0
 11
5541.75172
 21
673.64107
 31
0.0
  0
LINE
  5
201
330
18
100
AcDbEntity
  8
ISOMETRIC
100
AcDbLine
 10
5498.66779
 20
815.96818
 30
0.0
 11
5520.832171
 21
721.559472
 31
0.0
  0
LINE
  5
202
330
18
100
AcDbEntity
  8
ISOMETRIC
100
AcDbLine
 10
5527.032594
 20
750.995647
 30
0.0
 11
5541.75172
 21
673.64107
 31
0.0
  0
LINE
  5
203
330
18
100
AcDbEntity
  8
ISOMETRIC
100
AcDbLine
 10
5498.66779
 20
815.96818
 30
0.0
 11
5512.304039
 21
786.025299
 31
0.0
  0
LINE
  5
204
330
18
100
AcDbEntity
  8
ISOMETRIC
100
AcDbLine
 10
5512.304039
 20
786.025299
 30
0.0
 11
5527.032594
 21
750.995647
 31
0.0
  0
LINE
  5
205
330
18
100
AcDbEntity
  8
ISOMETRIC
 62
     1
100
AcDbLine
 10
3454.366538
 20
280.341827
 30
0.0
 11
3591.768584
 21
185.451657
 31
0.0
  0
LINE
  5
206
330
18
100
AcDbEntity
  8
ISOMETRIC
 62
     1
100
AcDbLine
 10
3454.447465
 20
280.156456
 30
0.0
 11
3591.84951
 21
185.266286
 31
0.0
  0
LINE
  5
207
330
18
100
AcDbEntity
  8
ISOMETRIC
 62
     1
100
AcDbLine
 10
3591.768584
 20
185.451657
 30
0.0
 11
3650.923592
 21
194.308905
 31
0.0
  0
LINE
  5
208
330
18
100
AcDbEntity
  8
ISOMETRIC
 62
     1
100
AcDbLine
 10
3591.84951
 20
185.266286
 30
0.0
 11
3651.004518
 21
194.123534
 31
0.0
  0
LINE
  5
209
330
18
100
AcDbEntity
  8
ISOMETRIC
 62
     1
100
AcDbLine
 10
3650.923592
 20
194.308905
 30
0.0
 11
3843.566158
 21
226.023349
 31
0.0
  0
LINE
  5
20A
330
18
100
AcDbEntity
  8
ISOMETRIC
 62
     1
100
AcDbLine
 10
3651.004518
 20
194.123534
 30
0.0
 11
3843.647085
 21
225.837978
 31
0.0
  0
LINE
  5
20B
330
18
100
AcDbEntity
  8
ISOMETRIC
 62
     1
100
AcDbLine
 10
3843.566158
 20
226.023349
 30
0.0
 11
4034.318014
 21
261.803715
 31
0.0
  0
LINE
  5
20C
330
18
100
AcDbEntity
  8
ISOMETRIC
 62
     1
100
AcDbLine
 10
3843.647085
 20
225.837978
 30
0.0
 11
4034.398941
 21
261.618344
 31
0.0
  0
LINE
  5
20D
330
18
100
AcDbEntity
  8
ISOMETRIC
 62
     1
100
AcDbLine
 10
4034.318014
 20
261.803715
 30
0.0
 11
4051.875184
 21
265.342596
 31
0.0
  0
LINE
  5
20E
330
18
100
AcDbEntity
  8
ISOMETRIC
 62
     1
100
AcDbLine
 10
4034.398941
 20
261.618344
 30
0.0
 11
4051.95611
 21
265.157225
 31
0.0
  0
LINE
  5
20F
330
18
100
AcDbEntity
  8
ISOMETRIC
 62
     1
100
AcDbLine
 10
4051.875184
 20
265.342596
 30
0.0
 11
4224.198053
 21
301.691933
 31
0.0
  0
LINE
  5
210
330
18
100
AcDbEntity
  8
ISOMETRIC
 62
     1
100
AcDbLine
 10
4051.95611
 20
265.157225
 30
0.0
 11
4224.238516
 21
301.599248
 31
0.0
  0
LINE
  5
211
330
18
100
AcDbEntity
  8
ISOMETRIC
 62
     1
100
AcDbLine
 10
4224.198053
 20
301.691933
 30
0.0
 11
4414.164471
 21
345.868965
 31
0.0
  0
LINE
  5
212
330
18
100
AcDbEntity
  8
ISOMETRIC
 62
     1
100
AcDbLine
 10
4224.238516
 20
301.599248
 30
0.0
 11
4414.204935
 21
345.77628
 31
0.0
  0
LINE
  5
213
330
18
100
AcDbEntity
  8
ISOMETRIC
 62
     1
100
AcDbLine
 10
4414.164471
 20
345.868965
 30
0.0
 11
4602.351437
 21
393.641678
 31
0.0
  0
LINE
  5
214
330
18
100
AcDbEntity
  8
ISOMETRIC
 62
     1
100
AcDbLine
 10
4414.204935
 20
345.77628
 30
0.0
 11
4602.351437
 21
393.641678
 31
0.0
  0
LINE
  5
215
330
18
100
AcDbEntity
  8
ISOMETRIC
 62
     1
100
AcDbLine
 10
4602.351437
 20
393.641678
 30
0.0
 11
4629.312647
 21
400.776255
 31
0.0
  0
LINE
  5
216
330
18
100
AcDbEntity
  8
ISOMETRIC
 62
     1
100
AcDbLine
 10
4602.351437
 20
393.641678
 30
0.0
 11
4629.312647
 21
400.776255
 31
0.0
  0
LINE
  5
217
330
18
100
AcDbEntity
  8
ISOMETRIC
 62
     1
100
AcDbLine
 10
4629.312647
 20
400.776255
 30
0.0
 11
4789.717147
 21
445.191032
 31
0.0
  0
LINE
  5
218
330
18
100
AcDbEntity
  8
ISOMETRIC
 62
     1
100
AcDbLine
 10
4629.312647
 20
400.776255
 30
0.0
 11
4789.717147
 21
445.191032
 31
0.0
  0
LINE
  5
219
330
18
100
AcDbEntity
  8
ISOMETRIC
 62
     1
100
AcDbLine
 10
4789.717147
 20
445.191032
 30
0.0
 11
4977.262289
 21
500.643739
 31
0.0
  0
LINE
  5
21A
330
18
100
AcDbEntity
  8
ISOMETRIC
 62
     1
100
AcDbLine
 10
4789.717147
 20
445.191032
 30
0.0
 11
4977.262289
 21
500.643739
 31
0.0
  0
LINE
  5
21B
330
18
100
AcDbEntity
  8
ISOMETRIC
 62
     1
100
AcDbLine
 10
4977.262289
 20
500.643739
 30
0.0
 11
5163.080566
 21
559.399351
 31
0.0
  0
LINE
  5
21C
330
18
100
AcDbEntity
  8
ISOMETRIC
 62
     1
100
AcDbLine
 10
4977.262289
 20
500.643739
 30
0.0
 11
5163.080566
 21
559.399351
 31
0.0
  0
LINE
  5
21D
330
18
100
AcDbEntity
  8
ISOMETRIC
 62
     1
100
AcDbLine
 10
5163.080566
 20
559.399351
 30
0.0
 11
5181.144859
 21
565.315554
 31
0.0
  0
LINE
  5
21E
330
18
100
AcDbEntity
  8
ISOMETRIC
 62
     1
100
AcDbLine
 10
5163.080566
 20
559.399351
 30
0.0
 11
5181.144859
 21
565.315554
 31
0.0
  0
LINE
  5
21F
330
18
100
AcDbEntity
  8
ISOMETRIC
 62
     1
100
AcDbLine
 10
5181.144859
 20
565.315554
 30
0.0
 11
5348.17064
 21
621.546144
 31
0.0
  0
LINE
  5
220
330
18
100
AcDbEntity
  8
ISOMETRIC
 62
     1
100
AcDbLine
 10
5181.144859
 20
565.315554
 30
0.0
 11
5348.17064
 21
621.546144
 31
0.0
  0
LINE
  5
221
330
18
100
AcDbEntity
  8
ISOMETRIC
 62
     1
100
AcDbLine
 10
5348.17064
 20
621.546144
 30
0.0
 11
5533.476556
 21
687.42673
 31
0.0
  0
LINE
  5
222
330
18
100
AcDbEntity
  8
ISOMETRIC
 62
     1
100
AcDbLine
 10
5348.17064
 20
621.546144
 30
0.0
 11
5533.476556
 21
687.42673
 31
0.0
  0
LINE
  5
223
330
18
100
AcDbEntity
  8
ISOMETRIC
 62
     1
100
AcDbLine
 10
5533.476556
 20
687.42673
 30
0.0
 11
5705.872708
 21
751.820622
 31
0.0
  0
LINE
  5
224
330
18
100
AcDbEntity
  8
ISOMETRIC
 62
     1
100
AcDbLine
 10
5533.476556
 20
687.42673
 30
0.0
 11
5705.872708
 21
751.820622
 31
0.0
  0
LINE
  5
225
330
18
100
AcDbEntity
  8
ISOMETRIC
 62
     1
100
AcDbLine
 10
5705.872708
 20
751.820622
 30
0.0
 11
5719.897828
 21
838.153242
 31
0.0
  0
LINE
  5
226
330
18
100
AcDbEntity
  8
ISOMETRIC
 62
     1
100
AcDbLine
 10
5705.872708
 20
751.820622
 30
0.0
 11
5719.897828
 21
838.153242
 31
0.0
  0
LINE
  5
227
330
18
100
AcDbEntity
  8
ISOMETRIC
 62
     3
100
AcDbLine
 10
3454.366538
 20
280.341827
 30
0.0
 11
3591.768584
 21
185.451657
 31
0.0
  0
LINE
  5
228
330
18
100
AcDbEntity
  8
ISOMETRIC
 62
     3
100
AcDbLine
 10
3454.447465
 20
280.156456
 30
0.0
 11
3591.84951
 21
185.266286
 31
0.0
  0
LINE
  5
229
330
18
100
AcDbEntity
  8
ISOMETRIC
 62
     3
100
AcDbLine
 10
3591.768584
 20
185.451657
 30
0.0
 11
3645.602833
 21
208.650599
 31
0.0
  0
LINE
  5
22A
330
18
100
AcDbEntity
  8
ISOMETRIC
 62
     3
100
AcDbLine
 10
3591.84951
 20
185.266286
 30
0.0
 11
3654.504769
 21
188.25979
 31
0.0
  0
LINE
  5
22B
330
18
100
AcDbEntity
  8
ISOMETRIC
 62
     3
100
AcDbLine
 10
3645.602833
 20
208.650599
 30
0.0
 11
3823.683058
 21
278.977221
 31
0.0
  0
LINE
  5
22C
330
18
100
AcDbEntity
  8
ISOMETRIC
 62
     3
100
AcDbLine
 10
3654.504769
 20
188.25979
 30
0.0
 11
3857.267634
 21
202.048258
 31
0.0
  0
LINE
  5
22D
330
18
100
AcDbEntity
  8
ISOMETRIC
 62
     3
100
AcDbLine
 10
3823.683058
 20
278.977221
 30
0.0
 11
4004.007736
 21
341.485327
 31
0.0
  0
LINE
  5
22E
330
18
100
AcDbEntity
  8
ISOMETRIC
 62
     3
100
AcDbLine
 10
3857.267634
 20
202.048258
 30
0.0
 11
4056.043597
 21
222.291777
 31
0.0
  0
LINE
  5
22F
330
18
100
AcDbEntity
  8
ISOMETRIC
 62
     3
100
AcDbLine
 10
4004.007736
 20
341.485327
 30
0.0
 11
4020.783977
 21
346.985323
 31
0.0
  0
LINE
  5
230
330
18
100
AcDbEntity
  8
ISOMETRIC
 62
     3
100
AcDbLine
 10
4056.043597
 20
222.291777
 30
0.0
 11
4074.236055
 21
224.54778
 31
0.0
  0
LINE
  5
231
330
18
100
AcDbEntity
  8
ISOMETRIC
 62
     3
100
AcDbLine
 10
4020.783977
 20
346.985323
 30
0.0
 11
4187.021234
 21
398.222121
 31
0.0
  0
LINE
  5
232
330
18
100
AcDbEntity
  8
ISOMETRIC
 62
     3
100
AcDbLine
 10
4074.236055
 20
224.54778
 30
0.0
 11
4251.803049
 21
249.83264
 31
0.0
  0
LINE
  5
233
330
18
100
AcDbEntity
  8
ISOMETRIC
 62
     3
100
AcDbLine
 10
4187.021234
 20
398.222121
 30
0.0
 11
4373.31964
 21
450.671881
 31
0.0
  0
LINE
  5
234
330
18
100
AcDbEntity
  8
ISOMETRIC
 62
     3
100
AcDbLine
 10
4251.803049
 20
249.83264
 30
0.0
 11
4445.54671
 21
285.228268
 31
0.0
  0
LINE
  5
235
330
18
100
AcDbEntity
  8
ISOMETRIC
 62
     3
100
AcDbLine
 10
4373.31964
 20
450.671881
 30
0.0
 11
4560.642655
 21
499.691221
 31
0.0
  0
LINE
  5
236
330
18
100
AcDbEntity
  8
ISOMETRIC
 62
     3
100
AcDbLine
 10
4445.54671
 20
285.228268
 30
0.0
 11
4635.176136
 21
328.964535
 31
0.0
  0
LINE
  5
237
330
18
100
AcDbEntity
  8
ISOMETRIC
 62
     3
100
AcDbLine
 10
4560.642655
 20
499.691221
 30
0.0
 11
4587.660507
 21
506.609897
 31
0.0
  0
LINE
  5
238
330
18
100
AcDbEntity
  8
ISOMETRIC
 62
     3
100
AcDbLine
 10
4635.176136
 20
328.964535
 30
0.0
 11
4662.153525
 21
335.975896
 31
0.0
  0
LINE
  5
239
330
18
100
AcDbEntity
  8
ISOMETRIC
 62
     3
100
AcDbLine
 10
4587.660507
 20
506.609897
 30
0.0
 11
4748.93703
 21
549.501083
 31
0.0
  0
LINE
  5
23A
330
18
100
AcDbEntity
  8
ISOMETRIC
 62
     3
100
AcDbLine
 10
4662.153525
 20
335.975896
 30
0.0
 11
4821.28549
 21
383.779413
 31
0.0
  0
LINE
  5
23B
330
18
100
AcDbEntity
  8
ISOMETRIC
 62
     3
100
AcDbLine
 10
4748.93703
 20
549.501083
 30
0.0
 11
4939.731399
 21
597.76957
 31
0.0
  0
LINE
  5
23C
330
18
100
AcDbEntity
  8
ISOMETRIC
 62
     3
100
AcDbLine
 10
4821.28549
 20
383.779413
 30
0.0
 11
5005.362943
 21
447.433693
 31
0.0
  0
LINE
  5
23D
330
18
100
AcDbEntity
  8
ISOMETRIC
 62
     3
100
AcDbLine
 10
4939.731399
 20
597.76957
 30
0.0
 11
5131.246867
 21
642.87207
 31
0.0
  0
LINE
  5
23E
330
18
100
AcDbEntity
  8
ISOMETRIC
 62
     3
100
AcDbLine
 10
5005.362943
 20
447.433693
 30
0.0
 11
5185.993772
 21
517.468592
 31
0.0
  0
LINE
  5
23F
330
18
100
AcDbEntity
  8
ISOMETRIC
 62
     3
100
AcDbLine
 10
5131.246867
 20
642.87207
 30
0.0
 11
5150.013189
 21
647.050967
 31
0.0
  0
LINE
  5
240
330
18
100
AcDbEntity
  8
ISOMETRIC
 62
     3
100
AcDbLine
 10
5185.993772
 20
517.468592
 30
0.0
 11
5203.465267
 21
524.613424
 31
0.0
  0
LINE
  5
241
330
18
100
AcDbEntity
  8
ISOMETRIC
 62
     3
100
AcDbLine
 10
5150.013189
 20
647.050967
 30
0.0
 11
5324.587274
 21
684.311306
 31
0.0
  0
LINE
  5
242
330
18
100
AcDbEntity
  8
ISOMETRIC
 62
     3
100
AcDbLine
 10
5203.465267
 20
524.613424
 30
0.0
 11
5364.362741
 21
593.201462
 31
0.0
  0
LINE
  5
243
330
18
100
AcDbEntity
  8
ISOMETRIC
 62
     3
100
AcDbLine
 10
5324.587274
 20
684.311306
 30
0.0
 11
5520.832171
 21
721.559472
 31
0.0
  0
LINE
  5
244
330
18
100
AcDbEntity
  8
ISOMETRIC
 62
     3
100
AcDbLine
 10
5364.362741
 20
593.201462
 30
0.0
 11
5541.75172
 21
673.64107
 31
0.0
  0
LINE
  5
245
330
18
100
AcDbEntity
  8
ISOMETRIC
 62
     3
100
AcDbLine
 10
5520.832171
 20
721.559472
 30
0.0
 11
5705.872708
 21
751.820622
 31
0.0
  0
LINE
  5
246
330
18
100
AcDbEntity
  8
ISOMETRIC
 62
     3
100
AcDbLine
 10
5541.75172
 20
673.64107
 30
0.0
 11
5705.872708
 21
751.820622
 31
0.0
  0
LINE
  5
247
330
18
100
AcDbEntity
  8
ISOMETRIC
 62
     3
100
AcDbLine
 10
5705.872708
 20
751.820622
 30
0.0
 11
5719.897828
 21
838.153242
 31
0.0
  0
LINE
  5
248
330
18
100
AcDbEntity
  8
ISOMETRIC
 62
     3
100
AcDbLine
 10
5705.872708
 20
751.820622
 30
0.0
 11
5719.897828
 21
838.153242
 31
0.0
  0
LINE
  5
249
330
18
100
AcDbEntity
  8
ISOMETRIC
 62
     2
100
AcDbLine
 10
3454.366538
 20
280.341827
 30
0.0
 11
3558.999949
 21
319.141954
 31
0.0
  0
LINE
  5
24A
330
18
100
AcDbEntity
  8
ISOMETRIC
 62
     2
100
AcDbLine
 10
3454.447465
 20
280.156456
 30
0.0
 11
3575.063897
 21
282.345811
 31
0.0
  0
LINE
  5
24B
330
18
100
AcDbEntity
  8
ISOMETRIC
 62
     2
100
AcDbLine
 10
3558.999949
 20
319.141954
 30
0.0
 11
3613.839633
 21
339.047028
 31
0.0
  0
LINE
  5
24C
330
18
100
AcDbEntity
  8
ISOMETRIC
 62
     2
100
AcDbLine
 10
3575.063897
 20
282.345811
 30
0.0
 11
3637.551153
 21
284.733326
 31
0.0
  0
LINE
  5
24D
330
18
100
AcDbEntity
  8
ISOMETRIC
 62
     2
100
AcDbLine
 10
3613.839633
 20
339.047028
 30
0.0
 11
3794.086538
 21
402.730571
 31
0.0
  0
LINE
  5
24E
330
18
100
AcDbEntity
  8
ISOMETRIC
 62
     2
100
AcDbLine
 10
3637.551153
 20
284.733326
 30
0.0
 11
3839.567337
 21
298.552071
 31
0.0
  0
LINE
  5
24F
330
18
100
AcDbEntity
  8
ISOMETRIC
 62
     2
100
AcDbLine
 10
3794.086538
 20
402.730571
 30
0.0
 11
3975.184072
 21
463.554526
 31
0.0
  0
LINE
  5
250
330
18
100
AcDbEntity
  8
ISOMETRIC
 62
     2
100
AcDbLine
 10
3839.567337
 20
298.552071
 30
0.0
 11
4037.497623
 21
320.81886
 31
0.0
  0
LINE
  5
251
330
18
100
AcDbEntity
  8
ISOMETRIC
 62
     2
100
AcDbLine
 10
3975.184072
 20
463.554526
 30
0.0
 11
3992.002803
 21
469.000273
 31
0.0
  0
LINE
  5
252
330
18
100
AcDbEntity
  8
ISOMETRIC
 62
     2
100
AcDbLine
 10
4037.497623
 20
320.81886
 30
0.0
 11
4055.611181
 21
323.298671
 31
0.0
  0
LINE
  5
253
330
18
100
AcDbEntity
  8
ISOMETRIC
 62
     2
100
AcDbLine
 10
3992.002803
 20
469.000273
 30
0.0
 11
4158.124819
 21
521.491859
 31
0.0
  0
LINE
  5
254
330
18
100
AcDbEntity
  8
ISOMETRIC
 62
     2
100
AcDbLine
 10
4055.611181
 20
323.298671
 30
0.0
 11
4232.455982
 21
351.2286
 31
0.0
  0
LINE
  5
255
330
18
100
AcDbEntity
  8
ISOMETRIC
 62
     2
100
AcDbLine
 10
4158.124819
 20
521.491859
 30
0.0
 11
4343.919562
 21
576.430755
 31
0.0
  0
LINE
  5
256
330
18
100
AcDbEntity
  8
ISOMETRIC
 62
     2
100
AcDbLine
 10
4232.455982
 20
351.2286
 30
0.0
 11
4425.574591
 21
389.391421
 31
0.0
  0
LINE
  5
257
330
18
100
AcDbEntity
  8
ISOMETRIC
 62
     2
100
AcDbLine
 10
4343.919562
 20
576.430755
 30
0.0
 11
4530.716622
 21
627.516428
 31
0.0
  0
LINE
  5
258
330
18
100
AcDbEntity
  8
ISOMETRIC
 62
     2
100
AcDbLine
 10
4425.574591
 20
389.391421
 30
0.0
 11
4615.001768
 21
434.452536
 31
0.0
  0
LINE
  5
259
330
18
100
AcDbEntity
  8
ISOMETRIC
 62
     2
100
AcDbLine
 10
4530.716622
 20
627.516428
 30
0.0
 11
4557.696037
 21
634.566225
 31
0.0
  0
LINE
  5
25A
330
18
100
AcDbEntity
  8
ISOMETRIC
 62
     2
100
AcDbLine
 10
4615.001768
 20
434.452536
 30
0.0
 11
4641.981184
 21
441.502334
 31
0.0
  0
LINE
  5
25B
330
18
100
AcDbEntity
  8
ISOMETRIC
 62
     2
100
AcDbLine
 10
4557.696037
 20
634.566225
 30
0.0
 11
4719.447884
 21
674.86087
 31
0.0
  0
LINE
  5
25C
330
18
100
AcDbEntity
  8
ISOMETRIC
 62
     2
100
AcDbLine
 10
4641.981184
 20
441.502334
 30
0.0
 11
4801.91218
 21
485.967826
 31
0.0
  0
LINE
  5
25D
330
18
100
AcDbEntity
  8
ISOMETRIC
 62
     2
100
AcDbLine
 10
4719.447884
 20
674.86087
 30
0.0
 11
4911.247552
 21
718.112648
 31
0.0
  0
LINE
  5
25E
330
18
100
AcDbEntity
  8
ISOMETRIC
 62
     2
100
AcDbLine
 10
4801.91218
 20
485.967826
 30
0.0
 11
4987.278176
 21
543.956598
 31
0.0
  0
LINE
  5
25F
330
18
100
AcDbEntity
  8
ISOMETRIC
 62
     2
100
AcDbLine
 10
4911.247552
 20
718.112648
 30
0.0
 11
5104.320586
 21
756.201074
 31
0.0
  0
LINE
  5
260
330
18
100
AcDbEntity
  8
ISOMETRIC
 62
     2
100
AcDbLine
 10
4987.278176
 20
543.956598
 30
0.0
 11
5169.264254
 21
607.44085
 31
0.0
  0
LINE
  5
261
330
18
100
AcDbEntity
  8
ISOMETRIC
 62
     2
100
AcDbLine
 10
5104.320586
 20
756.201074
 30
0.0
 11
5123.252779
 21
759.655391
 31
0.0
  0
LINE
  5
262
330
18
100
AcDbEntity
  8
ISOMETRIC
 62
     2
100
AcDbLine
 10
5169.264254
 20
607.44085
 30
0.0
 11
5186.861157
 21
613.953789
 31
0.0
  0
LINE
  5
263
330
18
100
AcDbEntity
  8
ISOMETRIC
 62
     2
100
AcDbLine
 10
5123.252779
 20
759.655391
 30
0.0
 11
5299.74252
 21
788.952177
 31
0.0
  0
LINE
  5
264
330
18
100
AcDbEntity
  8
ISOMETRIC
 62
     2
100
AcDbLine
 10
5186.861157
 20
613.953789
 30
0.0
 11
5348.865021
 21
676.431983
 31
0.0
  0
LINE
  5
265
330
18
100
AcDbEntity
  8
ISOMETRIC
 62
     2
100
AcDbLine
 10
5299.74252
 20
788.952177
 30
0.0
 11
5498.66779
 21
815.96818
 31
0.0
  0
LINE
  5
266
330
18
100
AcDbEntity
  8
ISOMETRIC
 62
     2
100
AcDbLine
 10
5348.865021
 20
676.431983
 30
0.0
 11
5527.032594
 21
750.995647
 31
0.0
  0
LINE
  5
267
330
18
100
AcDbEntity
  8
ISOMETRIC
 62
     2
100
AcDbLine
 10
5498.66779
 20
815.96818
 30
0.0
 11
5686.763001
 21
835.355182
 31
0.0
  0
LINE
  5
268
330
18
100
AcDbEntity
  8
ISOMETRIC
 62
     2
100
AcDbLine
 10
5527.032594
 20
750.995647
 30
0.0
 11
5691.375822
 21
824.789035
 31
0.0
  0
LINE
  5
269
330
18
100
AcDbEntity
  8
ISOMETRIC
 62
     2
100
AcDbLine
 10
5686.763001
 20
835.355182
 30
0.0
 11
5719.897828
 21
838.153242
 31
0.0
  0
LINE
  5
26A
330
18
100
AcDbEntity
  8
ISOMETRIC
 62
     2
100
AcDbLine
 10
5691.375822
 20
824.789035
 30
0.0
 11
5719.897828
 21
838.153242
 31
0.0
  0
LINE
  5
26B
330
18
100
AcDbEntity
  8
ISOMETRIC
 62
     5
100
AcDbLine
 10
3454.366538
 20
280.341827
 30
0.0
 11
3565.409643
 21
308.250822
 31
0.0
  0
LINE
  5
26C
330
18
100
AcDbEntity
  8
ISOMETRIC
 62
     5
100
AcDbLine
 10
3454.447465
 20
280.156456
 30
0.0
 11
3565.450107
 21
308.158137
 31
0.0
  0
LINE
  5
26D
330
18
100
AcDbEntity
  8
ISOMETRIC
 62
     5
100
AcDbLine
 10
3565.409643
 20
308.250822
 30
0.0
 11
3623.253885
 21
323.212195
 31
0.0
  0
LINE
  5
26E
330
18
100
AcDbEntity
  8
ISOMETRIC
 62
     5
100
AcDbLine
 10
3565.450107
 20
308.158137
 30
0.0
 11
3623.294348
 21
323.119509
 31
0.0
  0
LINE
  5
26F
330
18
100
AcDbEntity
  8
ISOMETRIC
 62
     5
100
AcDbLine
 10
3623.253885
 20
323.212195
 30
0.0
 11
3812.020794
 21
373.023111
 31
0.0
  0
LINE
  5
270
330
18
100
AcDbEntity
  8
ISOMETRIC
 62
     5
100
AcDbLine
 10
3623.294348
 20
323.119509
 30
0.0
 11
3812.020794
 21
373.023111
 31
0.0
  0
LINE
  5
271
330
18
100
AcDbEntity
  8
ISOMETRIC
 62
     5
100
AcDbLine
 10
3812.020794
 20
373.023111
 30
0.0
 11
3999.55035
 21
423.80945
 31
0.0
  0
LINE
  5
272
330
18
100
AcDbEntity
  8
ISOMETRIC
 62
     5
100
AcDbLine
 10
3812.020794
 20
373.023111
 30
0.0
 11
3999.55035
 21
423.80945
 31
0.0
  0
LINE
  5
273
330
18
100
AcDbEntity
  8
ISOMETRIC
 62
     5
100
AcDbLine
 10
3999.55035
 20
423.80945
 30
0.0
 11
4016.852648
 21
428.535244
 31
0.0
  0
LINE
  5
274
330
18
100
AcDbEntity
  8
ISOMETRIC
 62
     5
100
AcDbLine
 10
3999.55035
 20
423.80945
 30
0.0
 11
4016.852648
 21
428.535244
 31
0.0
  0
LINE
  5
275
330
18
100
AcDbEntity
  8
ISOMETRIC
 62
     5
100
AcDbLine
 10
4016.852648
 20
428.535244
 30
0.0
 11
4187.043496
 21
474.765347
 31
0.0
  0
LINE
  5
276
330
18
100
AcDbEntity
  8
ISOMETRIC
 62
     5
100
AcDbLine
 10
4016.852648
 20
428.535244
 30
0.0
 11
4187.043496
 21
474.765347
 31
0.0
  0
LINE
  5
277
330
18
100
AcDbEntity
  8
ISOMETRIC
 62
     5
100
AcDbLine
 10
4187.043496
 20
474.765347
 30
0.0
 11
4375.662737
 21
525.216063
 31
0.0
  0
LINE
  5
278
330
18
100
AcDbEntity
  8
ISOMETRIC
 62
     5
100
AcDbLine
 10
4187.043496
 20
474.765347
 30
0.0
 11
4375.662737
 21
525.216063
 31
0.0
  0
LINE
  5
279
330
18
100
AcDbEntity
  8
ISOMETRIC
 62
     5
100
AcDbLine
 10
4375.662737
 20
525.216063
 30
0.0
 11
4563.665626
 21
573.798134
 31
0.0
  0
LINE
  5
27A
330
18
100
AcDbEntity
  8
ISOMETRIC
 62
     5
100
AcDbLine
 10
4375.662737
 20
525.216063
 30
0.0
 11
4563.665626
 21
573.798134
 31
0.0
  0
LINE
  5
27B
330
18
100
AcDbEntity
  8
ISOMETRIC
 62
     5
100
AcDbLine
 10
4563.665626
 20
573.798134
 30
0.0
 11
4590.699656
 21
580.593593
 31
0.0
  0
LINE
  5
27C
330
18
100
AcDbEntity
  8
ISOMETRIC
 62
     5
100
AcDbLine
 10
4563.665626
 20
573.798134
 30
0.0
 11
4590.699656
 21
580.593593
 31
0.0
  0
LINE
  5
27D
330
18
100
AcDbEntity
  8
ISOMETRIC
 62
     5
100
AcDbLine
 10
4590.699656
 20
580.593593
 30
0.0
 11
4752.760819
 21
617.293435
 31
0.0
  0
LINE
  5
27E
330
18
100
AcDbEntity
  8
ISOMETRIC
 62
     5
100
AcDbLine
 10
4590.699656
 20
580.593593
 30
0.0
 11
4752.760819
 21
617.293435
 31
0.0
  0
LINE
  5
27F
330
18
100
AcDbEntity
  8
ISOMETRIC
 62
     5
100
AcDbLine
 10
4752.760819
 20
617.293435
 30
0.0
 11
4943.255185
 21
659.011861
 31
0.0
  0
LINE
  5
280
330
18
100
AcDbEntity
  8
ISOMETRIC
 62
     5
100
AcDbLine
 10
4752.760819
 20
617.293435
 30
0.0
 11
4943.255185
 21
659.011861
 31
0.0
  0
LINE
  5
281
330
18
100
AcDbEntity
  8
ISOMETRIC
 62
     5
100
AcDbLine
 10
4943.255185
 20
659.011861
 30
0.0
 11
5132.878326
 21
700.048556
 31
0.0
  0
LINE
  5
282
330
18
100
AcDbEntity
  8
ISOMETRIC
 62
     5
100
AcDbLine
 10
4943.255185
 20
659.011861
 30
0.0
 11
5132.878326
 21
700.048556
 31
0.0
  0
LINE
  5
283
330
18
100
AcDbEntity
  8
ISOMETRIC
 62
     5
100
AcDbLine
 10
5132.878326
 20
700.048556
 30
0.0
 11
5151.34313
 21
704.09961
 31
0.0
  0
LINE
  5
284
330
18
100
AcDbEntity
  8
ISOMETRIC
 62
     5
100
AcDbLine
 10
5132.878326
 20
700.048556
 30
0.0
 11
5151.34313
 21
704.09961
 31
0.0
  0
LINE
  5
285
330
18
100
AcDbEntity
  8
ISOMETRIC
 62
     5
100
AcDbLine
 10
5151.34313
 20
704.09961
 30
0.0
 11
5322.319416
 21
741.933046
 31
0.0
  0
LINE
  5
286
330
18
100
AcDbEntity
  8
ISOMETRIC
 62
     5
100
AcDbLine
 10
5151.34313
 20
704.09961
 30
0.0
 11
5322.319416
 21
741.933046
 31
0.0
  0
LINE
  5
287
330
18
100
AcDbEntity
  8
ISOMETRIC
 62
     5
100
AcDbLine
 10
5322.319416
 20
741.933046
 30
0.0
 11
5512.304039
 21
786.025299
 31
0.0
  0
LINE
  5
288
330
18
100
AcDbEntity
  8
ISOMETRIC
 62
     5
100
AcDbLine
 10
5322.319416
 20
741.933046
 30
0.0
 11
5512.304039
 21
786.025299
 31
0.0
  0
LINE
  5
289
330
18
100
AcDbEntity
  8
ISOMETRIC
 62
     5
100
AcDbLine
 10
5512.304039
 20
786.025299
 30
0.0
 11
5689.069412
 21
830.072108
 31
0.0
  0
LINE
  5
28A
330
18
100
AcDbEntity
  8
ISOMETRIC
 62
     5
100
AcDbLine
 10
5512.304039
 20
786.025299
 30
0.0
 11
5689.069412
 21
830.072108
 31
0.0
  0
LINE
  5
28B
330
18
100
AcDbEntity
  8
ISOMETRIC
 62
     5
100
AcDbLine
 10
5689.069412
 20
830.072108
 30
0.0
 11
5719.897828
 21
838.153242
 31
0.0
  0
LINE
  5
28C
330
18
100
AcDbEntity
  8
ISOMETRIC
 62
     5
100
AcDbLine
 10
5689.069412
 20
830.072108
 30
0.0
 11
5719.897828
 21
838.153242
 31
0.0
  0
LINE
  5
28D
330
18
100
AcDbEntity
  8
UNFOLD
 62
     1
100
AcDbLine
 10
186.514499
 20
427.464834
 30
0.0
 11
247.004638
 21
426.129535
 31
0.0
  0
LINE
  5
28E
330
18
100
AcDbEntity
  8
UNFOLD
 62
     1
100
AcDbLine
 10
186.514499
 20
427.464834
 30
0.0
 11
246.853617
 21
448.495071
 31
0.0
  0
LINE
  5
28F
330
18
100
AcDbEntity
  8
UNFOLD
 62
     1
100
AcDbLine
 10
247.004638
 20
426.129535
 30
0.0
 11
444.224449
 21
422.498255
 31
0.0
  0
LINE
  5
290
330
18
100
AcDbEntity
  8
UNFOLD
 62
     1
100
AcDbLine
 10
246.853617
 20
448.495071
 30
0.0
 11
443.847426
 21
507.06502
 31
0.0
  0
LINE
  5
291
330
18
100
AcDbEntity
  8
UNFOLD
 62
     1
100
AcDbLine
 10
444.224449
 20
422.498255
 30
0.0
 11
639.955444
 21
419.892918
 31
0.0
  0
LINE
  5
292
330
18
100
AcDbEntity
  8
UNFOLD
 62
     1
100
AcDbLine
 10
443.847426
 20
507.06502
 30
0.0
 11
639.627355
 21
550.479642
 31
0.0
  0
LINE
  5
293
330
18
100
AcDbEntity
  8
UNFOLD
 62
     1
100
AcDbLine
 10
639.955444
 20
419.892918
 30
0.0
 11
658.00131
 21
419.701326
 31
0.0
  0
LINE
  5
294
330
18
100
AcDbEntity
  8
UNFOLD
 62
     1
100
AcDbLine
 10
639.627355
 20
550.479642
 30
0.0
 11
657.683324
 21
553.80259
 31
0.0
  0
LINE
  5
295
330
18
100
AcDbEntity
  8
UNFOLD
 62
     1
100
AcDbLine
 10
658.00131
 20
419.701326
 30
0.0
 11
835.329013
 21
418.056433
 31
0.0
  0
LINE
  5
296
330
18
100
AcDbEntity
  8
UNFOLD
 62
     1
100
AcDbLine
 10
657.683324
 20
553.80259
 30
0.0
 11
835.139872
 21
580.219697
 31
0.0
  0
LINE
  5
297
330
18
100
AcDbEntity
  8
UNFOLD
 62
     1
100
AcDbLine
 10
835.329013
 20
418.056433
 30
0.0
 11
1031.469946
 21
417.064213
 31
0.0
  0
LINE
  5
298
330
18
100
AcDbEntity
  8
UNFOLD
 62
     1
100
AcDbLine
 10
835.139872
 20
580.219697
 30
0.0
 11
1031.408811
 21
597.363315
 31
0.0
  0
LINE
  5
299
330
18
100
AcDbEntity
  8
UNFOLD
 62
     1
100
AcDbLine
 10
1031.469946
 20
417.064213
 30
0.0
 11
1226.491009
 21
416.61159
 31
0.0
  0
LINE
  5
29A
330
18
100
AcDbEntity
  8
UNFOLD
 62
     1
100
AcDbLine
 10
1031.408811
 20
597.363315
 30
0.0
 11
1226.480781
 21
602.420632
 31
0.0
  0
LINE
  5
29B
330
18
100
AcDbEntity
  8
UNFOLD
 62
     1
100
AcDbLine
 10
1226.491009
 20
416.61159
 30
0.0
 11
1254.491186
 21
416.6
 31
0.0
  0
LINE
  5
29C
330
18
100
AcDbEntity
  8
UNFOLD
 62
     1
100
AcDbLine
 10
1226.480781
 20
602.420632
 30
0.0
 11
1254.482232
 21
602.283736
 31
0.0
  0
LINE
  5
29D
330
18
100
AcDbEntity
  8
UNFOLD
 62
     1
100
AcDbLine
 10
1254.491186
 20
416.6
 30
0.0
 11
1421.49871
 21
416.816579
 31
0.0
  0
LINE
  5
29E
330
18
100
AcDbEntity
  8
UNFOLD
 62
     1
100
AcDbLine
 10
1254.482232
 20
602.283736
 30
0.0
 11
1421.516679
 21
597.397668
 31
0.0
  0
LINE
  5
29F
330
18
100
AcDbEntity
  8
UNFOLD
 62
     1
100
AcDbLine
 10
1421.49871
 20
416.816579
 30
0.0
 11
1617.582903
 21
417.609666
 31
0.0
  0
LINE
  5
2A0
330
18
100
AcDbEntity
  8
UNFOLD
 62
     1
100
AcDbLine
 10
1421.516679
 20
597.397668
 30
0.0
 11
1617.708522
 21
581.864451
 31
0.0
  0
LINE
  5
2A1
330
18
100
AcDbEntity
  8
UNFOLD
 62
     1
100
AcDbLine
 10
1617.582903
 20
417.609666
 30
0.0
 11
1812.833927
 21
419.037161
 31
0.0
  0
LINE
  5
2A2
330
18
100
AcDbEntity
  8
UNFOLD
 62
     1
100
AcDbLine
 10
1617.708522
 20
581.864451
 30
0.0
 11
1813.108371
 21
556.537215
 31
0.0
  0
LINE
  5
2A3
330
18
100
AcDbEntity
  8
UNFOLD
 62
     1
100
AcDbLine
 10
1812.833927
 20
419.037161
 30
0.0
 11
1831.870972
 21
419.212982
 31
0.0
  0
LINE
  5
2A4
330
18
100
AcDbEntity
  8
UNFOLD
 62
     1
100
AcDbLine
 10
1813.108371
 20
556.537215
 30
0.0
 11
1832.158102
 21
553.511037
 31
0.0
  0
LINE
  5
2A5
330
18
100
AcDbEntity
  8
UNFOLD
 62
     1
100
AcDbLine
 10
1831.870972
 20
419.212982
 30
0.0
 11
2008.325267
 21
421.142234
 31
0.0
  0
LINE
  5
2A6
330
18
100
AcDbEntity
  8
UNFOLD
 62
     1
100
AcDbLine
 10
1832.158102
 20
553.511037
 30
0.0
 11
2008.719552
 21
521.515659
 31
0.0
  0
LINE
  5
2A7
330
18
100
AcDbEntity
  8
UNFOLD
 62
     1
100
AcDbLine
 10
2008.325267
 20
421.142234
 30
0.0
 11
2205.138051
 21
424.029746
 31
0.0
  0
LINE
  5
2A8
330
18
100
AcDbEntity
  8
UNFOLD
 62
     1
100
AcDbLine
 10
2008.719552
 20
521.515659
 30
0.0
 11
2205.470977
 21
477.103084
 31
0.0
  0
LINE
  5
2A9
330
18
100
AcDbEntity
  8
UNFOLD
 62
     1
100
AcDbLine
 10
2205.138051
 20
424.029746
 30
0.0
 11
2389.228492
 21
427.464834
 31
0.0
  0
LINE
  5
2AA
330
18
100
AcDbEntity
  8
UNFOLD
 62
     1
100
AcDbLine
 10
2205.470977
 20
477.103084
 30
0.0
 11
2389.228492
 21
427.464834
 31
0.0
  0
LINE
  5
2AB
330
18
100
AcDbEntity
  8
UNFOLD
 62
     3
100
AcDbLine
 10
0.0
 20
762.637075
 30
0.0
 11
121.42616
 21
621.002695
 31
0.0
  0
LINE
  5
2AC
330
18
100
AcDbEntity
  8
UNFOLD
 62
     3
100
AcDbLine
 10
0.0
 20
762.637075
 30
0.0
 11
122.073271
 21
762.717342
 31
0.0
  0
LINE
  5
2AD
330
18
100
AcDbEntity
  8
UNFOLD
 62
     3
100
AcDbLine
 10
121.42616
 20
621.002695
 30
0.0
 11
185.250106
 21
624.098485
 31
0.0
  0
LINE
  5
2AE
330
18
100
AcDbEntity
  8
UNFOLD
 62
     3
100
AcDbLine
 10
122.073271
 20
762.717342
 30
0.0
 11
185.185953
 21
762.814007
 31
0.0
  0
LINE
  5
2AF
330
18
100
AcDbEntity
  8
UNFOLD
 62
     3
100
AcDbLine
 10
185.250106
 20
624.098485
 30
0.0
 11
390.662311
 21
630.642654
 31
0.0
  0
LINE
  5
2B0
330
18
100
AcDbEntity
  8
UNFOLD
 62
     3
100
AcDbLine
 10
185.185953
 20
762.814007
 30
0.0
 11
388.907933
 21
763.816571
 31
0.0
  0
LINE
  5
2B1
330
18
100
AcDbEntity
  8
UNFOLD
 62
     3
100
AcDbLine
 10
390.662311
 20
630.642654
 30
0.0
 11
591.182949
 21
633.109196
 31
0.0
  0
LINE
  5
2B2
330
18
100
AcDbEntity
  8
UNFOLD
 62
     3
100
AcDbLine
 10
388.907933
 20
763.816571
 30
0.0
 11
588.553437
 21
765.639403
 31
0.0
  0
LINE
  5
2B3
330
18
100
AcDbEntity
  8
UNFOLD
 62
     3
100
AcDbLine
 10
591.182949
 20
633.109196
 30
0.0
 11
609.541517
 21
633.26074
 31
0.0
  0
LINE
  5
2B4
330
18
100
AcDbEntity
  8
UNFOLD
 62
     3
100
AcDbLine
 10
588.553437
 20
765.639403
 30
0.0
 11
606.852163
 21
765.830787
 31
0.0
  0
LINE
  5
2B5
330
18
100
AcDbEntity
  8
UNFOLD
 62
     3
100
AcDbLine
 10
609.541517
 20
633.26074
 30
0.0
 11
788.953147
 21
633.657221
 31
0.0
  0
LINE
  5
2B6
330
18
100
AcDbEntity
  8
UNFOLD
 62
     3
100
AcDbLine
 10
606.852163
 20
765.830787
 30
0.0
 11
785.923536
 21
768.208443
 31
0.0
  0
LINE
  5
2B7
330
18
100
AcDbEntity
  8
UNFOLD
 62
     3
100
AcDbLine
 10
788.953147
 20
633.657221
 30
0.0
 11
985.969389
 21
633.639551
 31
0.0
  0
LINE
  5
2B8
330
18
100
AcDbEntity
  8
UNFOLD
 62
     3
100
AcDbLine
 10
785.923536
 20
768.208443
 30
0.0
 11
982.791029
 21
771.19008
 31
0.0
  0
LINE
  5
2B9
330
18
100
AcDbEntity
  8
UNFOLD
 62
     3
100
AcDbLine
 10
985.969389
 20
633.639551
 30
0.0
 11
1181.104642
 21
634.579279
 31
0.0
  0
LINE
  5
2BA
330
18
100
AcDbEntity
  8
UNFOLD
 62
     3
100
AcDbLine
 10
982.791029
 20
771.19008
 30
0.0
 11
1177.892866
 21
774.236912
 31
0.0
  0
LINE
  5
2BB
330
18
100
AcDbEntity
  8
UNFOLD
 62
     3
100
AcDbLine
 10
1181.104642
 20
634.579279
 30
0.0
 11
1209.10447
 21
634.910368
 31
0.0
  0
LINE
  5
2BC
330
18
100
AcDbEntity
  8
UNFOLD
 62
     3
100
AcDbLine
 10
1177.892866
 20
774.236912
 30
0.0
 11
1205.890015
 21
774.683746
 31
0.0
  0
LINE
  5
2BD
330
18
100
AcDbEntity
  8
UNFOLD
 62
     3
100
AcDbLine
 10
1209.10447
 20
634.910368
 30
0.0
 11
1376.117068
 21
640.493581
 31
0.0
  0
LINE
  5
2BE
330
18
100
AcDbEntity
  8
UNFOLD
 62
     3
100
AcDbLine
 10
1205.890015
 20
774.683746
 30
0.0
 11
1372.936968
 21
776.965288
 31
0.0
  0
LINE
  5
2BF
330
18
100
AcDbEntity
  8
UNFOLD
 62
     3
100
AcDbLine
 10
1376.117068
 20
640.493581
 30
0.0
 11
1572.766842
 21
648.328507
 31
0.0
  0
LINE
  5
2C0
330
18
100
AcDbEntity
  8
UNFOLD
 62
     3
100
AcDbLine
 10
1372.936968
 20
776.965288
 30
0.0
 11
1569.572798
 21
778.745907
 31
0.0
  0
LINE
  5
2C1
330
18
100
AcDbEntity
  8
UNFOLD
 62
     3
100
AcDbLine
 10
1572.766842
 20
648.328507
 30
0.0
 11
1769.640641
 21
656.283226
 31
0.0
  0
LINE
  5
2C2
330
18
100
AcDbEntity
  8
UNFOLD
 62
     3
100
AcDbLine
 10
1569.572798
 20
778.745907
 30
0.0
 11
1766.489328
 21
778.762282
 31
0.0
  0
LINE
  5
2C3
330
18
100
AcDbEntity
  8
UNFOLD
 62
     3
100
AcDbLine
 10
1769.640641
 20
656.283226
 30
0.0
 11
1788.915848
 21
657.001816
 31
0.0
  0
LINE
  5
2C4
330
18
100
AcDbEntity
  8
UNFOLD
 62
     3
100
AcDbLine
 10
1766.489328
 20
778.762282
 30
0.0
 11
1785.77385
 21
778.677401
 31
0.0
  0
LINE
  5
2C5
330
18
100
AcDbEntity
  8
UNFOLD
 62
     3
100
AcDbLine
 10
1788.915848
 20
657.001816
 30
0.0
 11
1968.23979
 21
663.371587
 31
0.0
  0
LINE
  5
2C6
330
18
100
AcDbEntity
  8
UNFOLD
 62
     3
100
AcDbLine
 10
1785.77385
 20
778.677401
 30
0.0
 11
1965.365984
 21
776.517472
 31
0.0
  0
LINE
  5
2C7
330
18
100
AcDbEntity
  8
UNFOLD
 62
     3
100
AcDbLine
 10
1968.23979
 20
663.371587
 30
0.0
 11
2169.8744
 21
668.575831
 31
0.0
  0
LINE
  5
2C8
330
18
100
AcDbEntity
  8
UNFOLD
 62
     3
100
AcDbLine
 10
1965.365984
 20
776.517472
 30
0.0
 11
2167.906722
 21
771.514542
 31
0.0
  0
LINE
  5
2C9
330
18
100
AcDbEntity
  8
UNFOLD
 62
     3
100
AcDbLine
 10
2169.8744
 20
668.575831
 30
0.0
 11
2360.200967
 21
671.140573
 31
0.0
  0
LINE
  5
2CA
330
18
100
AcDbEntity
  8
UNFOLD
 62
     3
100
AcDbLine
 10
2167.906722
 20
771.514542
 30
0.0
 11
2359.950518
 21
764.14158
 31
0.0
  0
LINE
  5
2CB
330
18
100
AcDbEntity
  8
UNFOLD
 62
     3
100
AcDbLine
 10
2360.200967
 20
671.140573
 30
0.0
 11
2393.887761
 21
762.637075
 31
0.0
  0
LINE
  5
2CC
330
18
100
AcDbEntity
  8
UNFOLD
 62
     3
100
AcDbLine
 10
2359.950518
 20
764.14158
 30
0.0
 11
2393.887761
 21
762.637075
 31
0.0
  0
LINE
  5
2CD
330
18
100
AcDbEntity
  8
UNFOLD
 62
     2
100
AcDbLine
 10
0.0
 20
1003.708769
 30
0.0
 11
115.220908
 21
963.384678
 31
0.0
  0
LINE
  5
2CE
330
18
100
AcDbEntity
  8
UNFOLD
 62
     2
100
AcDbLine
 10
0.0
 20
1003.708769
 30
0.0
 11
115.01718
 21
1003.950162
 31
0.0
  0
LINE
  5
2CF
330
18
100
AcDbEntity
  8
UNFOLD
 62
     2
100
AcDbLine
 10
115.220908
 20
963.384678
 30
0.0
 11
175.324798
 21
944.130004
 31
0.0
  0
LINE
  5
2D0
330
18
100
AcDbEntity
  8
UNFOLD
 62
     2
100
AcDbLine
 10
115.01718
 20
1003.950162
 30
0.0
 11
175.019934
 21
1004.122062
 31
0.0
  0
LINE
  5
2D1
330
18
100
AcDbEntity
  8
UNFOLD
 62
     2
100
AcDbLine
 10
175.324798
 20
944.130004
 30
0.0
 11
371.61127
 21
889.583962
 31
0.0
  0
LINE
  5
2D2
330
18
100
AcDbEntity
  8
UNFOLD
 62
     2
100
AcDbLine
 10
175.019934
 20
1004.122062
 30
0.0
 11
371.019437
 21
1005.041182
 31
0.0
  0
LINE
  5
2D3
330
18
100
AcDbEntity
  8
UNFOLD
 62
     2
100
AcDbLine
 10
371.61127
 20
889.583962
 30
0.0
 11
566.829051
 21
847.731027
 31
0.0
  0
LINE
  5
2D4
330
18
100
AcDbEntity
  8
UNFOLD
 62
     2
100
AcDbLine
 10
371.019437
 20
1005.041182
 30
0.0
 11
566.017024
 21
1006.181746
 31
0.0
  0
LINE
  5
2D5
330
18
100
AcDbEntity
  8
UNFOLD
 62
     2
100
AcDbLine
 10
566.829051
 20
847.731027
 30
0.0
 11
584.845734
 21
844.52492
 31
0.0
  0
LINE
  5
2D6
330
18
100
AcDbEntity
  8
UNFOLD
 62
     2
100
AcDbLine
 10
566.017024
 20
1006.181746
 30
0.0
 11
584.016929
 21
1006.297578
 31
0.0
  0
LINE
  5
2D7
330
18
100
AcDbEntity
  8
UNFOLD
 62
     2
100
AcDbLine
 10
584.845734
 20
844.52492
 30
0.0
 11
761.983083
 21
818.170233
 31
0.0
  0
LINE
  5
2D8
330
18
100
AcDbEntity
  8
UNFOLD
 62
     2
100
AcDbLine
 10
584.016929
 20
1006.297578
 30
0.0
 11
761.01506
 21
1007.370769
 31
0.0
  0
LINE
  5
2D9
330
18
100
AcDbEntity
  8
UNFOLD
 62
     2
100
AcDbLine
 10
761.983083
 20
818.170233
 30
0.0
 11
958.076322
 21
800.47442
 31
0.0
  0
LINE
  5
2DA
330
18
100
AcDbEntity
  8
UNFOLD
 62
     2
100
AcDbLine
 10
761.01506
 20
1007.370769
 30
0.0
 11
957.012641
 21
1008.349668
 31
0.0
  0
LINE
  5
2DB
330
18
100
AcDbEntity
  8
UNFOLD
 62
     2
100
AcDbLine
 10
958.076322
 20
800.47442
 30
0.0
 11
1153.111631
 21
794.538241
 31
0.0
  0
LINE
  5
2DC
330
18
100
AcDbEntity
  8
UNFOLD
 62
     2
100
AcDbLine
 10
957.012641
 20
1008.349668
 30
0.0
 11
1152.022204
 21
1008.869651
 31
0.0
  0
LINE
  5
2DD
330
18
100
AcDbEntity
  8
UNFOLD
 62
     2
100
AcDbLine
 10
1153.111631
 20
794.538241
 30
0.0
 11
1181.112183
 21
794.633442
 31
0.0
  0
LINE
  5
2DE
330
18
100
AcDbEntity
  8
UNFOLD
 62
     2
100
AcDbLine
 10
1152.022204
 20
1008.869651
 30
0.0
 11
1180.026657
 21
1008.894385
 31
0.0
  0
LINE
  5
2DF
330
18
100
AcDbEntity
  8
UNFOLD
 62
     2
100
AcDbLine
 10
1181.112183
 20
794.633442
 30
0.0
 11
1348.098874
 21
799.66683
 31
0.0
  0
LINE
  5
2E0
330
18
100
AcDbEntity
  8
UNFOLD
 62
     2
100
AcDbLine
 10
1180.026657
 20
1008.894385
 30
0.0
 11
1347.192881
 21
1008.055575
 31
0.0
  0
LINE
  5
2E1
330
18
100
AcDbEntity
  8
UNFOLD
 62
     2
100
AcDbLine
 10
1348.098874
 20
799.66683
 30
0.0
 11
1544.055796
 21
816.089529
 31
0.0
  0
LINE
  5
2E2
330
18
100
AcDbEntity
  8
UNFOLD
 62
     2
100
AcDbLine
 10
1347.192881
 20
1008.055575
 30
0.0
 11
1543.464991
 21
1006.864426
 31
0.0
  0
LINE
  5
2E3
330
18
100
AcDbEntity
  8
UNFOLD
 62
     2
100
AcDbLine
 10
1544.055796
 20
816.089529
 30
0.0
 11
1739.015091
 21
843.784174
 31
0.0
  0
LINE
  5
2E4
330
18
100
AcDbEntity
  8
UNFOLD
 62
     2
100
AcDbLine
 10
1543.464991
 20
1006.864426
 30
0.0
 11
1738.766027
 21
1005.717611
 31
0.0
  0
LINE
  5
2E5
330
18
100
AcDbEntity
  8
UNFOLD
 62
     2
100
AcDbLine
 10
1739.015091
 20
843.784174
 30
0.0
 11
1758.013042
 21
847.097459
 31
0.0
  0
LINE
  5
2E6
330
18
100
AcDbEntity
  8
UNFOLD
 62
     2
100
AcDbLine
 10
1738.766027
 20
1005.717611
 30
0.0
 11
1757.792051
 21
1005.615443
 31
0.0
  0
LINE
  5
2E7
330
18
100
AcDbEntity
  8
UNFOLD
 62
     2
100
AcDbLine
 10
1758.013042
 20
847.097459
 30
0.0
 11
1934.008994
 21
882.922376
 31
0.0
  0
LINE
  5
2E8
330
18
100
AcDbEntity
  8
UNFOLD
 62
     2
100
AcDbLine
 10
1757.792051
 20
1005.615443
 30
0.0
 11
1934.015098
 21
1004.810726
 31
0.0
  0
LINE
  5
2E9
330
18
100
AcDbEntity
  8
UNFOLD
 62
     2
100
AcDbLine
 10
1934.008994
 20
882.922376
 30
0.0
 11
2130.05847
 21
934.03385
 31
0.0
  0
LINE
  5
2EA
330
18
100
AcDbEntity
  8
UNFOLD
 62
     2
100
AcDbLine
 10
1934.015098
 20
1004.810726
 30
0.0
 11
2130.161432
 21
1004.19794
 31
0.0
  0
LINE
  5
2EB
330
18
100
AcDbEntity
  8
UNFOLD
 62
     2
100
AcDbLine
 10
2130.05847
 20
934.03385
 30
0.0
 11
2313.172426
 21
992.381593
 31
0.0
  0
LINE
  5
2EC
330
18
100
AcDbEntity
  8
UNFOLD
 62
     2
100
AcDbLine
 10
2130.161432
 20
1004.19794
 30
0.0
 11
2313.198359
 21
1003.781564
 31
0.0
  0
LINE
  5
2ED
330
18
100
AcDbEntity
  8
UNFOLD
 62
     2
100
AcDbLine
 10
2313.172426
 20
992.381593
 30
0.0
 11
2345.198901
 21
1003.708769
 31
0.0
  0
LINE
  5
2EE
330
18
100
AcDbEntity
  8
UNFOLD
 62
     2
100
AcDbLine
 10
2313.198359
 20
1003.781564
 30
0.0
 11
2345.198901
 21
1003.708769
 31
0.0
  0
TEXT
  5
2EF
330
18
100
AcDbEntity
  8
CROSS_SECTIONS
100
AcDbText
 10
3482.468023
 20
-796.280838
 30
0.0
 40
48.126316
  1
600
  7
Arial
100
AcDbText
  0
LINE
  5
2F0
330
18
100
AcDbEntity
  8
CROSS_SECTIONS
100
AcDbLine
 10
3536.2
 20
-819.831111
 30
0.0
 11
3565.122222
 21
-814.497778
 31
0.0
  0
LINE
  5
2F1
330
18
100
AcDbEntity
  8
CROSS_SECTIONS
100
AcDbLine
 10
3506.877778
 20
-814.497778
 30
0.0
 11
3535.8
 21
-819.831111
 31
0.0
  0
LINE
  5
2F2
330
18
100
AcDbEntity
  8
CROSS_SECTIONS
100
AcDbLine
 10
3565.122222
 20
-814.497778
 30
0.0
 11
3638.4
 21
-801.053333
 31
0.0
  0
LINE
  5
2F3
330
18
100
AcDbEntity
  8
CROSS_SECTIONS
100
AcDbLine
 10
3433.6
 20
-801.053333
 30
0.0
 11
3506.877778
 21
-814.497778
 31
0.0
  0
LINE
  5
2F4
330
18
100
AcDbEntity
  8
CROSS_SECTIONS
100
AcDbLine
 10
3638.4
 20
-801.053333
 30
0.0
 11
3667.322222
 21
-795.72
 31
0.0
  0
LINE
  5
2F5
330
18
100
AcDbEntity
  8
CROSS_SECTIONS
100
AcDbLine
 10
3404.677778
 20
-795.72
 30
0.0
 11
3433.6
 21
-801.053333
 31
0.0
  0
LINE
  5
2F6
330
18
100
AcDbEntity
  8
CROSS_SECTIONS
100
AcDbLine
 10
3667.322222
 20
-795.72
 30
0.0
 11
3672.933333
 21
-766.797778
 31
0.0
  0
LINE
  5
2F7
330
18
100
AcDbEntity
  8
CROSS_SECTIONS
100
AcDbLine
 10
3399.066667
 20
-766.797778
 30
0.0
 11
3404.677778
 21
-795.72
 31
0.0
  0
LINE
  5
2F8
330
18
100
AcDbEntity
  8
CROSS_SECTIONS
100
AcDbLine
 10
3672.933333
 20
-766.797778
 30
0.0
 11
3686.877778
 21
-694.464444
 31
0.0
  0
LINE
  5
2F9
330
18
100
AcDbEntity
  8
CROSS_SECTIONS
100
AcDbLine
 10
3385.122222
 20
-694.464444
 30
0.0
 11
3399.066667
 21
-766.797778
 31
0.0
  0
LINE
  5
2FA
330
18
100
AcDbEntity
  8
CROSS_SECTIONS
100
AcDbLine
 10
3686.877778
 20
-694.464444
 30
0.0
 11
3692.488889
 21
-665.542222
 31
0.0
  0
LINE
  5
2FB
330
18
100
AcDbEntity
  8
CROSS_SECTIONS
100
AcDbLine
 10
3379.511111
 20
-665.542222
 30
0.0
 11
3385.122222
 21
-694.464444
 31
0.0
  0
LINE
  5
2FC
330
18
100
AcDbEntity
  8
CROSS_SECTIONS
100
AcDbLine
 10
3657.911111
 20
-657.153333
 30
0.0
 11
3692.488889
 21
-665.542222
 31
0.0
  0
LINE
  5
2FD
330
18
100
AcDbEntity
  8
CROSS_SECTIONS
100
AcDbLine
 10
3379.511111
 20
-665.542222
 30
0.0
 11
3414.088889
 21
-657.153333
 31
0.0
  0
LINE
  5
2FE
330
18
100
AcDbEntity
  8
CROSS_SECTIONS
100
AcDbLine
 10
3570.577778
 20
-635.931111
 30
0.0
 11
3657.911111
 21
-657.153333
 31
0.0
  0
LINE
  5
2FF
330
18
100
AcDbEntity
  8
CROSS_SECTIONS
100
AcDbLine
 10
3414.088889
 20
-657.153333
 30
0.0
 11
3501.422222
 21
-635.931111
 31
0.0
  0
LINE
  5
300
330
18
100
AcDbEntity
  8
CROSS_SECTIONS
100
AcDbLine
 10
3536.0
 20
-627.542222
 30
0.0
 11
3570.577778
 21
-635.931111
 31
0.0
  0
LINE
  5
301
330
18
100
AcDbEntity
  8
CROSS_SECTIONS
100
AcDbLine
 10
3501.422222
 20
-635.931111
 30
0.0
 11
3536.0
 21
-627.542222
 31
0.0
  0
TEXT
  5
302
330
18
100
AcDbEntity
  8
CROSS_SECTIONS
100
AcDbText
 10
3466.057703
 20
-1034.650838
 30
0.0
 40
48.126316
  1
1200
  7
Arial
100
AcDbText
  0
LINE
  5
303
330
18
100
AcDbEntity
  8
CROSS_SECTIONS
100
AcDbLine
 10
3536.0
 20
-1079.88999
 30
0.0
 11
3536.001087
 21
-1079.889842
 31
0.0
  0
LINE
  5
304
330
18
100
AcDbEntity
  8
CROSS_SECTIONS
100
AcDbLine
 10
3535.998913
 20
-1079.889842
 30
0.0
 11
3536.0
 21
-1079.88999
 31
0.0
  0
LINE
  5
305
330
18
100
AcDbEntity
  8
CROSS_SECTIONS
100
AcDbLine
 10
3720.098882
 20
-1055.690132
 30
0.0
 11
3720.099968
 21
-1055.689984
 31
0.0
  0
LINE
  5
306
330
18
100
AcDbEntity
  8
CROSS_SECTIONS
100
AcDbLine
 10
3351.900032
 20
-1055.689984
 30
0.0
 11
3351.901118
 21
-1055.690132
 31
0.0
  0
LINE
  5
307
330
18
100
AcDbEntity
  8
CROSS_SECTIONS
100
AcDbLine
 10
3536.001087
 20
-1079.889842
 30
0.0
 11
3720.098882
 21
-1055.690132
 31
0.0
  0
LINE
  5
308
330
18
100
AcDbEntity
  8
CROSS_SECTIONS
100
AcDbLine
 10
3351.901118
 20
-1055.690132
 30
0.0
 11
3535.998913
 21
-1079.889842
 31
0.0
  0
LINE
  5
309
330
18
100
AcDbEntity
  8
CROSS_SECTIONS
100
AcDbLine
 10
3720.099968
 20
-1055.689984
 30
0.0
 11
3720.100116
 21
-1055.68917
 31
0.0
  0
LINE
  5
30A
330
18
100
AcDbEntity
  8
CROSS_SECTIONS
100
AcDbLine
 10
3351.899884
 20
-1055.68917
 30
0.0
 11
3351.900032
 21
-1055.689984
 31
0.0
  0
LINE
  5
30B
330
18
100
AcDbEntity
  8
CROSS_SECTIONS
100
AcDbLine
 10
3744.299826
 20
-917.990819
 30
0.0
 11
3744.299973
 21
-917.990005
 31
0.0
  0
LINE
  5
30C
330
18
100
AcDbEntity
  8
CROSS_SECTIONS
100
AcDbLine
 10
3327.700027
 20
-917.990005
 30
0.0
 11
3327.700174
 21
-917.990819
 31
0.0
  0
LINE
  5
30D
330
18
100
AcDbEntity
  8
CROSS_SECTIONS
100
AcDbLine
 10
3720.100116
 20
-1055.68917
 30
0.0
 11
3744.299826
 21
-917.990819
 31
0.0
  0
LINE
  5
30E
330
18
100
AcDbEntity
  8
CROSS_SECTIONS
100
AcDbLine
 10
3327.700174
 20
-917.990819
 30
0.0
 11
3351.899884
 21
-1055.68917
 31
0.0
  0
LINE
  5
30F
330
18
100
AcDbEntity
  8
CROSS_SECTIONS
100
AcDbLine
 10
3744.298739
 20
-917.989724
 30
0.0
 11
3744.299973
 21
-917.990005
 31
0.0
  0
LINE
  5
310
330
18
100
AcDbEntity
  8
CROSS_SECTIONS
100
AcDbLine
 10
3327.700027
 20
-917.990005
 30
0.0
 11
3327.701261
 21
-917.989724
 31
0.0
  0
LINE
  5
311
330
18
100
AcDbEntity
  8
CROSS_SECTIONS
100
AcDbLine
 10
3536.0
 20
-867.790045
 30
0.0
 11
3536.001234
 21
-867.790325
 31
0.0
  0
LINE
  5
312
330
18
100
AcDbEntity
  8
CROSS_SECTIONS
100
AcDbLine
 10
3535.998766
 20
-867.790325
 30
0.0
 11
3536.0
 21
-867.790045
 31
0.0
  0
LINE
  5
313
330
18
100
AcDbEntity
  8
CROSS_SECTIONS
100
AcDbLine
 10
3536.001234
 20
-867.790325
 30
0.0
 11
3744.298739
 21
-917.989724
 31
0.0
  0
LINE
  5
314
330
18
100
AcDbEntity
  8
CROSS_SECTIONS
100
AcDbLine
 10
3327.701261
 20
-917.989724
 30
0.0
 11
3535.998766
 21
-867.790325
 31
0.0
  0
TEXT
  5
315
330
18
100
AcDbEntity
  8
CROSS_SECTIONS
100
AcDbText
 10
3466.057703
 20
-1273.020838
 30
0.0
 40
48.126316
  1
1800
  7
Arial
100
AcDbText
  0
LINE
  5
316
330
18
100
AcDbEntity
  8
CROSS_SECTIONS
100
AcDbLine
 10
3536.0
 20
-1297.987273
 30
0.0
 11
3551.054545
 21
-1295.079602
 31
0.0
  0
LINE
  5
317
330
18
100
AcDbEntity
  8
CROSS_SECTIONS
100
AcDbLine
 10
3520.945455
 20
-1295.079602
 30
0.0
 11
3536.0
 21
-1297.987273
 31
0.0
  0
LINE
  5
318
330
18
100
AcDbEntity
  8
CROSS_SECTIONS
100
AcDbLine
 10
3648.628409
 20
-1277.204602
 30
0.0
 11
3663.682955
 21
-1274.296932
 31
0.0
  0
LINE
  5
319
330
18
100
AcDbEntity
  8
CROSS_SECTIONS
100
AcDbLine
 10
3408.317045
 20
-1274.296932
 30
0.0
 11
3423.371591
 21
-1277.204602
 31
0.0
  0
LINE
  5
31A
330
18
100
AcDbEntity
  8
CROSS_SECTIONS
100
AcDbLine
 10
3551.054545
 20
-1295.079602
 30
0.0
 11
3648.628409
 21
-1277.204602
 31
0.0
  0
LINE
  5
31B
330
18
100
AcDbEntity
  8
CROSS_SECTIONS
100
AcDbLine
 10
3423.371591
 20
-1277.204602
 30
0.0
 11
3520.945455
 21
-1295.079602
 31
0.0
  0
LINE
  5
31C
330
18
100
AcDbEntity
  8
CROSS_SECTIONS
100
AcDbLine
 10
3663.682955
 20
-1274.296932
 30
0.0
 11
3666.832386
 21
-1259.275057
 31
0.0
  0
LINE
  5
31D
330
18
100
AcDbEntity
  8
CROSS_SECTIONS
100
AcDbLine
 10
3405.167614
 20
-1259.275057
 30
0.0
 11
3408.317045
 21
-1274.296932
 31
0.0
  0
LINE
  5
31E
330
18
100
AcDbEntity
  8
CROSS_SECTIONS
100
AcDbLine
 10
3685.372159
 20
-1171.303466
 30
0.0
 11
3688.521591
 21
-1156.281591
 31
0.0
  0
LINE
  5
31F
330
18
100
AcDbEntity
  8
CROSS_SECTIONS
100
AcDbLine
 10
3383.478409
 20
-1156.281591
 30
0.0
 11
3386.627841
 21
-1171.303466
 31
0.0
  0
LINE
  5
320
330
18
100
AcDbEntity
  8
CROSS_SECTIONS
100
AcDbLine
 10
3666.832386
 20
-1259.275057
 30
0.0
 11
3685.372159
 21
-1171.303466
 31
0.0
  0
LINE
  5
321
330
18
100
AcDbEntity
  8
CROSS_SECTIONS
100
AcDbLine
 10
3386.627841
 20
-1171.303466
 30
0.0
 11
3405.167614
 21
-1259.275057
 31
0.0
  0
LINE
  5
322
330
18
100
AcDbEntity
  8
CROSS_SECTIONS
100
AcDbLine
 10
3670.317614
 20
-1154.23642
 30
0.0
 11
3688.521591
 21
-1156.281591
 31
0.0
  0
LINE
  5
323
330
18
100
AcDbEntity
  8
CROSS_SECTIONS
100
AcDbLine
 10
3383.478409
 20
-1156.281591
 30
0.0
 11
3401.682386
 21
-1154.23642
 31
0.0
  0
LINE
  5
324
330
18
100
AcDbEntity
  8
CROSS_SECTIONS
100
AcDbLine
 10
3536.0
 20
-1137.123068
 30
0.0
 11
3554.203977
 21
-1139.168239
 31
0.0
  0
LINE
  5
325
330
18
100
AcDbEntity
  8
CROSS_SECTIONS
100
AcDbLine
 10
3517.796023
 20
-1139.168239
 30
0.0
 11
3536.0
 21
-1137.123068
 31
0.0
  0
LINE
  5
326
330
18
100
AcDbEntity
  8
CROSS_SECTIONS
100
AcDbLine
 10
3554.203977
 20
-1139.168239
 30
0.0
 11
3670.317614
 21
-1154.23642
 31
0.0
  0
LINE
  5
327
330
18
100
AcDbEntity
  8
CROSS_SECTIONS
100
AcDbLine
 10
3401.682386
 20
-1154.23642
 30
0.0
 11
3517.796023
 21
-1139.168239
 31
0.0
  0
ENDSEC
  0
SECTION
  2
OBJECTS
  0
DICTIONARY
  5
C
330
0
100
AcDbDictionary
281
     1
  3
ACAD_DETAILVIEWSTYLE
350
39F
  3
ACAD_GROUP
350
D
  3
ACAD_LAYOUT
350
34A
  3
ACAD_MATERIAL
350
366
  3
ACAD_MLEADERSTYLE
350
39D
  3
ACAD_MLINESTYLE
350
1B
  3
ACAD_SCALELIST
350
328
  3
ACAD_SECTIONVIEWSTYLE
350
3A0
  3
ACAD_TABLESTYLE
350
39C
  3
ACAD_VISUALSTYLE
350
34D
  3
AcDbVariableDictionary
350
36A
  0
DICTIONARY
  5
39F
102
{ACAD_REACTORS
330
C
102
}
330
C
100
AcDbDictionary
281
     1
  0
DICTIONARY
  5
D
102
{ACAD_REACTORS
330
C
102
}
330
C
100
AcDbDictionary
281
     1
  0
DICTIONARY
  5
34A
102
{ACAD_REACTORS
330
C
102
}
330
C
100
AcDbDictionary
281
     1
  3
Layout1
350
34C
  3
Model
350
34B
  0
DICTIONARY
  5
366
102
{ACAD_REACTORS
330
C
102
}
330
C
100
AcDbDictionary
281
     1
  3
ByBlock
350
368
  3
ByLayer
350
367
  3
Global
350
369
  0
DICTIONARY
  5
39D
102
{ACAD_REACTORS
330
C
102
}
330
C
100
AcDbDictionary
281
     1
  0
DICTIONARY
  5
1B
102
{ACAD_REACTORS
330
C
102
}
330
C
100
AcDbDictionary
281
     1
  3
STANDARD
350
1C
  0
DICTIONARY
  5
328
102
{ACAD_REACTORS
330
C
102
}
330
C
100
AcDbDictionary
281
     1
  3
A0
350
329
  3
A1
350
32A
  3
A2
350
32B
  3
A3
350
32C
  3
A4
350
32D
  3
A5
350
32E
  3
A6
350
32F
  3
A7
350
330
  3
A8
350
331
  3
A9
350
332
  3
B0
350
333
  3
B1
350
334
  3
B2
350
335
  3
B3
350
336
  3
B4
350
337
  3
B5
350
338
  3
B6
350
339
  3
B7
350
33A
  3
B8
350
33B
  3
B9
350
33C
  3
C0
350
33D
  3
C1
350
33E
  3
C2
350
33F
  3
C3
350
340
  3
C4
350
341
  3
C5
350
342
  3
C6
350
343
  3
C7
350
344
  3
C8
350
345
  3
C9
350
346
  3
D0
350
347
  3
D1
350
348
  3
D2
350
349
  0
DICTIONARY
  5
3A0
102
{ACAD_REACTORS
330
C
102
}
330
C
100
AcDbDictionary
281
     1
  0
DICTIONARY
  5
39C
102
{ACAD_REACTORS
330
C
102
}
330
C
100
AcDbDictionary
281
     1
  0
DICTIONARY
  5
34D
102
{ACAD_REACTORS
330
C
102
}
330
C
100
AcDbDictionary
281
     1
  3
2dWireframe
350
352
  3
Basic
350
355
  3
Brighten
350
359
  3
ColorChange
350
35D
  3
Conceptual
350
357
  3
Dim
350
358
  3
EdgeColorOff
350
360
  3
Facepattern
350
35C
  3
Flat
350
34E
  3
FlatWithEdges
350
34F
  3
Gouraud
350
350
  3
GouraudWithEdges
350
351
  3
Hidden
350
354
  3
JitterOff
350
35E
  3
Linepattern
350
35B
  3
OverhangOff
350
35F
  3
Realistic
350
356
  3
Shaded
350
365
  3
Shaded with edges
350
364
  3
Shades of Gray
350
361
  3
Sketchy
350
362
  3
Thicken
350
35A
  3
Wireframe
350
353
  3
X-Ray
350
363
  0
DICTIONARY
  5
36A
102
{ACAD_REACTORS
330
C
102
}
330
C
100
AcDbDictionary
281
     1
  3
CANNOSCALE
350
36B
  3
MSLTSCALE
350
39E
  0
LAYOUT
  5
34C
102
{ACAD_REACTORS
330
34A
102
}
330
34A
100
AcDbPlotSettings
  1

  2
none_device
  4

  6

 40
0.0
 41
0.0
 42
0.0
 43
0.0
 44
0.0
 45
0.0
 46
0.0
 47
0.0
 48
0.0
 49
0.0
140
0.0
141
0.0
142
1.0
143
1.0
 70
   688
 72
     1
 73
     0
 74
     5
  7

 75
    16
 76
     0
 77
     2
 78
   300
147
1.0
148
0.0
149
0.0
100
AcDbLayout
  1
Layout1
 70
     1
 71
     1
 10
0.0
 20
0.0
 11
12.0
 21
9.0
 12
0.0
 22
0.0
 32
0.0
 14
1.000000000000000E+20
 24
1.000000000000000E+20
 34
1.000000000000000E+20
 15
-1.000000000000000E+20
 25
-1.000000000000000E+20
 35
-1.000000000000000E+20
146
0.0
 13
0.0
 23
0.0
 33
0.0
 16
1.0
 26
0.0
 36
0.0
 17
0.0
 27
1.0
 37
0.0
 76
     0
330
15
  0
LAYOUT
  5
34B
102
{ACAD_REACTORS
330
34A
102
}
330
34A
100
AcDbPlotSettings
  1

  2
none_device
  4
Letter_(8.50_x_11.00_Inches)
  6

 40
6.35
 41
6.35
 42
6.35000508
 43
6.35000508
 44
215.9
 45
279.4
 46
0.0
 47
0.0
 48
0.0
 49
0.0
140
0.0
141
0.0
142
1.0
143
28.14972979207541
 70
  1712
 72
     1
 73
     0
 74
     0
  7

 75
     0
 76
     0
 77
     2
 78
   300
147
0.0355243196786037
148
0.0635613745480441
149
1298.050773
100
AcDbLayout
  1
Model
 70
     1
 71
     0
 10
0.0
 20
0.0
 11
5719.961328
 21
1008.957885
 12
0.0
 22
0.0
 32
0.0
 14
-0.0635
 24
-1298.050773
 34
0.0
 15
5719.961328
 25
1008.957885
 35
0.0
146
0.0
 13
0.0
 23
0.0
 33
0.0
 16
1.0
 26
0.0
 36
0.0
 17
0.0
 27
1.0
 37
0.0
 76
     0
330
18
331
1E
  0
MATERIAL
  5
368
102
{ACAD_REACTORS
330
366
102
}
330
366
100
AcDbMaterial
  1
ByBlock
 72
     1
 94
      127
  0
MATERIAL
  5
367
102
{ACAD_REACTORS
330
366
102
}
330
366
100
AcDbMaterial
  1
ByLayer
 72
     1
 94
      127
  0
MATERIAL
  5
369
102
{ACAD_REACTORS
330
366
102
}
330
366
100
AcDbMaterial
  1
Global
 72
     1
 94
      127
  0
MLINESTYLE
  5
1C
102
{ACAD_REACTORS
330
1B
102
}
330
1B
100
AcDbMlineStyle
  2
STANDARD
 70
     0
  3

 62
   256
 51
90.0
 52
90.0
 71
     2
 49
0.5
 62
   256
  6
BYLAYER
 49
-0.5
 62
   256
  6
BYLAYER
  0
SCALE
  5
329
102
{ACAD_REACTORS
330
328
102
}
330
328
100
AcDbScale
 70
     0
300
1:1
140
1.0
141
1.0
290
     1
  0
SCALE
  5
32A
102
{ACAD_REACTORS
330
328
102
}
330
328
100
AcDbScale
 70
     0
300
1:2
140
1.0
141
2.0
290
     0
  0
SCALE
  5
32B
102
{ACAD_REACTORS
330
328
102
}
330
328
100
AcDbScale
 70
     0
300
1:4
140
1.0
141
4.0
290
     0
  0
SCALE
  5
32C
102
{ACAD_REACTORS
330
328
102
}
330
328
100
AcDbScale
 70
     0
300
1:5
140
1.0
141
5.0
290
     0
  0
SCALE
  5
32D
102
{ACAD_REACTORS
330
328
102
}
330
328
100
AcDbScale
 70
     0
300
1:8
140
1.0
141
8.0
290
     0
  0
SCALE
  5
32E
102
{ACAD_REACTORS
330
328
102
}
330
328
100
AcDbScale
 70
     0
300
1:10
140
1.0
141
10.0
290
     0
  0
SCALE
  5
32F
102
{ACAD_REACTORS
330
328
102
}
330
328
100
AcDbScale
 70
     0
300
1:16
140
1.0
141
16.0
290
     0
  0
SCALE
  5
330
102
{ACAD_REACTORS
330
328
102
}
330
328
100
AcDbScale
 70
     0
300
1:20
140
1.0
141
20.0
290
     0
  0
SCALE
  5
331
102
{ACAD_REACTORS
330
328
102
}
330
328
100
AcDbScale
 70
     0
300
1:30
140
1.0
141
30.0
290
     0
  0
SCALE
  5
332
102
{ACAD_REACTORS
330
328
102
}
330
328
100
AcDbScale
 70
     0
300
1:40
140
1.0
141
40.0
290
     0
  0
SCALE
  5
333
102
{ACAD_REACTORS
330
328
102
}
330
328
100
AcDbScale
 70
     0
300
1:50
140
1.0
141
50.0
290
     0
  0
SCALE
  5
334
102
{ACAD_REACTORS
330
328
102
}
330
328
100
AcDbScale
 70
     0
300
1:100
140
1.0
141
100.0
290
     0
  0
SCALE
  5
335
102
{ACAD_REACTORS
330
328
102
}
330
328
100
AcDbScale
 70
     0
300
2:1
140
2.0
141
1.0
290
     0
  0
SCALE
  5
336
102
{ACAD_REACTORS
330
328
102
}
330
328
100
AcDbScale
 70
     0
300
4:1
140
4.0
141
1.0
290
     0
  0
SCALE
  5
337
102
{ACAD_REACTORS
330
328
102
}
330
328
100
AcDbScale
 70
     0
300
8:1
140
8.0
141
1.0
290
     0
  0
SCALE
  5
338
102
{ACAD_REACTORS
330
328
102
}
330
328
100
AcDbScale
 70
     0
300
10:1
140
10.0
141
1.0
290
     0
  0
SCALE
  5
339
102
{ACAD_REACTORS
330
328
102
}
330
328
100
AcDbScale
 70
     0
300
100:1
140
100.0
141
1.0
290
     0
  0
SCALE
  5
33A
102
{ACAD_REACTORS
330
328
102
}
330
328
100
AcDbScale
 70
     0
300
1/128" = 1'-0"
140
0.0078125
141
12.0
290
     0
  0
SCALE
  5
33B
102
{ACAD_REACTORS
330
328
102
}
330
328
100
AcDbScale
 70
     0
300
1/64" = 1'-0"
140
0.015625
141
12.0
290
     0
  0
SCALE
  5
33C
102
{ACAD_REACTORS
330
328
102
}
330
328
100
AcDbScale
 70
     0
300
1/32" = 1'-0"
140
0.03125
141
12.0
290
     0
  0
SCALE
  5
33D
102
{ACAD_REACTORS
330
328
102
}
330
328
100
AcDbScale
 70
     0
300
1/16" = 1'-0"
140
0.0625
141
12.0
290
     0
  0
SCALE
  5
33E
102
{ACAD_REACTORS
330
328
102
}
330
328
100
AcDbScale
 70
     0
300
3/32" = 1'-0"
140
0.09375
141
12.0
290
     0
  0
SCALE
  5
33F
102
{ACAD_REACTORS
330
328
102
}
330
328
100
AcDbScale
 70
     0
300
1/8" = 1'-0"
140
0.125
141
12.0
290
     0
  0
SCALE
  5
340
102
{ACAD_REACTORS
330
328
102
}
330
328
100
AcDbScale
 70
     0
300
3/16" = 1'-0"
140
0.1875
141
12.0
290
     0
  0
SCALE
  5
341
102
{ACAD_REACTORS
330
328
102
}
330
328
100
AcDbScale
 70
     0
300
1/4" = 1'-0"
140
0.25
141
12.0
290
     0
  0
SCALE
  5
342
102
{ACAD_REACTORS
330
328
102
}
330
328
100
AcDbScale
 70
     0
300
3/8" = 1'-0"
140
0.375
141
12.0
290
     0
  0
SCALE
  5
343
102
{ACAD_REACTORS
330
328
102
}
330
328
100
AcDbScale
 70
     0
300
1/2" = 1'-0"
140
0.5
141
12.0
290
     0
  0
SCALE
  5
344
102
{ACAD_REACTORS
330
328
102
}
330
328
100
AcDbScale
 70
     0
300
3/4" = 1'-0"
140
0.75
141
12.0
290
     0
  0
SCALE
  5
345
102
{ACAD_REACTORS
330
328
102
}
330
328
100
AcDbScale
 70
     0
300
1" = 1'-0"
140
1.0
141
12.0
290
     0
  0
SCALE
  5
346
102
{ACAD_REACTORS
330
328
102
}
330
328
100
AcDbScale
 70
     0
300
1-1/2" = 1'-0"
140
1.5
141
12.0
290
     0
  0
SCALE
  5
347
102
{ACAD_REACTORS
330
328
102
}
330
328
100
AcDbScale
 70
     0
300
3" = 1'-0"
140
3.0
141
12.0
290
     0
  0
SCALE
  5
348
102
{ACAD_REACTORS
330
328
102
}
330
328
100
AcDbScale
 70
     0
300
6" = 1'-0"
140
6.0
141
12.0
290
     0
  0
SCALE
  5
349
102
{ACAD_REACTORS
330
328
102
}
330
328
100
AcDbScale
 70
     0
300
1'-0" = 1'-0"
140
12.0
141
12.0
290
     0
  0
VISUALSTYLE
  5
352
102
{ACAD_REACTORS
330
34D
102
}
102
{ACAD_XDICTIONARY
360
374
102
}
330
34D
100
AcDbVisualStyle
  2
2dWireframe
 70
     4
177
     2
291
     0
 71
     0
176
     1
 72
     2
176
     1
 73
     0
176
     1
 90
        0
176
     1
 40
0.6
176
     1
 41
30.0
176
     1
 62
     5
 63
     7
421
 16777215
176
     1
 74
     1
176
     1
 91
        4
176
     1
 64
     7
176
     1
 65
   257
176
     1
 75
     1
176
     1
175
     1
176
     1
 42
1.0
176
     1
 92
        0
176
     1
 66
   257
176
     1
 43
1.0
176
     1
 76
     1
176
     1
 77
     6
176
     1
 78
     2
176
     1
 67
     7
176
     1
 79
     5
176
     1
170
     0
176
     1
171
     0
176
     1
290
     0
176
     1
 93
        1
176
     1
 44
0.0
176
     1
173
     0
176
     1
  0
VISUALSTYLE
  5
355
102
{ACAD_REACTORS
330
34D
102
}
102
{ACAD_XDICTIONARY
360
37A
102
}
330
34D
100
AcDbVisualStyle
  2
Basic
 70
     7
177
     2
291
     1
 71
     1
176
     1
 72
     0
176
     1
 73
     1
176
     1
 90
        0
176
     1
 40
0.6
176
     1
 41
30.0
176
     1
 62
     5
 63
     7
421
 16777215
176
     1
 74
     0
176
     1
 91
        4
176
     1
 64
     7
176
     1
 65
   257
176
     1
 75
     1
176
     1
175
     1
176
     1
 42
1.0
176
     1
 92
        8
176
     1
 66
     7
176
     1
 43
1.0
176
     1
 76
     1
176
     1
 77
     6
176
     1
 78
     2
176
     1
 67
     7
176
     1
 79
     5
176
     1
170
     0
176
     1
171
     0
176
     1
290
     0
176
     1
 93
        1
176
     1
 44
0.0
176
     1
173
     0
176
     1
  0
VISUALSTYLE
  5
359
102
{ACAD_REACTORS
330
34D
102
}
102
{ACAD_XDICTIONARY
360
382
102
}
330
34D
100
AcDbVisualStyle
  2
Brighten
 70
    12
177
     2
291
     1
 71
     2
176
     1
 72
     2
176
     1
 73
     0
176
     1
 90
        0
176
     1
 40
0.6
176
     1
 41
30.0
176
     1
 62
     5
 63
     7
421
 16777215
176
     1
 74
     1
176
     1
 91
        4
176
     1
 64
     7
176
     1
 65
   257
176
     1
 75
     1
176
     1
175
     1
176
     1
 42
1.0
176
     1
 92
        8
176
     1
 66
     7
176
     1
 43
1.0
176
     1
 76
     1
176
     1
 77
     6
176
     1
 78
     2
176
     1
 67
     7
176
     1
 79
     5
176
     1
170
     0
176
     1
171
     0
176
     1
290
     0
176
     1
 93
        1
176
     1
 44
50.0
176
     1
173
     0
176
     1
  0
VISUALSTYLE
  5
35D
102
{ACAD_REACTORS
330
34D
102
}
102
{ACAD_XDICTIONARY
360
38A
102
}
330
34D
100
AcDbVisualStyle
  2
ColorChange
 70
    16
177
     2
291
     1
 71
     2
176
     1
 72
     2
176
     1
 73
     3
176
     1
 90
        0
176
     1
 40
0.6
176
     1
 41
30.0
176
     1
 62
     5
 63
     8
421
  8421504
176
     1
 74
     1
176
     1
 91
        4
176
     1
 64
     7
176
     1
 65
   257
176
     1
 75
     1
176
     1
175
     1
176
     1
 42
1.0
176
     1
 92
        8
176
     1
 66
     8
424
  8421504
176
     1
 43
1.0
176
     1
 76
     1
176
     1
 77
     6
176
     1
 78
     2
176
     1
 67
     7
176
     1
 79
     5
176
     1
170
     0
176
     1
171
     0
176
     1
290
     0
176
     1
 93
        1
176
     1
 44
0.0
176
     1
173
     0
176
     1
  0
VISUALSTYLE
  5
357
102
{ACAD_REACTORS
330
34D
102
}
102
{ACAD_XDICTIONARY
360
37E
102
}
330
34D
100
AcDbVisualStyle
  2
Conceptual
 70
     9
177
     2
291
     0
 71
     3
176
     1
 72
     2
176
     1
 73
     0
176
     1
 90
        0
176
     1
 40
0.6
176
     1
 41
30.0
176
     1
 62
     5
 63
     7
421
 16777215
176
     1
 74
     2
176
     1
 91
        2
176
     1
 64
     7
176
     1
 65
   257
176
     1
 75
     1
176
     1
175
     1
176
     1
 42
179.0
176
     1
 92
        8
176
     1
 66
     7
176
     1
 43
1.0
176
     1
 76
     1
176
     1
 77
     6
176
     1
 78
     2
176
     1
 67
     7
176
     1
 79
     3
176
     1
170
     0
176
     1
171
     0
176
     1
290
     0
176
     1
 93
        1
176
     1
 44
0.0
176
     1
173
     0
176
     1
  0
VISUALSTYLE
  5
358
102
{ACAD_REACTORS
330
34D
102
}
102
{ACAD_XDICTIONARY
360
380
102
}
330
34D
100
AcDbVisualStyle
  2
Dim
 70
    11
177
     2
291
     1
 71
     2
176
     1
 72
     2
176
     1
 73
     0
176
     1
 90
        0
176
     1
 40
0.6
176
     1
 41
30.0
176
     1
 62
     5
 63
     7
421
 16777215
176
     1
 74
     1
176
     1
 91
        4
176
     1
 64
     7
176
     1
 65
   257
176
     1
 75
     1
176
     1
175
     1
176
     1
 42
1.0
176
     1
 92
        8
176
     1
 66
     7
176
     1
 43
1.0
176
     1
 76
     1
176
     1
 77
     6
176
     1
 78
     2
176
     1
 67
     7
176
     1
 79
     5
176
     1
170
     0
176
     1
171
     0
176
     1
290
     0
176
     1
 93
        1
176
     1
 44
-50.0
176
     1
173
     0
176
     1
  0
VISUALSTYLE
  5
360
102
{ACAD_REACTORS
330
34D
102
}
102
{ACAD_XDICTIONARY
360
390
102
}
330
34D
100
AcDbVisualStyle
  2
EdgeColorOff
 70
    22
177
     2
291
     1
 71
     2
176
     0
 72
     2
176
     0
 73
     0
176
     0
 90
        0
176
     0
 40
0.6
176
     0
 41
30.0
176
     0
 62
     5
 63
     7
421
 16777215
176
     0
 74
     1
176
     0
 91
        4
176
     0
 64
     7
176
     0
 65
   257
176
     0
 75
     1
176
     0
175
     1
176
     0
 42
1.0
176
     0
 92
        8
176
     2
 66
     7
176
     0
 43
1.0
176
     0
 76
     1
176
     0
 77
     6
176
     0
 78
     2
176
     0
 67
     7
176
     0
 79
     5
176
     0
170
     0
176
     0
171
     0
176
     0
290
     0
176
     0
 93
        1
176
     0
 44
0.0
176
     0
173
     0
176
     0
  0
VISUALSTYLE
  5
35C
102
{ACAD_REACTORS
330
34D
102
}
102
{ACAD_XDICTIONARY
360
388
102
}
330
34D
100
AcDbVisualStyle
  2
Facepattern
 70
    15
177
     2
291
     1
 71
     2
176
     1
 72
     2
176
     1
 73
     0
176
     1
 90
        0
176
     1
 40
0.6
176
     1
 41
30.0
176
     1
 62
     5
 63
     7
421
 16777215
176
     1
 74
     1
176
     1
 91
        4
176
     1
 64
     7
176
     1
 65
   257
176
     1
 75
     1
176
     1
175
     1
176
     1
 42
1.0
176
     1
 92
        8
176
     1
 66
     7
176
     1
 43
1.0
176
     1
 76
     1
176
     1
 77
     6
176
     1
 78
     2
176
     1
 67
     7
176
     1
 79
     5
176
     1
170
     0
176
     1
171
     0
176
     1
290
     0
176
     1
 93
        1
176
     1
 44
0.0
176
     1
173
     0
176
     1
  0
VISUALSTYLE
  5
34E
102
{ACAD_REACTORS
330
34D
102
}
102
{ACAD_XDICTIONARY
360
36C
102
}
330
34D
100
AcDbVisualStyle
  2
Flat
 70
     0
177
     2
291
     1
 71
     2
176
     1
 72
     1
176
     1
 73
     1
176
     1
 90
        2
176
     1
 40
0.6
176
     1
 41
30.0
176
     1
 62
     5
 63
     7
421
 16777215
176
     1
 74
     0
176
     1
 91
        0
176
     1
 64
     7
176
     1
 65
   257
176
     1
 75
     1
176
     1
175
     1
176
     1
 42
1.0
176
     1
 92
        8
176
     1
 66
     7
176
     1
 43
1.0
176
     1
 76
     1
176
     1
 77
     6
176
     1
 78
     2
176
     1
 67
     7
176
     1
 79
     5
176
     1
170
     0
176
     1
171
     0
176
     1
290
     0
176
     1
 93
       13
176
     1
 44
0.0
176
     1
173
     0
176
     1
  0
VISUALSTYLE
  5
34F
102
{ACAD_REACTORS
330
34D
102
}
102
{ACAD_XDICTIONARY
360
36E
102
}
330
34D
100
AcDbVisualStyle
  2
FlatWithEdges
 70
     1
177
     2
291
     1
 71
     2
176
     1
 72
     1
176
     1
 73
     1
176
     1
 90
        2
176
     1
 40
0.6
176
     1
 41
30.0
176
     1
 62
     5
 63
     7
421
 16777215
176
     1
 74
     1
176
     1
 91
        0
176
     1
 64
     7
176
     1
 65
   257
176
     1
 75
     1
176
     1
175
     1
176
     1
 42
1.0
176
     1
 92
        0
176
     1
 66
   257
176
     1
 43
1.0
176
     1
 76
     1
176
     1
 77
     6
176
     1
 78
     2
176
     1
 67
     7
176
     1
 79
     5
176
     1
170
     0
176
     1
171
     0
176
     1
290
     0
176
     1
 93
       13
176
     1
 44
0.0
176
     1
173
     0
176
     1
  0
VISUALSTYLE
  5
350
102
{ACAD_REACTORS
330
34D
102
}
102
{ACAD_XDICTIONARY
360
370
102
}
330
34D
100
AcDbVisualStyle
  2
Gouraud
 70
     2
177
     2
291
     1
 71
     2
176
     1
 72
     2
176
     1
 73
     1
176
     1
 90
        2
176
     1
 40
0.6
176
     1
 41
30.0
176
     1
 62
     5
 63
     7
421
 16777215
176
     1
 74
     0
176
     1
 91
        0
176
     1
 64
     7
176
     1
 65
   257
176
     1
 75
     1
176
     1
175
     1
176
     1
 42
1.0
176
     1
 92
        0
176
     1
 66
     7
176
     1
 43
1.0
176
     1
 76
     1
176
     1
 77
     6
176
     1
 78
     2
176
     1
 67
     7
176
     1
 79
     5
176
     1
170
     0
176
     1
171
     0
176
     1
290
     0
176
     1
 93
       13
176
     1
 44
0.0
176
     1
173
     0
176
     1
  0
VISUALSTYLE
  5
351
102
{ACAD_REACTORS
330
34D
102
}
102
{ACAD_XDICTIONARY
360
372
102
}
330
34D
100
AcDbVisualStyle
  2
GouraudWithEdges
 70
     3
177
     2
291
     1
 71
     2
176
     1
 72
     2
176
     1
 73
     1
176
     1
 90
        2
176
     1
 40
0.6
176
     1
 41
30.0
176
     1
 62
     5
 63
     7
421
 16777215
176
     1
 74
     1
176
     1
 91
        0
176
     1
 64
     7
176
     1
 65
   257
176
     1
 75
     1
176
     1
175
     1
176
     1
 42
1.0
176
     1
 92
        0
176
     1
 66
   257
176
     1
 43
1.0
176
     1
 76
     1
176
     1
 77
     6
176
     1
 78
     2
176
     1
 67
     7
176
     1
 79
     5
176
     1
170
     0
176
     1
171
     0
176
     1
290
     0
176
     1
 93
       13
176
     1
 44
0.0
176
     1
173
     0
176
     1
  0
VISUALSTYLE
  5
354
102
{ACAD_REACTORS
330
34D
102
}
102
{ACAD_XDICTIONARY
360
378
102
}
330
34D
100
AcDbVisualStyle
  2
Hidden
 70
     6
177
     2
291
     0
 71
     1
176
     1
 72
     2
176
     1
 73
     2
176
     1
 90
        0
176
     1
 40
0.6
176
     1
 41
30.0
176
     1
 62
     5
 63
     7
421
 16777215
176
     1
 74
     2
176
     1
 91
        2
176
     1
 64
     7
176
     1
 65
   257
176
     1
 75
     2
176
     1
175
     1
176
     1
 42
40.0
176
     1
 92
        0
176
     1
 66
   257
176
     1
 43
1.0
176
     1
 76
     1
176
     1
 77
     6
176
     1
 78
     2
176
     1
 67
     7
176
     1
 79
     3
176
     1
170
     0
176
     1
171
     0
176
     1
290
     0
176
     1
 93
        1
176
     1
 44
0.0
176
     1
173
     0
176
     1
  0
VISUALSTYLE
  5
35E
102
{ACAD_REACTORS
330
34D
102
}
102
{ACAD_XDICTIONARY
360
38C
102
}
330
34D
100
AcDbVisualStyle
  2
JitterOff
 70
    20
177
     2
291
     1
 71
     2
176
     0
 72
     2
176
     0
 73
     0
176
     0
 90
        0
176
     0
 40
0.6
176
     0
 41
30.0
176
     0
 62
     5
 63
     7
421
 16777215
176
     0
 74
     1
176
     0
 91
        4
176
     0
 64
     7
176
     0
 65
   257
176
     0
 75
     1
176
     0
175
     1
176
     0
 42
1.0
176
     0
 92
       10
176
     2
 66
     7
176
     0
 43
1.0
176
     0
 76
     1
176
     0
 77
     6
176
     0
 78
     2
176
     0
 67
     7
176
     0
 79
     5
176
     0
170
     0
176
     0
171
     0
176
     0
290
     0
176
     0
 93
        1
176
     0
 44
0.0
176
     0
173
     0
176
     0
  0
VISUALSTYLE
  5
35B
102
{ACAD_REACTORS
330
34D
102
}
102
{ACAD_XDICTIONARY
360
386
102
}
330
34D
100
AcDbVisualStyle
  2
Linepattern
 70
    14
177
     2
291
     1
 71
     2
176
     1
 72
     2
176
     1
 73
     0
176
     1
 90
        0
176
     1
 40
0.6
176
     1
 41
30.0
176
     1
 62
     5
 63
     7
421
 16777215
176
     1
 74
     1
176
     1
 91
        4
176
     1
 64
     7
176
     1
 65
   257
176
     1
 75
     7
176
     1
175
     7
176
     1
 42
1.0
176
     1
 92
        8
176
     1
 66
     7
176
     1
 43
1.0
176
     1
 76
     1
176
     1
 77
     6
176
     1
 78
     2
176
     1
 67
     7
176
     1
 79
     5
176
     1
170
     0
176
     1
171
     0
176
     1
290
     0
176
     1
 93
        1
176
     1
 44
0.0
176
     1
173
     0
176
     1
  0
VISUALSTYLE
  5
35F
102
{ACAD_REACTORS
330
34D
102
}
102
{ACAD_XDICTIONARY
360
38E
102
}
330
34D
100
AcDbVisualStyle
  2
OverhangOff
 70
    21
177
     2
291
     1
 71
     2
176
     0
 72
     2
176
     0
 73
     0
176
     0
 90
        0
176
     0
 40
0.6
176
     0
 41
30.0
176
     0
 62
     5
 63
     7
421
 16777215
176
     0
 74
     1
176
     0
 91
        4
176
     0
 64
     7
176
     0
 65
   257
176
     0
 75
     1
176
     0
175
     1
176
     0
 42
1.0
176
     0
 92
        9
176
     2
 66
     7
176
     0
 43
1.0
176
     0
 76
     1
176
     0
 77
     6
176
     0
 78
     2
176
     0
 67
     7
176
     0
 79
     5
176
     0
170
     0
176
     0
171
     0
176
     0
290
     0
176
     0
 93
        1
176
     0
 44
0.0
176
     0
173
     0
176
     0
  0
VISUALSTYLE
  5
356
102
{ACAD_REACTORS
330
34D
102
}
102
{ACAD_XDICTIONARY
360
37C
102
}
330
34D
100
AcDbVisualStyle
  2
Realistic
 70
     8
177
     2
291
     0
 71
     2
176
     1
 72
     3
176
     1
 73
     0
176
     1
 90
        2
176
     1
 40
0.6
176
     1
 41
30.0
176
     1
 62
     5
 63
     7
421
 16777215
176
     1
 74
     0
176
     1
 91
        0
176
     1
 64
     7
176
     1
 65
   257
176
     1
 75
     1
176
     1
175
     1
176
     1
 42
1.0
176
     1
 92
        8
176
     1
 66
   257
176
     1
 43
1.0
176
     1
 76
     1
176
     1
 77
     6
176
     1
 78
     2
176
     1
 67
     7
176
     1
 79
     3
176
     1
170
     0
176
     1
171
     0
176
     1
290
     0
176
     1
 93
       13
176
     1
 44
0.0
176
     1
173
     0
176
     1
  0
VISUALSTYLE
  5
365
102
{ACAD_REACTORS
330
34D
102
}
102
{ACAD_XDICTIONARY
360
39A
102
}
330
34D
100
AcDbVisualStyle
  2
Shaded
 70
    27
177
     2
291
     0
 71
     2
176
     1
 72
     2
176
     1
 73
     1
176
     1
 90
        2
176
     1
 40
0.6
176
     1
 41
30.0
176
     1
 62
     5
 63
     7
421
 16777215
176
     1
 74
     0
176
     1
 91
        4
176
     1
 64
     7
176
     1
 65
   257
176
     1
 75
     1
176
     1
175
     1
176
     1
 42
1.0
176
     1
 92
        8
176
     1
 66
   257
176
     1
 43
1.0
176
     1
 76
     1
176
     1
 77
     6
176
     1
 78
     2
176
     1
 67
     8
425
  7895160
176
     1
 79
     3
176
     1
170
     0
176
     1
171
     0
176
     1
290
     0
176
     1
 93
        5
176
     1
 44
0.0
176
     1
173
     0
176
     1
  0
VISUALSTYLE
  5
364
102
{ACAD_REACTORS
330
34D
102
}
102
{ACAD_XDICTIONARY
360
398
102
}
330
34D
100
AcDbVisualStyle
  2
Shaded with edges
 70
    26
177
     2
291
     0
 71
     2
176
     1
 72
     2
176
     1
 73
     1
176
     1
 90
        2
176
     1
 40
0.6
176
     1
 41
30.0
176
     1
 62
     5
 63
     7
421
 16777215
176
     1
 74
     1
176
     1
 91
       10
176
     1
 64
     7
176
     1
 65
   257
176
     1
 75
     2
176
     1
175
     1
176
     1
 42
1.0
176
     1
 92
        8
176
     1
 66
   257
176
     1
 43
1.0
176
     1
 76
     1
176
     1
 77
     6
176
     1
 78
     2
176
     1
 67
     7
176
     1
 79
     3
176
     1
170
     0
176
     1
171
     0
176
     1
290
     0
176
     1
 93
        5
176
     1
 44
0.0
176
     1
173
     0
176
     1
  0
VISUALSTYLE
  5
361
102
{ACAD_REACTORS
330
34D
102
}
102
{ACAD_XDICTIONARY
360
392
102
}
330
34D
100
AcDbVisualStyle
  2
Shades of Gray
 70
    23
177
     2
291
     0
 71
     2
176
     1
 72
     2
176
     1
 73
     3
176
     1
 90
        0
176
     1
 40
0.6
176
     1
 41
30.0
176
     1
 62
     5
 63
     7
421
 16777215
176
     1
 74
     2
176
     1
 91
        2
176
     1
 64
     7
176
     1
 65
     7
176
     1
 75
     1
176
     1
175
     1
176
     1
 42
40.0
176
     1
 92
        8
176
     1
 66
     7
176
     1
 43
1.0
176
     1
 76
     1
176
     1
 77
     6
176
     1
 78
     2
176
     1
 67
     7
176
     1
 79
     3
176
     1
170
     0
176
     1
171
     0
176
     1
290
     0
176
     1
 93
        1
176
     1
 44
0.0
176
     1
173
     0
176
     1
  0
VISUALSTYLE
  5
362
102
{ACAD_REACTORS
330
34D
102
}
102
{ACAD_XDICTIONARY
360
394
102
}
330
34D
100
AcDbVisualStyle
  2
Sketchy
 70
    24
177
     2
291
     0
 71
     1
176
     1
 72
     2
176
     1
 73
     2
176
     1
 90
        0
176
     1
 40
0.6
176
     1
 41
30.0
176
     1
 62
     5
 63
     7
421
 16777215
176
     1
 74
     2
176
     1
 91
        2
176
     1
 64
     7
176
     1
 65
     7
176
     1
 75
     1
176
     1
175
     1
176
     1
 42
40.0
176
     1
 92
       11
176
     1
 66
     7
176
     1
 43
1.0
176
     1
 76
     1
176
     1
 77
     6
176
     1
 78
     2
176
     1
 67
     7
176
     1
 79
     6
176
     1
170
     0
176
     1
171
     0
176
     1
290
     0
176
     1
 93
        1
176
     1
 44
0.0
176
     1
173
     0
176
     1
  0
VISUALSTYLE
  5
35A
102
{ACAD_REACTORS
330
34D
102
}
102
{ACAD_XDICTIONARY
360
384
102
}
330
34D
100
AcDbVisualStyle
  2
Thicken
 70
    13
177
     2
291
     1
 71
     2
176
     1
 72
     2
176
     1
 73
     0
176
     1
 90
        0
176
     1
 40
0.6
176
     1
 41
30.0
176
     1
 62
     5
 63
     7
421
 16777215
176
     1
 74
     1
176
     1
 91
        4
176
     1
 64
     7
176
     1
 65
   257
176
     1
 75
     1
176
     1
175
     1
176
     1
 42
1.0
176
     1
 92
       12
176
     1
 66
     7
176
     1
 43
1.0
176
     1
 76
     1
176
     1
 77
     6
176
     1
 78
     2
176
     1
 67
     7
176
     1
 79
     5
176
     1
170
     0
176
     1
171
     0
176
     1
290
     0
176
     1
 93
        1
176
     1
 44
0.0
176
     1
173
     0
176
     1
  0
VISUALSTYLE
  5
353
102
{ACAD_REACTORS
330
34D
102
}
102
{ACAD_XDICTIONARY
360
376
102
}
330
34D
100
AcDbVisualStyle
  2
Wireframe
 70
     5
177
     2
291
     0
 71
     0
176
     1
 72
     2
176
     1
 73
     0
176
     1
 90
        0
176
     1
 40
0.6
176
     1
 41
30.0
176
     1
 62
     5
 63
     7
421
 16777215
176
     1
 74
     1
176
     1
 91
        4
176
     1
 64
     7
176
     1
 65
   257
176
     1
 75
     1
176
     1
175
     1
176
     1
 42
1.0
176
     1
 92
        0
176
     1
 66
   257
176
     1
 43
1.0
176
     1
 76
     1
176
     1
 77
     6
176
     1
 78
     2
176
     1
 67
     7
176
     1
 79
     3
176
     1
170
     0
176
     1
171
     0
176
     1
290
     0
176
     1
 93
        1
176
     1
 44
0.0
176
     1
173
     0
176
     1
  0
VISUALSTYLE
  5
363
102
{ACAD_REACTORS
330
34D
102
}
102
{ACAD_XDICTIONARY
360
396
102
}
330
34D
100
AcDbVisualStyle
  2
X-Ray
 70
    25
177
     2
291
     0
 71
     2
176
     1
 72
     2
176
     1
 73
     1
176
     1
 90
        1
176
     1
 40
0.5
176
     1
 41
30.0
176
     1
 62
     5
 63
     7
421
 16777215
176
     1
 74
     1
176
     1
 91
        0
176
     1
 64
     7
176
     1
 65
   257
176
     1
 75
     1
176
     1
175
     1
176
     1
 42
1.0
176
     1
 92
        8
176
     1
 66
     7
176
     1
 43
1.0
176
     1
 76
     1
176
     1
 77
     6
176
     1
 78
     2
176
     1
 67
     7
176
     1
 79
     3
176
     1
170
     0
176
     1
171
     0
176
     1
290
     0
176
     1
 93
       13
176
     1
 44
0.0
176
     1
173
     0
176
     1
  0
DICTIONARYVAR
  5
36B
102
{ACAD_REACTORS
330
36A
102
}
330
36A
100
DictionaryVariables
280
     0
  1
1:1
  0
DICTIONARYVAR
  5
39E
102
{ACAD_REACTORS
330
36A
102
}
330
36A
100
DictionaryVariables
280
     0
  1
0
  0
DICTIONARY
  5
374
330
352
100
AcDbDictionary
280
     1
281
     1
  3
ACAD_XREC_ROUNDTRIP
360
375
  0
DICTIONARY
  5
37A
330
355
100
AcDbDictionary
280
     1
281
     1
  3
ACAD_XREC_ROUNDTRIP
360
37B
  0
DICTIONARY
  5
382
330
359
100
AcDbDictionary
280
     1
281
     1
  3
ACAD_XREC_ROUNDTRIP
360
383
  0
DICTIONARY
  5
38A
330
35D
100
AcDbDictionary
280
     1
281
     1
  3
ACAD_XREC_ROUNDTRIP
360
38B
  0
DICTIONARY
  5
37E
330
357
100
AcDbDictionary
280
     1
281
     1
  3
ACAD_XREC_ROUNDTRIP
360
37F
  0
DICTIONARY
  5
380
330
358
100
AcDbDictionary
280
     1
281
     1
  3
ACAD_XREC_ROUNDTRIP
360
381
  0
DICTIONARY
  5
390
330
360
100
AcDbDictionary
280
     1
281
     1
  3
ACAD_XREC_ROUNDTRIP
360
391
  0
DICTIONARY
  5
388
330
35C
100
AcDbDictionary
280
     1
281
     1
  3
ACAD_XREC_ROUNDTRIP
360
389
  0
DICTIONARY
  5
36C
330
34E
100
AcDbDictionary
280
     1
281
     1
  3
ACAD_XREC_ROUNDTRIP
360
36D
  0
DICTIONARY
  5
36E
330
34F
100
AcDbDictionary
280
     1
281
     1
  3
ACAD_XREC_ROUNDTRIP
360
36F
  0
DICTIONARY
  5
370
330
350
100
AcDbDictionary
280
     1
281
     1
  3
ACAD_XREC_ROUNDTRIP
360
371
  0
DICTIONARY
  5
372
330
351
100
AcDbDictionary
280
     1
281
     1
  3
ACAD_XREC_ROUNDTRIP
360
373
  0
DICTIONARY
  5
378
330
354
100
AcDbDictionary
280
     1
281
     1
  3
ACAD_XREC_ROUNDTRIP
360
379
  0
DICTIONARY
  5
38C
330
35E
100
AcDbDictionary
280
     1
281
     1
  3
ACAD_XREC_ROUNDTRIP
360
38D
  0
DICTIONARY
  5
386
330
35B
100
AcDbDictionary
280
     1
281
     1
  3
ACAD_XREC_ROUNDTRIP
360
387
  0
DICTIONARY
  5
38E
330
35F
100
AcDbDictionary
280
     1
281
     1
  3
ACAD_XREC_ROUNDTRIP
360
38F
  0
DICTIONARY
  5
37C
330
356
100
AcDbDictionary
280
     1
281
     1
  3
ACAD_XREC_ROUNDTRIP
360
37D
  0
DICTIONARY
  5
39A
330
365
100
AcDbDictionary
280
     1
281
     1
  3
ACAD_XREC_ROUNDTRIP
360
39B
  0
DICTIONARY
  5
398
330
364
100
AcDbDictionary
280
     1
281
     1
  3
ACAD_XREC_ROUNDTRIP
360
399
  0
DICTIONARY
  5
392
330
361
100
AcDbDictionary
280
     1
281
     1
  3
ACAD_XREC_ROUNDTRIP
360
393
  0
DICTIONARY
  5
394
330
362
100
AcDbDictionary
280
     1
281
     1
  3
ACAD_XREC_ROUNDTRIP
360
395
  0
DICTIONARY
  5
384
330
35A
100
AcDbDictionary
280
     1
281
     1
  3
ACAD_XREC_ROUNDTRIP
360
385
  0
DICTIONARY
  5
376
330
353
100
AcDbDictionary
280
     1
281
     1
  3
ACAD_XREC_ROUNDTRIP
360
377
  0
DICTIONARY
  5
396
330
363
100
AcDbDictionary
280
     1
281
     1
  3
ACAD_XREC_ROUNDTRIP
360
397
  0
XRECORD
  5
375
102
{ACAD_REACTORS
330
374
102
}
330
374
100
AcDbXrecord
280
     1
102
RTVSPost2010Prop28
280
     1
102
RTVSPost2010PropOp28
 70
     1
102
RTVSPost2010Prop29
280
     1
102
RTVSPost2010PropOp29
 70
     1
102
RTVSPost2010Prop30
280
     0
102
RTVSPost2010PropOp30
 70
     1
102
RTVSPost2010Prop31
280
     0
102
RTVSPost2010PropOp31
 70
     1
102
RTVSPost2010Prop32
280
     0
102
RTVSPost2010PropOp32
 70
     1
102
RTVSPost2010Prop33
280
     0
102
RTVSPost2010PropOp33
 70
     1
102
RTVSPost2010Prop34
280
     0
102
RTVSPost2010PropOp34
 70
     1
102
RTVSPost2010Prop35
280
     0
102
RTVSPost2010PropOp35
 70
     1
102
RTVSPost2010Prop36
280
     0
102
RTVSPost2010PropOp36
 70
     1
102
RTVSPost2010Prop37
 90
       50
102
RTVSPost2010PropOp37
 70
     1
102
RTVSPost2010Prop38
140
0.0
102
RTVSPost2010PropOp38
 70
     1
102
RTVSPost2010Prop39
140
1.0
102
RTVSPost2010PropOp39
 70
     1
102
RTVSPost2010Prop40
 90
        0
102
RTVSPost2010PropOp40
 70
     1
102
RTVSPost2010Prop41ColorIndex
 90
       18
102
RTVSPost2010Prop41ColorRGB
 90
        0
102
RTVSPost2010PropOp41
 70
     1
102
RTVSPost2010Prop42
 90
       50
102
RTVSPost2010PropOp42
 70
     1
102
RTVSPost2010Prop43
 90
        3
102
RTVSPost2010PropOp43
 70
     1
102
RTVSPost2010Prop44ColorIndex
 90
        5
102
RTVSPost2010Prop44ColorRGB
 90
      255
102
RTVSPost2010PropOp44
 70
     1
102
RTVSPost2010Prop45
280
     0
102
RTVSPost2010PropOp45
 70
     1
102
RTVSPost2010Prop46
 90
       50
102
RTVSPost2010PropOp46
 70
     1
102
RTVSPost2010Prop47
 90
       50
102
RTVSPost2010PropOp47
 70
     1
102
RTVSPost2010Prop48
 90
       50
102
RTVSPost2010PropOp48
 70
     1
102
RTVSPost2010Prop49
280
     0
102
RTVSPost2010PropOp49
 70
     1
102
RTVSPost2010Prop50
 90
       50
102
RTVSPost2010PropOp50
 70
     1
102
RTVSPost2010Prop51ColorIndex
 90
      256
102
RTVSPost2010Prop51ColorRGB
 90
-16777216
102
RTVSPost2010PropOp51
 70
     0
102
RTVSPost2010Prop52
140
1.0
102
RTVSPost2010PropOp52
 70
     0
102
RTVSPost2010Prop53
 90
        2
102
RTVSPost2010PropOp53
 70
     1
102
RTVSPost2010Prop54
  1
strokes_ogs.tif
102
RTVSPost2010PropOp54
 70
     1
102
RTVSPost2010Prop55
280
     0
102
RTVSPost2010PropOp55
 70
     1
102
RTVSPost2010Prop56
140
1.0
102
RTVSPost2010PropOp56
 70
     1
102
RTVSPost2010Prop57
140
1.0
102
RTVSPost2010PropOp57
 70
     1
  0
XRECORD
  5
37B
102
{ACAD_REACTORS
330
37A
102
}
330
37A
100
AcDbXrecord
280
     1
102
RTVSPost2010Prop28
280
     0
102
RTVSPost2010PropOp28
 70
     1
102
RTVSPost2010Prop29
280
     1
102
RTVSPost2010PropOp29
 70
     1
102
RTVSPost2010Prop30
280
     1
102
RTVSPost2010PropOp30
 70
     1
102
RTVSPost2010Prop31
280
     0
102
RTVSPost2010PropOp31
 70
     1
102
RTVSPost2010Prop32
280
     0
102
RTVSPost2010PropOp32
 70
     1
102
RTVSPost2010Prop33
280
     0
102
RTVSPost2010PropOp33
 70
     1
102
RTVSPost2010Prop34
280
     0
102
RTVSPost2010PropOp34
 70
     1
102
RTVSPost2010Prop35
280
     0
102
RTVSPost2010PropOp35
 70
     1
102
RTVSPost2010Prop36
280
     0
102
RTVSPost2010PropOp36
 70
     1
102
RTVSPost2010Prop37
 90
       50
102
RTVSPost2010PropOp37
 70
     1
102
RTVSPost2010Prop38
140
0.0
102
RTVSPost2010PropOp38
 70
     1
102
RTVSPost2010Prop39
140
1.0
102
RTVSPost2010PropOp39
 70
     1
102
RTVSPost2010Prop40
 90
        0
102
RTVSPost2010PropOp40
 70
     1
102
RTVSPost2010Prop41ColorIndex
 90
       18
102
RTVSPost2010Prop41ColorRGB
 90
        0
102
RTVSPost2010PropOp41
 70
     1
102
RTVSPost2010Prop42
 90
       50
102
RTVSPost2010PropOp42
 70
     1
102
RTVSPost2010Prop43
 90
        3
102
RTVSPost2010PropOp43
 70
     1
102
RTVSPost2010Prop44ColorIndex
 90
        5
102
RTVSPost2010Prop44ColorRGB
 90
      255
102
RTVSPost2010PropOp44
 70
     1
102
RTVSPost2010Prop45
280
     0
102
RTVSPost2010PropOp45
 70
     1
102
RTVSPost2010Prop46
 90
       50
102
RTVSPost2010PropOp46
 70
     1
102
RTVSPost2010Prop47
 90
       50
102
RTVSPost2010PropOp47
 70
     1
102
RTVSPost2010Prop48
 90
       50
102
RTVSPost2010PropOp48
 70
     1
102
RTVSPost2010Prop49
280
     0
102
RTVSPost2010PropOp49
 70
     1
102
RTVSPost2010Prop50
 90
       50
102
RTVSPost2010PropOp50
 70
     1
102
RTVSPost2010Prop51ColorIndex
 90
      256
102
RTVSPost2010Prop51ColorRGB
 90
-16777216
102
RTVSPost2010PropOp51
 70
     0
102
RTVSPost2010Prop52
140
1.0
102
RTVSPost2010PropOp52
 70
     0
102
RTVSPost2010Prop53
 90
        2
102
RTVSPost2010PropOp53
 70
     1
102
RTVSPost2010Prop54
  1
strokes_ogs.tif
102
RTVSPost2010PropOp54
 70
     1
102
RTVSPost2010Prop55
280
     0
102
RTVSPost2010PropOp55
 70
     1
102
RTVSPost2010Prop56
140
1.0
102
RTVSPost2010PropOp56
 70
     1
102
RTVSPost2010Prop57
140
1.0
102
RTVSPost2010PropOp57
 70
     1
  0
XRECORD
  5
383
102
{ACAD_REACTORS
330
382
102
}
330
382
100
AcDbXrecord
280
     1
102
RTVSPost2010Prop28
280
     0
102
RTVSPost2010PropOp28
 70
     1
102
RTVSPost2010Prop29
280
     1
102
RTVSPost2010PropOp29
 70
     1
102
RTVSPost2010Prop30
280
     1
102
RTVSPost2010PropOp30
 70
     1
102
RTVSPost2010Prop31
280
     0
102
RTVSPost2010PropOp31
 70
     1
102
RTVSPost2010Prop32
280
     0
102
RTVSPost2010PropOp32
 70
     1
102
RTVSPost2010Prop33
280
     0
102
RTVSPost2010PropOp33
 70
     1
102
RTVSPost2010Prop34
280
     0
102
RTVSPost2010PropOp34
 70
     1
102
RTVSPost2010Prop35
280
     0
102
RTVSPost2010PropOp35
 70
     1
102
RTVSPost2010Prop36
280
     0
102
RTVSPost2010PropOp36
 70
     1
102
RTVSPost2010Prop37
 90
       50
102
RTVSPost2010PropOp37
 70
     1
102
RTVSPost2010Prop38
140
0.0
102
RTVSPost2010PropOp38
 70
     1
102
RTVSPost2010Prop39
140
1.0
102
RTVSPost2010PropOp39
 70
     1
102
RTVSPost2010Prop40
 90
        0
102
RTVSPost2010PropOp40
 70
     1
102
RTVSPost2010Prop41ColorIndex
 90
       18
102
RTVSPost2010Prop41ColorRGB
 90
        0
102
RTVSPost2010PropOp41
 70
     1
102
RTVSPost2010Prop42
 90
       50
102
RTVSPost2010PropOp42
 70
     1
102
RTVSPost2010Prop43
 90
        3
102
RTVSPost2010PropOp43
 70
     1
102
RTVSPost2010Prop44ColorIndex
 90
        5
102
RTVSPost2010Prop44ColorRGB
 90
      255
102
RTVSPost2010PropOp44
 70
     1
102
RTVSPost2010Prop45
280
     0
102
RTVSPost2010PropOp45
 70
     1
102
RTVSPost2010Prop46
 90
       50
102
RTVSPost2010PropOp46
 70
     1
102
RTVSPost2010Prop47
 90
       50
102
RTVSPost2010PropOp47
 70
     1
102
RTVSPost2010Prop48
 90
       50
102
RTVSPost2010PropOp48
 70
     1
102
RTVSPost2010Prop49
280
     0
102
RTVSPost2010PropOp49
 70
     1
102
RTVSPost2010Prop50
 90
       50
102
RTVSPost2010PropOp50
 70
     1
102
RTVSPost2010Prop51ColorIndex
 90
      256
102
RTVSPost2010Prop51ColorRGB
 90
-16777216
102
RTVSPost2010PropOp51
 70
     0
102
RTVSPost2010Prop52
140
1.0
102
RTVSPost2010PropOp52
 70
     0
102
RTVSPost2010Prop53
 90
        2
102
RTVSPost2010PropOp53
 70
     1
102
RTVSPost2010Prop54
  1
strokes_ogs.tif
102
RTVSPost2010PropOp54
 70
     1
102
RTVSPost2010Prop55
280
     0
102
RTVSPost2010PropOp55
 70
     1
102
RTVSPost2010Prop56
140
1.0
102
RTVSPost2010PropOp56
 70
     1
102
RTVSPost2010Prop57
140
1.0
102
RTVSPost2010PropOp57
 70
     1
  0
XRECORD
  5
38B
102
{ACAD_REACTORS
330
38A
102
}
330
38A
100
AcDbXrecord
280
     1
102
RTVSPost2010Prop28
280
     0
102
RTVSPost2010PropOp28
 70
     1
102
RTVSPost2010Prop29
280
     1
102
RTVSPost2010PropOp29
 70
     1
102
RTVSPost2010Prop30
280
     1
102
RTVSPost2010PropOp30
 70
     1
102
RTVSPost2010Prop31
280
     0
102
RTVSPost2010PropOp31
 70
     1
102
RTVSPost2010Prop32
280
     0
102
RTVSPost2010PropOp32
 70
     1
102
RTVSPost2010Prop33
280
     0
102
RTVSPost2010PropOp33
 70
     1
102
RTVSPost2010Prop34
280
     0
102
RTVSPost2010PropOp34
 70
     1
102
RTVSPost2010Prop35
280
     0
102
RTVSPost2010PropOp35
 70
     1
102
RTVSPost2010Prop36
280
     0
102
RTVSPost2010PropOp36
 70
     1
102
RTVSPost2010Prop37
 90
       50
102
RTVSPost2010PropOp37
 70
     1
102
RTVSPost2010Prop38
140
0.0
102
RTVSPost2010PropOp38
 70
     1
102
RTVSPost2010Prop39
140
1.0
102
RTVSPost2010PropOp39
 70
     1
102
RTVSPost2010Prop40
 90
        0
102
RTVSPost2010PropOp40
 70
     1
102
RTVSPost2010Prop41ColorIndex
 90
       18
102
RTVSPost2010Prop41ColorRGB
 90
        0
102
RTVSPost2010PropOp41
 70
     1
102
RTVSPost2010Prop42
 90
       50
102
RTVSPost2010PropOp42
 70
     1
102
RTVSPost2010Prop43
 90
        3
102
RTVSPost2010PropOp43
 70
     1
102
RTVSPost2010Prop44ColorIndex
 90
        5
102
RTVSPost2010Prop44ColorRGB
 90
      255
102
RTVSPost2010PropOp44
 70
     1
102
RTVSPost2010Prop45
280
     0
102
RTVSPost2010PropOp45
 70
     1
102
RTVSPost2010Prop46
 90
       50
102
RTVSPost2010PropOp46
 70
     1
102
RTVSPost2010Prop47
 90
       50
102
RTVSPost2010PropOp47
 70
     1
102
RTVSPost2010Prop48
 90
       50
102
RTVSPost2010PropOp48
 70
     1
102
RTVSPost2010Prop49
280
     0
102
RTVSPost2010PropOp49
 70
     1
102
RTVSPost2010Prop50
 90
       50
102
RTVSPost2010PropOp50
 70
     1
102
RTVSPost2010Prop51ColorIndex
 90
      256
102
RTVSPost2010Prop51ColorRGB
 90
-16777216
102
RTVSPost2010PropOp51
 70
     0
102
RTVSPost2010Prop52
140
1.0
102
RTVSPost2010PropOp52
 70
     0
102
RTVSPost2010Prop53
 90
        2
102
RTVSPost2010PropOp53
 70
     1
102
RTVSPost2010Prop54
  1
strokes_ogs.tif
102
RTVSPost2010PropOp54
 70
     1
102
RTVSPost2010Prop55
280
     0
102
RTVSPost2010PropOp55
 70
     1
102
RTVSPost2010Prop56
140
1.0
102
RTVSPost2010PropOp56
 70
     1
102
RTVSPost2010Prop57
140
1.0
102
RTVSPost2010PropOp57
 70
     1
  0
XRECORD
  5
37F
102
{ACAD_REACTORS
330
37E
102
}
330
37E
100
AcDbXrecord
280
     1
102
RTVSPost2010Prop28
280
     0
102
RTVSPost2010PropOp28
 70
     1
102
RTVSPost2010Prop29
280
     1
102
RTVSPost2010PropOp29
 70
     1
102
RTVSPost2010Prop30
280
     1
102
RTVSPost2010PropOp30
 70
     1
102
RTVSPost2010Prop31
280
     0
102
RTVSPost2010PropOp31
 70
     1
102
RTVSPost2010Prop32
280
     0
102
RTVSPost2010PropOp32
 70
     1
102
RTVSPost2010Prop33
280
     0
102
RTVSPost2010PropOp33
 70
     1
102
RTVSPost2010Prop34
280
     0
102
RTVSPost2010PropOp34
 70
     1
102
RTVSPost2010Prop35
280
     0
102
RTVSPost2010PropOp35
 70
     1
102
RTVSPost2010Prop36
280
     0
102
RTVSPost2010PropOp36
 70
     1
102
RTVSPost2010Prop37
 90
       50
102
RTVSPost2010PropOp37
 70
     1
102
RTVSPost2010Prop38
140
0.0
102
RTVSPost2010PropOp38
 70
     1
102
RTVSPost2010Prop39
140
1.0
102
RTVSPost2010PropOp39
 70
     1
102
RTVSPost2010Prop40
 90
        0
102
RTVSPost2010PropOp40
 70
     1
102
RTVSPost2010Prop41ColorIndex
 90
       18
102
RTVSPost2010Prop41ColorRGB
 90
        0
102
RTVSPost2010PropOp41
 70
     1
102
RTVSPost2010Prop42
 90
       50
102
RTVSPost2010PropOp42
 70
     1
102
RTVSPost2010Prop43
 90
        3
102
RTVSPost2010PropOp43
 70
     1
102
RTVSPost2010Prop44ColorIndex
 90
        5
102
RTVSPost2010Prop44ColorRGB
 90
      255
102
RTVSPost2010PropOp44
 70
     1
102
RTVSPost2010Prop45
280
     0
102
RTVSPost2010PropOp45
 70
     1
102
RTVSPost2010Prop46
 90
       50
102
RTVSPost2010PropOp46
 70
     1
102
RTVSPost2010Prop47
 90
       50
102
RTVSPost2010PropOp47
 70
     1
102
RTVSPost2010Prop48
 90
       50
102
RTVSPost2010PropOp48
 70
     1
102
RTVSPost2010Prop49
280
     0
102
RTVSPost2010PropOp49
 70
     1
102
RTVSPost2010Prop50
 90
       50
102
RTVSPost2010PropOp50
 70
     1
102
RTVSPost2010Prop51ColorIndex
 90
      256
102
RTVSPost2010Prop51ColorRGB
 90
-16777216
102
RTVSPost2010PropOp51
 70
     0
102
RTVSPost2010Prop52
140
1.0
102
RTVSPost2010PropOp52
 70
     0
102
RTVSPost2010Prop53
 90
        2
102
RTVSPost2010PropOp53
 70
     1
102
RTVSPost2010Prop54
  1
strokes_ogs.tif
102
RTVSPost2010PropOp54
 70
     1
102
RTVSPost2010Prop55
280
     0
102
RTVSPost2010PropOp55
 70
     1
102
RTVSPost2010Prop56
140
1.0
102
RTVSPost2010PropOp56
 70
     1
102
RTVSPost2010Prop57
140
1.0
102
RTVSPost2010PropOp57
 70
     1
  0
XRECORD
  5
381
102
{ACAD_REACTORS
330
380
102
}
330
380
100
AcDbXrecord
280
     1
102
RTVSPost2010Prop28
280
     0
102
RTVSPost2010PropOp28
 70
     1
102
RTVSPost2010Prop29
280
     1
102
RTVSPost2010PropOp29
 70
     1
102
RTVSPost2010Prop30
280
     1
102
RTVSPost2010PropOp30
 70
     1
102
RTVSPost2010Prop31
280
     0
102
RTVSPost2010PropOp31
 70
     1
102
RTVSPost2010Prop32
280
     0
102
RTVSPost2010PropOp32
 70
     1
102
RTVSPost2010Prop33
280
     0
102
RTVSPost2010PropOp33
 70
     1
102
RTVSPost2010Prop34
280
     0
102
RTVSPost2010PropOp34
 70
     1
102
RTVSPost2010Prop35
280
     0
102
RTVSPost2010PropOp35
 70
     1
102
RTVSPost2010Prop36
280
     0
102
RTVSPost2010PropOp36
 70
     1
102
RTVSPost2010Prop37
 90
       50
102
RTVSPost2010PropOp37
 70
     1
102
RTVSPost2010Prop38
140
0.0
102
RTVSPost2010PropOp38
 70
     1
102
RTVSPost2010Prop39
140
1.0
102
RTVSPost2010PropOp39
 70
     1
102
RTVSPost2010Prop40
 90
        0
102
RTVSPost2010PropOp40
 70
     1
102
RTVSPost2010Prop41ColorIndex
 90
       18
102
RTVSPost2010Prop41ColorRGB
 90
        0
102
RTVSPost2010PropOp41
 70
     1
102
RTVSPost2010Prop42
 90
       50
102
RTVSPost2010PropOp42
 70
     1
102
RTVSPost2010Prop43
 90
        3
102
RTVSPost2010PropOp43
 70
     1
102
RTVSPost2010Prop44ColorIndex
 90
        5
102
RTVSPost2010Prop44ColorRGB
 90
      255
102
RTVSPost2010PropOp44
 70
     1
102
RTVSPost2010Prop45
280
     0
102
RTVSPost2010PropOp45
 70
     1
102
RTVSPost2010Prop46
 90
       50
102
RTVSPost2010PropOp46
 70
     1
102
RTVSPost2010Prop47
 90
       50
102
RTVSPost2010PropOp47
 70
     1
102
RTVSPost2010Prop48
 90
       50
102
RTVSPost2010PropOp48
 70
     1
102
RTVSPost2010Prop49
280
     0
102
RTVSPost2010PropOp49
 70
     1
102
RTVSPost2010Prop50
 90
       50
102
RTVSPost2010PropOp50
 70
     1
102
RTVSPost2010Prop51ColorIndex
 90
      256
102
RTVSPost2010Prop51ColorRGB
 90
-16777216
102
RTVSPost2010PropOp51
 70
     0
102
RTVSPost2010Prop52
140
1.0
102
RTVSPost2010PropOp52
 70
     0
102
RTVSPost2010Prop53
 90
        2
102
RTVSPost2010PropOp53
 70
     1
102
RTVSPost2010Prop54
  1
strokes_ogs.tif
102
RTVSPost2010PropOp54
 70
     1
102
RTVSPost2010Prop55
280
     0
102
RTVSPost2010PropOp55
 70
     1
102
RTVSPost2010Prop56
140
1.0
102
RTVSPost2010PropOp56
 70
     1
102
RTVSPost2010Prop57
140
1.0
102
RTVSPost2010PropOp57
 70
     1
  0
XRECORD
  5
391
102
{ACAD_REACTORS
330
390
102
}
330
390
100
AcDbXrecord
280
     1
102
RTVSPost2010Prop28
280
     0
102
RTVSPost2010PropOp28
 70
     0
102
RTVSPost2010Prop29
280
     1
102
RTVSPost2010PropOp29
 70
     0
102
RTVSPost2010Prop30
280
     1
102
RTVSPost2010PropOp30
 70
     0
102
RTVSPost2010Prop31
280
     0
102
RTVSPost2010PropOp31
 70
     0
102
RTVSPost2010Prop32
280
     0
102
RTVSPost2010PropOp32
 70
     0
102
RTVSPost2010Prop33
280
     0
102
RTVSPost2010PropOp33
 70
     0
102
RTVSPost2010Prop34
280
     0
102
RTVSPost2010PropOp34
 70
     0
102
RTVSPost2010Prop35
280
     0
102
RTVSPost2010PropOp35
 70
     0
102
RTVSPost2010Prop36
280
     0
102
RTVSPost2010PropOp36
 70
     0
102
RTVSPost2010Prop37
 90
       50
102
RTVSPost2010PropOp37
 70
     0
102
RTVSPost2010Prop38
140
0.0
102
RTVSPost2010PropOp38
 70
     0
102
RTVSPost2010Prop39
140
1.0
102
RTVSPost2010PropOp39
 70
     0
102
RTVSPost2010Prop40
 90
        0
102
RTVSPost2010PropOp40
 70
     0
102
RTVSPost2010Prop41ColorIndex
 90
       18
102
RTVSPost2010Prop41ColorRGB
 90
        0
102
RTVSPost2010PropOp41
 70
     0
102
RTVSPost2010Prop42
 90
       50
102
RTVSPost2010PropOp42
 70
     0
102
RTVSPost2010Prop43
 90
        3
102
RTVSPost2010PropOp43
 70
     0
102
RTVSPost2010Prop44ColorIndex
 90
        5
102
RTVSPost2010Prop44ColorRGB
 90
      255
102
RTVSPost2010PropOp44
 70
     0
102
RTVSPost2010Prop45
280
     0
102
RTVSPost2010PropOp45
 70
     0
102
RTVSPost2010Prop46
 90
       50
102
RTVSPost2010PropOp46
 70
     0
102
RTVSPost2010Prop47
 90
       50
102
RTVSPost2010PropOp47
 70
     0
102
RTVSPost2010Prop48
 90
       50
102
RTVSPost2010PropOp48
 70
     0
102
RTVSPost2010Prop49
280
     0
102
RTVSPost2010PropOp49
 70
     0
102
RTVSPost2010Prop50
 90
       50
102
RTVSPost2010PropOp50
 70
     0
102
RTVSPost2010Prop51ColorIndex
 90
      256
102
RTVSPost2010Prop51ColorRGB
 90
-16777216
102
RTVSPost2010PropOp51
 70
     0
102
RTVSPost2010Prop52
140
1.0
102
RTVSPost2010PropOp52
 70
     0
102
RTVSPost2010Prop53
 90
        2
102
RTVSPost2010PropOp53
 70
     0
102
RTVSPost2010Prop54
  1
strokes_ogs.tif
102
RTVSPost2010PropOp54
 70
     0
102
RTVSPost2010Prop55
280
     0
102
RTVSPost2010PropOp55
 70
     0
102
RTVSPost2010Prop56
140
1.0
102
RTVSPost2010PropOp56
 70
     0
102
RTVSPost2010Prop57
140
1.0
102
RTVSPost2010PropOp57
 70
     0
  0
XRECORD
  5
389
102
{ACAD_REACTORS
330
388
102
}
330
388
100
AcDbXrecord
280
     1
102
RTVSPost2010Prop28
280
     0
102
RTVSPost2010PropOp28
 70
     1
102
RTVSPost2010Prop29
280
     1
102
RTVSPost2010PropOp29
 70
     1
102
RTVSPost2010Prop30
280
     1
102
RTVSPost2010PropOp30
 70
     1
102
RTVSPost2010Prop31
280
     0
102
RTVSPost2010PropOp31
 70
     1
102
RTVSPost2010Prop32
280
     0
102
RTVSPost2010PropOp32
 70
     1
102
RTVSPost2010Prop33
280
     0
102
RTVSPost2010PropOp33
 70
     1
102
RTVSPost2010Prop34
280
     0
102
RTVSPost2010PropOp34
 70
     1
102
RTVSPost2010Prop35
280
     0
102
RTVSPost2010PropOp35
 70
     1
102
RTVSPost2010Prop36
280
     0
102
RTVSPost2010PropOp36
 70
     1
102
RTVSPost2010Prop37
 90
       50
102
RTVSPost2010PropOp37
 70
     1
102
RTVSPost2010Prop38
140
0.0
102
RTVSPost2010PropOp38
 70
     1
102
RTVSPost2010Prop39
140
1.0
102
RTVSPost2010PropOp39
 70
     1
102
RTVSPost2010Prop40
 90
        0
102
RTVSPost2010PropOp40
 70
     1
102
RTVSPost2010Prop41ColorIndex
 90
       18
102
RTVSPost2010Prop41ColorRGB
 90
        0
102
RTVSPost2010PropOp41
 70
     1
102
RTVSPost2010Prop42
 90
       50
102
RTVSPost2010PropOp42
 70
     1
102
RTVSPost2010Prop43
 90
        3
102
RTVSPost2010PropOp43
 70
     1
102
RTVSPost2010Prop44ColorIndex
 90
        5
102
RTVSPost2010Prop44ColorRGB
 90
      255
102
RTVSPost2010PropOp44
 70
     1
102
RTVSPost2010Prop45
280
     0
102
RTVSPost2010PropOp45
 70
     1
102
RTVSPost2010Prop46
 90
       50
102
RTVSPost2010PropOp46
 70
     1
102
RTVSPost2010Prop47
 90
       50
102
RTVSPost2010PropOp47
 70
     1
102
RTVSPost2010Prop48
 90
       50
102
RTVSPost2010PropOp48
 70
     1
102
RTVSPost2010Prop49
280
     0
102
RTVSPost2010PropOp49
 70
     1
102
RTVSPost2010Prop50
 90
       50
102
RTVSPost2010PropOp50
 70
     1
102
RTVSPost2010Prop51ColorIndex
 90
      256
102
RTVSPost2010Prop51ColorRGB
 90
-16777216
102
RTVSPost2010PropOp51
 70
     0
102
RTVSPost2010Prop52
140
1.0
102
RTVSPost2010PropOp52
 70
     0
102
RTVSPost2010Prop53
 90
        2
102
RTVSPost2010PropOp53
 70
     1
102
RTVSPost2010Prop54
  1
strokes_ogs.tif
102
RTVSPost2010PropOp54
 70
     1
102
RTVSPost2010Prop55
280
     0
102
RTVSPost2010PropOp55
 70
     1
102
RTVSPost2010Prop56
140
1.0
102
RTVSPost2010PropOp56
 70
     1
102
RTVSPost2010Prop57
140
1.0
102
RTVSPost2010PropOp57
 70
     1
  0
XRECORD
  5
36D
102
{ACAD_REACTORS
330
36C
102
}
330
36C
100
AcDbXrecord
280
     1
102
RTVSPost2010Prop28
280
     0
102
RTVSPost2010PropOp28
 70
     1
102
RTVSPost2010Prop29
280
     1
102
RTVSPost2010PropOp29
 70
     1
102
RTVSPost2010Prop30
280
     1
102
RTVSPost2010PropOp30
 70
     1
102
RTVSPost2010Prop31
280
     0
102
RTVSPost2010PropOp31
 70
     1
102
RTVSPost2010Prop32
280
     0
102
RTVSPost2010PropOp32
 70
     1
102
RTVSPost2010Prop33
280
     0
102
RTVSPost2010PropOp33
 70
     1
102
RTVSPost2010Prop34
280
     0
102
RTVSPost2010PropOp34
 70
     1
102
RTVSPost2010Prop35
280
     0
102
RTVSPost2010PropOp35
 70
     1
102
RTVSPost2010Prop36
280
     0
102
RTVSPost2010PropOp36
 70
     1
102
RTVSPost2010Prop37
 90
       50
102
RTVSPost2010PropOp37
 70
     1
102
RTVSPost2010Prop38
140
0.0
102
RTVSPost2010PropOp38
 70
     1
102
RTVSPost2010Prop39
140
1.0
102
RTVSPost2010PropOp39
 70
     1
102
RTVSPost2010Prop40
 90
        0
102
RTVSPost2010PropOp40
 70
     1
102
RTVSPost2010Prop41ColorIndex
 90
       18
102
RTVSPost2010Prop41ColorRGB
 90
        0
102
RTVSPost2010PropOp41
 70
     1
102
RTVSPost2010Prop42
 90
       50
102
RTVSPost2010PropOp42
 70
     1
102
RTVSPost2010Prop43
 90
        3
102
RTVSPost2010PropOp43
 70
     1
102
RTVSPost2010Prop44ColorIndex
 90
        5
102
RTVSPost2010Prop44ColorRGB
 90
      255
102
RTVSPost2010PropOp44
 70
     1
102
RTVSPost2010Prop45
280
     0
102
RTVSPost2010PropOp45
 70
     1
102
RTVSPost2010Prop46
 90
       50
102
RTVSPost2010PropOp46
 70
     1
102
RTVSPost2010Prop47
 90
       50
102
RTVSPost2010PropOp47
 70
     1
102
RTVSPost2010Prop48
 90
       50
102
RTVSPost2010PropOp48
 70
     1
102
RTVSPost2010Prop49
280
     0
102
RTVSPost2010PropOp49
 70
     1
102
RTVSPost2010Prop50
 90
       50
102
RTVSPost2010PropOp50
 70
     1
102
RTVSPost2010Prop51ColorIndex
 90
      256
102
RTVSPost2010Prop51ColorRGB
 90
-16777216
102
RTVSPost2010PropOp51
 70
     0
102
RTVSPost2010Prop52
140
1.0
102
RTVSPost2010PropOp52
 70
     0
102
RTVSPost2010Prop53
 90
        2
102
RTVSPost2010PropOp53
 70
     1
102
RTVSPost2010Prop54
  1
strokes_ogs.tif
102
RTVSPost2010PropOp54
 70
     1
102
RTVSPost2010Prop55
280
     0
102
RTVSPost2010PropOp55
 70
     1
102
RTVSPost2010Prop56
140
1.0
102
RTVSPost2010PropOp56
 70
     1
102
RTVSPost2010Prop57
140
1.0
102
RTVSPost2010PropOp57
 70
     1
  0
XRECORD
  5
36F
102
{ACAD_REACTORS
330
36E
102
}
330
36E
100
AcDbXrecord
280
     1
102
RTVSPost2010Prop28
280
     0
102
RTVSPost2010PropOp28
 70
     1
102
RTVSPost2010Prop29
280
     1
102
RTVSPost2010PropOp29
 70
     1
102
RTVSPost2010Prop30
280
     1
102
RTVSPost2010PropOp30
 70
     1
102
RTVSPost2010Prop31
280
     0
102
RTVSPost2010PropOp31
 70
     1
102
RTVSPost2010Prop32
280
     0
102
RTVSPost2010PropOp32
 70
     1
102
RTVSPost2010Prop33
280
     0
102
RTVSPost2010PropOp33
 70
     1
102
RTVSPost2010Prop34
280
     0
102
RTVSPost2010PropOp34
 70
     1
102
RTVSPost2010Prop35
280
     0
102
RTVSPost2010PropOp35
 70
     1
102
RTVSPost2010Prop36
280
     0
102
RTVSPost2010PropOp36
 70
     1
102
RTVSPost2010Prop37
 90
       50
102
RTVSPost2010PropOp37
 70
     1
102
RTVSPost2010Prop38
140
0.0
102
RTVSPost2010PropOp38
 70
     1
102
RTVSPost2010Prop39
140
1.0
102
RTVSPost2010PropOp39
 70
     1
102
RTVSPost2010Prop40
 90
        0
102
RTVSPost2010PropOp40
 70
     1
102
RTVSPost2010Prop41ColorIndex
 90
       18
102
RTVSPost2010Prop41ColorRGB
 90
        0
102
RTVSPost2010PropOp41
 70
     1
102
RTVSPost2010Prop42
 90
       50
102
RTVSPost2010PropOp42
 70
     1
102
RTVSPost2010Prop43
 90
        3
102
RTVSPost2010PropOp43
 70
     1
102
RTVSPost2010Prop44ColorIndex
 90
        5
102
RTVSPost2010Prop44ColorRGB
 90
      255
102
RTVSPost2010PropOp44
 70
     1
102
RTVSPost2010Prop45
280
     0
102
RTVSPost2010PropOp45
 70
     1
102
RTVSPost2010Prop46
 90
       50
102
RTVSPost2010PropOp46
 70
     1
102
RTVSPost2010Prop47
 90
       50
102
RTVSPost2010PropOp47
 70
     1
102
RTVSPost2010Prop48
 90
       50
102
RTVSPost2010PropOp48
 70
     1
102
RTVSPost2010Prop49
280
     0
102
RTVSPost2010PropOp49
 70
     1
102
RTVSPost2010Prop50
 90
       50
102
RTVSPost2010PropOp50
 70
     1
102
RTVSPost2010Prop51ColorIndex
 90
      256
102
RTVSPost2010Prop51ColorRGB
 90
-16777216
102
RTVSPost2010PropOp51
 70
     0
102
RTVSPost2010Prop52
140
1.0
102
RTVSPost2010PropOp52
 70
     0
102
RTVSPost2010Prop53
 90
        2
102
RTVSPost2010PropOp53
 70
     1
102
RTVSPost2010Prop54
  1
strokes_ogs.tif
102
RTVSPost2010PropOp54
 70
     1
102
RTVSPost2010Prop55
280
     0
102
RTVSPost2010PropOp55
 70
     1
102
RTVSPost2010Prop56
140
1.0
102
RTVSPost2010PropOp56
 70
     1
102
RTVSPost2010Prop57
140
1.0
102
RTVSPost2010PropOp57
 70
     1
  0
XRECORD
  5
371
102
{ACAD_REACTORS
330
370
102
}
330
370
100
AcDbXrecord
280
     1
102
RTVSPost2010Prop28
280
     0
102
RTVSPost2010PropOp28
 70
     1
102
RTVSPost2010Prop29
280
     1
102
RTVSPost2010PropOp29
 70
     1
102
RTVSPost2010Prop30
280
     1
102
RTVSPost2010PropOp30
 70
     1
102
RTVSPost2010Prop31
280
     0
102
RTVSPost2010PropOp31
 70
     1
102
RTVSPost2010Prop32
280
     0
102
RTVSPost2010PropOp32
 70
     1
102
RTVSPost2010Prop33
280
     0
102
RTVSPost2010PropOp33
 70
     1
102
RTVSPost2010Prop34
280
     0
102
RTVSPost2010PropOp34
 70
     1
102
RTVSPost2010Prop35
280
     0
102
RTVSPost2010PropOp35
 70
     1
102
RTVSPost2010Prop36
280
     0
102
RTVSPost2010PropOp36
 70
     1
102
RTVSPost2010Prop37
 90
       50
102
RTVSPost2010PropOp37
 70
     1
102
RTVSPost2010Prop38
140
0.0
102
RTVSPost2010PropOp38
 70
     1
102
RTVSPost2010Prop39
140
1.0
102
RTVSPost2010PropOp39
 70
     1
102
RTVSPost2010Prop40
 90
        0
102
RTVSPost2010PropOp40
 70
     1
102
RTVSPost2010Prop41ColorIndex
 90
       18
102
RTVSPost2010Prop41ColorRGB
 90
        0
102
RTVSPost2010PropOp41
 70
     1
102
RTVSPost2010Prop42
 90
       50
102
RTVSPost2010PropOp42
 70
     1
102
RTVSPost2010Prop43
 90
        3
102
RTVSPost2010PropOp43
 70
     1
102
RTVSPost2010Prop44ColorIndex
 90
        5
102
RTVSPost2010Prop44ColorRGB
 90
      255
102
RTVSPost2010PropOp44
 70
     1
102
RTVSPost2010Prop45
280
     0
102
RTVSPost2010PropOp45
 70
     1
102
RTVSPost2010Prop46
 90
       50
102
RTVSPost2010PropOp46
 70
     1
102
RTVSPost2010Prop47
 90
       50
102
RTVSPost2010PropOp47
 70
     1
102
RTVSPost2010Prop48
 90
       50
102
RTVSPost2010PropOp48
 70
     1
102
RTVSPost2010Prop49
280
     0
102
RTVSPost2010PropOp49
 70
     1
102
RTVSPost2010Prop50
 90
       50
102
RTVSPost2010PropOp50
 70
     1
102
RTVSPost2010Prop51ColorIndex
 90
      256
102
RTVSPost2010Prop51ColorRGB
 90
-16777216
102
RTVSPost2010PropOp51
 70
     0
102
RTVSPost2010Prop52
140
1.0
102
RTVSPost2010PropOp52
 70
     0
102
RTVSPost2010Prop53
 90
        2
102
RTVSPost2010PropOp53
 70
     1
102
RTVSPost2010Prop54
  1
strokes_ogs.tif
102
RTVSPost2010PropOp54
 70
     1
102
RTVSPost2010Prop55
280
     0
102
RTVSPost2010PropOp55
 70
     1
102
RTVSPost2010Prop56
140
1.0
102
RTVSPost2010PropOp56
 70
     1
102
RTVSPost2010Prop57
140
1.0
102
RTVSPost2010PropOp57
 70
     1
  0
XRECORD
  5
373
102
{ACAD_REACTORS
330
372
102
}
330
372
100
AcDbXrecord
280
     1
102
RTVSPost2010Prop28
280
     0
102
RTVSPost2010PropOp28
 70
     1
102
RTVSPost2010Prop29
280
     1
102
RTVSPost2010PropOp29
 70
     1
102
RTVSPost2010Prop30
280
     1
102
RTVSPost2010PropOp30
 70
     1
102
RTVSPost2010Prop31
280
     0
102
RTVSPost2010PropOp31
 70
     1
102
RTVSPost2010Prop32
280
     0
102
RTVSPost2010PropOp32
 70
     1
102
RTVSPost2010Prop33
280
     0
102
RTVSPost2010PropOp33
 70
     1
102
RTVSPost2010Prop34
280
     0
102
RTVSPost2010PropOp34
 70
     1
102
RTVSPost2010Prop35
280
     0
102
RTVSPost2010PropOp35
 70
     1
102
RTVSPost2010Prop36
280
     0
102
RTVSPost2010PropOp36
 70
     1
102
RTVSPost2010Prop37
 90
       50
102
RTVSPost2010PropOp37
 70
     1
102
RTVSPost2010Prop38
140
0.0
102
RTVSPost2010PropOp38
 70
     1
102
RTVSPost2010Prop39
140
1.0
102
RTVSPost2010PropOp39
 70
     1
102
RTVSPost2010Prop40
 90
        0
102
RTVSPost2010PropOp40
 70
     1
102
RTVSPost2010Prop41ColorIndex
 90
       18
102
RTVSPost2010Prop41ColorRGB
 90
        0
102
RTVSPost2010PropOp41
 70
     1
102
RTVSPost2010Prop42
 90
       50
102
RTVSPost2010PropOp42
 70
     1
102
RTVSPost2010Prop43
 90
        3
102
RTVSPost2010PropOp43
 70
     1
102
RTVSPost2010Prop44ColorIndex
 90
        5
102
RTVSPost2010Prop44ColorRGB
 90
      255
102
RTVSPost2010PropOp44
 70
     1
102
RTVSPost2010Prop45
280
     0
102
RTVSPost2010PropOp45
 70
     1
102
RTVSPost2010Prop46
 90
       50
102
RTVSPost2010PropOp46
 70
     1
102
RTVSPost2010Prop47
 90
       50
102
RTVSPost2010PropOp47
 70
     1
102
RTVSPost2010Prop48
 90
       50
102
RTVSPost2010PropOp48
 70
     1
102
RTVSPost2010Prop49
280
     0
102
RTVSPost2010PropOp49
 70
     1
102
RTVSPost2010Prop50
 90
       50
102
RTVSPost2010PropOp50
 70
     1
102
RTVSPost2010Prop51ColorIndex
 90
      256
102
RTVSPost2010Prop51ColorRGB
 90
-16777216
102
RTVSPost2010PropOp51
 70
     0
102
RTVSPost2010Prop52
140
1.0
102
RTVSPost2010PropOp52
 70
     0
102
RTVSPost2010Prop53
 90
        2
102
RTVSPost2010PropOp53
 70
     1
102
RTVSPost2010Prop54
  1
strokes_ogs.tif
102
RTVSPost2010PropOp54
 70
     1
102
RTVSPost2010Prop55
280
     0
102
RTVSPost2010PropOp55
 70
     1
102
RTVSPost2010Prop56
140
1.0
102
RTVSPost2010PropOp56
 70
     1
102
RTVSPost2010Prop57
140
1.0
102
RTVSPost2010PropOp57
 70
     1
  0
XRECORD
  5
379
102
{ACAD_REACTORS
330
378
102
}
330
378
100
AcDbXrecord
280
     1
102
RTVSPost2010Prop28
280
     0
102
RTVSPost2010PropOp28
 70
     1
102
RTVSPost2010Prop29
280
     1
102
RTVSPost2010PropOp29
 70
     1
102
RTVSPost2010Prop30
280
     1
102
RTVSPost2010PropOp30
 70
     1
102
RTVSPost2010Prop31
280
     0
102
RTVSPost2010PropOp31
 70
     1
102
RTVSPost2010Prop32
280
     0
102
RTVSPost2010PropOp32
 70
     1
102
RTVSPost2010Prop33
280
     0
102
RTVSPost2010PropOp33
 70
     1
102
RTVSPost2010Prop34
280
     0
102
RTVSPost2010PropOp34
 70
     1
102
RTVSPost2010Prop35
280
     0
102
RTVSPost2010PropOp35
 70
     1
102
RTVSPost2010Prop36
280
     0
102
RTVSPost2010PropOp36
 70
     1
102
RTVSPost2010Prop37
 90
       50
102
RTVSPost2010PropOp37
 70
     1
102
RTVSPost2010Prop38
140
0.0
102
RTVSPost2010PropOp38
 70
     1
102
RTVSPost2010Prop39
140
1.0
102
RTVSPost2010PropOp39
 70
     1
102
RTVSPost2010Prop40
 90
        0
102
RTVSPost2010PropOp40
 70
     1
102
RTVSPost2010Prop41ColorIndex
 90
       18
102
RTVSPost2010Prop41ColorRGB
 90
        0
102
RTVSPost2010PropOp41
 70
     1
102
RTVSPost2010Prop42
 90
       50
102
RTVSPost2010PropOp42
 70
     1
102
RTVSPost2010Prop43
 90
        3
102
RTVSPost2010PropOp43
 70
     1
102
RTVSPost2010Prop44ColorIndex
 90
        5
102
RTVSPost2010Prop44ColorRGB
 90
      255
102
RTVSPost2010PropOp44
 70
     1
102
RTVSPost2010Prop45
280
     0
102
RTVSPost2010PropOp45
 70
     1
102
RTVSPost2010Prop46
 90
       50
102
RTVSPost2010PropOp46
 70
     1
102
RTVSPost2010Prop47
 90
       50
102
RTVSPost2010PropOp47
 70
     1
102
RTVSPost2010Prop48
 90
       50
102
RTVSPost2010PropOp48
 70
     1
102
RTVSPost2010Prop49
280
     0
102
RTVSPost2010PropOp49
 70
     1
102
RTVSPost2010Prop50
 90
       50
102
RTVSPost2010PropOp50
 70
     1
102
RTVSPost2010Prop51ColorIndex
 90
      256
102
RTVSPost2010Prop51ColorRGB
 90
-16777216
102
RTVSPost2010PropOp51
 70
     0
102
RTVSPost2010Prop52
140
1.0
102
RTVSPost2010PropOp52
 70
     0
102
RTVSPost2010Prop53
 90
        2
102
RTVSPost2010PropOp53
 70
     1
102
RTVSPost2010Prop54
  1
strokes_ogs.tif
102
RTVSPost2010PropOp54
 70
     1
102
RTVSPost2010Prop55
280
     0
102
RTVSPost2010PropOp55
 70
     1
102
RTVSPost2010Prop56
140
1.0
102
RTVSPost2010PropOp56
 70
     1
102
RTVSPost2010Prop57
140
1.0
102
RTVSPost2010PropOp57
 70
     1
  0
XRECORD
  5
38D
102
{ACAD_REACTORS
330
38C
102
}
330
38C
100
AcDbXrecord
280
     1
102
RTVSPost2010Prop28
280
     0
102
RTVSPost2010PropOp28
 70
     0
102
RTVSPost2010Prop29
280
     1
102
RTVSPost2010PropOp29
 70
     0
102
RTVSPost2010Prop30
280
     1
102
RTVSPost2010PropOp30
 70
     0
102
RTVSPost2010Prop31
280
     0
102
RTVSPost2010PropOp31
 70
     0
102
RTVSPost2010Prop32
280
     0
102
RTVSPost2010PropOp32
 70
     0
102
RTVSPost2010Prop33
280
     0
102
RTVSPost2010PropOp33
 70
     0
102
RTVSPost2010Prop34
280
     0
102
RTVSPost2010PropOp34
 70
     0
102
RTVSPost2010Prop35
280
     0
102
RTVSPost2010PropOp35
 70
     0
102
RTVSPost2010Prop36
280
     0
102
RTVSPost2010PropOp36
 70
     0
102
RTVSPost2010Prop37
 90
       50
102
RTVSPost2010PropOp37
 70
     0
102
RTVSPost2010Prop38
140
0.0
102
RTVSPost2010PropOp38
 70
     0
102
RTVSPost2010Prop39
140
1.0
102
RTVSPost2010PropOp39
 70
     0
102
RTVSPost2010Prop40
 90
        0
102
RTVSPost2010PropOp40
 70
     0
102
RTVSPost2010Prop41ColorIndex
 90
       18
102
RTVSPost2010Prop41ColorRGB
 90
        0
102
RTVSPost2010PropOp41
 70
     0
102
RTVSPost2010Prop42
 90
       50
102
RTVSPost2010PropOp42
 70
     0
102
RTVSPost2010Prop43
 90
        3
102
RTVSPost2010PropOp43
 70
     0
102
RTVSPost2010Prop44ColorIndex
 90
        5
102
RTVSPost2010Prop44ColorRGB
 90
      255
102
RTVSPost2010PropOp44
 70
     0
102
RTVSPost2010Prop45
280
     0
102
RTVSPost2010PropOp45
 70
     0
102
RTVSPost2010Prop46
 90
       50
102
RTVSPost2010PropOp46
 70
     0
102
RTVSPost2010Prop47
 90
       50
102
RTVSPost2010PropOp47
 70
     0
102
RTVSPost2010Prop48
 90
       50
102
RTVSPost2010PropOp48
 70
     0
102
RTVSPost2010Prop49
280
     0
102
RTVSPost2010PropOp49
 70
     0
102
RTVSPost2010Prop50
 90
       50
102
RTVSPost2010PropOp50
 70
     0
102
RTVSPost2010Prop51ColorIndex
 90
      256
102
RTVSPost2010Prop51ColorRGB
 90
-16777216
102
RTVSPost2010PropOp51
 70
     0
102
RTVSPost2010Prop52
140
1.0
102
RTVSPost2010PropOp52
 70
     0
102
RTVSPost2010Prop53
 90
        2
102
RTVSPost2010PropOp53
 70
     0
102
RTVSPost2010Prop54
  1
strokes_ogs.tif
102
RTVSPost2010PropOp54
 70
     0
102
RTVSPost2010Prop55
280
     0
102
RTVSPost2010PropOp55
 70
     0
102
RTVSPost2010Prop56
140
1.0
102
RTVSPost2010PropOp56
 70
     0
102
RTVSPost2010Prop57
140
1.0
102
RTVSPost2010PropOp57
 70
     0
  0
XRECORD
  5
387
102
{ACAD_REACTORS
330
386
102
}
330
386
100
AcDbXrecord
280
     1
102
RTVSPost2010Prop28
280
     0
102
RTVSPost2010PropOp28
 70
     1
102
RTVSPost2010Prop29
280
     1
102
RTVSPost2010PropOp29
 70
     1
102
RTVSPost2010Prop30
280
     1
102
RTVSPost2010PropOp30
 70
     1
102
RTVSPost2010Prop31
280
     0
102
RTVSPost2010PropOp31
 70
     1
102
RTVSPost2010Prop32
280
     0
102
RTVSPost2010PropOp32
 70
     1
102
RTVSPost2010Prop33
280
     0
102
RTVSPost2010PropOp33
 70
     1
102
RTVSPost2010Prop34
280
     0
102
RTVSPost2010PropOp34
 70
     1
102
RTVSPost2010Prop35
280
     0
102
RTVSPost2010PropOp35
 70
     1
102
RTVSPost2010Prop36
280
     0
102
RTVSPost2010PropOp36
 70
     1
102
RTVSPost2010Prop37
 90
       50
102
RTVSPost2010PropOp37
 70
     1
102
RTVSPost2010Prop38
140
0.0
102
RTVSPost2010PropOp38
 70
     1
102
RTVSPost2010Prop39
140
1.0
102
RTVSPost2010PropOp39
 70
     1
102
RTVSPost2010Prop40
 90
        0
102
RTVSPost2010PropOp40
 70
     1
102
RTVSPost2010Prop41ColorIndex
 90
       18
102
RTVSPost2010Prop41ColorRGB
 90
        0
102
RTVSPost2010PropOp41
 70
     1
102
RTVSPost2010Prop42
 90
       50
102
RTVSPost2010PropOp42
 70
     1
102
RTVSPost2010Prop43
 90
        3
102
RTVSPost2010PropOp43
 70
     1
102
RTVSPost2010Prop44ColorIndex
 90
        5
102
RTVSPost2010Prop44ColorRGB
 90
      255
102
RTVSPost2010PropOp44
 70
     1
102
RTVSPost2010Prop45
280
     0
102
RTVSPost2010PropOp45
 70
     1
102
RTVSPost2010Prop46
 90
       50
102
RTVSPost2010PropOp46
 70
     1
102
RTVSPost2010Prop47
 90
       50
102
RTVSPost2010PropOp47
 70
     1
102
RTVSPost2010Prop48
 90
       50
102
RTVSPost2010PropOp48
 70
     1
102
RTVSPost2010Prop49
280
     0
102
RTVSPost2010PropOp49
 70
     1
102
RTVSPost2010Prop50
 90
       50
102
RTVSPost2010PropOp50
 70
     1
102
RTVSPost2010Prop51ColorIndex
 90
      256
102
RTVSPost2010Prop51ColorRGB
 90
-16777216
102
RTVSPost2010PropOp51
 70
     0
102
RTVSPost2010Prop52
140
1.0
102
RTVSPost2010PropOp52
 70
     0
102
RTVSPost2010Prop53
 90
        2
102
RTVSPost2010PropOp53
 70
     1
102
RTVSPost2010Prop54
  1
strokes_ogs.tif
102
RTVSPost2010PropOp54
 70
     1
102
RTVSPost2010Prop55
280
     0
102
RTVSPost2010PropOp55
 70
     1
102
RTVSPost2010Prop56
140
1.0
102
RTVSPost2010PropOp56
 70
     1
102
RTVSPost2010Prop57
140
1.0
102
RTVSPost2010PropOp57
 70
     1
  0
XRECORD
  5
38F
102
{ACAD_REACTORS
330
38E
102
}
330
38E
100
AcDbXrecord
280
     1
102
RTVSPost2010Prop28
280
     0
102
RTVSPost2010PropOp28
 70
     0
102
RTVSPost2010Prop29
280
     1
102
RTVSPost2010PropOp29
 70
     0
102
RTVSPost2010Prop30
280
     1
102
RTVSPost2010PropOp30
 70
     0
102
RTVSPost2010Prop31
280
     0
102
RTVSPost2010PropOp31
 70
     0
102
RTVSPost2010Prop32
280
     0
102
RTVSPost2010PropOp32
 70
     0
102
RTVSPost2010Prop33
280
     0
102
RTVSPost2010PropOp33
 70
     0
102
RTVSPost2010Prop34
280
     0
102
RTVSPost2010PropOp34
 70
     0
102
RTVSPost2010Prop35
280
     0
102
RTVSPost2010PropOp35
 70
     0
102
RTVSPost2010Prop36
280
     0
102
RTVSPost2010PropOp36
 70
     0
102
RTVSPost2010Prop37
 90
       50
102
RTVSPost2010PropOp37
 70
     0
102
RTVSPost2010Prop38
140
0.0
102
RTVSPost2010PropOp38
 70
     0
102
RTVSPost2010Prop39
140
1.0
102
RTVSPost2010PropOp39
 70
     0
102
RTVSPost2010Prop40
 90
        0
102
RTVSPost2010PropOp40
 70
     0
102
RTVSPost2010Prop41ColorIndex
 90
       18
102
RTVSPost2010Prop41ColorRGB
 90
        0
102
RTVSPost2010PropOp41
 70
     0
102
RTVSPost2010Prop42
 90
       50
102
RTVSPost2010PropOp42
 70
     0
102
RTVSPost2010Prop43
 90
        3
102
RTVSPost2010PropOp43
 70
     0
102
RTVSPost2010Prop44ColorIndex
 90
        5
102
RTVSPost2010Prop44ColorRGB
 90
      255
102
RTVSPost2010PropOp44
 70
     0
102
RTVSPost2010Prop45
280
     0
102
RTVSPost2010PropOp45
 70
     0
102
RTVSPost2010Prop46
 90
       50
102
RTVSPost2010PropOp46
 70
     0
102
RTVSPost2010Prop47
 90
       50
102
RTVSPost2010PropOp47
 70
     0
102
RTVSPost2010Prop48
 90
       50
102
RTVSPost2010PropOp48
 70
     0
102
RTVSPost2010Prop49
280
     0
102
RTVSPost2010PropOp49
 70
     0
102
RTVSPost2010Prop50
 90
       50
102
RTVSPost2010PropOp50
 70
     0
102
RTVSPost2010Prop51ColorIndex
 90
      256
102
RTVSPost2010Prop51ColorRGB
 90
-16777216
102
RTVSPost2010PropOp51
 70
     0
102
RTVSPost2010Prop52
140
1.0
102
RTVSPost2010PropOp52
 70
     0
102
RTVSPost2010Prop53
 90
        2
102
RTVSPost2010PropOp53
 70
     0
102
RTVSPost2010Prop54
  1
strokes_ogs.tif
102
RTVSPost2010PropOp54
 70
     0
102
RTVSPost2010Prop55
280
     0
102
RTVSPost2010PropOp55
 70
     0
102
RTVSPost2010Prop56
140
1.0
102
RTVSPost2010PropOp56
 70
     0
102
RTVSPost2010Prop57
140
1.0
102
RTVSPost2010PropOp57
 70
     0
  0
XRECORD
  5
37D
102
{ACAD_REACTORS
330
37C
102
}
330
37C
100
AcDbXrecord
280
     1
102
RTVSPost2010Prop28
280
     0
102
RTVSPost2010PropOp28
 70
     1
102
RTVSPost2010Prop29
280
     1
102
RTVSPost2010PropOp29
 70
     1
102
RTVSPost2010Prop30
280
     1
102
RTVSPost2010PropOp30
 70
     1
102
RTVSPost2010Prop31
280
     0
102
RTVSPost2010PropOp31
 70
     1
102
RTVSPost2010Prop32
280
     0
102
RTVSPost2010PropOp32
 70
     1
102
RTVSPost2010Prop33
280
     0
102
RTVSPost2010PropOp33
 70
     1
102
RTVSPost2010Prop34
280
     0
102
RTVSPost2010PropOp34
 70
     1
102
RTVSPost2010Prop35
280
     0
102
RTVSPost2010PropOp35
 70
     1
102
RTVSPost2010Prop36
280
     0
102
RTVSPost2010PropOp36
 70
     1
102
RTVSPost2010Prop37
 90
       50
102
RTVSPost2010PropOp37
 70
     1
102
RTVSPost2010Prop38
140
0.0
102
RTVSPost2010PropOp38
 70
     1
102
RTVSPost2010Prop39
140
1.0
102
RTVSPost2010PropOp39
 70
     1
102
RTVSPost2010Prop40
 90
        0
102
RTVSPost2010PropOp40
 70
     1
102
RTVSPost2010Prop41ColorIndex
 90
       18
102
RTVSPost2010Prop41ColorRGB
 90
        0
102
RTVSPost2010PropOp41
 70
     1
102
RTVSPost2010Prop42
 90
       50
102
RTVSPost2010PropOp42
 70
     1
102
RTVSPost2010Prop43
 90
        3
102
RTVSPost2010PropOp43
 70
     1
102
RTVSPost2010Prop44ColorIndex
 90
        5
102
RTVSPost2010Prop44ColorRGB
 90
      255
102
RTVSPost2010PropOp44
 70
     1
102
RTVSPost2010Prop45
280
     0
102
RTVSPost2010PropOp45
 70
     1
102
RTVSPost2010Prop46
 90
       50
102
RTVSPost2010PropOp46
 70
     1
102
RTVSPost2010Prop47
 90
       50
102
RTVSPost2010PropOp47
 70
     1
102
RTVSPost2010Prop48
 90
       50
102
RTVSPost2010PropOp48
 70
     1
102
RTVSPost2010Prop49
280
     0
102
RTVSPost2010PropOp49
 70
     1
102
RTVSPost2010Prop50
 90
       50
102
RTVSPost2010PropOp50
 70
     1
102
RTVSPost2010Prop51ColorIndex
 90
      256
102
RTVSPost2010Prop51ColorRGB
 90
-16777216
102
RTVSPost2010PropOp51
 70
     0
102
RTVSPost2010Prop52
140
1.0
102
RTVSPost2010PropOp52
 70
     0
102
RTVSPost2010Prop53
 90
        2
102
RTVSPost2010PropOp53
 70
     1
102
RTVSPost2010Prop54
  1
strokes_ogs.tif
102
RTVSPost2010PropOp54
 70
     1
102
RTVSPost2010Prop55
280
     0
102
RTVSPost2010PropOp55
 70
     1
102
RTVSPost2010Prop56
140
1.0
102
RTVSPost2010PropOp56
 70
     1
102
RTVSPost2010Prop57
140
1.0
102
RTVSPost2010PropOp57
 70
     1
  0
XRECORD
  5
39B
102
{ACAD_REACTORS
330
39A
102
}
330
39A
100
AcDbXrecord
280
     1
102
RTVSPost2010Prop28
280
     0
102
RTVSPost2010PropOp28
 70
     1
102
RTVSPost2010Prop29
280
     1
102
RTVSPost2010PropOp29
 70
     1
102
RTVSPost2010Prop30
280
     1
102
RTVSPost2010PropOp30
 70
     1
102
RTVSPost2010Prop31
280
     0
102
RTVSPost2010PropOp31
 70
     1
102
RTVSPost2010Prop32
280
     0
102
RTVSPost2010PropOp32
 70
     1
102
RTVSPost2010Prop33
280
     0
102
RTVSPost2010PropOp33
 70
     1
102
RTVSPost2010Prop34
280
     0
102
RTVSPost2010PropOp34
 70
     1
102
RTVSPost2010Prop35
280
     0
102
RTVSPost2010PropOp35
 70
     1
102
RTVSPost2010Prop36
280
     0
102
RTVSPost2010PropOp36
 70
     1
102
RTVSPost2010Prop37
 90
       50
102
RTVSPost2010PropOp37
 70
     1
102
RTVSPost2010Prop38
140
0.0
102
RTVSPost2010PropOp38
 70
     1
102
RTVSPost2010Prop39
140
1.0
102
RTVSPost2010PropOp39
 70
     1
102
RTVSPost2010Prop40
 90
        0
102
RTVSPost2010PropOp40
 70
     1
102
RTVSPost2010Prop41ColorIndex
 90
       18
102
RTVSPost2010Prop41ColorRGB
 90
        0
102
RTVSPost2010PropOp41
 70
     1
102
RTVSPost2010Prop42
 90
       50
102
RTVSPost2010PropOp42
 70
     1
102
RTVSPost2010Prop43
 90
        3
102
RTVSPost2010PropOp43
 70
     1
102
RTVSPost2010Prop44ColorIndex
 90
        5
102
RTVSPost2010Prop44ColorRGB
 90
      255
102
RTVSPost2010PropOp44
 70
     1
102
RTVSPost2010Prop45
280
     0
102
RTVSPost2010PropOp45
 70
     1
102
RTVSPost2010Prop46
 90
       50
102
RTVSPost2010PropOp46
 70
     1
102
RTVSPost2010Prop47
 90
       50
102
RTVSPost2010PropOp47
 70
     1
102
RTVSPost2010Prop48
 90
       50
102
RTVSPost2010PropOp48
 70
     1
102
RTVSPost2010Prop49
280
     0
102
RTVSPost2010PropOp49
 70
     1
102
RTVSPost2010Prop50
 90
       50
102
RTVSPost2010PropOp50
 70
     1
102
RTVSPost2010Prop51ColorIndex
 90
      256
102
RTVSPost2010Prop51ColorRGB
 90
-16777216
102
RTVSPost2010PropOp51
 70
     0
102
RTVSPost2010Prop52
140
1.0
102
RTVSPost2010PropOp52
 70
     0
102
RTVSPost2010Prop53
 90
        2
102
RTVSPost2010PropOp53
 70
     1
102
RTVSPost2010Prop54
  1
strokes_ogs.tif
102
RTVSPost2010PropOp54
 70
     1
102
RTVSPost2010Prop55
280
     0
102
RTVSPost2010PropOp55
 70
     1
102
RTVSPost2010Prop56
140
1.0
102
RTVSPost2010PropOp56
 70
     1
102
RTVSPost2010Prop57
140
1.0
102
RTVSPost2010PropOp57
 70
     1
  0
XRECORD
  5
399
102
{ACAD_REACTORS
330
398
102
}
330
398
100
AcDbXrecord
280
     1
102
RTVSPost2010Prop28
280
     0
102
RTVSPost2010PropOp28
 70
     1
102
RTVSPost2010Prop29
280
     1
102
RTVSPost2010PropOp29
 70
     1
102
RTVSPost2010Prop30
280
     1
102
RTVSPost2010PropOp30
 70
     1
102
RTVSPost2010Prop31
280
     0
102
RTVSPost2010PropOp31
 70
     1
102
RTVSPost2010Prop32
280
     0
102
RTVSPost2010PropOp32
 70
     1
102
RTVSPost2010Prop33
280
     0
102
RTVSPost2010PropOp33
 70
     1
102
RTVSPost2010Prop34
280
     0
102
RTVSPost2010PropOp34
 70
     1
102
RTVSPost2010Prop35
280
     0
102
RTVSPost2010PropOp35
 70
     1
102
RTVSPost2010Prop36
280
     0
102
RTVSPost2010PropOp36
 70
     1
102
RTVSPost2010Prop37
 90
       50
102
RTVSPost2010PropOp37
 70
     1
102
RTVSPost2010Prop38
140
0.0
102
RTVSPost2010PropOp38
 70
     1
102
RTVSPost2010Prop39
140
1.0
102
RTVSPost2010PropOp39
 70
     1
102
RTVSPost2010Prop40
 90
        0
102
RTVSPost2010PropOp40
 70
     1
102
RTVSPost2010Prop41ColorIndex
 90
       18
102
RTVSPost2010Prop41ColorRGB
 90
        0
102
RTVSPost2010PropOp41
 70
     1
102
RTVSPost2010Prop42
 90
       50
102
RTVSPost2010PropOp42
 70
     1
102
RTVSPost2010Prop43
 90
        3
102
RTVSPost2010PropOp43
 70
     1
102
RTVSPost2010Prop44ColorIndex
 90
        5
102
RTVSPost2010Prop44ColorRGB
 90
      255
102
RTVSPost2010PropOp44
 70
     1
102
RTVSPost2010Prop45
280
     0
102
RTVSPost2010PropOp45
 70
     1
102
RTVSPost2010Prop46
 90
       50
102
RTVSPost2010PropOp46
 70
     1
102
RTVSPost2010Prop47
 90
       50
102
RTVSPost2010PropOp47
 70
     1
102
RTVSPost2010Prop48
 90
       50
102
RTVSPost2010PropOp48
 70
     1
102
RTVSPost2010Prop49
280
     0
102
RTVSPost2010PropOp49
 70
     1
102
RTVSPost2010Prop50
 90
       50
102
RTVSPost2010PropOp50
 70
     1
102
RTVSPost2010Prop51ColorIndex
 90
      256
102
RTVSPost2010Prop51ColorRGB
 90
-16777216
102
RTVSPost2010PropOp51
 70
     0
102
RTVSPost2010Prop52
140
1.0
102
RTVSPost2010PropOp52
 70
     0
102
RTVSPost2010Prop53
 90
        2
102
RTVSPost2010PropOp53
 70
     1
102
RTVSPost2010Prop54
  1
strokes_ogs.tif
102
RTVSPost2010PropOp54
 70
     1
102
RTVSPost2010Prop55
280
     0
102
RTVSPost2010PropOp55
 70
     1
102
RTVSPost2010Prop56
140
1.0
102
RTVSPost2010PropOp56
 70
     1
102
RTVSPost2010Prop57
140
1.0
102
RTVSPost2010PropOp57
 70
     1
  0
XRECORD
  5
393
102
{ACAD_REACTORS
330
392
102
}
330
392
100
AcDbXrecord
280
     1
102
RTVSPost2010Prop28
280
     0
102
RTVSPost2010PropOp28
 70
     1
102
RTVSPost2010Prop29
280
     1
102
RTVSPost2010PropOp29
 70
     1
102
RTVSPost2010Prop30
280
     1
102
RTVSPost2010PropOp30
 70
     1
102
RTVSPost2010Prop31
280
     0
102
RTVSPost2010PropOp31
 70
     1
102
RTVSPost2010Prop32
280
     0
102
RTVSPost2010PropOp32
 70
     1
102
RTVSPost2010Prop33
280
     0
102
RTVSPost2010PropOp33
 70
     1
102
RTVSPost2010Prop34
280
     0
102
RTVSPost2010PropOp34
 70
     1
102
RTVSPost2010Prop35
280
     0
102
RTVSPost2010PropOp35
 70
     1
102
RTVSPost2010Prop36
280
     0
102
RTVSPost2010PropOp36
 70
     1
102
RTVSPost2010Prop37
 90
       50
102
RTVSPost2010PropOp37
 70
     1
102
RTVSPost2010Prop38
140
0.0
102
RTVSPost2010PropOp38
 70
     1
102
RTVSPost2010Prop39
140
1.0
102
RTVSPost2010PropOp39
 70
     1
102
RTVSPost2010Prop40
 90
        0
102
RTVSPost2010PropOp40
 70
     1
102
RTVSPost2010Prop41ColorIndex
 90
       18
102
RTVSPost2010Prop41ColorRGB
 90
        0
102
RTVSPost2010PropOp41
 70
     1
102
RTVSPost2010Prop42
 90
       50
102
RTVSPost2010PropOp42
 70
     1
102
RTVSPost2010Prop43
 90
        3
102
RTVSPost2010PropOp43
 70
     1
102
RTVSPost2010Prop44ColorIndex
 90
        5
102
RTVSPost2010Prop44ColorRGB
 90
      255
102
RTVSPost2010PropOp44
 70
     1
102
RTVSPost2010Prop45
280
     0
102
RTVSPost2010PropOp45
 70
     1
102
RTVSPost2010Prop46
 90
       50
102
RTVSPost2010PropOp46
 70
     1
102
RTVSPost2010Prop47
 90
       50
102
RTVSPost2010PropOp47
 70
     1
102
RTVSPost2010Prop48
 90
       50
102
RTVSPost2010PropOp48
 70
     1
102
RTVSPost2010Prop49
280
     0
102
RTVSPost2010PropOp49
 70
     1
102
RTVSPost2010Prop50
 90
       50
102
RTVSPost2010PropOp50
 70
     1
102
RTVSPost2010Prop51ColorIndex
 90
      256
102
RTVSPost2010Prop51ColorRGB
 90
-16777216
102
RTVSPost2010PropOp51
 70
     0
102
RTVSPost2010Prop52
140
1.0
102
RTVSPost2010PropOp52
 70
     0
102
RTVSPost2010Prop53
 90
        2
102
RTVSPost2010PropOp53
 70
     1
102
RTVSPost2010Prop54
  1
strokes_ogs.tif
102
RTVSPost2010PropOp54
 70
     1
102
RTVSPost2010Prop55
280
     0
102
RTVSPost2010PropOp55
 70
     1
102
RTVSPost2010Prop56
140
1.0
102
RTVSPost2010PropOp56
 70
     1
102
RTVSPost2010Prop57
140
1.0
102
RTVSPost2010PropOp57
 70
     1
  0
XRECORD
  5
395
102
{ACAD_REACTORS
330
394
102
}
330
394
100
AcDbXrecord
280
     1
102
RTVSPost2010Prop28
280
     0
102
RTVSPost2010PropOp28
 70
     1
102
RTVSPost2010Prop29
280
     1
102
RTVSPost2010PropOp29
 70
     1
102
RTVSPost2010Prop30
280
     1
102
RTVSPost2010PropOp30
 70
     1
102
RTVSPost2010Prop31
280
     0
102
RTVSPost2010PropOp31
 70
     1
102
RTVSPost2010Prop32
280
     0
102
RTVSPost2010PropOp32
 70
     1
102
RTVSPost2010Prop33
280
     0
102
RTVSPost2010PropOp33
 70
     1
102
RTVSPost2010Prop34
280
     0
102
RTVSPost2010PropOp34
 70
     1
102
RTVSPost2010Prop35
280
     0
102
RTVSPost2010PropOp35
 70
     1
102
RTVSPost2010Prop36
280
     0
102
RTVSPost2010PropOp36
 70
     1
102
RTVSPost2010Prop37
 90
       50
102
RTVSPost2010PropOp37
 70
     1
102
RTVSPost2010Prop38
140
0.0
102
RTVSPost2010PropOp38
 70
     1
102
RTVSPost2010Prop39
140
1.0
102
RTVSPost2010PropOp39
 70
     1
102
RTVSPost2010Prop40
 90
        0
102
RTVSPost2010PropOp40
 70
     1
102
RTVSPost2010Prop41ColorIndex
 90
       18
102
RTVSPost2010Prop41ColorRGB
 90
        0
102
RTVSPost2010PropOp41
 70
     1
102
RTVSPost2010Prop42
 90
       50
102
RTVSPost2010PropOp42
 70
     1
102
RTVSPost2010Prop43
 90
        3
102
RTVSPost2010PropOp43
 70
     1
102
RTVSPost2010Prop44ColorIndex
 90
        5
102
RTVSPost2010Prop44ColorRGB
 90
      255
102
RTVSPost2010PropOp44
 70
     1
102
RTVSPost2010Prop45
280
     0
102
RTVSPost2010PropOp45
 70
     1
102
RTVSPost2010Prop46
 90
       50
102
RTVSPost2010PropOp46
 70
     1
102
RTVSPost2010Prop47
 90
       50
102
RTVSPost2010PropOp47
 70
     1
102
RTVSPost2010Prop48
 90
       50
102
RTVSPost2010PropOp48
 70
     1
102
RTVSPost2010Prop49
280
     0
102
RTVSPost2010PropOp49
 70
     1
102
RTVSPost2010Prop50
 90
       50
102
RTVSPost2010PropOp50
 70
     1
102
RTVSPost2010Prop51ColorIndex
 90
      256
102
RTVSPost2010Prop51ColorRGB
 90
-16777216
102
RTVSPost2010PropOp51
 70
     0
102
RTVSPost2010Prop52
140
1.0
102
RTVSPost2010PropOp52
 70
     0
102
RTVSPost2010Prop53
 90
        2
102
RTVSPost2010PropOp53
 70
     1
102
RTVSPost2010Prop54
  1
strokes_ogs.tif
102
RTVSPost2010PropOp54
 70
     1
102
RTVSPost2010Prop55
280
     0
102
RTVSPost2010PropOp55
 70
     1
102
RTVSPost2010Prop56
140
1.0
102
RTVSPost2010PropOp56
 70
     1
102
RTVSPost2010Prop57
140
1.0
102
RTVSPost2010PropOp57
 70
     1
  0
XRECORD
  5
385
102
{ACAD_REACTORS
330
384
102
}
330
384
100
AcDbXrecord
280
     1
102
RTVSPost2010Prop28
280
     0
102
RTVSPost2010PropOp28
 70
     1
102
RTVSPost2010Prop29
280
     1
102
RTVSPost2010PropOp29
 70
     1
102
RTVSPost2010Prop30
280
     1
102
RTVSPost2010PropOp30
 70
     1
102
RTVSPost2010Prop31
280
     0
102
RTVSPost2010PropOp31
 70
     1
102
RTVSPost2010Prop32
280
     0
102
RTVSPost2010PropOp32
 70
     1
102
RTVSPost2010Prop33
280
     0
102
RTVSPost2010PropOp33
 70
     1
102
RTVSPost2010Prop34
280
     0
102
RTVSPost2010PropOp34
 70
     1
102
RTVSPost2010Prop35
280
     0
102
RTVSPost2010PropOp35
 70
     1
102
RTVSPost2010Prop36
280
     0
102
RTVSPost2010PropOp36
 70
     1
102
RTVSPost2010Prop37
 90
       50
102
RTVSPost2010PropOp37
 70
     1
102
RTVSPost2010Prop38
140
0.0
102
RTVSPost2010PropOp38
 70
     1
102
RTVSPost2010Prop39
140
1.0
102
RTVSPost2010PropOp39
 70
     1
102
RTVSPost2010Prop40
 90
        0
102
RTVSPost2010PropOp40
 70
     1
102
RTVSPost2010Prop41ColorIndex
 90
       18
102
RTVSPost2010Prop41ColorRGB
 90
        0
102
RTVSPost2010PropOp41
 70
     1
102
RTVSPost2010Prop42
 90
       50
102
RTVSPost2010PropOp42
 70
     1
102
RTVSPost2010Prop43
 90
        3
102
RTVSPost2010PropOp43
 70
     1
102
RTVSPost2010Prop44ColorIndex
 90
        5
102
RTVSPost2010Prop44ColorRGB
 90
      255
102
RTVSPost2010PropOp44
 70
     1
102
RTVSPost2010Prop45
280
     0
102
RTVSPost2010PropOp45
 70
     1
102
RTVSPost2010Prop46
 90
       50
102
RTVSPost2010PropOp46
 70
     1
102
RTVSPost2010Prop47
 90
       50
102
RTVSPost2010PropOp47
 70
     1
102
RTVSPost2010Prop48
 90
       50
102
RTVSPost2010PropOp48
 70
     1
102
RTVSPost2010Prop49
280
     0
102
RTVSPost2010PropOp49
 70
     1
102
RTVSPost2010Prop50
 90
       50
102
RTVSPost2010PropOp50
 70
     1
102
RTVSPost2010Prop51ColorIndex
 90
      256
102
RTVSPost2010Prop51ColorRGB
 90
-16777216
102
RTVSPost2010PropOp51
 70
     0
102
RTVSPost2010Prop52
140
1.0
102
RTVSPost2010PropOp52
 70
     0
102
RTVSPost2010Prop53
 90
        2
102
RTVSPost2010PropOp53
 70
     1
102
RTVSPost2010Prop54
  1
strokes_ogs.tif
102
RTVSPost2010PropOp54
 70
     1
102
RTVSPost2010Prop55
280
     0
102
RTVSPost2010PropOp55
 70
     1
102
RTVSPost2010Prop56
140
1.0
102
RTVSPost2010PropOp56
 70
     1
102
RTVSPost2010Prop57
140
1.0
102
RTVSPost2010PropOp57
 70
     1
  0
XRECORD
  5
377
102
{ACAD_REACTORS
330
376
102
}
330
376
100
AcDbXrecord
280
     1
102
RTVSPost2010Prop28
280
     0
102
RTVSPost2010PropOp28
 70
     1
102
RTVSPost2010Prop29
280
     1
102
RTVSPost2010PropOp29
 70
     1
102
RTVSPost2010Prop30
280
     1
102
RTVSPost2010PropOp30
 70
     1
102
RTVSPost2010Prop31
280
     0
102
RTVSPost2010PropOp31
 70
     1
102
RTVSPost2010Prop32
280
     0
102
RTVSPost2010PropOp32
 70
     1
102
RTVSPost2010Prop33
280
     0
102
RTVSPost2010PropOp33
 70
     1
102
RTVSPost2010Prop34
280
     0
102
RTVSPost2010PropOp34
 70
     1
102
RTVSPost2010Prop35
280
     0
102
RTVSPost2010PropOp35
 70
     1
102
RTVSPost2010Prop36
280
     0
102
RTVSPost2010PropOp36
 70
     1
102
RTVSPost2010Prop37
 90
       50
102
RTVSPost2010PropOp37
 70
     1
102
RTVSPost2010Prop38
140
0.0
102
RTVSPost2010PropOp38
 70
     1
102
RTVSPost2010Prop39
140
1.0
102
RTVSPost2010PropOp39
 70
     1
102
RTVSPost2010Prop40
 90
        0
102
RTVSPost2010PropOp40
 70
     1
102
RTVSPost2010Prop41ColorIndex
 90
       18
102
RTVSPost2010Prop41ColorRGB
 90
        0
102
RTVSPost2010PropOp41
 70
     1
102
RTVSPost2010Prop42
 90
       50
102
RTVSPost2010PropOp42
 70
     1
102
RTVSPost2010Prop43
 90
        3
102
RTVSPost2010PropOp43
 70
     1
102
RTVSPost2010Prop44ColorIndex
 90
        5
102
RTVSPost2010Prop44ColorRGB
 90
      255
102
RTVSPost2010PropOp44
 70
     1
102
RTVSPost2010Prop45
280
     0
102
RTVSPost2010PropOp45
 70
     1
102
RTVSPost2010Prop46
 90
       50
102
RTVSPost2010PropOp46
 70
     1
102
RTVSPost2010Prop47
 90
       50
102
RTVSPost2010PropOp47
 70
     1
102
RTVSPost2010Prop48
 90
       50
102
RTVSPost2010PropOp48
 70
     1
102
RTVSPost2010Prop49
280
     0
102
RTVSPost2010PropOp49
 70
     1
102
RTVSPost2010Prop50
 90
       50
102
RTVSPost2010PropOp50
 70
     1
102
RTVSPost2010Prop51ColorIndex
 90
      256
102
RTVSPost2010Prop51ColorRGB
 90
-16777216
102
RTVSPost2010PropOp51
 70
     0
102
RTVSPost2010Prop52
140
1.0
102
RTVSPost2010PropOp52
 70
     0
102
RTVSPost2010Prop53
 90
        2
102
RTVSPost2010PropOp53
 70
     1
102
RTVSPost2010Prop54
  1
strokes_ogs.tif
102
RTVSPost2010PropOp54
 70
     1
102
RTVSPost2010Prop55
280
     0
102
RTVSPost2010PropOp55
 70
     1
102
RTVSPost2010Prop56
140
1.0
102
RTVSPost2010PropOp56
 70
     1
102
RTVSPost2010Prop57
140
1.0
102
RTVSPost2010PropOp57
 70
     1
  0
XRECORD
  5
397
102
{ACAD_REACTORS
330
396
102
}
330
396
100
AcDbXrecord
280
     1
102
RTVSPost2010Prop28
280
     0
102
RTVSPost2010PropOp28
 70
     1
102
RTVSPost2010Prop29
280
     1
102
RTVSPost2010PropOp29
 70
     1
102
RTVSPost2010Prop30
280
     1
102
RTVSPost2010PropOp30
 70
     1
102
RTVSPost2010Prop31
280
     0
102
RTVSPost2010PropOp31
 70
     1
102
RTVSPost2010Prop32
280
     0
102
RTVSPost2010PropOp32
 70
     1
102
RTVSPost2010Prop33
280
     0
102
RTVSPost2010PropOp33
 70
     1
102
RTVSPost2010Prop34
280
     0
102
RTVSPost2010PropOp34
 70
     1
102
RTVSPost2010Prop35
280
     0
102
RTVSPost2010PropOp35
 70
     1
102
RTVSPost2010Prop36
280
     0
102
RTVSPost2010PropOp36
 70
     1
102
RTVSPost2010Prop37
 90
       50
102
RTVSPost2010PropOp37
 70
     1
102
RTVSPost2010Prop38
140
0.0
102
RTVSPost2010PropOp38
 70
     1
102
RTVSPost2010Prop39
140
1.0
102
RTVSPost2010PropOp39
 70
     1
102
RTVSPost2010Prop40
 90
        0
102
RTVSPost2010PropOp40
 70
     1
102
RTVSPost2010Prop41ColorIndex
 90
       18
102
RTVSPost2010Prop41ColorRGB
 90
        0
102
RTVSPost2010PropOp41
 70
     1
102
RTVSPost2010Prop42
 90
       50
102
RTVSPost2010PropOp42
 70
     1
102
RTVSPost2010Prop43
 90
        3
102
RTVSPost2010PropOp43
 70
     1
102
RTVSPost2010Prop44ColorIndex
 90
        5
102
RTVSPost2010Prop44ColorRGB
 90
      255
102
RTVSPost2010PropOp44
 70
     1
102
RTVSPost2010Prop45
280
     0
102
RTVSPost2010PropOp45
 70
     1
102
RTVSPost2010Prop46
 90
       50
102
RTVSPost2010PropOp46
 70
     1
102
RTVSPost2010Prop47
 90
       50
102
RTVSPost2010PropOp47
 70
     1
102
RTVSPost2010Prop48
 90
       50
102
RTVSPost2010PropOp48
 70
     1
102
RTVSPost2010Prop49
280
     0
102
RTVSPost2010PropOp49
 70
     1
102
RTVSPost2010Prop50
 90
       50
102
RTVSPost2010PropOp50
 70
     1
102
RTVSPost2010Prop51ColorIndex
 90
      256
102
RTVSPost2010Prop51ColorRGB
 90
-16777216
102
RTVSPost2010PropOp51
 70
     0
102
RTVSPost2010Prop52
140
1.0
102
RTVSPost2010PropOp52
 70
     0
102
RTVSPost2010Prop53
 90
        2
102
RTVSPost2010PropOp53
 70
     1
102
RTVSPost2010Prop54
  1
strokes_ogs.tif
102
RTVSPost2010PropOp54
 70
     1
102
RTVSPost2010Prop55
280
     0
102
RTVSPost2010PropOp55
 70
     1
102
RTVSPost2010Prop56
140
1.0
102
RTVSPost2010PropOp56
 70
     1
102
RTVSPost2010Prop57
140
1.0
102
RTVSPost2010PropOp57
 70
     1
  0
ENDSEC
  0
EOF
