  0
SECTION
  2
HEADER
  9
$ACADVER
  1
AC1024
  9
$ACADMAINTVER
 70
     6
  9
$DWGCODEPAGE
  3
ANSI_1252
  9
$INSBASE
 10
0.0
 20
0.0
 30
0.0
  9
$EXTMIN
 10
-0.0635
 20
-0.0635
 30
0.0
  9
$EXTMAX
 10
2440.0635
 20
1220.0635
 30
0.0
  9
$LIMMIN
 10
-0.0635
 20
-0.0635
  9
$LIMMAX
 10
2440.0635
 20
1220.0635
  9
$ORTHOMODE
 70
     0
  9
$REGENMODE
 70
     1
  9
$FILLMODE
 70
     1
  9
$QTEXTMODE
 70
     0
  9
$MIRRTEXT
 70
     1
  9
$LTSCALE
 40
1.0
  9
$ATTMODE
 70
     1
  9
$TEXTSIZE
 40
0.2
  9
$TRACEWID
 40
0.05
  9
$TEXTSTYLE
  7
STANDARD
  9
$CLAYER
  8
default
  9
$CELTYPE
  6
BYLAYER
  9
$CECOLOR
 62
   256
  9
$CELTSCALE
 40
1.0
  9
$DISPSILH
 70
     0
  9
$DIMSCALE
 40
1.0
  9
$DIMASZ
 40
0.18
  9
$DIMEXO
 40
0.0625
  9
$DIMDLI
 40
0.38
  9
$DIMRND
 40
0.0
  9
$DIMDLE
 40
0.0
  9
$DIMEXE
 40
0.18
  9
$DIMTP
 40
0.0
  9
$DIMTM
 40
0.0
  9
$DIMTXT
 40
0.18
  9
$DIMCEN
 40
0.09
  9
$DIMTSZ
 40
0.0
  9
$DIMTOL
 70
     0
  9
$DIMLIM
 70
     0
  9
$DIMTIH
 70
     1
  9
$DIMTOH
 70
     1
  9
$DIMSE1
 70
     0
  9
$DIMSE2
 70
     0
  9
$DIMTAD
 70
     0
  9
$DIMZIN
 70
     0
  9
$DIMBLK
  1

  9
$DIMASO
 70
     1
  9
$DIMSHO
 70
     1
  9
$DIMPOST
  1

  9
$DIMAPOST
  1

  9
$DIMALT
 70
     0
  9
$DIMALTD
 70
     2
  9
$DIMALTF
 40
25.4
  9
$DIMLFAC
 40
1.0
  9
$DIMTOFL
 70
     0
  9
$DIMTVP
 40
0.0
  9
$DIMTIX
 70
     0
  9
$DIMSOXD
 70
     0
  9
$DIMSAH
 70
     0
  9
$DIMBLK1
  1

  9
$DIMBLK2
  1

  9
$DIMSTYLE
  2
STANDARD
  9
$DIMCLRD
 70
     0
  9
$DIMCLRE
 70
     0
  9
$DIMCLRT
 70
     0
  9
$DIMTFAC
 40
1.0
  9
$DIMGAP
 40
0.09
  9
$DIMJUST
 70
     0
  9
$DIMSD1
 70
     0
  9
$DIMSD2
 70
     0
  9
$DIMTOLJ
 70
     1
  9
$DIMTZIN
 70
     0
  9
$DIMALTZ
 70
     0
  9
$DIMALTTZ
 70
     0
  9
$DIMUPT
 70
     0
  9
$DIMDEC
 70
     4
  9
$DIMTDEC
 70
     4
  9
$DIMALTU
 70
     2
  9
$DIMALTTD
 70
     2
  9
$DIMTXSTY
  7
STANDARD
  9
$DIMAUNIT
 70
     0
  9
$DIMADEC
 70
     0
  9
$DIMALTRND
 40
0.0
  9
$DIMAZIN
 70
     0
  9
$DIMDSEP
 70
    46
  9
$DIMATFIT
 70
     3
  9
$DIMFRAC
 70
     0
  9
$DIMLDRBLK
  1

  9
$DIMLUNIT
 70
     2
  9
$DIMLWD
 70
    -2
  9
$DIMLWE
 70
    -2
  9
$DIMTMOVE
 70
     2
  9
$DIMFXL
 40
1.0
  9
$DIMFXLON
 70
     0
  9
$DIMJOGANG
 40
0.7853981633974483
  9
$DIMTFILL
 70
     0
  9
$DIMTFILLCLR
 70
     0
  9
$DIMARCSYM
 70
     0
  9
$DIMLTYPE
  6

  9
$DIMLTEX1
  6

  9
$DIMLTEX2
  6

  9
$DIMTXTDIRECTION
 70
     0
  9
$LUNITS
 70
     2
  9
$LUPREC
 70
     6
  9
$SKETCHINC
 40
0.1
  9
$FILLETRAD
 40
0.5
  9
$AUNITS
 70
     0
  9
$AUPREC
 70
     0
  9
$MENU
  1
.
  9
$ELEVATION
 40
0.0
  9
$PELEVATION
 40
0.0
  9
$THICKNESS
 40
0.0
  9
$LIMCHECK
 70
     0
  9
$CHAMFERA
 40
0.5
  9
$CHAMFERB
 40
0.5
  9
$CHAMFERC
 40
1.0
  9
$CHAMFERD
 40
0.0
  9
$SKPOLY
 70
     0
  9
$TDCREATE
 40
2457845.5492361
  9
$TDUCREATE
 40
2457845.215902766
  9
$TDUPDATE
 40
2457845.549241886
  9
$TDUUPDATE
 40
2457845.215908553
  9
$TDINDWG
 40
0.0
  9
$TDUSRTIMER
 40
0.0
  9
$USRTIMER
 70
     1
  9
$ANGBASE
 50
0.0
  9
$ANGDIR
 70
     0
  9
$PDMODE
 70
     0
  9
$PDSIZE
 40
0.0
  9
$PLINEWID
 40
0.0
  9
$SPLFRAME
 70
     0
  9
$SPLINETYPE
 70
     6
  9
$SPLINESEGS
 70
     8
  9
$HANDSEED
  5
285
  9
$SURFTAB1
 70
     6
  9
$SURFTAB2
 70
     6
  9
$SURFTYPE
 70
     6
  9
$SURFU
 70
     6
  9
$SURFV
 70
     6
  9
$UCSBASE
  2

  9
$UCSNAME
  2

  9
$UCSORG
 10
0.0
 20
0.0
 30
0.0
  9
$UCSXDIR
 10
1.0
 20
0.0
 30
0.0
  9
$UCSYDIR
 10
0.0
 20
1.0
 30
0.0
  9
$UCSORTHOREF
  2

  9
$UCSORTHOVIEW
 70
     0
  9
$UCSORGTOP
 10
0.0
 20
0.0
 30
0.0
  9
$UCSORGBOTTOM
 10
0.0
 20
0.0
 30
0.0
  9
$UCSORGLEFT
 10
0.0
 20
0.0
 30
0.0
  9
$UCSORGRIGHT
 10
0.0
 20
0.0
 30
0.0
  9
$UCSORGFRONT
 10
0.0
 20
0.0
 30
0.0
  9
$UCSORGBACK
 10
0.0
 20
0.0
 30
0.0
  9
$PUCSBASE
  2

  9
$PUCSNAME
  2

  9
$PUCSORG
 10
0.0
 20
0.0
 30
0.0
  9
$PUCSXDIR
 10
1.0
 20
0.0
 30
0.0
  9
$PUCSYDIR
 10
0.0
 20
1.0
 30
0.0
  9
$PUCSORTHOREF
  2

  9
$PUCSORTHOVIEW
 70
     0
  9
$PUCSORGTOP
 10
0.0
 20
0.0
 30
0.0
  9
$PUCSORGBOTTOM
 10
0.0
 20
0.0
 30
0.0
  9
$PUCSORGLEFT
 10
0.0
 20
0.0
 30
0.0
  9
$PUCSORGRIGHT
 10
0.0
 20
0.0
 30
0.0
  9
$PUCSORGFRONT
 10
0.0
 20
0.0
 30
0.0
  9
$PUCSORGBACK
 10
0.0
 20
0.0
 30
0.0
  9
$USERI1
 70
     0
  9
$USERI2
 70
     0
  9
$USERI3
 70
     0
  9
$USERI4
 70
     0
  9
$USERI5
 70
     0
  9
$USERR1
 40
0.0
  9
$USERR2
 40
0.0
  9
$USERR3
 40
0.0
  9
$USERR4
 40
0.0
  9
$USERR5
 40
0.0
  9
$WORLDVIEW
 70
     1
  9
$SHADEDGE
 70
     3
  9
$SHADEDIF
 70
    70
  9
$TILEMODE
 70
     1
  9
$MAXACTVP
 70
    48
  9
$PINSBASE
 10
0.0
 20
0.0
 30
0.0
  9
$PLIMCHECK
 70
     0
  9
$PEXTMIN
 10
1.000000000000000E+20
 20
1.000000000000000E+20
 30
1.000000000000000E+20
  9
$PEXTMAX
 10
-1.000000000000000E+20
 20
-1.000000000000000E+20
 30
-1.000000000000000E+20
  9
$PLIMMIN
 10
0.0
 20
0.0
  9
$PLIMMAX
 10
12.0
 20
9.0
  9
$UNITMODE
 70
     0
  9
$VISRETAIN
 70
     1
  9
$PLINEGEN
 70
     0
  9
$PSLTSCALE
 70
     1
  9
$TREEDEPTH
 70
  3020
  9
$CMLSTYLE
  2
STANDARD
  9
$CMLJUST
 70
     0
  9
$CMLSCALE
 40
1.0
  9
$PROXYGRAPHICS
 70
     1
  9
$MEASUREMENT
 70
     1
  9
$CELWEIGHT
370
    -1
  9
$ENDCAPS
280
     0
  9
$JOINSTYLE
280
     0
  9
$LWDISPLAY
290
     0
  9
$INSUNITS
 70
     4
  9
$HYPERLINKBASE
  1

  9
$STYLESHEET
  1

  9
$XEDIT
290
     1
  9
$CEPSNTYPE
380
     0
  9
$PSTYLEMODE
290
     1
  9
$FINGERPRINTGUID
  2
{BB68040B-5214-457F-9959-0A0E8800E063}
  9
$VERSIONGUID
  2
{FAEB1C32-E019-11D5-929B-00C0DF256EC4}
  9
$EXTNAMES
290
     1
  9
$PSVPSCALE
 40
0.0
  9
$OLESTARTUP
290
     0
  9
$SORTENTS
280
   127
  9
$INDEXCTL
280
     0
  9
$HIDETEXT
280
     1
  9
$XCLIPFRAME
280
     2
  9
$HALOGAP
280
     0
  9
$OBSCOLOR
 70
   257
  9
$OBSLTYPE
280
     0
  9
$INTERSECTIONDISPLAY
280
     0
  9
$INTERSECTIONCOLOR
 70
   257
  9
$DIMASSOC
280
     2
  9
$PROJECTNAME
  1

  9
$CAMERADISPLAY
290
     0
  9
$LENSLENGTH
 40
50.0
  9
$CAMERAHEIGHT
 40
0.0
  9
$STEPSPERSEC
 40
2.0
  9
$STEPSIZE
 40
6.0
  9
$3DDWFPREC
 40
2.0
  9
$PSOLWIDTH
 40
0.25
  9
$PSOLHEIGHT
 40
4.0
  9
$LOFTANG1
 40
1.570796326794897
  9
$LOFTANG2
 40
1.570796326794897
  9
$LOFTMAG1
 40
0.0
  9
$LOFTMAG2
 40
0.0
  9
$LOFTPARAM
 70
     7
  9
$LOFTNORMALS
280
     1
  9
$LATITUDE
 40
37.795
  9
$LONGITUDE
 40
-122.394
  9
$NORTHDIRECTION
 40
0.0
  9
$TIMEZONE
 70
 -8000
  9
$LIGHTGLYPHDISPLAY
280
     1
  9
$TILEMODELIGHTSYNCH
280
     1
  9
$SOLIDHIST
280
     1
  9
$SHOWHIST
280
     1
  9
$DWFFRAME
280
     2
  9
$DGNFRAME
280
     2
  9
$REALWORLDSCALE
290
     1
  9
$INTERFERECOLOR
 62
   256
  9
$CSHADOW
280
     0
  9
$SHADOWPLANELOCATION
 40
0.0
  0
ENDSEC
  0
SECTION
  2
CLASSES
  0
CLASS
  1
SCALE
  2
AcDbScale
  3
ObjectDBX Classes
 90
     1153
 91
        4
280
     0
281
     0
  0
CLASS
  1
VISUALSTYLE
  2
AcDbVisualStyle
  3
ObjectDBX Classes
 90
     4095
 91
        4
280
     0
281
     0
  0
CLASS
  1
MATERIAL
  2
AcDbMaterial
  3
ObjectDBX Classes
 90
     1153
 91
        4
280
     0
281
     0
  0
CLASS
  1
DICTIONARYVAR
  2
AcDbDictionaryVar
  3
ObjectDBX Classes
 90
        0
 91
        4
280
     0
281
     0
  0
ENDSEC
  0
SECTION
  2
TABLES
  0
TABLE
  2
VPORT
  5
8
330
0
100
AcDbSymbolTable
 70
     1
  0
VPORT
  5
1E
330
8
100
AcDbSymbolTableRecord
100
AcDbViewportTableRecord
  2
*ACTIVE
 70
     0
 10
0.0
 20
0.0
 11
1.0
 21
1.0
 12
1220.0
 22
610.0
 13
0.0
 23
0.0
 14
0.25
 24
0.25
 15
0.25
 25
0.25
 16
0.0
 26
0.0
 36
1.0
 17
0.0
 27
0.0
 37
0.0
 40
1220.127
 41
1.999896
 42
50.0
 43
0.0
 44
0.0
 50
0.0
 51
0.0
 71
     0
 72
   100
 73
     1
 74
     1
 75
     0
 76
     0
 77
     0
 78
     0
281
     0
 65
     1
110
0.0
120
0.0
130
0.0
111
1.0
121
0.0
131
0.0
112
0.0
122
1.0
132
0.0
 79
     0
146
0.0
348
236
 60
     3
 61
     5
292
     1
282
     1
141
0.0
142
0.0
 63
   256
  0
ENDTAB
  0
TABLE
  2
LTYPE
  5
5
330
0
100
AcDbSymbolTable
 70
     2
  0
LTYPE
  5
12
330
5
100
AcDbSymbolTableRecord
100
AcDbLinetypeTableRecord
  2
BYBLOCK
 70
     0
  3

 72
    65
 73
     0
 40
0.0
  0
LTYPE
  5
13
330
5
100
AcDbSymbolTableRecord
100
AcDbLinetypeTableRecord
  2
BYLAYER
 70
     0
  3

 72
    65
 73
     0
 40
0.0
  0
LTYPE
  5
14
330
5
100
AcDbSymbolTableRecord
100
AcDbLinetypeTableRecord
  2
CONTINUOUS
 70
     0
  3
Solid line
 72
    65
 73
     0
 40
0.0
  0
LTYPE
  5
20
330
5
100
AcDbSymbolTableRecord
100
AcDbLinetypeTableRecord
  2
DOT
 70
     0
  3
...............................................
 72
    65
 73
     2
 40
0.25
 49
0.0
 74
     0
 49
-0.25
 74
     0
  0
ENDTAB
  0
TABLE
  2
LAYER
  5
2
330
0
100
AcDbSymbolTable
 70
    10
  0
LAYER
  5
E
330
2
100
AcDbSymbolTableRecord
100
AcDbLayerTableRecord
  2
0
 70
     0
 62
     7
  6
CONTINUOUS
370
    -3
390
0
347
24D
  0
LAYER
  5
21
330
2
100
AcDbSymbolTableRecord
100
AcDbLayerTableRecord
  2
default
 70
     0
 62
     7
  6
CONTINUOUS
370
    -3
390
0
347
24D
  0
LAYER
  5
22
330
2
100
AcDbSymbolTableRecord
100
AcDbLayerTableRecord
  2
ISOMETRIC
 70
     0
 62
     7
  6
CONTINUOUS
370
    -3
390
0
347
24D
  0
LAYER
  5
23
330
2
100
AcDbSymbolTableRecord
100
AcDbLayerTableRecord
  2
PLAN
 70
     0
 62
     7
  6
CONTINUOUS
370
    -3
390
0
347
24D
  0
LAYER
  5
24
330
2
100
AcDbSymbolTableRecord
100
AcDbLayerTableRecord
  2
LONG
 70
     0
 62
     7
  6
CONTINUOUS
370
    -3
390
0
347
24D
  0
LAYER
  5
25
330
2
100
AcDbSymbolTableRecord
100
AcDbLayerTableRecord
  2
FRONT
 70
     0
 62
     7
  6
CONTINUOUS
370
    -3
390
0
347
24D
  0
LAYER
  5
26
330
2
100
AcDbSymbolTableRecord
100
AcDbLayerTableRecord
  2
UNFOLD
 70
     0
 62
     7
  6
CONTINUOUS
370
    -3
390
0
347
24D
  0
LAYER
  5
27
330
2
100
AcDbSymbolTableRecord
100
AcDbLayerTableRecord
  2
PLAN_SECTIONS
 70
     0
 62
     7
  6
CONTINUOUS
370
    -3
390
0
347
24D
  0
LAYER
  5
28
330
2
100
AcDbSymbolTableRecord
100
AcDbLayerTableRecord
  2
CROSS_SECTIONS
 70
     0
 62
     7
  6
CONTINUOUS
370
    -3
390
0
347
24D
  0
LAYER
  5
29
330
2
100
AcDbSymbolTableRecord
100
AcDbLayerTableRecord
  2
LONG_SECTIONS
 70
     0
 62
     7
  6
CONTINUOUS
370
    -3
390
0
347
24D
  0
ENDTAB
  0
TABLE
  2
STYLE
  5
3
330
0
100
AcDbSymbolTable
 70
     1
  0
STYLE
  5
F
330
3
100
AcDbSymbolTableRecord
100
AcDbTextStyleTableRecord
  2
STANDARD
 70
     0
 40
0.0
 41
1.0
 50
0.0
 71
     0
 42
0.2
  3
txt
  4

  0
ENDTAB
  0
TABLE
  2
VIEW
  5
6
330
0
100
AcDbSymbolTable
 70
     0
  0
ENDTAB
  0
TABLE
  2
UCS
  5
7
330
0
100
AcDbSymbolTable
 70
     0
  0
ENDTAB
  0
TABLE
  2
APPID
  5
9
330
0
100
AcDbSymbolTable
 70
     1
  0
APPID
  5
10
330
9
100
AcDbSymbolTableRecord
100
AcDbRegAppTableRecord
  2
ACAD
 70
     0
  0
ENDTAB
  0
TABLE
  2
DIMSTYLE
  5
A
330
0
100
AcDbSymbolTable
 70
     1
100
AcDbDimStyleTable
  0
DIMSTYLE
105
1D
330
A
100
AcDbSymbolTableRecord
100
AcDbDimStyleTableRecord
  2
STANDARD
 70
     0
178
     0
340
F
  0
ENDTAB
  0
TABLE
  2
BLOCK_RECORD
  5
1
330
0
100
AcDbSymbolTable
 70
     0
  0
BLOCK_RECORD
  5
18
330
1
100
AcDbSymbolTableRecord
100
AcDbBlockTableRecord
  2
*MODEL_SPACE
340
22F
 70
     0
280
     1
281
     0
  0
BLOCK_RECORD
  5
15
330
1
100
AcDbSymbolTableRecord
100
AcDbBlockTableRecord
  2
*PAPER_SPACE
340
230
 70
     0
280
     1
281
     0
  0
ENDTAB
  0
ENDSEC
  0
SECTION
  2
BLOCKS
  0
BLOCK
  5
19
330
18
100
AcDbEntity
  8
0
100
AcDbBlockBegin
  2
*MODEL_SPACE
 70
     0
 10
0.0
 20
0.0
 30
0.0
  3
*MODEL_SPACE
  1
     0
  0
ENDBLK
  5
1A
330
18
100
AcDbEntity
  8
0
100
AcDbBlockEnd
  0
BLOCK
  5
16
330
15
100
AcDbEntity
 67
     1
  8
0
100
AcDbBlockBegin
  2
*PAPER_SPACE
 70
     0
 10
0.0
 20
0.0
 30
0.0
  3
*PAPER_SPACE
  1
     0
  0
ENDBLK
  5
17
330
15
100
AcDbEntity
 67
     1
  8
0
100
AcDbBlockEnd
  0
ENDSEC
  0
SECTION
  2
ENTITIES
  0
LINE
  5
2A
330
18
100
AcDbEntity
  8
default
100
AcDbLine
 10
0.0
 20
1220.0
 30
0.0
 11
0.0
 21
0.0
 31
0.0
  0
LINE
  5
2B
330
18
100
AcDbEntity
  8
default
100
AcDbLine
 10
2440.0
 20
1220.0
 30
0.0
 11
2440.0
 21
0.0
 31
0.0
  0
LINE
  5
2C
330
18
100
AcDbEntity
  8
default
100
AcDbLine
 10
0.0
 20
1220.0
 30
0.0
 11
2440.0
 21
1220.0
 31
0.0
  0
LINE
  5
2D
330
18
100
AcDbEntity
  8
default
100
AcDbLine
 10
0.0
 20
0.0
 30
0.0
 11
2440.0
 21
0.0
 31
0.0
  0
LINE
  5
2E
330
18
100
AcDbEntity
  8
default
  6
DOT
100
AcDbLine
 10
100.0
 20
0.0
 30
0.0
 11
100.0
 21
1220.0
 31
0.0
  0
LINE
  5
2F
330
18
100
AcDbEntity
  8
default
  6
DOT
100
AcDbLine
 10
200.0
 20
0.0
 30
0.0
 11
200.0
 21
1220.0
 31
0.0
  0
LINE
  5
30
330
18
100
AcDbEntity
  8
default
  6
DOT
100
AcDbLine
 10
300.0
 20
0.0
 30
0.0
 11
300.0
 21
1220.0
 31
0.0
  0
LINE
  5
31
330
18
100
AcDbEntity
  8
default
  6
DOT
100
AcDbLine
 10
400.0
 20
0.0
 30
0.0
 11
400.0
 21
1220.0
 31
0.0
  0
LINE
  5
32
330
18
100
AcDbEntity
  8
default
  6
DOT
100
AcDbLine
 10
500.0
 20
0.0
 30
0.0
 11
500.0
 21
1220.0
 31
0.0
  0
LINE
  5
33
330
18
100
AcDbEntity
  8
default
  6
DOT
100
AcDbLine
 10
600.0
 20
0.0
 30
0.0
 11
600.0
 21
1220.0
 31
0.0
  0
LINE
  5
34
330
18
100
AcDbEntity
  8
default
  6
DOT
100
AcDbLine
 10
700.0
 20
0.0
 30
0.0
 11
700.0
 21
1220.0
 31
0.0
  0
LINE
  5
35
330
18
100
AcDbEntity
  8
default
  6
DOT
100
AcDbLine
 10
800.0
 20
0.0
 30
0.0
 11
800.0
 21
1220.0
 31
0.0
  0
LINE
  5
36
330
18
100
AcDbEntity
  8
default
  6
DOT
100
AcDbLine
 10
900.0
 20
0.0
 30
0.0
 11
900.0
 21
1220.0
 31
0.0
  0
LINE
  5
37
330
18
100
AcDbEntity
  8
default
  6
DOT
100
AcDbLine
 10
1000.0
 20
0.0
 30
0.0
 11
1000.0
 21
1220.0
 31
0.0
  0
LINE
  5
38
330
18
100
AcDbEntity
  8
default
  6
DOT
100
AcDbLine
 10
1100.0
 20
0.0
 30
0.0
 11
1100.0
 21
1220.0
 31
0.0
  0
LINE
  5
39
330
18
100
AcDbEntity
  8
default
  6
DOT
100
AcDbLine
 10
1200.0
 20
0.0
 30
0.0
 11
1200.0
 21
1220.0
 31
0.0
  0
LINE
  5
3A
330
18
100
AcDbEntity
  8
default
  6
DOT
100
AcDbLine
 10
1300.0
 20
0.0
 30
0.0
 11
1300.0
 21
1220.0
 31
0.0
  0
LINE
  5
3B
330
18
100
AcDbEntity
  8
default
  6
DOT
100
AcDbLine
 10
1400.0
 20
0.0
 30
0.0
 11
1400.0
 21
1220.0
 31
0.0
  0
LINE
  5
3C
330
18
100
AcDbEntity
  8
default
  6
DOT
100
AcDbLine
 10
1500.0
 20
0.0
 30
0.0
 11
1500.0
 21
1220.0
 31
0.0
  0
LINE
  5
3D
330
18
100
AcDbEntity
  8
default
  6
DOT
100
AcDbLine
 10
1600.0
 20
0.0
 30
0.0
 11
1600.0
 21
1220.0
 31
0.0
  0
LINE
  5
3E
330
18
100
AcDbEntity
  8
default
  6
DOT
100
AcDbLine
 10
1700.0
 20
0.0
 30
0.0
 11
1700.0
 21
1220.0
 31
0.0
  0
LINE
  5
3F
330
18
100
AcDbEntity
  8
default
  6
DOT
100
AcDbLine
 10
1800.0
 20
0.0
 30
0.0
 11
1800.0
 21
1220.0
 31
0.0
  0
LINE
  5
40
330
18
100
AcDbEntity
  8
default
  6
DOT
100
AcDbLine
 10
1900.0
 20
0.0
 30
0.0
 11
1900.0
 21
1220.0
 31
0.0
  0
LINE
  5
41
330
18
100
AcDbEntity
  8
default
  6
DOT
100
AcDbLine
 10
2000.0
 20
0.0
 30
0.0
 11
2000.0
 21
1220.0
 31
0.0
  0
LINE
  5
42
330
18
100
AcDbEntity
  8
default
  6
DOT
100
AcDbLine
 10
2100.0
 20
0.0
 30
0.0
 11
2100.0
 21
1220.0
 31
0.0
  0
LINE
  5
43
330
18
100
AcDbEntity
  8
default
  6
DOT
100
AcDbLine
 10
2200.0
 20
0.0
 30
0.0
 11
2200.0
 21
1220.0
 31
0.0
  0
LINE
  5
44
330
18
100
AcDbEntity
  8
default
  6
DOT
100
AcDbLine
 10
2300.0
 20
0.0
 30
0.0
 11
2300.0
 21
1220.0
 31
0.0
  0
LINE
  5
45
330
18
100
AcDbEntity
  8
default
  6
DOT
100
AcDbLine
 10
2400.0
 20
0.0
 30
0.0
 11
2400.0
 21
1220.0
 31
0.0
  0
LINE
  5
46
330
18
100
AcDbEntity
  8
default
  6
DOT
100
AcDbLine
 10
0.0
 20
610.0
 30
0.0
 11
700.0
 21
610.0
 31
0.0
  0
LINE
  5
47
330
18
100
AcDbEntity
  8
default
  6
DOT
100
AcDbLine
 10
1740.0
 20
610.0
 30
0.0
 11
2440.0
 21
610.0
 31
0.0
  0
LINE
  5
48
330
18
100
AcDbEntity
  8
default
 62
     5
100
AcDbLine
 10
400.0
 20
418.45249
 30
0.0
 11
300.0
 21
419.702755
 31
0.0
  0
LINE
  5
49
330
18
100
AcDbEntity
  8
default
 62
     5
100
AcDbLine
 10
500.0
 20
417.620989
 30
0.0
 11
400.0
 21
418.45249
 31
0.0
  0
LINE
  5
4A
330
18
100
AcDbEntity
  8
default
 62
     5
100
AcDbLine
 10
600.0
 20
416.903539
 30
0.0
 11
500.0
 21
417.620989
 31
0.0
  0
LINE
  5
4B
330
18
100
AcDbEntity
  8
default
 62
     5
100
AcDbLine
 10
700.0
 20
416.432802
 30
0.0
 11
600.0
 21
416.903539
 31
0.0
  0
LINE
  5
4C
330
18
100
AcDbEntity
  8
default
 62
     5
100
AcDbLine
 10
800.0
 20
416.096054
 30
0.0
 11
700.0
 21
416.432802
 31
0.0
  0
LINE
  5
4D
330
18
100
AcDbEntity
  8
default
 62
     5
100
AcDbLine
 10
900.0
 20
416.128177
 30
0.0
 11
800.0
 21
416.096054
 31
0.0
  0
LINE
  5
4E
330
18
100
AcDbEntity
  8
default
 62
     5
100
AcDbLine
 10
1000.0
 20
416.213137
 30
0.0
 11
900.0
 21
416.128177
 31
0.0
  0
LINE
  5
4F
330
18
100
AcDbEntity
  8
default
 62
     5
100
AcDbLine
 10
1100.0
 20
416.569999
 30
0.0
 11
1000.0
 21
416.213137
 31
0.0
  0
LINE
  5
50
330
18
100
AcDbEntity
  8
default
 62
     5
100
AcDbLine
 10
1200.0
 20
416.952681
 30
0.0
 11
1100.0
 21
416.569999
 31
0.0
  0
LINE
  5
51
330
18
100
AcDbEntity
  8
default
 62
     5
100
AcDbLine
 10
1300.0
 20
417.566132
 30
0.0
 11
1200.0
 21
416.952681
 31
0.0
  0
LINE
  5
52
330
18
100
AcDbEntity
  8
default
 62
     5
100
AcDbLine
 10
1400.0
 20
418.290237
 30
0.0
 11
1300.0
 21
417.566132
 31
0.0
  0
LINE
  5
53
330
18
100
AcDbEntity
  8
default
 62
     5
100
AcDbLine
 10
1500.0
 20
419.285557
 30
0.0
 11
1400.0
 21
418.290237
 31
0.0
  0
LINE
  5
54
330
18
100
AcDbEntity
  8
default
 62
     5
100
AcDbLine
 10
1600.0
 20
420.29885
 30
0.0
 11
1500.0
 21
419.285557
 31
0.0
  0
LINE
  5
55
330
18
100
AcDbEntity
  8
default
 62
     5
100
AcDbLine
 10
1700.0
 20
421.637949
 30
0.0
 11
1600.0
 21
420.29885
 31
0.0
  0
LINE
  5
56
330
18
100
AcDbEntity
  8
default
 62
     5
100
AcDbLine
 10
1800.0
 20
422.977048
 30
0.0
 11
1700.0
 21
421.637949
 31
0.0
  0
LINE
  5
57
330
18
100
AcDbEntity
  8
default
 62
     5
100
AcDbLine
 10
1900.0
 20
424.630105
 30
0.0
 11
1800.0
 21
422.977048
 31
0.0
  0
LINE
  5
58
330
18
100
AcDbEntity
  8
default
 62
     5
100
AcDbLine
 10
2000.0
 20
426.368651
 30
0.0
 11
1900.0
 21
424.630105
 31
0.0
  0
LINE
  5
59
330
18
100
AcDbEntity
  8
default
 62
     5
100
AcDbLine
 10
2100.0
 20
428.426799
 30
0.0
 11
2000.0
 21
426.368651
 31
0.0
  0
LINE
  5
5A
330
18
100
AcDbEntity
  8
default
 62
     5
100
AcDbLine
 10
2200.0
 20
430.555643
 30
0.0
 11
2100.0
 21
428.426799
 31
0.0
  0
LINE
  5
5B
330
18
100
AcDbEntity
  8
default
 62
     5
100
AcDbLine
 10
2300.0
 20
433.012726
 30
0.0
 11
2200.0
 21
430.555643
 31
0.0
  0
LINE
  5
5C
330
18
100
AcDbEntity
  8
default
 62
     5
100
AcDbLine
 10
2366.345983
 20
434.642902
 30
0.0
 11
2300.0
 21
433.012726
 31
0.0
  0
LINE
  5
5D
330
18
100
AcDbEntity
  8
default
 62
     5
100
AcDbLine
 10
2300.0
 20
452.144954
 30
0.0
 11
2366.345983
 21
434.642902
 31
0.0
  0
LINE
  5
5E
330
18
100
AcDbEntity
  8
default
 62
     5
100
AcDbLine
 10
2200.0
 20
478.524926
 30
0.0
 11
2300.0
 21
452.144954
 31
0.0
  0
LINE
  5
5F
330
18
100
AcDbEntity
  8
default
 62
     5
100
AcDbLine
 10
2100.0
 20
501.261427
 30
0.0
 11
2200.0
 21
478.524926
 31
0.0
  0
LINE
  5
60
330
18
100
AcDbEntity
  8
default
 62
     5
100
AcDbLine
 10
2000.0
 20
523.214252
 30
0.0
 11
2100.0
 21
501.261427
 31
0.0
  0
LINE
  5
61
330
18
100
AcDbEntity
  8
default
 62
     5
100
AcDbLine
 10
1900.0
 20
541.379416
 30
0.0
 11
2000.0
 21
523.214252
 31
0.0
  0
LINE
  5
62
330
18
100
AcDbEntity
  8
default
 62
     5
100
AcDbLine
 10
1800.0
 20
558.473495
 30
0.0
 11
1900.0
 21
541.379416
 31
0.0
  0
LINE
  5
63
330
18
100
AcDbEntity
  8
default
 62
     5
100
AcDbLine
 10
1700.0
 20
571.094284
 30
0.0
 11
1800.0
 21
558.473495
 31
0.0
  0
LINE
  5
64
330
18
100
AcDbEntity
  8
default
 62
     5
100
AcDbLine
 10
1600.0
 20
583.715074
 30
0.0
 11
1700.0
 21
571.094284
 31
0.0
  0
LINE
  5
65
330
18
100
AcDbEntity
  8
default
 62
     5
100
AcDbLine
 10
1500.0
 20
591.359891
 30
0.0
 11
1600.0
 21
583.715074
 31
0.0
  0
LINE
  5
66
330
18
100
AcDbEntity
  8
default
 62
     5
100
AcDbLine
 10
1400.0
 20
598.682993
 30
0.0
 11
1500.0
 21
591.359891
 31
0.0
  0
LINE
  5
67
330
18
100
AcDbEntity
  8
default
 62
     5
100
AcDbLine
 10
1300.0
 20
601.134334
 30
0.0
 11
1400.0
 21
598.682993
 31
0.0
  0
LINE
  5
68
330
18
100
AcDbEntity
  8
default
 62
     5
100
AcDbLine
 10
1200.0
 20
601.898915
 30
0.0
 11
1300.0
 21
601.134334
 31
0.0
  0
LINE
  5
69
330
18
100
AcDbEntity
  8
default
 62
     5
100
AcDbLine
 10
1100.0
 20
599.101976
 30
0.0
 11
1200.0
 21
601.898915
 31
0.0
  0
LINE
  5
6A
330
18
100
AcDbEntity
  8
default
 62
     5
100
AcDbLine
 10
1000.0
 20
595.812008
 30
0.0
 11
1100.0
 21
599.101976
 31
0.0
  0
LINE
  5
6B
330
18
100
AcDbEntity
  8
default
 62
     5
100
AcDbLine
 10
900.0
 20
586.481601
 30
0.0
 11
1000.0
 21
595.812008
 31
0.0
  0
LINE
  5
6C
330
18
100
AcDbEntity
  8
default
 62
     5
100
AcDbLine
 10
800.0
 20
576.449998
 30
0.0
 11
900.0
 21
586.481601
 31
0.0
  0
LINE
  5
6D
330
18
100
AcDbEntity
  8
default
 62
     5
100
AcDbLine
 10
700.0
 20
560.959018
 30
0.0
 11
800.0
 21
576.449998
 31
0.0
  0
LINE
  5
6E
330
18
100
AcDbEntity
  8
default
 62
     5
100
AcDbLine
 10
600.0
 20
543.087015
 30
0.0
 11
700.0
 21
560.959018
 31
0.0
  0
LINE
  5
6F
330
18
100
AcDbEntity
  8
default
 62
     5
100
AcDbLine
 10
500.0
 20
520.610409
 30
0.0
 11
600.0
 21
543.087015
 31
0.0
  0
LINE
  5
70
330
18
100
AcDbEntity
  8
default
 62
     5
100
AcDbLine
 10
400.0
 20
496.512156
 30
0.0
 11
500.0
 21
520.610409
 31
0.0
  0
LINE
  5
71
330
18
100
AcDbEntity
  8
default
 62
     5
100
AcDbLine
 10
300.0
 20
466.136089
 30
0.0
 11
400.0
 21
496.512156
 31
0.0
  0
LINE
  5
72
330
18
100
AcDbEntity
  8
default
 62
     5
100
AcDbLine
 10
200.0
 20
434.532058
 30
0.0
 11
300.0
 21
466.136089
 31
0.0
  0
LINE
  5
73
330
18
100
AcDbEntity
  8
default
 62
     5
100
AcDbLine
 10
163.670436
 20
421.628749
 30
0.0
 11
200.0
 21
434.532058
 31
0.0
  0
LINE
  5
74
330
18
100
AcDbEntity
  8
default
 62
     5
100
AcDbLine
 10
200.0
 20
421.041511
 30
0.0
 11
163.670436
 21
421.628749
 31
0.0
  0
LINE
  5
75
330
18
100
AcDbEntity
  8
default
 62
     5
100
AcDbLine
 10
300.0
 20
419.702755
 30
0.0
 11
200.0
 21
421.041511
 31
0.0
  0
LINE
  5
76
330
18
100
AcDbEntity
  8
default
 62
     5
100
AcDbLine
 10
163.670436
 20
798.371251
 30
0.0
 11
200.0
 21
798.958489
 31
0.0
  0
LINE
  5
77
330
18
100
AcDbEntity
  8
default
 62
     5
100
AcDbLine
 10
200.0
 20
785.467942
 30
0.0
 11
163.670436
 21
798.371251
 31
0.0
  0
LINE
  5
78
330
18
100
AcDbEntity
  8
default
 62
     5
100
AcDbLine
 10
300.0
 20
753.863911
 30
0.0
 11
200.0
 21
785.467942
 31
0.0
  0
LINE
  5
79
330
18
100
AcDbEntity
  8
default
 62
     5
100
AcDbLine
 10
400.0
 20
723.487844
 30
0.0
 11
300.0
 21
753.863911
 31
0.0
  0
LINE
  5
7A
330
18
100
AcDbEntity
  8
default
 62
     5
100
AcDbLine
 10
500.0
 20
699.389591
 30
0.0
 11
400.0
 21
723.487844
 31
0.0
  0
LINE
  5
7B
330
18
100
AcDbEntity
  8
default
 62
     5
100
AcDbLine
 10
600.0
 20
676.912985
 30
0.0
 11
500.0
 21
699.389591
 31
0.0
  0
LINE
  5
7C
330
18
100
AcDbEntity
  8
default
 62
     5
100
AcDbLine
 10
700.0
 20
659.040982
 30
0.0
 11
600.0
 21
676.912985
 31
0.0
  0
LINE
  5
7D
330
18
100
AcDbEntity
  8
default
 62
     5
100
AcDbLine
 10
800.0
 20
643.550002
 30
0.0
 11
700.0
 21
659.040982
 31
0.0
  0
LINE
  5
7E
330
18
100
AcDbEntity
  8
default
 62
     5
100
AcDbLine
 10
900.0
 20
633.518399
 30
0.0
 11
800.0
 21
643.550002
 31
0.0
  0
LINE
  5
7F
330
18
100
AcDbEntity
  8
default
 62
     5
100
AcDbLine
 10
1000.0
 20
624.187992
 30
0.0
 11
900.0
 21
633.518399
 31
0.0
  0
LINE
  5
80
330
18
100
AcDbEntity
  8
default
 62
     5
100
AcDbLine
 10
1100.0
 20
620.898024
 30
0.0
 11
1000.0
 21
624.187992
 31
0.0
  0
LINE
  5
81
330
18
100
AcDbEntity
  8
default
 62
     5
100
AcDbLine
 10
1200.0
 20
618.101085
 30
0.0
 11
1100.0
 21
620.898024
 31
0.0
  0
LINE
  5
82
330
18
100
AcDbEntity
  8
default
 62
     5
100
AcDbLine
 10
1300.0
 20
618.865666
 30
0.0
 11
1200.0
 21
618.101085
 31
0.0
  0
LINE
  5
83
330
18
100
AcDbEntity
  8
default
 62
     5
100
AcDbLine
 10
1400.0
 20
621.317007
 30
0.0
 11
1300.0
 21
618.865666
 31
0.0
  0
LINE
  5
84
330
18
100
AcDbEntity
  8
default
 62
     5
100
AcDbLine
 10
1500.0
 20
628.640109
 30
0.0
 11
1400.0
 21
621.317007
 31
0.0
  0
LINE
  5
85
330
18
100
AcDbEntity
  8
default
 62
     5
100
AcDbLine
 10
1600.0
 20
636.284926
 30
0.0
 11
1500.0
 21
628.640109
 31
0.0
  0
LINE
  5
86
330
18
100
AcDbEntity
  8
default
 62
     5
100
AcDbLine
 10
1700.0
 20
648.905716
 30
0.0
 11
1600.0
 21
636.284926
 31
0.0
  0
LINE
  5
87
330
18
100
AcDbEntity
  8
default
 62
     5
100
AcDbLine
 10
1800.0
 20
661.526505
 30
0.0
 11
1700.0
 21
648.905716
 31
0.0
  0
LINE
  5
88
330
18
100
AcDbEntity
  8
default
 62
     5
100
AcDbLine
 10
1900.0
 20
678.620584
 30
0.0
 11
1800.0
 21
661.526505
 31
0.0
  0
LINE
  5
89
330
18
100
AcDbEntity
  8
default
 62
     5
100
AcDbLine
 10
2000.0
 20
696.785748
 30
0.0
 11
1900.0
 21
678.620584
 31
0.0
  0
LINE
  5
8A
330
18
100
AcDbEntity
  8
default
 62
     5
100
AcDbLine
 10
2100.0
 20
718.738573
 30
0.0
 11
2000.0
 21
696.785748
 31
0.0
  0
LINE
  5
8B
330
18
100
AcDbEntity
  8
default
 62
     5
100
AcDbLine
 10
2200.0
 20
741.475074
 30
0.0
 11
2100.0
 21
718.738573
 31
0.0
  0
LINE
  5
8C
330
18
100
AcDbEntity
  8
default
 62
     5
100
AcDbLine
 10
2300.0
 20
767.855046
 30
0.0
 11
2200.0
 21
741.475074
 31
0.0
  0
LINE
  5
8D
330
18
100
AcDbEntity
  8
default
 62
     5
100
AcDbLine
 10
2366.345983
 20
785.357098
 30
0.0
 11
2300.0
 21
767.855046
 31
0.0
  0
LINE
  5
8E
330
18
100
AcDbEntity
  8
default
 62
     5
100
AcDbLine
 10
2300.0
 20
786.987274
 30
0.0
 11
2366.345983
 21
785.357098
 31
0.0
  0
LINE
  5
8F
330
18
100
AcDbEntity
  8
default
 62
     5
100
AcDbLine
 10
2200.0
 20
789.444357
 30
0.0
 11
2300.0
 21
786.987274
 31
0.0
  0
LINE
  5
90
330
18
100
AcDbEntity
  8
default
 62
     5
100
AcDbLine
 10
2100.0
 20
791.573201
 30
0.0
 11
2200.0
 21
789.444357
 31
0.0
  0
LINE
  5
91
330
18
100
AcDbEntity
  8
default
 62
     5
100
AcDbLine
 10
2000.0
 20
793.631349
 30
0.0
 11
2100.0
 21
791.573201
 31
0.0
  0
LINE
  5
92
330
18
100
AcDbEntity
  8
default
 62
     5
100
AcDbLine
 10
1900.0
 20
795.369895
 30
0.0
 11
2000.0
 21
793.631349
 31
0.0
  0
LINE
  5
93
330
18
100
AcDbEntity
  8
default
 62
     5
100
AcDbLine
 10
1800.0
 20
797.022952
 30
0.0
 11
1900.0
 21
795.369895
 31
0.0
  0
LINE
  5
94
330
18
100
AcDbEntity
  8
default
 62
     5
100
AcDbLine
 10
1700.0
 20
798.362051
 30
0.0
 11
1800.0
 21
797.022952
 31
0.0
  0
LINE
  5
95
330
18
100
AcDbEntity
  8
default
 62
     5
100
AcDbLine
 10
1600.0
 20
799.70115
 30
0.0
 11
1700.0
 21
798.362051
 31
0.0
  0
LINE
  5
96
330
18
100
AcDbEntity
  8
default
 62
     5
100
AcDbLine
 10
1500.0
 20
800.714443
 30
0.0
 11
1600.0
 21
799.70115
 31
0.0
  0
LINE
  5
97
330
18
100
AcDbEntity
  8
default
 62
     5
100
AcDbLine
 10
1400.0
 20
801.709763
 30
0.0
 11
1500.0
 21
800.714443
 31
0.0
  0
LINE
  5
98
330
18
100
AcDbEntity
  8
default
 62
     5
100
AcDbLine
 10
1300.0
 20
802.433868
 30
0.0
 11
1400.0
 21
801.709763
 31
0.0
  0
LINE
  5
99
330
18
100
AcDbEntity
  8
default
 62
     5
100
AcDbLine
 10
1200.0
 20
803.047319
 30
0.0
 11
1300.0
 21
802.433868
 31
0.0
  0
LINE
  5
9A
330
18
100
AcDbEntity
  8
default
 62
     5
100
AcDbLine
 10
1100.0
 20
803.430001
 30
0.0
 11
1200.0
 21
803.047319
 31
0.0
  0
LINE
  5
9B
330
18
100
AcDbEntity
  8
default
 62
     5
100
AcDbLine
 10
1000.0
 20
803.786863
 30
0.0
 11
1100.0
 21
803.430001
 31
0.0
  0
LINE
  5
9C
330
18
100
AcDbEntity
  8
default
 62
     5
100
AcDbLine
 10
900.0
 20
803.871823
 30
0.0
 11
1000.0
 21
803.786863
 31
0.0
  0
LINE
  5
9D
330
18
100
AcDbEntity
  8
default
 62
     5
100
AcDbLine
 10
800.0
 20
803.903946
 30
0.0
 11
900.0
 21
803.871823
 31
0.0
  0
LINE
  5
9E
330
18
100
AcDbEntity
  8
default
 62
     5
100
AcDbLine
 10
700.0
 20
803.567198
 30
0.0
 11
800.0
 21
803.903946
 31
0.0
  0
LINE
  5
9F
330
18
100
AcDbEntity
  8
default
 62
     5
100
AcDbLine
 10
600.0
 20
803.096461
 30
0.0
 11
700.0
 21
803.567198
 31
0.0
  0
LINE
  5
A0
330
18
100
AcDbEntity
  8
default
 62
     5
100
AcDbLine
 10
500.0
 20
802.379011
 30
0.0
 11
600.0
 21
803.096461
 31
0.0
  0
LINE
  5
A1
330
18
100
AcDbEntity
  8
default
 62
     5
100
AcDbLine
 10
400.0
 20
801.54751
 30
0.0
 11
500.0
 21
802.379011
 31
0.0
  0
LINE
  5
A2
330
18
100
AcDbEntity
  8
default
 62
     5
100
AcDbLine
 10
300.0
 20
800.297245
 30
0.0
 11
400.0
 21
801.54751
 31
0.0
  0
LINE
  5
A3
330
18
100
AcDbEntity
  8
default
 62
     5
100
AcDbLine
 10
200.0
 20
798.958489
 30
0.0
 11
300.0
 21
800.297245
 31
0.0
  0
LINE
  5
A4
330
18
100
AcDbEntity
  8
default
 62
     1
100
AcDbLine
 10
400.0
 20
95.048333
 30
0.0
 11
300.0
 21
121.48809
 31
0.0
  0
LINE
  5
A5
330
18
100
AcDbEntity
  8
default
 62
     1
100
AcDbLine
 10
500.0
 20
73.152898
 30
0.0
 11
400.0
 21
95.048333
 31
0.0
  0
LINE
  5
A6
330
18
100
AcDbEntity
  8
default
 62
     1
100
AcDbLine
 10
600.0
 20
53.024927
 30
0.0
 11
500.0
 21
73.152898
 31
0.0
  0
LINE
  5
A7
330
18
100
AcDbEntity
  8
default
 62
     1
100
AcDbLine
 10
700.0
 20
37.674328
 30
0.0
 11
600.0
 21
53.024927
 31
0.0
  0
LINE
  5
A8
330
18
100
AcDbEntity
  8
default
 62
     1
100
AcDbLine
 10
800.0
 20
23.810198
 30
0.0
 11
700.0
 21
37.674328
 31
0.0
  0
LINE
  5
A9
330
18
100
AcDbEntity
  8
default
 62
     1
100
AcDbLine
 10
900.0
 20
14.876915
 30
0.0
 11
800.0
 21
23.810198
 31
0.0
  0
LINE
  5
AA
330
18
100
AcDbEntity
  8
default
 62
     1
100
AcDbLine
 10
1000.0
 20
7.118423
 30
0.0
 11
900.0
 21
14.876915
 31
0.0
  0
LINE
  5
AB
330
18
100
AcDbEntity
  8
default
 62
     1
100
AcDbLine
 10
1100.0
 20
4.762741
 30
0.0
 11
1000.0
 21
7.118423
 31
0.0
  0
LINE
  5
AC
330
18
100
AcDbEntity
  8
default
 62
     1
100
AcDbLine
 10
1200.0
 20
3.401229
 30
0.0
 11
1100.0
 21
4.762741
 31
0.0
  0
LINE
  5
AD
330
18
100
AcDbEntity
  8
default
 62
     1
100
AcDbLine
 10
1300.0
 20
5.497303
 30
0.0
 11
1200.0
 21
3.401229
 31
0.0
  0
LINE
  5
AE
330
18
100
AcDbEntity
  8
default
 62
     1
100
AcDbLine
 10
1400.0
 20
9.770058
 30
0.0
 11
1300.0
 21
5.497303
 31
0.0
  0
LINE
  5
AF
330
18
100
AcDbEntity
  8
default
 62
     1
100
AcDbLine
 10
1500.0
 20
19.119934
 30
0.0
 11
1400.0
 21
9.770058
 31
0.0
  0
LINE
  5
B0
330
18
100
AcDbEntity
  8
default
 62
     1
100
AcDbLine
 10
1600.0
 20
28.767759
 30
0.0
 11
1500.0
 21
19.119934
 31
0.0
  0
LINE
  5
B1
330
18
100
AcDbEntity
  8
default
 62
     1
100
AcDbLine
 10
1700.0
 20
44.467615
 30
0.0
 11
1600.0
 21
28.767759
 31
0.0
  0
LINE
  5
B2
330
18
100
AcDbEntity
  8
default
 62
     1
100
AcDbLine
 10
1800.0
 20
60.245829
 30
0.0
 11
1700.0
 21
44.467615
 31
0.0
  0
LINE
  5
B3
330
18
100
AcDbEntity
  8
default
 62
     1
100
AcDbLine
 10
1900.0
 20
81.040325
 30
0.0
 11
1800.0
 21
60.245829
 31
0.0
  0
LINE
  5
B4
330
18
100
AcDbEntity
  8
default
 62
     1
100
AcDbLine
 10
2000.0
 20
103.262409
 30
0.0
 11
1900.0
 21
81.040325
 31
0.0
  0
LINE
  5
B5
330
18
100
AcDbEntity
  8
default
 62
     1
100
AcDbLine
 10
2100.0
 20
130.679844
 30
0.0
 11
2000.0
 21
103.262409
 31
0.0
  0
LINE
  5
B6
330
18
100
AcDbEntity
  8
default
 62
     1
100
AcDbLine
 10
2200.0
 20
159.003826
 30
0.0
 11
2100.0
 21
130.679844
 31
0.0
  0
LINE
  5
B7
330
18
100
AcDbEntity
  8
default
 62
     1
100
AcDbLine
 10
2300.0
 20
192.784006
 30
0.0
 11
2200.0
 21
159.003826
 31
0.0
  0
LINE
  5
B8
330
18
100
AcDbEntity
  8
default
 62
     1
100
AcDbLine
 10
2400.000049
 20
226.564204
 30
0.0
 11
2300.0
 21
192.784006
 31
0.0
  0
LINE
  5
B9
330
18
100
AcDbEntity
  8
default
 62
     1
100
AcDbLine
 10
2300.0
 20
225.534823
 30
0.0
 11
2400.000049
 21
226.564204
 31
0.0
  0
LINE
  5
BA
330
18
100
AcDbEntity
  8
default
 62
     1
100
AcDbLine
 10
2247.332023
 20
224.992669
 30
0.0
 11
2300.0
 21
225.534823
 31
0.0
  0
LINE
  5
BB
330
18
100
AcDbEntity
  8
default
 62
     1
100
AcDbLine
 10
2200.0
 20
209.003826
 30
0.0
 11
2247.332023
 21
224.992669
 31
0.0
  0
LINE
  5
BC
330
18
100
AcDbEntity
  8
default
 62
     1
100
AcDbLine
 10
2100.0
 20
180.679844
 30
0.0
 11
2200.0
 21
209.003826
 31
0.0
  0
LINE
  5
BD
330
18
100
AcDbEntity
  8
default
 62
     1
100
AcDbLine
 10
2000.0
 20
153.262409
 30
0.0
 11
2100.0
 21
180.679844
 31
0.0
  0
LINE
  5
BE
330
18
100
AcDbEntity
  8
default
 62
     1
100
AcDbLine
 10
1900.0
 20
131.040325
 30
0.0
 11
2000.0
 21
153.262409
 31
0.0
  0
LINE
  5
BF
330
18
100
AcDbEntity
  8
default
 62
     1
100
AcDbLine
 10
1800.0
 20
110.245829
 30
0.0
 11
1900.0
 21
131.040325
 31
0.0
  0
LINE
  5
C0
330
18
100
AcDbEntity
  8
default
 62
     1
100
AcDbLine
 10
1700.0
 20
94.467615
 30
0.0
 11
1800.0
 21
110.245829
 31
0.0
  0
LINE
  5
C1
330
18
100
AcDbEntity
  8
default
 62
     1
100
AcDbLine
 10
1600.0
 20
78.767759
 30
0.0
 11
1700.0
 21
94.467615
 31
0.0
  0
LINE
  5
C2
330
18
100
AcDbEntity
  8
default
 62
     1
100
AcDbLine
 10
1500.0
 20
69.119934
 30
0.0
 11
1600.0
 21
78.767759
 31
0.0
  0
LINE
  5
C3
330
18
100
AcDbEntity
  8
default
 62
     1
100
AcDbLine
 10
1400.0
 20
59.770058
 30
0.0
 11
1500.0
 21
69.119934
 31
0.0
  0
LINE
  5
C4
330
18
100
AcDbEntity
  8
default
 62
     1
100
AcDbLine
 10
1300.0
 20
55.497303
 30
0.0
 11
1400.0
 21
59.770058
 31
0.0
  0
LINE
  5
C5
330
18
100
AcDbEntity
  8
default
 62
     1
100
AcDbLine
 10
1200.0
 20
53.401229
 30
0.0
 11
1300.0
 21
55.497303
 31
0.0
  0
LINE
  5
C6
330
18
100
AcDbEntity
  8
default
 62
     1
100
AcDbLine
 10
1100.0
 20
54.762741
 30
0.0
 11
1200.0
 21
53.401229
 31
0.0
  0
LINE
  5
C7
330
18
100
AcDbEntity
  8
default
 62
     1
100
AcDbLine
 10
1000.0
 20
57.118423
 30
0.0
 11
1100.0
 21
54.762741
 31
0.0
  0
LINE
  5
C8
330
18
100
AcDbEntity
  8
default
 62
     1
100
AcDbLine
 10
900.0
 20
64.876915
 30
0.0
 11
1000.0
 21
57.118423
 31
0.0
  0
LINE
  5
C9
330
18
100
AcDbEntity
  8
default
 62
     1
100
AcDbLine
 10
800.0
 20
73.810198
 30
0.0
 11
900.0
 21
64.876915
 31
0.0
  0
LINE
  5
CA
330
18
100
AcDbEntity
  8
default
 62
     1
100
AcDbLine
 10
700.0
 20
87.674328
 30
0.0
 11
800.0
 21
73.810198
 31
0.0
  0
LINE
  5
CB
330
18
100
AcDbEntity
  8
default
 62
     1
100
AcDbLine
 10
600.0
 20
103.024927
 30
0.0
 11
700.0
 21
87.674328
 31
0.0
  0
LINE
  5
CC
330
18
100
AcDbEntity
  8
default
 62
     1
100
AcDbLine
 10
500.0
 20
123.152898
 30
0.0
 11
600.0
 21
103.024927
 31
0.0
  0
LINE
  5
CD
330
18
100
AcDbEntity
  8
default
 62
     1
100
AcDbLine
 10
400.0
 20
145.048333
 30
0.0
 11
500.0
 21
123.152898
 31
0.0
  0
LINE
  5
CE
330
18
100
AcDbEntity
  8
default
 62
     1
100
AcDbLine
 10
300.0
 20
171.48809
 30
0.0
 11
400.0
 21
145.048333
 31
0.0
  0
LINE
  5
CF
330
18
100
AcDbEntity
  8
default
 62
     1
100
AcDbLine
 10
200.0
 20
199.255088
 30
0.0
 11
300.0
 21
171.48809
 31
0.0
  0
LINE
  5
D0
330
18
100
AcDbEntity
  8
default
 62
     1
100
AcDbLine
 10
100.0
 20
197.762012
 30
0.0
 11
200.0
 21
199.255088
 31
0.0
  0
LINE
  5
D1
330
18
100
AcDbEntity
  8
default
 62
     1
100
AcDbLine
 10
54.98637
 20
197.089923
 30
0.0
 11
100.0
 21
197.762012
 31
0.0
  0
LINE
  5
D2
330
18
100
AcDbEntity
  8
default
 62
     1
100
AcDbLine
 10
100.0
 20
182.421842
 30
0.0
 11
54.98637
 21
197.089923
 31
0.0
  0
LINE
  5
D3
330
18
100
AcDbEntity
  8
default
 62
     1
100
AcDbLine
 10
200.0
 20
149.835975
 30
0.0
 11
100.0
 21
182.421842
 31
0.0
  0
LINE
  5
D4
330
18
100
AcDbEntity
  8
default
 62
     1
100
AcDbLine
 10
300.0
 20
121.48809
 30
0.0
 11
200.0
 21
149.835975
 31
0.0
  0
LINE
  5
D5
330
18
100
AcDbEntity
  8
default
 62
     3
100
AcDbLine
 10
400.0
 20
148.048333
 30
0.0
 11
300.0
 21
174.48809
 31
0.0
  0
LINE
  5
D6
330
18
100
AcDbEntity
  8
default
 62
     3
100
AcDbLine
 10
500.0
 20
126.152898
 30
0.0
 11
400.0
 21
148.048333
 31
0.0
  0
LINE
  5
D7
330
18
100
AcDbEntity
  8
default
 62
     3
100
AcDbLine
 10
600.0
 20
106.024927
 30
0.0
 11
500.0
 21
126.152898
 31
0.0
  0
LINE
  5
D8
330
18
100
AcDbEntity
  8
default
 62
     3
100
AcDbLine
 10
700.0
 20
90.674328
 30
0.0
 11
600.0
 21
106.024927
 31
0.0
  0
LINE
  5
D9
330
18
100
AcDbEntity
  8
default
 62
     3
100
AcDbLine
 10
800.0
 20
76.810198
 30
0.0
 11
700.0
 21
90.674328
 31
0.0
  0
LINE
  5
DA
330
18
100
AcDbEntity
  8
default
 62
     3
100
AcDbLine
 10
900.0
 20
67.876915
 30
0.0
 11
800.0
 21
76.810198
 31
0.0
  0
LINE
  5
DB
330
18
100
AcDbEntity
  8
default
 62
     3
100
AcDbLine
 10
1000.0
 20
60.118423
 30
0.0
 11
900.0
 21
67.876915
 31
0.0
  0
LINE
  5
DC
330
18
100
AcDbEntity
  8
default
 62
     3
100
AcDbLine
 10
1100.0
 20
57.762741
 30
0.0
 11
1000.0
 21
60.118423
 31
0.0
  0
LINE
  5
DD
330
18
100
AcDbEntity
  8
default
 62
     3
100
AcDbLine
 10
1200.0
 20
56.401229
 30
0.0
 11
1100.0
 21
57.762741
 31
0.0
  0
LINE
  5
DE
330
18
100
AcDbEntity
  8
default
 62
     3
100
AcDbLine
 10
1300.0
 20
58.497303
 30
0.0
 11
1200.0
 21
56.401229
 31
0.0
  0
LINE
  5
DF
330
18
100
AcDbEntity
  8
default
 62
     3
100
AcDbLine
 10
1400.0
 20
62.770058
 30
0.0
 11
1300.0
 21
58.497303
 31
0.0
  0
LINE
  5
E0
330
18
100
AcDbEntity
  8
default
 62
     3
100
AcDbLine
 10
1500.0
 20
72.119934
 30
0.0
 11
1400.0
 21
62.770058
 31
0.0
  0
LINE
  5
E1
330
18
100
AcDbEntity
  8
default
 62
     3
100
AcDbLine
 10
1600.0
 20
81.767759
 30
0.0
 11
1500.0
 21
72.119934
 31
0.0
  0
LINE
  5
E2
330
18
100
AcDbEntity
  8
default
 62
     3
100
AcDbLine
 10
1700.0
 20
97.467615
 30
0.0
 11
1600.0
 21
81.767759
 31
0.0
  0
LINE
  5
E3
330
18
100
AcDbEntity
  8
default
 62
     3
100
AcDbLine
 10
1800.0
 20
113.245829
 30
0.0
 11
1700.0
 21
97.467615
 31
0.0
  0
LINE
  5
E4
330
18
100
AcDbEntity
  8
default
 62
     3
100
AcDbLine
 10
1900.0
 20
134.040325
 30
0.0
 11
1800.0
 21
113.245829
 31
0.0
  0
LINE
  5
E5
330
18
100
AcDbEntity
  8
default
 62
     3
100
AcDbLine
 10
2000.0
 20
156.262409
 30
0.0
 11
1900.0
 21
134.040325
 31
0.0
  0
LINE
  5
E6
330
18
100
AcDbEntity
  8
default
 62
     3
100
AcDbLine
 10
2100.0
 20
183.679844
 30
0.0
 11
2000.0
 21
156.262409
 31
0.0
  0
LINE
  5
E7
330
18
100
AcDbEntity
  8
default
 62
     3
100
AcDbLine
 10
2200.0
 20
212.003826
 30
0.0
 11
2100.0
 21
183.679844
 31
0.0
  0
LINE
  5
E8
330
18
100
AcDbEntity
  8
default
 62
     3
100
AcDbLine
 10
2300.0
 20
245.784006
 30
0.0
 11
2200.0
 21
212.003826
 31
0.0
  0
LINE
  5
E9
330
18
100
AcDbEntity
  8
default
 62
     3
100
AcDbLine
 10
2400.000049
 20
279.564204
 30
0.0
 11
2300.0
 21
245.784006
 31
0.0
  0
LINE
  5
EA
330
18
100
AcDbEntity
  8
default
 62
     3
100
AcDbLine
 10
2300.0
 20
278.534823
 30
0.0
 11
2400.000049
 21
279.564204
 31
0.0
  0
LINE
  5
EB
330
18
100
AcDbEntity
  8
default
 62
     3
100
AcDbLine
 10
2200.0
 20
277.505442
 30
0.0
 11
2300.0
 21
278.534823
 31
0.0
  0
LINE
  5
EC
330
18
100
AcDbEntity
  8
default
 62
     3
100
AcDbLine
 10
2100.0
 20
276.548237
 30
0.0
 11
2200.0
 21
277.505442
 31
0.0
  0
LINE
  5
ED
330
18
100
AcDbEntity
  8
default
 62
     3
100
AcDbLine
 10
2000.0
 20
275.603795
 30
0.0
 11
2100.0
 21
276.548237
 31
0.0
  0
LINE
  5
EE
330
18
100
AcDbEntity
  8
default
 62
     3
100
AcDbLine
 10
1900.0
 20
274.794447
 30
0.0
 11
2000.0
 21
275.603795
 31
0.0
  0
LINE
  5
EF
330
18
100
AcDbEntity
  8
default
 62
     3
100
AcDbLine
 10
1800.0
 20
274.002077
 30
0.0
 11
1900.0
 21
274.794447
 31
0.0
  0
LINE
  5
F0
330
18
100
AcDbEntity
  8
default
 62
     3
100
AcDbLine
 10
1700.0
 20
273.324572
 30
0.0
 11
1800.0
 21
274.002077
 31
0.0
  0
LINE
  5
F1
330
18
100
AcDbEntity
  8
default
 62
     3
100
AcDbLine
 10
1600.0
 20
272.654933
 30
0.0
 11
1700.0
 21
273.324572
 31
0.0
  0
LINE
  5
F2
330
18
100
AcDbEntity
  8
default
 62
     3
100
AcDbLine
 10
1500.0
 20
272.004641
 30
0.0
 11
1600.0
 21
272.654933
 31
0.0
  0
LINE
  5
F3
330
18
100
AcDbEntity
  8
default
 62
     3
100
AcDbLine
 10
1400.0
 20
271.352565
 30
0.0
 11
1500.0
 21
272.004641
 31
0.0
  0
LINE
  5
F4
330
18
100
AcDbEntity
  8
default
 62
     3
100
AcDbLine
 10
1300.0
 20
270.597503
 30
0.0
 11
1400.0
 21
271.352565
 31
0.0
  0
LINE
  5
F5
330
18
100
AcDbEntity
  8
default
 62
     3
100
AcDbLine
 10
1200.0
 20
269.58238
 30
0.0
 11
1300.0
 21
270.597503
 31
0.0
  0
LINE
  5
F6
330
18
100
AcDbEntity
  8
default
 62
     3
100
AcDbLine
 10
1100.0
 20
268.08119
 30
0.0
 11
1200.0
 21
269.58238
 31
0.0
  0
LINE
  5
F7
330
18
100
AcDbEntity
  8
default
 62
     3
100
AcDbLine
 10
1000.0
 20
266.549714
 30
0.0
 11
1100.0
 21
268.08119
 31
0.0
  0
LINE
  5
F8
330
18
100
AcDbEntity
  8
default
 62
     3
100
AcDbLine
 10
900.0
 20
264.793267
 30
0.0
 11
1000.0
 21
266.549714
 31
0.0
  0
LINE
  5
F9
330
18
100
AcDbEntity
  8
default
 62
     3
100
AcDbLine
 10
800.0
 20
263.019827
 30
0.0
 11
900.0
 21
264.793267
 31
0.0
  0
LINE
  5
FA
330
18
100
AcDbEntity
  8
default
 62
     3
100
AcDbLine
 10
700.0
 20
261.156464
 30
0.0
 11
800.0
 21
263.019827
 31
0.0
  0
LINE
  5
FB
330
18
100
AcDbEntity
  8
default
 62
     3
100
AcDbLine
 10
600.0
 20
259.299512
 30
0.0
 11
700.0
 21
261.156464
 31
0.0
  0
LINE
  5
FC
330
18
100
AcDbEntity
  8
default
 62
     3
100
AcDbLine
 10
500.0
 20
257.45262
 30
0.0
 11
600.0
 21
259.299512
 31
0.0
  0
LINE
  5
FD
330
18
100
AcDbEntity
  8
default
 62
     3
100
AcDbLine
 10
400.0
 20
255.637128
 30
0.0
 11
500.0
 21
257.45262
 31
0.0
  0
LINE
  5
FE
330
18
100
AcDbEntity
  8
default
 62
     3
100
AcDbLine
 10
300.0
 20
253.911194
 30
0.0
 11
400.0
 21
255.637128
 31
0.0
  0
LINE
  5
FF
330
18
100
AcDbEntity
  8
default
 62
     3
100
AcDbLine
 10
200.0
 20
252.255088
 30
0.0
 11
300.0
 21
253.911194
 31
0.0
  0
LINE
  5
100
330
18
100
AcDbEntity
  8
default
 62
     3
100
AcDbLine
 10
100.0
 20
250.762012
 30
0.0
 11
200.0
 21
252.255088
 31
0.0
  0
LINE
  5
101
330
18
100
AcDbEntity
  8
default
 62
     3
100
AcDbLine
 10
54.98637
 20
250.089923
 30
0.0
 11
100.0
 21
250.762012
 31
0.0
  0
LINE
  5
102
330
18
100
AcDbEntity
  8
default
 62
     3
100
AcDbLine
 10
100.0
 20
235.421842
 30
0.0
 11
54.98637
 21
250.089923
 31
0.0
  0
LINE
  5
103
330
18
100
AcDbEntity
  8
default
 62
     3
100
AcDbLine
 10
200.0
 20
202.835975
 30
0.0
 11
100.0
 21
235.421842
 31
0.0
  0
LINE
  5
104
330
18
100
AcDbEntity
  8
default
 62
     3
100
AcDbLine
 10
300.0
 20
174.48809
 30
0.0
 11
200.0
 21
202.835975
 31
0.0
  0
LINE
  5
105
330
18
100
AcDbEntity
  8
default
 62
     2
100
AcDbLine
 10
100.0
 20
349.981966
 30
0.0
 11
147.873867
 21
407.836756
 31
0.0
  0
LINE
  5
106
330
18
100
AcDbEntity
  8
default
 62
     2
100
AcDbLine
 10
28.938061
 20
264.104769
 30
0.0
 11
100.0
 21
349.981966
 31
0.0
  0
LINE
  5
107
330
18
100
AcDbEntity
  8
default
 62
     2
100
AcDbLine
 10
100.0
 20
265.277246
 30
0.0
 11
28.938061
 21
264.104769
 31
0.0
  0
LINE
  5
108
330
18
100
AcDbEntity
  8
default
 62
     2
100
AcDbLine
 10
200.0
 20
266.927182
 30
0.0
 11
100.0
 21
265.277246
 31
0.0
  0
LINE
  5
109
330
18
100
AcDbEntity
  8
default
 62
     2
100
AcDbLine
 10
300.0
 20
268.236382
 30
0.0
 11
200.0
 21
266.927182
 31
0.0
  0
LINE
  5
10A
330
18
100
AcDbEntity
  8
default
 62
     2
100
AcDbLine
 10
400.0
 20
269.489656
 30
0.0
 11
300.0
 21
268.236382
 31
0.0
  0
LINE
  5
10B
330
18
100
AcDbEntity
  8
default
 62
     2
100
AcDbLine
 10
500.0
 20
270.387786
 30
0.0
 11
400.0
 21
269.489656
 31
0.0
  0
LINE
  5
10C
330
18
100
AcDbEntity
  8
default
 62
     2
100
AcDbLine
 10
600.0
 20
271.208971
 30
0.0
 11
500.0
 21
270.387786
 31
0.0
  0
LINE
  5
10D
330
18
100
AcDbEntity
  8
default
 62
     2
100
AcDbLine
 10
700.0
 20
271.770893
 30
0.0
 11
600.0
 21
271.208971
 31
0.0
  0
LINE
  5
10E
330
18
100
AcDbEntity
  8
default
 62
     2
100
AcDbLine
 10
800.0
 20
272.188532
 30
0.0
 11
700.0
 21
271.770893
 31
0.0
  0
LINE
  5
10F
330
18
100
AcDbEntity
  8
default
 62
     2
100
AcDbLine
 10
900.0
 20
272.447147
 30
0.0
 11
800.0
 21
272.188532
 31
0.0
  0
LINE
  5
110
330
18
100
AcDbEntity
  8
default
 62
     2
100
AcDbLine
 10
1000.0
 20
272.678053
 30
0.0
 11
900.0
 21
272.447147
 31
0.0
  0
LINE
  5
111
330
18
100
AcDbEntity
  8
default
 62
     2
100
AcDbLine
 10
1100.0
 20
272.86357
 30
0.0
 11
1000.0
 21
272.678053
 31
0.0
  0
LINE
  5
112
330
18
100
AcDbEntity
  8
default
 62
     2
100
AcDbLine
 10
1200.0
 20
273.043056
 30
0.0
 11
1100.0
 21
272.86357
 31
0.0
  0
LINE
  5
113
330
18
100
AcDbEntity
  8
default
 62
     2
100
AcDbLine
 10
1300.0
 20
273.352911
 30
0.0
 11
1200.0
 21
273.043056
 31
0.0
  0
LINE
  5
114
330
18
100
AcDbEntity
  8
default
 62
     2
100
AcDbLine
 10
1400.0
 20
273.732519
 30
0.0
 11
1300.0
 21
273.352911
 31
0.0
  0
LINE
  5
115
330
18
100
AcDbEntity
  8
default
 62
     2
100
AcDbLine
 10
1500.0
 20
274.563533
 30
0.0
 11
1400.0
 21
273.732519
 31
0.0
  0
LINE
  5
116
330
18
100
AcDbEntity
  8
default
 62
     2
100
AcDbLine
 10
1600.0
 20
275.416351
 30
0.0
 11
1500.0
 21
274.563533
 31
0.0
  0
LINE
  5
117
330
18
100
AcDbEntity
  8
default
 62
     2
100
AcDbLine
 10
1700.0
 20
277.153539
 30
0.0
 11
1600.0
 21
275.416351
 31
0.0
  0
LINE
  5
118
330
18
100
AcDbEntity
  8
default
 62
     2
100
AcDbLine
 10
1800.0
 20
278.942605
 30
0.0
 11
1700.0
 21
277.153539
 31
0.0
  0
LINE
  5
119
330
18
100
AcDbEntity
  8
default
 62
     2
100
AcDbLine
 10
1900.0
 20
281.817424
 30
0.0
 11
1800.0
 21
278.942605
 31
0.0
  0
LINE
  5
11A
330
18
100
AcDbEntity
  8
default
 62
     2
100
AcDbLine
 10
2000.0
 20
284.769482
 30
0.0
 11
1900.0
 21
281.817424
 31
0.0
  0
LINE
  5
11B
330
18
100
AcDbEntity
  8
default
 62
     2
100
AcDbLine
 10
2100.0
 20
288.986892
 30
0.0
 11
2000.0
 21
284.769482
 31
0.0
  0
LINE
  5
11C
330
18
100
AcDbEntity
  8
default
 62
     2
100
AcDbLine
 10
2200.0
 20
293.252941
 30
0.0
 11
2100.0
 21
288.986892
 31
0.0
  0
LINE
  5
11D
330
18
100
AcDbEntity
  8
default
 62
     2
100
AcDbLine
 10
2300.0
 20
298.930753
 30
0.0
 11
2200.0
 21
293.252941
 31
0.0
  0
LINE
  5
11E
330
18
100
AcDbEntity
  8
default
 62
     2
100
AcDbLine
 10
2400.0
 20
304.608565
 30
0.0
 11
2300.0
 21
298.930753
 31
0.0
  0
LINE
  5
11F
330
18
100
AcDbEntity
  8
default
 62
     2
100
AcDbLine
 10
2422.461222
 20
305.883871
 30
0.0
 11
2400.0
 21
304.608565
 31
0.0
  0
LINE
  5
120
330
18
100
AcDbEntity
  8
default
 62
     2
100
AcDbLine
 10
2400.0
 20
363.754955
 30
0.0
 11
2422.461222
 21
305.883871
 31
0.0
  0
LINE
  5
121
330
18
100
AcDbEntity
  8
default
 62
     2
100
AcDbLine
 10
2387.182724
 20
396.778522
 30
0.0
 11
2400.0
 21
363.754955
 31
0.0
  0
LINE
  5
122
330
18
100
AcDbEntity
  8
default
 62
     2
100
AcDbLine
 10
2300.0
 20
396.431653
 30
0.0
 11
2387.182724
 21
396.778522
 31
0.0
  0
LINE
  5
123
330
18
100
AcDbEntity
  8
default
 62
     2
100
AcDbLine
 10
2200.0
 20
396.033788
 30
0.0
 11
2300.0
 21
396.431653
 31
0.0
  0
LINE
  5
124
330
18
100
AcDbEntity
  8
default
 62
     2
100
AcDbLine
 10
2100.0
 20
396.829974
 30
0.0
 11
2200.0
 21
396.033788
 31
0.0
  0
LINE
  5
125
330
18
100
AcDbEntity
  8
default
 62
     2
100
AcDbLine
 10
2000.0
 20
397.665118
 30
0.0
 11
2100.0
 21
396.829974
 31
0.0
  0
LINE
  5
126
330
18
100
AcDbEntity
  8
default
 62
     2
100
AcDbLine
 10
1900.0
 20
399.423492
 30
0.0
 11
2000.0
 21
397.665118
 31
0.0
  0
LINE
  5
127
330
18
100
AcDbEntity
  8
default
 62
     2
100
AcDbLine
 10
1800.0
 20
401.301376
 30
0.0
 11
1900.0
 21
399.423492
 31
0.0
  0
LINE
  5
128
330
18
100
AcDbEntity
  8
default
 62
     2
100
AcDbLine
 10
1700.0
 20
403.566935
 30
0.0
 11
1800.0
 21
401.301376
 31
0.0
  0
LINE
  5
129
330
18
100
AcDbEntity
  8
default
 62
     2
100
AcDbLine
 10
1600.0
 20
405.832495
 30
0.0
 11
1700.0
 21
403.566935
 31
0.0
  0
LINE
  5
12A
330
18
100
AcDbEntity
  8
default
 62
     2
100
AcDbLine
 10
1500.0
 20
408.069786
 30
0.0
 11
1600.0
 21
405.832495
 31
0.0
  0
LINE
  5
12B
330
18
100
AcDbEntity
  8
default
 62
     2
100
AcDbLine
 10
1400.0
 20
410.289542
 30
0.0
 11
1500.0
 21
408.069786
 31
0.0
  0
LINE
  5
12C
330
18
100
AcDbEntity
  8
default
 62
     2
100
AcDbLine
 10
1300.0
 20
411.886093
 30
0.0
 11
1400.0
 21
410.289542
 31
0.0
  0
LINE
  5
12D
330
18
100
AcDbEntity
  8
default
 62
     2
100
AcDbLine
 10
1200.0
 20
412.494855
 30
0.0
 11
1300.0
 21
411.886093
 31
0.0
  0
LINE
  5
12E
330
18
100
AcDbEntity
  8
default
 62
     2
100
AcDbLine
 10
1100.0
 20
411.318993
 30
0.0
 11
1200.0
 21
412.494855
 31
0.0
  0
LINE
  5
12F
330
18
100
AcDbEntity
  8
default
 62
     2
100
AcDbLine
 10
1000.0
 20
410.072871
 30
0.0
 11
1100.0
 21
411.318993
 31
0.0
  0
LINE
  5
130
330
18
100
AcDbEntity
  8
default
 62
     2
100
AcDbLine
 10
900.0
 20
408.335192
 30
0.0
 11
1000.0
 21
410.072871
 31
0.0
  0
LINE
  5
131
330
18
100
AcDbEntity
  8
default
 62
     2
100
AcDbLine
 10
800.0
 20
406.597513
 30
0.0
 11
900.0
 21
408.335192
 31
0.0
  0
LINE
  5
132
330
18
100
AcDbEntity
  8
default
 62
     2
100
AcDbLine
 10
700.0
 20
405.073055
 30
0.0
 11
800.0
 21
406.597513
 31
0.0
  0
LINE
  5
133
330
18
100
AcDbEntity
  8
default
 62
     2
100
AcDbLine
 10
600.0
 20
403.900925
 30
0.0
 11
700.0
 21
405.073055
 31
0.0
  0
LINE
  5
134
330
18
100
AcDbEntity
  8
default
 62
     2
100
AcDbLine
 10
500.0
 20
403.351666
 30
0.0
 11
600.0
 21
403.900925
 31
0.0
  0
LINE
  5
135
330
18
100
AcDbEntity
  8
default
 62
     2
100
AcDbLine
 10
400.0
 20
403.145225
 30
0.0
 11
500.0
 21
403.351666
 31
0.0
  0
LINE
  5
136
330
18
100
AcDbEntity
  8
default
 62
     2
100
AcDbLine
 10
300.0
 20
404.584789
 30
0.0
 11
400.0
 21
403.145225
 31
0.0
  0
LINE
  5
137
330
18
100
AcDbEntity
  8
default
 62
     2
100
AcDbLine
 10
200.0
 20
406.219604
 30
0.0
 11
300.0
 21
404.584789
 31
0.0
  0
LINE
  5
138
330
18
100
AcDbEntity
  8
default
 62
     2
100
AcDbLine
 10
147.873867
 20
407.836756
 30
0.0
 11
200.0
 21
406.219604
 31
0.0
  0
LINE
  5
139
330
18
100
AcDbEntity
  8
default
 62
    14
100
AcDbLine
 10
31.215659
 20
718.097436
 30
0.0
 11
5.0
 21
610.0
 31
0.0
  0
LINE
  5
13A
330
18
100
AcDbEntity
  8
default
 62
    14
100
AcDbLine
 10
35.102976
 20
717.154689
 30
0.0
 11
31.215659
 21
718.097436
 31
0.0
  0
LINE
  5
13B
330
18
100
AcDbEntity
  8
default
 62
    14
100
AcDbLine
 10
46.887316
 20
765.746142
 30
0.0
 11
35.102976
 21
717.154689
 31
0.0
  0
LINE
  5
13C
330
18
100
AcDbEntity
  8
default
 62
    14
100
AcDbLine
 10
100.0
 20
755.558536
 30
0.0
 11
46.887316
 21
765.746142
 31
0.0
  0
LINE
  5
13D
330
18
100
AcDbEntity
  8
default
 62
    14
100
AcDbLine
 10
173.177778
 20
741.522222
 30
0.0
 11
100.0
 21
755.558536
 31
0.0
  0
LINE
  5
13E
330
18
100
AcDbEntity
  8
default
 62
    14
100
AcDbLine
 10
197.288889
 20
610.0
 30
0.0
 11
173.177778
 21
741.522222
 31
0.0
  0
LINE
  5
13F
330
18
100
AcDbEntity
  8
default
 62
    14
100
AcDbLine
 10
173.177778
 20
478.877778
 30
0.0
 11
197.288889
 21
610.0
 31
0.0
  0
LINE
  5
140
330
18
100
AcDbEntity
  8
default
 62
    14
100
AcDbLine
 10
100.0
 20
464.842845
 30
0.0
 11
173.177778
 21
478.877778
 31
0.0
  0
LINE
  5
141
330
18
100
AcDbEntity
  8
default
 62
    14
100
AcDbLine
 10
46.886763
 20
454.656137
 30
0.0
 11
100.0
 21
464.842845
 31
0.0
  0
LINE
  5
142
330
18
100
AcDbEntity
  8
default
 62
    14
100
AcDbLine
 10
35.073944
 20
503.240674
 30
0.0
 11
46.886763
 21
454.656137
 31
0.0
  0
LINE
  5
143
330
18
100
AcDbEntity
  8
default
 62
    14
100
AcDbLine
 10
31.187181
 20
502.295649
 30
0.0
 11
35.073944
 21
503.240674
 31
0.0
  0
LINE
  5
144
330
18
100
AcDbEntity
  8
default
 62
    14
100
AcDbLine
 10
5.0
 20
610.0
 30
0.0
 11
31.187181
 21
502.295649
 31
0.0
  0
LINE
  5
145
330
18
100
AcDbEntity
  8
default
 62
    14
100
AcDbLine
 10
215.215788
 20
712.911442
 30
0.0
 11
202.288889
 21
610.0
 31
0.0
  0
LINE
  5
146
330
18
100
AcDbEntity
  8
default
 62
    14
100
AcDbLine
 10
219.1846
 20
712.412912
 30
0.0
 11
215.215788
 21
712.911442
 31
0.0
  0
LINE
  5
147
330
18
100
AcDbEntity
  8
default
 62
    14
100
AcDbLine
 10
225.416224
 20
762.023061
 30
0.0
 11
219.1846
 21
712.412912
 31
0.0
  0
LINE
  5
148
330
18
100
AcDbEntity
  8
default
 62
    14
100
AcDbLine
 10
300.0
 20
746.105198
 30
0.0
 11
225.416224
 21
762.023061
 31
0.0
  0
LINE
  5
149
330
18
100
AcDbEntity
  8
default
 62
    14
100
AcDbLine
 10
339.462753
 20
737.682955
 30
0.0
 11
300.0
 21
746.105198
 31
0.0
  0
LINE
  5
14A
330
18
100
AcDbEntity
  8
default
 62
    14
100
AcDbLine
 10
363.153093
 20
610.0
 30
0.0
 11
339.462753
 21
737.682955
 31
0.0
  0
LINE
  5
14B
330
18
100
AcDbEntity
  8
default
 62
    14
100
AcDbLine
 10
339.462753
 20
482.317045
 30
0.0
 11
363.153093
 21
610.0
 31
0.0
  0
LINE
  5
14C
330
18
100
AcDbEntity
  8
default
 62
    14
100
AcDbLine
 10
300.0
 20
473.894802
 30
0.0
 11
339.462753
 21
482.317045
 31
0.0
  0
LINE
  5
14D
330
18
100
AcDbEntity
  8
default
 62
    14
100
AcDbLine
 10
225.416224
 20
457.976939
 30
0.0
 11
300.0
 21
473.894802
 31
0.0
  0
LINE
  5
14E
330
18
100
AcDbEntity
  8
default
 62
    14
100
AcDbLine
 10
219.1846
 20
507.587088
 30
0.0
 11
225.416224
 21
457.976939
 31
0.0
  0
LINE
  5
14F
330
18
100
AcDbEntity
  8
default
 62
    14
100
AcDbLine
 10
215.215788
 20
507.088558
 30
0.0
 11
219.1846
 21
507.587088
 31
0.0
  0
LINE
  5
150
330
18
100
AcDbEntity
  8
default
 62
    14
100
AcDbLine
 10
202.288889
 20
610.0
 30
0.0
 11
215.215788
 21
507.088558
 31
0.0
  0
LINE
  5
151
330
18
100
AcDbEntity
  8
default
 62
    14
100
AcDbLine
 10
2300.0
 20
706.42498
 30
0.0
 11
2229.998766
 21
723.294976
 31
0.0
  0
LINE
  5
152
330
18
100
AcDbEntity
  8
default
 62
    14
100
AcDbLine
 10
2389.690379
 20
684.809984
 30
0.0
 11
2300.0
 21
706.42498
 31
0.0
  0
LINE
  5
153
330
18
100
AcDbEntity
  8
default
 62
    14
100
AcDbLine
 10
2388.753226
 20
680.921315
 30
0.0
 11
2389.690379
 21
684.809984
 31
0.0
  0
LINE
  5
154
330
18
100
AcDbEntity
  8
default
 62
    14
100
AcDbLine
 10
2400.0
 20
678.210891
 30
0.0
 11
2388.753226
 21
680.921315
 31
0.0
  0
LINE
  5
155
330
18
100
AcDbEntity
  8
default
 62
    14
100
AcDbLine
 10
2437.361587
 20
669.206909
 30
0.0
 11
2400.0
 21
678.210891
 31
0.0
  0
LINE
  5
156
330
18
100
AcDbEntity
  8
default
 62
    14
100
AcDbLine
 10
2427.069144
 20
610.0
 30
0.0
 11
2437.361587
 21
669.206909
 31
0.0
  0
LINE
  5
157
330
18
100
AcDbEntity
  8
default
 62
    14
100
AcDbLine
 10
2414.100116
 20
535.396132
 30
0.0
 11
2427.069144
 21
610.0
 31
0.0
  0
LINE
  5
158
330
18
100
AcDbEntity
  8
default
 62
    14
100
AcDbLine
 10
2400.0
 20
533.542628
 30
0.0
 11
2414.100116
 21
535.396132
 31
0.0
  0
LINE
  5
159
330
18
100
AcDbEntity
  8
default
 62
    14
100
AcDbLine
 10
2300.0
 20
520.397319
 30
0.0
 11
2400.0
 21
533.542628
 31
0.0
  0
LINE
  5
15A
330
18
100
AcDbEntity
  8
default
 62
    14
100
AcDbLine
 10
2229.998913
 20
511.19546
 30
0.0
 11
2300.0
 21
520.397319
 31
0.0
  0
LINE
  5
15B
330
18
100
AcDbEntity
  8
default
 62
    14
100
AcDbLine
 10
2200.0
 20
515.138956
 30
0.0
 11
2229.998913
 21
511.19546
 31
0.0
  0
LINE
  5
15C
330
18
100
AcDbEntity
  8
default
 62
    14
100
AcDbLine
 10
2100.0
 20
528.28442
 30
0.0
 11
2200.0
 21
515.138956
 31
0.0
  0
LINE
  5
15D
330
18
100
AcDbEntity
  8
default
 62
    14
100
AcDbLine
 10
2045.899884
 20
535.396132
 30
0.0
 11
2100.0
 21
528.28442
 31
0.0
  0
LINE
  5
15E
330
18
100
AcDbEntity
  8
default
 62
    14
100
AcDbLine
 10
2032.930862
 20
610.0
 30
0.0
 11
2045.899884
 21
535.396132
 31
0.0
  0
LINE
  5
15F
330
18
100
AcDbEntity
  8
default
 62
    14
100
AcDbLine
 10
2022.638424
 20
669.206911
 30
0.0
 11
2032.930862
 21
610.0
 31
0.0
  0
LINE
  5
160
330
18
100
AcDbEntity
  8
default
 62
    14
100
AcDbLine
 10
2071.246752
 20
680.921448
 30
0.0
 11
2022.638424
 21
669.206911
 31
0.0
  0
LINE
  5
161
330
18
100
AcDbEntity
  8
default
 62
    14
100
AcDbLine
 10
2070.309589
 20
684.810115
 30
0.0
 11
2071.246752
 21
680.921448
 31
0.0
  0
LINE
  5
162
330
18
100
AcDbEntity
  8
default
 62
    14
100
AcDbLine
 10
2100.0
 20
691.965461
 30
0.0
 11
2070.309589
 21
684.810115
 31
0.0
  0
LINE
  5
163
330
18
100
AcDbEntity
  8
default
 62
    14
100
AcDbLine
 10
2200.0
 20
716.065317
 30
0.0
 11
2100.0
 21
691.965461
 31
0.0
  0
LINE
  5
164
330
18
100
AcDbEntity
  8
default
 62
    14
100
AcDbLine
 10
2229.998766
 20
723.294976
 30
0.0
 11
2200.0
 21
716.065317
 31
0.0
  0
LINE
  5
165
330
18
100
AcDbEntity
  8
default
 62
     6
100
AcDbLine
 10
400.0
 20
704.993226
 30
0.0
 11
500.0
 21
676.950451
 31
0.0
  0
LINE
  5
166
330
18
100
AcDbEntity
  8
default
 62
     6
100
AcDbLine
 10
400.0
 20
610.0
 30
0.0
 11
400.0
 21
704.993226
 31
0.0
  0
LINE
  5
167
330
18
100
AcDbEntity
  8
default
 62
     6
100
AcDbLine
 10
400.0
 20
515.006774
 30
0.0
 11
400.0
 21
610.0
 31
0.0
  0
LINE
  5
168
330
18
100
AcDbEntity
  8
default
 62
     6
100
AcDbLine
 10
500.0
 20
543.049549
 30
0.0
 11
400.0
 21
515.006774
 31
0.0
  0
LINE
  5
169
330
18
100
AcDbEntity
  8
default
 62
     6
100
AcDbLine
 10
600.0
 20
575.755233
 30
0.0
 11
500.0
 21
543.049549
 31
0.0
  0
LINE
  5
16A
330
18
100
AcDbEntity
  8
default
 62
     6
100
AcDbLine
 10
700.0
 20
610.0
 30
0.0
 11
600.0
 21
575.755233
 31
0.0
  0
LINE
  5
16B
330
18
100
AcDbEntity
  8
default
 62
     6
100
AcDbLine
 10
600.0
 20
644.244767
 30
0.0
 11
700.0
 21
610.0
 31
0.0
  0
LINE
  5
16C
330
18
100
AcDbEntity
  8
default
 62
     6
100
AcDbLine
 10
500.0
 20
676.950451
 30
0.0
 11
600.0
 21
644.244767
 31
0.0
  0
LINE
  5
16D
330
18
100
AcDbEntity
  8
default
 62
     2
100
AcDbLine
 10
300.0
 20
815.415211
 30
0.0
 11
200.0
 21
813.780396
 31
0.0
  0
LINE
  5
16E
330
18
100
AcDbEntity
  8
default
 62
     2
100
AcDbLine
 10
400.0
 20
816.854775
 30
0.0
 11
300.0
 21
815.415211
 31
0.0
  0
LINE
  5
16F
330
18
100
AcDbEntity
  8
default
 62
     2
100
AcDbLine
 10
500.0
 20
816.648334
 30
0.0
 11
400.0
 21
816.854775
 31
0.0
  0
LINE
  5
170
330
18
100
AcDbEntity
  8
default
 62
     2
100
AcDbLine
 10
600.0
 20
816.099075
 30
0.0
 11
500.0
 21
816.648334
 31
0.0
  0
LINE
  5
171
330
18
100
AcDbEntity
  8
default
 62
     2
100
AcDbLine
 10
700.0
 20
814.926945
 30
0.0
 11
600.0
 21
816.099075
 31
0.0
  0
LINE
  5
172
330
18
100
AcDbEntity
  8
default
 62
     2
100
AcDbLine
 10
800.0
 20
813.402487
 30
0.0
 11
700.0
 21
814.926945
 31
0.0
  0
LINE
  5
173
330
18
100
AcDbEntity
  8
default
 62
     2
100
AcDbLine
 10
900.0
 20
811.664808
 30
0.0
 11
800.0
 21
813.402487
 31
0.0
  0
LINE
  5
174
330
18
100
AcDbEntity
  8
default
 62
     2
100
AcDbLine
 10
1000.0
 20
809.927129
 30
0.0
 11
900.0
 21
811.664808
 31
0.0
  0
LINE
  5
175
330
18
100
AcDbEntity
  8
default
 62
     2
100
AcDbLine
 10
1100.0
 20
808.681007
 30
0.0
 11
1000.0
 21
809.927129
 31
0.0
  0
LINE
  5
176
330
18
100
AcDbEntity
  8
default
 62
     2
100
AcDbLine
 10
1200.0
 20
807.505145
 30
0.0
 11
1100.0
 21
808.681007
 31
0.0
  0
LINE
  5
177
330
18
100
AcDbEntity
  8
default
 62
     2
100
AcDbLine
 10
1300.0
 20
808.113907
 30
0.0
 11
1200.0
 21
807.505145
 31
0.0
  0
LINE
  5
178
330
18
100
AcDbEntity
  8
default
 62
     2
100
AcDbLine
 10
1400.0
 20
809.710458
 30
0.0
 11
1300.0
 21
808.113907
 31
0.0
  0
LINE
  5
179
330
18
100
AcDbEntity
  8
default
 62
     2
100
AcDbLine
 10
1500.0
 20
811.930214
 30
0.0
 11
1400.0
 21
809.710458
 31
0.0
  0
LINE
  5
17A
330
18
100
AcDbEntity
  8
default
 62
     2
100
AcDbLine
 10
1600.0
 20
814.167505
 30
0.0
 11
1500.0
 21
811.930214
 31
0.0
  0
LINE
  5
17B
330
18
100
AcDbEntity
  8
default
 62
     2
100
AcDbLine
 10
1700.0
 20
816.433065
 30
0.0
 11
1600.0
 21
814.167505
 31
0.0
  0
LINE
  5
17C
330
18
100
AcDbEntity
  8
default
 62
     2
100
AcDbLine
 10
1800.0
 20
818.698624
 30
0.0
 11
1700.0
 21
816.433065
 31
0.0
  0
LINE
  5
17D
330
18
100
AcDbEntity
  8
default
 62
     2
100
AcDbLine
 10
1900.0
 20
820.576508
 30
0.0
 11
1800.0
 21
818.698624
 31
0.0
  0
LINE
  5
17E
330
18
100
AcDbEntity
  8
default
 62
     2
100
AcDbLine
 10
2000.0
 20
822.334882
 30
0.0
 11
1900.0
 21
820.576508
 31
0.0
  0
LINE
  5
17F
330
18
100
AcDbEntity
  8
default
 62
     2
100
AcDbLine
 10
2100.0
 20
823.170026
 30
0.0
 11
2000.0
 21
822.334882
 31
0.0
  0
LINE
  5
180
330
18
100
AcDbEntity
  8
default
 62
     2
100
AcDbLine
 10
2200.0
 20
823.966212
 30
0.0
 11
2100.0
 21
823.170026
 31
0.0
  0
LINE
  5
181
330
18
100
AcDbEntity
  8
default
 62
     2
100
AcDbLine
 10
2300.0
 20
823.568347
 30
0.0
 11
2200.0
 21
823.966212
 31
0.0
  0
LINE
  5
182
330
18
100
AcDbEntity
  8
default
 62
     2
100
AcDbLine
 10
2387.182724
 20
823.221478
 30
0.0
 11
2300.0
 21
823.568347
 31
0.0
  0
LINE
  5
183
330
18
100
AcDbEntity
  8
default
 62
     2
100
AcDbLine
 10
2400.0
 20
856.245045
 30
0.0
 11
2387.182724
 21
823.221478
 31
0.0
  0
LINE
  5
184
330
18
100
AcDbEntity
  8
default
 62
     2
100
AcDbLine
 10
2422.461222
 20
914.116129
 30
0.0
 11
2400.0
 21
856.245045
 31
0.0
  0
LINE
  5
185
330
18
100
AcDbEntity
  8
default
 62
     2
100
AcDbLine
 10
2400.0
 20
915.391435
 30
0.0
 11
2422.461222
 21
914.116129
 31
0.0
  0
LINE
  5
186
330
18
100
AcDbEntity
  8
default
 62
     2
100
AcDbLine
 10
2300.0
 20
921.069247
 30
0.0
 11
2400.0
 21
915.391435
 31
0.0
  0
LINE
  5
187
330
18
100
AcDbEntity
  8
default
 62
     2
100
AcDbLine
 10
2200.0
 20
926.747059
 30
0.0
 11
2300.0
 21
921.069247
 31
0.0
  0
LINE
  5
188
330
18
100
AcDbEntity
  8
default
 62
     2
100
AcDbLine
 10
2100.0
 20
931.013108
 30
0.0
 11
2200.0
 21
926.747059
 31
0.0
  0
LINE
  5
189
330
18
100
AcDbEntity
  8
default
 62
     2
100
AcDbLine
 10
2000.0
 20
935.230518
 30
0.0
 11
2100.0
 21
931.013108
 31
0.0
  0
LINE
  5
18A
330
18
100
AcDbEntity
  8
default
 62
     2
100
AcDbLine
 10
1900.0
 20
938.182576
 30
0.0
 11
2000.0
 21
935.230518
 31
0.0
  0
LINE
  5
18B
330
18
100
AcDbEntity
  8
default
 62
     2
100
AcDbLine
 10
1800.0
 20
941.057395
 30
0.0
 11
1900.0
 21
938.182576
 31
0.0
  0
LINE
  5
18C
330
18
100
AcDbEntity
  8
default
 62
     2
100
AcDbLine
 10
1700.0
 20
942.846461
 30
0.0
 11
1800.0
 21
941.057395
 31
0.0
  0
LINE
  5
18D
330
18
100
AcDbEntity
  8
default
 62
     2
100
AcDbLine
 10
1600.0
 20
944.583649
 30
0.0
 11
1700.0
 21
942.846461
 31
0.0
  0
LINE
  5
18E
330
18
100
AcDbEntity
  8
default
 62
     2
100
AcDbLine
 10
1500.0
 20
945.436467
 30
0.0
 11
1600.0
 21
944.583649
 31
0.0
  0
LINE
  5
18F
330
18
100
AcDbEntity
  8
default
 62
     2
100
AcDbLine
 10
1400.0
 20
946.267481
 30
0.0
 11
1500.0
 21
945.436467
 31
0.0
  0
LINE
  5
190
330
18
100
AcDbEntity
  8
default
 62
     2
100
AcDbLine
 10
1300.0
 20
946.647089
 30
0.0
 11
1400.0
 21
946.267481
 31
0.0
  0
LINE
  5
191
330
18
100
AcDbEntity
  8
default
 62
     2
100
AcDbLine
 10
1200.0
 20
946.956944
 30
0.0
 11
1300.0
 21
946.647089
 31
0.0
  0
LINE
  5
192
330
18
100
AcDbEntity
  8
default
 62
     2
100
AcDbLine
 10
1100.0
 20
947.13643
 30
0.0
 11
1200.0
 21
946.956944
 31
0.0
  0
LINE
  5
193
330
18
100
AcDbEntity
  8
default
 62
     2
100
AcDbLine
 10
1000.0
 20
947.321947
 30
0.0
 11
1100.0
 21
947.13643
 31
0.0
  0
LINE
  5
194
330
18
100
AcDbEntity
  8
default
 62
     2
100
AcDbLine
 10
900.0
 20
947.552853
 30
0.0
 11
1000.0
 21
947.321947
 31
0.0
  0
LINE
  5
195
330
18
100
AcDbEntity
  8
default
 62
     2
100
AcDbLine
 10
800.0
 20
947.811468
 30
0.0
 11
900.0
 21
947.552853
 31
0.0
  0
LINE
  5
196
330
18
100
AcDbEntity
  8
default
 62
     2
100
AcDbLine
 10
700.0
 20
948.229107
 30
0.0
 11
800.0
 21
947.811468
 31
0.0
  0
LINE
  5
197
330
18
100
AcDbEntity
  8
default
 62
     2
100
AcDbLine
 10
600.0
 20
948.791029
 30
0.0
 11
700.0
 21
948.229107
 31
0.0
  0
LINE
  5
198
330
18
100
AcDbEntity
  8
default
 62
     2
100
AcDbLine
 10
500.0
 20
949.612214
 30
0.0
 11
600.0
 21
948.791029
 31
0.0
  0
LINE
  5
199
330
18
100
AcDbEntity
  8
default
 62
     2
100
AcDbLine
 10
400.0
 20
950.510344
 30
0.0
 11
500.0
 21
949.612214
 31
0.0
  0
LINE
  5
19A
330
18
100
AcDbEntity
  8
default
 62
     2
100
AcDbLine
 10
300.0
 20
951.763618
 30
0.0
 11
400.0
 21
950.510344
 31
0.0
  0
LINE
  5
19B
330
18
100
AcDbEntity
  8
default
 62
     2
100
AcDbLine
 10
200.0
 20
953.072818
 30
0.0
 11
300.0
 21
951.763618
 31
0.0
  0
LINE
  5
19C
330
18
100
AcDbEntity
  8
default
 62
     2
100
AcDbLine
 10
100.0
 20
954.722754
 30
0.0
 11
200.0
 21
953.072818
 31
0.0
  0
LINE
  5
19D
330
18
100
AcDbEntity
  8
default
 62
     2
100
AcDbLine
 10
28.938061
 20
955.895231
 30
0.0
 11
100.0
 21
954.722754
 31
0.0
  0
LINE
  5
19E
330
18
100
AcDbEntity
  8
default
 62
     2
100
AcDbLine
 10
100.0
 20
870.018034
 30
0.0
 11
28.938061
 21
955.895231
 31
0.0
  0
LINE
  5
19F
330
18
100
AcDbEntity
  8
default
 62
     2
100
AcDbLine
 10
147.873867
 20
812.163244
 30
0.0
 11
100.0
 21
870.018034
 31
0.0
  0
LINE
  5
1A0
330
18
100
AcDbEntity
  8
default
 62
     2
100
AcDbLine
 10
200.0
 20
813.780396
 30
0.0
 11
147.873867
 21
812.163244
 31
0.0
  0
LINE
  5
1A1
330
18
100
AcDbEntity
  8
default
 62
     3
100
AcDbLine
 10
100.0
 20
984.578158
 30
0.0
 11
200.0
 21
1017.164025
 31
0.0
  0
LINE
  5
1A2
330
18
100
AcDbEntity
  8
default
 62
     3
100
AcDbLine
 10
54.98637
 20
969.910077
 30
0.0
 11
100.0
 21
984.578158
 31
0.0
  0
LINE
  5
1A3
330
18
100
AcDbEntity
  8
default
 62
     3
100
AcDbLine
 10
100.0
 20
969.237988
 30
0.0
 11
54.98637
 21
969.910077
 31
0.0
  0
LINE
  5
1A4
330
18
100
AcDbEntity
  8
default
 62
     3
100
AcDbLine
 10
200.0
 20
967.744912
 30
0.0
 11
100.0
 21
969.237988
 31
0.0
  0
LINE
  5
1A5
330
18
100
AcDbEntity
  8
default
 62
     3
100
AcDbLine
 10
300.0
 20
966.088806
 30
0.0
 11
200.0
 21
967.744912
 31
0.0
  0
LINE
  5
1A6
330
18
100
AcDbEntity
  8
default
 62
     3
100
AcDbLine
 10
400.0
 20
964.362872
 30
0.0
 11
300.0
 21
966.088806
 31
0.0
  0
LINE
  5
1A7
330
18
100
AcDbEntity
  8
default
 62
     3
100
AcDbLine
 10
500.0
 20
962.54738
 30
0.0
 11
400.0
 21
964.362872
 31
0.0
  0
LINE
  5
1A8
330
18
100
AcDbEntity
  8
default
 62
     3
100
AcDbLine
 10
600.0
 20
960.700488
 30
0.0
 11
500.0
 21
962.54738
 31
0.0
  0
LINE
  5
1A9
330
18
100
AcDbEntity
  8
default
 62
     3
100
AcDbLine
 10
700.0
 20
958.843536
 30
0.0
 11
600.0
 21
960.700488
 31
0.0
  0
LINE
  5
1AA
330
18
100
AcDbEntity
  8
default
 62
     3
100
AcDbLine
 10
800.0
 20
956.980173
 30
0.0
 11
700.0
 21
958.843536
 31
0.0
  0
LINE
  5
1AB
330
18
100
AcDbEntity
  8
default
 62
     3
100
AcDbLine
 10
900.0
 20
955.206733
 30
0.0
 11
800.0
 21
956.980173
 31
0.0
  0
LINE
  5
1AC
330
18
100
AcDbEntity
  8
default
 62
     3
100
AcDbLine
 10
1000.0
 20
953.450286
 30
0.0
 11
900.0
 21
955.206733
 31
0.0
  0
LINE
  5
1AD
330
18
100
AcDbEntity
  8
default
 62
     3
100
AcDbLine
 10
1100.0
 20
951.91881
 30
0.0
 11
1000.0
 21
953.450286
 31
0.0
  0
LINE
  5
1AE
330
18
100
AcDbEntity
  8
default
 62
     3
100
AcDbLine
 10
1200.0
 20
950.41762
 30
0.0
 11
1100.0
 21
951.91881
 31
0.0
  0
LINE
  5
1AF
330
18
100
AcDbEntity
  8
default
 62
     3
100
AcDbLine
 10
1300.0
 20
949.402497
 30
0.0
 11
1200.0
 21
950.41762
 31
0.0
  0
LINE
  5
1B0
330
18
100
AcDbEntity
  8
default
 62
     3
100
AcDbLine
 10
1400.0
 20
948.647435
 30
0.0
 11
1300.0
 21
949.402497
 31
0.0
  0
LINE
  5
1B1
330
18
100
AcDbEntity
  8
default
 62
     3
100
AcDbLine
 10
1500.0
 20
947.995359
 30
0.0
 11
1400.0
 21
948.647435
 31
0.0
  0
LINE
  5
1B2
330
18
100
AcDbEntity
  8
default
 62
     3
100
AcDbLine
 10
1600.0
 20
947.345067
 30
0.0
 11
1500.0
 21
947.995359
 31
0.0
  0
LINE
  5
1B3
330
18
100
AcDbEntity
  8
default
 62
     3
100
AcDbLine
 10
1700.0
 20
946.675428
 30
0.0
 11
1600.0
 21
947.345067
 31
0.0
  0
LINE
  5
1B4
330
18
100
AcDbEntity
  8
default
 62
     3
100
AcDbLine
 10
1800.0
 20
945.997923
 30
0.0
 11
1700.0
 21
946.675428
 31
0.0
  0
LINE
  5
1B5
330
18
100
AcDbEntity
  8
default
 62
     3
100
AcDbLine
 10
1900.0
 20
945.205553
 30
0.0
 11
1800.0
 21
945.997923
 31
0.0
  0
LINE
  5
1B6
330
18
100
AcDbEntity
  8
default
 62
     3
100
AcDbLine
 10
2000.0
 20
944.396205
 30
0.0
 11
1900.0
 21
945.205553
 31
0.0
  0
LINE
  5
1B7
330
18
100
AcDbEntity
  8
default
 62
     3
100
AcDbLine
 10
2100.0
 20
943.451763
 30
0.0
 11
2000.0
 21
944.396205
 31
0.0
  0
LINE
  5
1B8
330
18
100
AcDbEntity
  8
default
 62
     3
100
AcDbLine
 10
2200.0
 20
942.494558
 30
0.0
 11
2100.0
 21
943.451763
 31
0.0
  0
LINE
  5
1B9
330
18
100
AcDbEntity
  8
default
 62
     3
100
AcDbLine
 10
2300.0
 20
941.465177
 30
0.0
 11
2200.0
 21
942.494558
 31
0.0
  0
LINE
  5
1BA
330
18
100
AcDbEntity
  8
default
 62
     3
100
AcDbLine
 10
2400.000049
 20
940.435796
 30
0.0
 11
2300.0
 21
941.465177
 31
0.0
  0
LINE
  5
1BB
330
18
100
AcDbEntity
  8
default
 62
     3
100
AcDbLine
 10
2300.0
 20
974.215994
 30
0.0
 11
2400.000049
 21
940.435796
 31
0.0
  0
LINE
  5
1BC
330
18
100
AcDbEntity
  8
default
 62
     3
100
AcDbLine
 10
2200.0
 20
1007.996174
 30
0.0
 11
2300.0
 21
974.215994
 31
0.0
  0
LINE
  5
1BD
330
18
100
AcDbEntity
  8
default
 62
     3
100
AcDbLine
 10
2100.0
 20
1036.320156
 30
0.0
 11
2200.0
 21
1007.996174
 31
0.0
  0
LINE
  5
1BE
330
18
100
AcDbEntity
  8
default
 62
     3
100
AcDbLine
 10
2000.0
 20
1063.737591
 30
0.0
 11
2100.0
 21
1036.320156
 31
0.0
  0
LINE
  5
1BF
330
18
100
AcDbEntity
  8
default
 62
     3
100
AcDbLine
 10
1900.0
 20
1085.959675
 30
0.0
 11
2000.0
 21
1063.737591
 31
0.0
  0
LINE
  5
1C0
330
18
100
AcDbEntity
  8
default
 62
     3
100
AcDbLine
 10
1800.0
 20
1106.754171
 30
0.0
 11
1900.0
 21
1085.959675
 31
0.0
  0
LINE
  5
1C1
330
18
100
AcDbEntity
  8
default
 62
     3
100
AcDbLine
 10
1700.0
 20
1122.532385
 30
0.0
 11
1800.0
 21
1106.754171
 31
0.0
  0
LINE
  5
1C2
330
18
100
AcDbEntity
  8
default
 62
     3
100
AcDbLine
 10
1600.0
 20
1138.232241
 30
0.0
 11
1700.0
 21
1122.532385
 31
0.0
  0
LINE
  5
1C3
330
18
100
AcDbEntity
  8
default
 62
     3
100
AcDbLine
 10
1500.0
 20
1147.880066
 30
0.0
 11
1600.0
 21
1138.232241
 31
0.0
  0
LINE
  5
1C4
330
18
100
AcDbEntity
  8
default
 62
     3
100
AcDbLine
 10
1400.0
 20
1157.229942
 30
0.0
 11
1500.0
 21
1147.880066
 31
0.0
  0
LINE
  5
1C5
330
18
100
AcDbEntity
  8
default
 62
     3
100
AcDbLine
 10
1300.0
 20
1161.502697
 30
0.0
 11
1400.0
 21
1157.229942
 31
0.0
  0
LINE
  5
1C6
330
18
100
AcDbEntity
  8
default
 62
     3
100
AcDbLine
 10
1200.0
 20
1163.598771
 30
0.0
 11
1300.0
 21
1161.502697
 31
0.0
  0
LINE
  5
1C7
330
18
100
AcDbEntity
  8
default
 62
     3
100
AcDbLine
 10
1100.0
 20
1162.237259
 30
0.0
 11
1200.0
 21
1163.598771
 31
0.0
  0
LINE
  5
1C8
330
18
100
AcDbEntity
  8
default
 62
     3
100
AcDbLine
 10
1000.0
 20
1159.881577
 30
0.0
 11
1100.0
 21
1162.237259
 31
0.0
  0
LINE
  5
1C9
330
18
100
AcDbEntity
  8
default
 62
     3
100
AcDbLine
 10
900.0
 20
1152.123085
 30
0.0
 11
1000.0
 21
1159.881577
 31
0.0
  0
LINE
  5
1CA
330
18
100
AcDbEntity
  8
default
 62
     3
100
AcDbLine
 10
800.0
 20
1143.189802
 30
0.0
 11
900.0
 21
1152.123085
 31
0.0
  0
LINE
  5
1CB
330
18
100
AcDbEntity
  8
default
 62
     3
100
AcDbLine
 10
700.0
 20
1129.325672
 30
0.0
 11
800.0
 21
1143.189802
 31
0.0
  0
LINE
  5
1CC
330
18
100
AcDbEntity
  8
default
 62
     3
100
AcDbLine
 10
600.0
 20
1113.975073
 30
0.0
 11
700.0
 21
1129.325672
 31
0.0
  0
LINE
  5
1CD
330
18
100
AcDbEntity
  8
default
 62
     3
100
AcDbLine
 10
500.0
 20
1093.847102
 30
0.0
 11
600.0
 21
1113.975073
 31
0.0
  0
LINE
  5
1CE
330
18
100
AcDbEntity
  8
default
 62
     3
100
AcDbLine
 10
400.0
 20
1071.951667
 30
0.0
 11
500.0
 21
1093.847102
 31
0.0
  0
LINE
  5
1CF
330
18
100
AcDbEntity
  8
default
 62
     3
100
AcDbLine
 10
300.0
 20
1045.51191
 30
0.0
 11
400.0
 21
1071.951667
 31
0.0
  0
LINE
  5
1D0
330
18
100
AcDbEntity
  8
default
 62
     3
100
AcDbLine
 10
200.0
 20
1017.164025
 30
0.0
 11
300.0
 21
1045.51191
 31
0.0
  0
LINE
  5
1D1
330
18
100
AcDbEntity
  8
default
 62
     1
100
AcDbLine
 10
100.0
 20
1037.578158
 30
0.0
 11
200.0
 21
1070.164025
 31
0.0
  0
LINE
  5
1D2
330
18
100
AcDbEntity
  8
default
 62
     1
100
AcDbLine
 10
54.98637
 20
1022.910077
 30
0.0
 11
100.0
 21
1037.578158
 31
0.0
  0
LINE
  5
1D3
330
18
100
AcDbEntity
  8
default
 62
     1
100
AcDbLine
 10
100.0
 20
1022.237988
 30
0.0
 11
54.98637
 21
1022.910077
 31
0.0
  0
LINE
  5
1D4
330
18
100
AcDbEntity
  8
default
 62
     1
100
AcDbLine
 10
200.0
 20
1020.744912
 30
0.0
 11
100.0
 21
1022.237988
 31
0.0
  0
LINE
  5
1D5
330
18
100
AcDbEntity
  8
default
 62
     1
100
AcDbLine
 10
300.0
 20
1048.51191
 30
0.0
 11
200.0
 21
1020.744912
 31
0.0
  0
LINE
  5
1D6
330
18
100
AcDbEntity
  8
default
 62
     1
100
AcDbLine
 10
400.0
 20
1074.951667
 30
0.0
 11
300.0
 21
1048.51191
 31
0.0
  0
LINE
  5
1D7
330
18
100
AcDbEntity
  8
default
 62
     1
100
AcDbLine
 10
500.0
 20
1096.847102
 30
0.0
 11
400.0
 21
1074.951667
 31
0.0
  0
LINE
  5
1D8
330
18
100
AcDbEntity
  8
default
 62
     1
100
AcDbLine
 10
600.0
 20
1116.975073
 30
0.0
 11
500.0
 21
1096.847102
 31
0.0
  0
LINE
  5
1D9
330
18
100
AcDbEntity
  8
default
 62
     1
100
AcDbLine
 10
700.0
 20
1132.325672
 30
0.0
 11
600.0
 21
1116.975073
 31
0.0
  0
LINE
  5
1DA
330
18
100
AcDbEntity
  8
default
 62
     1
100
AcDbLine
 10
800.0
 20
1146.189802
 30
0.0
 11
700.0
 21
1132.325672
 31
0.0
  0
LINE
  5
1DB
330
18
100
AcDbEntity
  8
default
 62
     1
100
AcDbLine
 10
900.0
 20
1155.123085
 30
0.0
 11
800.0
 21
1146.189802
 31
0.0
  0
LINE
  5
1DC
330
18
100
AcDbEntity
  8
default
 62
     1
100
AcDbLine
 10
1000.0
 20
1162.881577
 30
0.0
 11
900.0
 21
1155.123085
 31
0.0
  0
LINE
  5
1DD
330
18
100
AcDbEntity
  8
default
 62
     1
100
AcDbLine
 10
1100.0
 20
1165.237259
 30
0.0
 11
1000.0
 21
1162.881577
 31
0.0
  0
LINE
  5
1DE
330
18
100
AcDbEntity
  8
default
 62
     1
100
AcDbLine
 10
1200.0
 20
1166.598771
 30
0.0
 11
1100.0
 21
1165.237259
 31
0.0
  0
LINE
  5
1DF
330
18
100
AcDbEntity
  8
default
 62
     1
100
AcDbLine
 10
1300.0
 20
1164.502697
 30
0.0
 11
1200.0
 21
1166.598771
 31
0.0
  0
LINE
  5
1E0
330
18
100
AcDbEntity
  8
default
 62
     1
100
AcDbLine
 10
1400.0
 20
1160.229942
 30
0.0
 11
1300.0
 21
1164.502697
 31
0.0
  0
LINE
  5
1E1
330
18
100
AcDbEntity
  8
default
 62
     1
100
AcDbLine
 10
1500.0
 20
1150.880066
 30
0.0
 11
1400.0
 21
1160.229942
 31
0.0
  0
LINE
  5
1E2
330
18
100
AcDbEntity
  8
default
 62
     1
100
AcDbLine
 10
1600.0
 20
1141.232241
 30
0.0
 11
1500.0
 21
1150.880066
 31
0.0
  0
LINE
  5
1E3
330
18
100
AcDbEntity
  8
default
 62
     1
100
AcDbLine
 10
1700.0
 20
1125.532385
 30
0.0
 11
1600.0
 21
1141.232241
 31
0.0
  0
LINE
  5
1E4
330
18
100
AcDbEntity
  8
default
 62
     1
100
AcDbLine
 10
1800.0
 20
1109.754171
 30
0.0
 11
1700.0
 21
1125.532385
 31
0.0
  0
LINE
  5
1E5
330
18
100
AcDbEntity
  8
default
 62
     1
100
AcDbLine
 10
1900.0
 20
1088.959675
 30
0.0
 11
1800.0
 21
1109.754171
 31
0.0
  0
LINE
  5
1E6
330
18
100
AcDbEntity
  8
default
 62
     1
100
AcDbLine
 10
2000.0
 20
1066.737591
 30
0.0
 11
1900.0
 21
1088.959675
 31
0.0
  0
LINE
  5
1E7
330
18
100
AcDbEntity
  8
default
 62
     1
100
AcDbLine
 10
2100.0
 20
1039.320156
 30
0.0
 11
2000.0
 21
1066.737591
 31
0.0
  0
LINE
  5
1E8
330
18
100
AcDbEntity
  8
default
 62
     1
100
AcDbLine
 10
2200.0
 20
1010.996174
 30
0.0
 11
2100.0
 21
1039.320156
 31
0.0
  0
LINE
  5
1E9
330
18
100
AcDbEntity
  8
default
 62
     1
100
AcDbLine
 10
2247.332023
 20
995.007331
 30
0.0
 11
2200.0
 21
1010.996174
 31
0.0
  0
LINE
  5
1EA
330
18
100
AcDbEntity
  8
default
 62
     1
100
AcDbLine
 10
2300.0
 20
994.465177
 30
0.0
 11
2247.332023
 21
995.007331
 31
0.0
  0
LINE
  5
1EB
330
18
100
AcDbEntity
  8
default
 62
     1
100
AcDbLine
 10
2400.000049
 20
993.435796
 30
0.0
 11
2300.0
 21
994.465177
 31
0.0
  0
LINE
  5
1EC
330
18
100
AcDbEntity
  8
default
 62
     1
100
AcDbLine
 10
2300.0
 20
1027.215994
 30
0.0
 11
2400.000049
 21
993.435796
 31
0.0
  0
LINE
  5
1ED
330
18
100
AcDbEntity
  8
default
 62
     1
100
AcDbLine
 10
2200.0
 20
1060.996174
 30
0.0
 11
2300.0
 21
1027.215994
 31
0.0
  0
LINE
  5
1EE
330
18
100
AcDbEntity
  8
default
 62
     1
100
AcDbLine
 10
2100.0
 20
1089.320156
 30
0.0
 11
2200.0
 21
1060.996174
 31
0.0
  0
LINE
  5
1EF
330
18
100
AcDbEntity
  8
default
 62
     1
100
AcDbLine
 10
2000.0
 20
1116.737591
 30
0.0
 11
2100.0
 21
1089.320156
 31
0.0
  0
LINE
  5
1F0
330
18
100
AcDbEntity
  8
default
 62
     1
100
AcDbLine
 10
1900.0
 20
1138.959675
 30
0.0
 11
2000.0
 21
1116.737591
 31
0.0
  0
LINE
  5
1F1
330
18
100
AcDbEntity
  8
default
 62
     1
100
AcDbLine
 10
1800.0
 20
1159.754171
 30
0.0
 11
1900.0
 21
1138.959675
 31
0.0
  0
LINE
  5
1F2
330
18
100
AcDbEntity
  8
default
 62
     1
100
AcDbLine
 10
1700.0
 20
1175.532385
 30
0.0
 11
1800.0
 21
1159.754171
 31
0.0
  0
LINE
  5
1F3
330
18
100
AcDbEntity
  8
default
 62
     1
100
AcDbLine
 10
1600.0
 20
1191.232241
 30
0.0
 11
1700.0
 21
1175.532385
 31
0.0
  0
LINE
  5
1F4
330
18
100
AcDbEntity
  8
default
 62
     1
100
AcDbLine
 10
1500.0
 20
1200.880066
 30
0.0
 11
1600.0
 21
1191.232241
 31
0.0
  0
LINE
  5
1F5
330
18
100
AcDbEntity
  8
default
 62
     1
100
AcDbLine
 10
1400.0
 20
1210.229942
 30
0.0
 11
1500.0
 21
1200.880066
 31
0.0
  0
LINE
  5
1F6
330
18
100
AcDbEntity
  8
default
 62
     1
100
AcDbLine
 10
1300.0
 20
1214.502697
 30
0.0
 11
1400.0
 21
1210.229942
 31
0.0
  0
LINE
  5
1F7
330
18
100
AcDbEntity
  8
default
 62
     1
100
AcDbLine
 10
1200.0
 20
1216.598771
 30
0.0
 11
1300.0
 21
1214.502697
 31
0.0
  0
LINE
  5
1F8
330
18
100
AcDbEntity
  8
default
 62
     1
100
AcDbLine
 10
1100.0
 20
1215.237259
 30
0.0
 11
1200.0
 21
1216.598771
 31
0.0
  0
LINE
  5
1F9
330
18
100
AcDbEntity
  8
default
 62
     1
100
AcDbLine
 10
1000.0
 20
1212.881577
 30
0.0
 11
1100.0
 21
1215.237259
 31
0.0
  0
LINE
  5
1FA
330
18
100
AcDbEntity
  8
default
 62
     1
100
AcDbLine
 10
900.0
 20
1205.123085
 30
0.0
 11
1000.0
 21
1212.881577
 31
0.0
  0
LINE
  5
1FB
330
18
100
AcDbEntity
  8
default
 62
     1
100
AcDbLine
 10
800.0
 20
1196.189802
 30
0.0
 11
900.0
 21
1205.123085
 31
0.0
  0
LINE
  5
1FC
330
18
100
AcDbEntity
  8
default
 62
     1
100
AcDbLine
 10
700.0
 20
1182.325672
 30
0.0
 11
800.0
 21
1196.189802
 31
0.0
  0
LINE
  5
1FD
330
18
100
AcDbEntity
  8
default
 62
     1
100
AcDbLine
 10
600.0
 20
1166.975073
 30
0.0
 11
700.0
 21
1182.325672
 31
0.0
  0
LINE
  5
1FE
330
18
100
AcDbEntity
  8
default
 62
     1
100
AcDbLine
 10
500.0
 20
1146.847102
 30
0.0
 11
600.0
 21
1166.975073
 31
0.0
  0
LINE
  5
1FF
330
18
100
AcDbEntity
  8
default
 62
     1
100
AcDbLine
 10
400.0
 20
1124.951667
 30
0.0
 11
500.0
 21
1146.847102
 31
0.0
  0
LINE
  5
200
330
18
100
AcDbEntity
  8
default
 62
     1
100
AcDbLine
 10
300.0
 20
1098.51191
 30
0.0
 11
400.0
 21
1124.951667
 31
0.0
  0
LINE
  5
201
330
18
100
AcDbEntity
  8
default
 62
     1
100
AcDbLine
 10
200.0
 20
1070.164025
 30
0.0
 11
300.0
 21
1098.51191
 31
0.0
  0
LINE
  5
202
330
18
100
AcDbEntity
  8
default
 62
     6
100
AcDbLine
 10
1800.0
 20
590.417879
 30
0.0
 11
1740.0
 21
610.0
 31
0.0
  0
LINE
  5
203
330
18
100
AcDbEntity
  8
default
 62
     6
100
AcDbLine
 10
1900.0
 20
557.78101
 30
0.0
 11
1800.0
 21
590.417879
 31
0.0
  0
LINE
  5
204
330
18
100
AcDbEntity
  8
default
 62
     6
100
AcDbLine
 10
2000.0
 20
527.990879
 30
0.0
 11
1900.0
 21
557.78101
 31
0.0
  0
LINE
  5
205
330
18
100
AcDbEntity
  8
default
 62
     6
100
AcDbLine
 10
2020.0
 20
522.728207
 30
0.0
 11
2000.0
 21
527.990879
 31
0.0
  0
LINE
  5
206
330
18
100
AcDbEntity
  8
default
 62
     6
100
AcDbLine
 10
2020.0
 20
610.0
 30
0.0
 11
2020.0
 21
522.728207
 31
0.0
  0
LINE
  5
207
330
18
100
AcDbEntity
  8
default
 62
     6
100
AcDbLine
 10
2020.0
 20
697.271793
 30
0.0
 11
2020.0
 21
610.0
 31
0.0
  0
LINE
  5
208
330
18
100
AcDbEntity
  8
default
 62
     6
100
AcDbLine
 10
2000.0
 20
692.009121
 30
0.0
 11
2020.0
 21
697.271793
 31
0.0
  0
LINE
  5
209
330
18
100
AcDbEntity
  8
default
 62
     6
100
AcDbLine
 10
1900.0
 20
662.21899
 30
0.0
 11
2000.0
 21
692.009121
 31
0.0
  0
LINE
  5
20A
330
18
100
AcDbEntity
  8
default
 62
     6
100
AcDbLine
 10
1800.0
 20
629.582121
 30
0.0
 11
1900.0
 21
662.21899
 31
0.0
  0
LINE
  5
20B
330
18
100
AcDbEntity
  8
default
 62
     6
100
AcDbLine
 10
1740.0
 20
610.0
 30
0.0
 11
1800.0
 21
629.582121
 31
0.0
  0
ENDSEC
  0
SECTION
  2
OBJECTS
  0
DICTIONARY
  5
C
330
0
100
AcDbDictionary
281
     1
  3
ACAD_DETAILVIEWSTYLE
350
283
  3
ACAD_GROUP
350
D
  3
ACAD_LAYOUT
350
22E
  3
ACAD_MATERIAL
350
24A
  3
ACAD_MLEADERSTYLE
350
281
  3
ACAD_MLINESTYLE
350
1B
  3
ACAD_SCALELIST
350
20C
  3
ACAD_SECTIONVIEWSTYLE
350
284
  3
ACAD_TABLESTYLE
350
280
  3
ACAD_VISUALSTYLE
350
231
  3
AcDbVariableDictionary
350
24E
  0
DICTIONARY
  5
283
102
{ACAD_REACTORS
330
C
102
}
330
C
100
AcDbDictionary
281
     1
  0
DICTIONARY
  5
D
102
{ACAD_REACTORS
330
C
102
}
330
C
100
AcDbDictionary
281
     1
  0
DICTIONARY
  5
22E
102
{ACAD_REACTORS
330
C
102
}
330
C
100
AcDbDictionary
281
     1
  3
Layout1
350
230
  3
Model
350
22F
  0
DICTIONARY
  5
24A
102
{ACAD_REACTORS
330
C
102
}
330
C
100
AcDbDictionary
281
     1
  3
ByBlock
350
24C
  3
ByLayer
350
24B
  3
Global
350
24D
  0
DICTIONARY
  5
281
102
{ACAD_REACTORS
330
C
102
}
330
C
100
AcDbDictionary
281
     1
  0
DICTIONARY
  5
1B
102
{ACAD_REACTORS
330
C
102
}
330
C
100
AcDbDictionary
281
     1
  3
STANDARD
350
1C
  0
DICTIONARY
  5
20C
102
{ACAD_REACTORS
330
C
102
}
330
C
100
AcDbDictionary
281
     1
  3
A0
350
20D
  3
A1
350
20E
  3
A2
350
20F
  3
A3
350
210
  3
A4
350
211
  3
A5
350
212
  3
A6
350
213
  3
A7
350
214
  3
A8
350
215
  3
A9
350
216
  3
B0
350
217
  3
B1
350
218
  3
B2
350
219
  3
B3
350
21A
  3
B4
350
21B
  3
B5
350
21C
  3
B6
350
21D
  3
B7
350
21E
  3
B8
350
21F
  3
B9
350
220
  3
C0
350
221
  3
C1
350
222
  3
C2
350
223
  3
C3
350
224
  3
C4
350
225
  3
C5
350
226
  3
C6
350
227
  3
C7
350
228
  3
C8
350
229
  3
C9
350
22A
  3
D0
350
22B
  3
D1
350
22C
  3
D2
350
22D
  0
DICTIONARY
  5
284
102
{ACAD_REACTORS
330
C
102
}
330
C
100
AcDbDictionary
281
     1
  0
DICTIONARY
  5
280
102
{ACAD_REACTORS
330
C
102
}
330
C
100
AcDbDictionary
281
     1
  0
DICTIONARY
  5
231
102
{ACAD_REACTORS
330
C
102
}
330
C
100
AcDbDictionary
281
     1
  3
2dWireframe
350
236
  3
Basic
350
239
  3
Brighten
350
23D
  3
ColorChange
350
241
  3
Conceptual
350
23B
  3
Dim
350
23C
  3
EdgeColorOff
350
244
  3
Facepattern
350
240
  3
Flat
350
232
  3
FlatWithEdges
350
233
  3
Gouraud
350
234
  3
GouraudWithEdges
350
235
  3
Hidden
350
238
  3
JitterOff
350
242
  3
Linepattern
350
23F
  3
OverhangOff
350
243
  3
Realistic
350
23A
  3
Shaded
350
249
  3
Shaded with edges
350
248
  3
Shades of Gray
350
245
  3
Sketchy
350
246
  3
Thicken
350
23E
  3
Wireframe
350
237
  3
X-Ray
350
247
  0
DICTIONARY
  5
24E
102
{ACAD_REACTORS
330
C
102
}
330
C
100
AcDbDictionary
281
     1
  3
CANNOSCALE
350
24F
  3
MSLTSCALE
350
282
  0
LAYOUT
  5
230
102
{ACAD_REACTORS
330
22E
102
}
330
22E
100
AcDbPlotSettings
  1

  2
none_device
  4

  6

 40
0.0
 41
0.0
 42
0.0
 43
0.0
 44
0.0
 45
0.0
 46
0.0
 47
0.0
 48
0.0
 49
0.0
140
0.0
141
0.0
142
1.0
143
1.0
 70
   688
 72
     1
 73
     0
 74
     5
  7

 75
    16
 76
     0
 77
     2
 78
   300
147
1.0
148
0.0
149
0.0
100
AcDbLayout
  1
Layout1
 70
     1
 71
     1
 10
0.0
 20
0.0
 11
12.0
 21
9.0
 12
0.0
 22
0.0
 32
0.0
 14
1.000000000000000E+20
 24
1.000000000000000E+20
 34
1.000000000000000E+20
 15
-1.000000000000000E+20
 25
-1.000000000000000E+20
 35
-1.000000000000000E+20
146
0.0
 13
0.0
 23
0.0
 33
0.0
 16
1.0
 26
0.0
 36
0.0
 17
0.0
 27
1.0
 37
0.0
 76
     0
330
15
  0
LAYOUT
  5
22F
102
{ACAD_REACTORS
330
22E
102
}
330
22E
100
AcDbPlotSettings
  1

  2
none_device
  4
Letter_(8.50_x_11.00_Inches)
  6

 40
6.35
 41
6.35
 42
6.35000508
 43
6.35000508
 44
215.9
 45
279.4
 46
0.0
 47
0.0
 48
0.0
 49
0.0
140
0.0
141
0.0
142
1.0
143
12.00849984151171
 70
  1712
 72
     1
 73
     0
 74
     0
  7

 75
     0
 76
     0
 77
     2
 78
   300
147
0.0832743484363584
148
0.0635533959998611
149
0.0634999999999764
100
AcDbLayout
  1
Model
 70
     1
 71
     0
 10
0.0
 20
0.0
 11
2440.0635
 21
1220.0635
 12
0.0
 22
0.0
 32
0.0
 14
-0.0635
 24
-0.0635
 34
0.0
 15
2440.0635
 25
1220.0635
 35
0.0
146
0.0
 13
0.0
 23
0.0
 33
0.0
 16
1.0
 26
0.0
 36
0.0
 17
0.0
 27
1.0
 37
0.0
 76
     0
330
18
331
1E
  0
MATERIAL
  5
24C
102
{ACAD_REACTORS
330
24A
102
}
330
24A
100
AcDbMaterial
  1
ByBlock
 72
     1
 94
      127
  0
MATERIAL
  5
24B
102
{ACAD_REACTORS
330
24A
102
}
330
24A
100
AcDbMaterial
  1
ByLayer
 72
     1
 94
      127
  0
MATERIAL
  5
24D
102
{ACAD_REACTORS
330
24A
102
}
330
24A
100
AcDbMaterial
  1
Global
 72
     1
 94
      127
  0
MLINESTYLE
  5
1C
102
{ACAD_REACTORS
330
1B
102
}
330
1B
100
AcDbMlineStyle
  2
STANDARD
 70
     0
  3

 62
   256
 51
90.0
 52
90.0
 71
     2
 49
0.5
 62
   256
  6
BYLAYER
 49
-0.5
 62
   256
  6
BYLAYER
  0
SCALE
  5
20D
102
{ACAD_REACTORS
330
20C
102
}
330
20C
100
AcDbScale
 70
     0
300
1:1
140
1.0
141
1.0
290
     1
  0
SCALE
  5
20E
102
{ACAD_REACTORS
330
20C
102
}
330
20C
100
AcDbScale
 70
     0
300
1:2
140
1.0
141
2.0
290
     0
  0
SCALE
  5
20F
102
{ACAD_REACTORS
330
20C
102
}
330
20C
100
AcDbScale
 70
     0
300
1:4
140
1.0
141
4.0
290
     0
  0
SCALE
  5
210
102
{ACAD_REACTORS
330
20C
102
}
330
20C
100
AcDbScale
 70
     0
300
1:5
140
1.0
141
5.0
290
     0
  0
SCALE
  5
211
102
{ACAD_REACTORS
330
20C
102
}
330
20C
100
AcDbScale
 70
     0
300
1:8
140
1.0
141
8.0
290
     0
  0
SCALE
  5
212
102
{ACAD_REACTORS
330
20C
102
}
330
20C
100
AcDbScale
 70
     0
300
1:10
140
1.0
141
10.0
290
     0
  0
SCALE
  5
213
102
{ACAD_REACTORS
330
20C
102
}
330
20C
100
AcDbScale
 70
     0
300
1:16
140
1.0
141
16.0
290
     0
  0
SCALE
  5
214
102
{ACAD_REACTORS
330
20C
102
}
330
20C
100
AcDbScale
 70
     0
300
1:20
140
1.0
141
20.0
290
     0
  0
SCALE
  5
215
102
{ACAD_REACTORS
330
20C
102
}
330
20C
100
AcDbScale
 70
     0
300
1:30
140
1.0
141
30.0
290
     0
  0
SCALE
  5
216
102
{ACAD_REACTORS
330
20C
102
}
330
20C
100
AcDbScale
 70
     0
300
1:40
140
1.0
141
40.0
290
     0
  0
SCALE
  5
217
102
{ACAD_REACTORS
330
20C
102
}
330
20C
100
AcDbScale
 70
     0
300
1:50
140
1.0
141
50.0
290
     0
  0
SCALE
  5
218
102
{ACAD_REACTORS
330
20C
102
}
330
20C
100
AcDbScale
 70
     0
300
1:100
140
1.0
141
100.0
290
     0
  0
SCALE
  5
219
102
{ACAD_REACTORS
330
20C
102
}
330
20C
100
AcDbScale
 70
     0
300
2:1
140
2.0
141
1.0
290
     0
  0
SCALE
  5
21A
102
{ACAD_REACTORS
330
20C
102
}
330
20C
100
AcDbScale
 70
     0
300
4:1
140
4.0
141
1.0
290
     0
  0
SCALE
  5
21B
102
{ACAD_REACTORS
330
20C
102
}
330
20C
100
AcDbScale
 70
     0
300
8:1
140
8.0
141
1.0
290
     0
  0
SCALE
  5
21C
102
{ACAD_REACTORS
330
20C
102
}
330
20C
100
AcDbScale
 70
     0
300
10:1
140
10.0
141
1.0
290
     0
  0
SCALE
  5
21D
102
{ACAD_REACTORS
330
20C
102
}
330
20C
100
AcDbScale
 70
     0
300
100:1
140
100.0
141
1.0
290
     0
  0
SCALE
  5
21E
102
{ACAD_REACTORS
330
20C
102
}
330
20C
100
AcDbScale
 70
     0
300
1/128" = 1'-0"
140
0.0078125
141
12.0
290
     0
  0
SCALE
  5
21F
102
{ACAD_REACTORS
330
20C
102
}
330
20C
100
AcDbScale
 70
     0
300
1/64" = 1'-0"
140
0.015625
141
12.0
290
     0
  0
SCALE
  5
220
102
{ACAD_REACTORS
330
20C
102
}
330
20C
100
AcDbScale
 70
     0
300
1/32" = 1'-0"
140
0.03125
141
12.0
290
     0
  0
SCALE
  5
221
102
{ACAD_REACTORS
330
20C
102
}
330
20C
100
AcDbScale
 70
     0
300
1/16" = 1'-0"
140
0.0625
141
12.0
290
     0
  0
SCALE
  5
222
102
{ACAD_REACTORS
330
20C
102
}
330
20C
100
AcDbScale
 70
     0
300
3/32" = 1'-0"
140
0.09375
141
12.0
290
     0
  0
SCALE
  5
223
102
{ACAD_REACTORS
330
20C
102
}
330
20C
100
AcDbScale
 70
     0
300
1/8" = 1'-0"
140
0.125
141
12.0
290
     0
  0
SCALE
  5
224
102
{ACAD_REACTORS
330
20C
102
}
330
20C
100
AcDbScale
 70
     0
300
3/16" = 1'-0"
140
0.1875
141
12.0
290
     0
  0
SCALE
  5
225
102
{ACAD_REACTORS
330
20C
102
}
330
20C
100
AcDbScale
 70
     0
300
1/4" = 1'-0"
140
0.25
141
12.0
290
     0
  0
SCALE
  5
226
102
{ACAD_REACTORS
330
20C
102
}
330
20C
100
AcDbScale
 70
     0
300
3/8" = 1'-0"
140
0.375
141
12.0
290
     0
  0
SCALE
  5
227
102
{ACAD_REACTORS
330
20C
102
}
330
20C
100
AcDbScale
 70
     0
300
1/2" = 1'-0"
140
0.5
141
12.0
290
     0
  0
SCALE
  5
228
102
{ACAD_REACTORS
330
20C
102
}
330
20C
100
AcDbScale
 70
     0
300
3/4" = 1'-0"
140
0.75
141
12.0
290
     0
  0
SCALE
  5
229
102
{ACAD_REACTORS
330
20C
102
}
330
20C
100
AcDbScale
 70
     0
300
1" = 1'-0"
140
1.0
141
12.0
290
     0
  0
SCALE
  5
22A
102
{ACAD_REACTORS
330
20C
102
}
330
20C
100
AcDbScale
 70
     0
300
1-1/2" = 1'-0"
140
1.5
141
12.0
290
     0
  0
SCALE
  5
22B
102
{ACAD_REACTORS
330
20C
102
}
330
20C
100
AcDbScale
 70
     0
300
3" = 1'-0"
140
3.0
141
12.0
290
     0
  0
SCALE
  5
22C
102
{ACAD_REACTORS
330
20C
102
}
330
20C
100
AcDbScale
 70
     0
300
6" = 1'-0"
140
6.0
141
12.0
290
     0
  0
SCALE
  5
22D
102
{ACAD_REACTORS
330
20C
102
}
330
20C
100
AcDbScale
 70
     0
300
1'-0" = 1'-0"
140
12.0
141
12.0
290
     0
  0
VISUALSTYLE
  5
236
102
{ACAD_REACTORS
330
231
102
}
102
{ACAD_XDICTIONARY
360
258
102
}
330
231
100
AcDbVisualStyle
  2
2dWireframe
 70
     4
177
     2
291
     0
 71
     0
176
     1
 72
     2
176
     1
 73
     0
176
     1
 90
        0
176
     1
 40
0.6
176
     1
 41
30.0
176
     1
 62
     5
 63
     7
421
 16777215
176
     1
 74
     1
176
     1
 91
        4
176
     1
 64
     7
176
     1
 65
   257
176
     1
 75
     1
176
     1
175
     1
176
     1
 42
1.0
176
     1
 92
        0
176
     1
 66
   257
176
     1
 43
1.0
176
     1
 76
     1
176
     1
 77
     6
176
     1
 78
     2
176
     1
 67
     7
176
     1
 79
     5
176
     1
170
     0
176
     1
171
     0
176
     1
290
     0
176
     1
 93
        1
176
     1
 44
0.0
176
     1
173
     0
176
     1
  0
VISUALSTYLE
  5
239
102
{ACAD_REACTORS
330
231
102
}
102
{ACAD_XDICTIONARY
360
25E
102
}
330
231
100
AcDbVisualStyle
  2
Basic
 70
     7
177
     2
291
     1
 71
     1
176
     1
 72
     0
176
     1
 73
     1
176
     1
 90
        0
176
     1
 40
0.6
176
     1
 41
30.0
176
     1
 62
     5
 63
     7
421
 16777215
176
     1
 74
     0
176
     1
 91
        4
176
     1
 64
     7
176
     1
 65
   257
176
     1
 75
     1
176
     1
175
     1
176
     1
 42
1.0
176
     1
 92
        8
176
     1
 66
     7
176
     1
 43
1.0
176
     1
 76
     1
176
     1
 77
     6
176
     1
 78
     2
176
     1
 67
     7
176
     1
 79
     5
176
     1
170
     0
176
     1
171
     0
176
     1
290
     0
176
     1
 93
        1
176
     1
 44
0.0
176
     1
173
     0
176
     1
  0
VISUALSTYLE
  5
23D
102
{ACAD_REACTORS
330
231
102
}
102
{ACAD_XDICTIONARY
360
266
102
}
330
231
100
AcDbVisualStyle
  2
Brighten
 70
    12
177
     2
291
     1
 71
     2
176
     1
 72
     2
176
     1
 73
     0
176
     1
 90
        0
176
     1
 40
0.6
176
     1
 41
30.0
176
     1
 62
     5
 63
     7
421
 16777215
176
     1
 74
     1
176
     1
 91
        4
176
     1
 64
     7
176
     1
 65
   257
176
     1
 75
     1
176
     1
175
     1
176
     1
 42
1.0
176
     1
 92
        8
176
     1
 66
     7
176
     1
 43
1.0
176
     1
 76
     1
176
     1
 77
     6
176
     1
 78
     2
176
     1
 67
     7
176
     1
 79
     5
176
     1
170
     0
176
     1
171
     0
176
     1
290
     0
176
     1
 93
        1
176
     1
 44
50.0
176
     1
173
     0
176
     1
  0
VISUALSTYLE
  5
241
102
{ACAD_REACTORS
330
231
102
}
102
{ACAD_XDICTIONARY
360
26E
102
}
330
231
100
AcDbVisualStyle
  2
ColorChange
 70
    16
177
     2
291
     1
 71
     2
176
     1
 72
     2
176
     1
 73
     3
176
     1
 90
        0
176
     1
 40
0.6
176
     1
 41
30.0
176
     1
 62
     5
 63
     8
421
  8421504
176
     1
 74
     1
176
     1
 91
        4
176
     1
 64
     7
176
     1
 65
   257
176
     1
 75
     1
176
     1
175
     1
176
     1
 42
1.0
176
     1
 92
        8
176
     1
 66
     8
424
  8421504
176
     1
 43
1.0
176
     1
 76
     1
176
     1
 77
     6
176
     1
 78
     2
176
     1
 67
     7
176
     1
 79
     5
176
     1
170
     0
176
     1
171
     0
176
     1
290
     0
176
     1
 93
        1
176
     1
 44
0.0
176
     1
173
     0
176
     1
  0
VISUALSTYLE
  5
23B
102
{ACAD_REACTORS
330
231
102
}
102
{ACAD_XDICTIONARY
360
262
102
}
330
231
100
AcDbVisualStyle
  2
Conceptual
 70
     9
177
     2
291
     0
 71
     3
176
     1
 72
     2
176
     1
 73
     0
176
     1
 90
        0
176
     1
 40
0.6
176
     1
 41
30.0
176
     1
 62
     5
 63
     7
421
 16777215
176
     1
 74
     2
176
     1
 91
        2
176
     1
 64
     7
176
     1
 65
   257
176
     1
 75
     1
176
     1
175
     1
176
     1
 42
179.0
176
     1
 92
        8
176
     1
 66
     7
176
     1
 43
1.0
176
     1
 76
     1
176
     1
 77
     6
176
     1
 78
     2
176
     1
 67
     7
176
     1
 79
     3
176
     1
170
     0
176
     1
171
     0
176
     1
290
     0
176
     1
 93
        1
176
     1
 44
0.0
176
     1
173
     0
176
     1
  0
VISUALSTYLE
  5
23C
102
{ACAD_REACTORS
330
231
102
}
102
{ACAD_XDICTIONARY
360
264
102
}
330
231
100
AcDbVisualStyle
  2
Dim
 70
    11
177
     2
291
     1
 71
     2
176
     1
 72
     2
176
     1
 73
     0
176
     1
 90
        0
176
     1
 40
0.6
176
     1
 41
30.0
176
     1
 62
     5
 63
     7
421
 16777215
176
     1
 74
     1
176
     1
 91
        4
176
     1
 64
     7
176
     1
 65
   257
176
     1
 75
     1
176
     1
175
     1
176
     1
 42
1.0
176
     1
 92
        8
176
     1
 66
     7
176
     1
 43
1.0
176
     1
 76
     1
176
     1
 77
     6
176
     1
 78
     2
176
     1
 67
     7
176
     1
 79
     5
176
     1
170
     0
176
     1
171
     0
176
     1
290
     0
176
     1
 93
        1
176
     1
 44
-50.0
176
     1
173
     0
176
     1
  0
VISUALSTYLE
  5
244
102
{ACAD_REACTORS
330
231
102
}
102
{ACAD_XDICTIONARY
360
274
102
}
330
231
100
AcDbVisualStyle
  2
EdgeColorOff
 70
    22
177
     2
291
     1
 71
     2
176
     0
 72
     2
176
     0
 73
     0
176
     0
 90
        0
176
     0
 40
0.6
176
     0
 41
30.0
176
     0
 62
     5
 63
     7
421
 16777215
176
     0
 74
     1
176
     0
 91
        4
176
     0
 64
     7
176
     0
 65
   257
176
     0
 75
     1
176
     0
175
     1
176
     0
 42
1.0
176
     0
 92
        8
176
     2
 66
     7
176
     0
 43
1.0
176
     0
 76
     1
176
     0
 77
     6
176
     0
 78
     2
176
     0
 67
     7
176
     0
 79
     5
176
     0
170
     0
176
     0
171
     0
176
     0
290
     0
176
     0
 93
        1
176
     0
 44
0.0
176
     0
173
     0
176
     0
  0
VISUALSTYLE
  5
240
102
{ACAD_REACTORS
330
231
102
}
102
{ACAD_XDICTIONARY
360
26C
102
}
330
231
100
AcDbVisualStyle
  2
Facepattern
 70
    15
177
     2
291
     1
 71
     2
176
     1
 72
     2
176
     1
 73
     0
176
     1
 90
        0
176
     1
 40
0.6
176
     1
 41
30.0
176
     1
 62
     5
 63
     7
421
 16777215
176
     1
 74
     1
176
     1
 91
        4
176
     1
 64
     7
176
     1
 65
   257
176
     1
 75
     1
176
     1
175
     1
176
     1
 42
1.0
176
     1
 92
        8
176
     1
 66
     7
176
     1
 43
1.0
176
     1
 76
     1
176
     1
 77
     6
176
     1
 78
     2
176
     1
 67
     7
176
     1
 79
     5
176
     1
170
     0
176
     1
171
     0
176
     1
290
     0
176
     1
 93
        1
176
     1
 44
0.0
176
     1
173
     0
176
     1
  0
VISUALSTYLE
  5
232
102
{ACAD_REACTORS
330
231
102
}
102
{ACAD_XDICTIONARY
360
250
102
}
330
231
100
AcDbVisualStyle
  2
Flat
 70
     0
177
     2
291
     1
 71
     2
176
     1
 72
     1
176
     1
 73
     1
176
     1
 90
        2
176
     1
 40
0.6
176
     1
 41
30.0
176
     1
 62
     5
 63
     7
421
 16777215
176
     1
 74
     0
176
     1
 91
        0
176
     1
 64
     7
176
     1
 65
   257
176
     1
 75
     1
176
     1
175
     1
176
     1
 42
1.0
176
     1
 92
        8
176
     1
 66
     7
176
     1
 43
1.0
176
     1
 76
     1
176
     1
 77
     6
176
     1
 78
     2
176
     1
 67
     7
176
     1
 79
     5
176
     1
170
     0
176
     1
171
     0
176
     1
290
     0
176
     1
 93
       13
176
     1
 44
0.0
176
     1
173
     0
176
     1
  0
VISUALSTYLE
  5
233
102
{ACAD_REACTORS
330
231
102
}
102
{ACAD_XDICTIONARY
360
252
102
}
330
231
100
AcDbVisualStyle
  2
FlatWithEdges
 70
     1
177
     2
291
     1
 71
     2
176
     1
 72
     1
176
     1
 73
     1
176
     1
 90
        2
176
     1
 40
0.6
176
     1
 41
30.0
176
     1
 62
     5
 63
     7
421
 16777215
176
     1
 74
     1
176
     1
 91
        0
176
     1
 64
     7
176
     1
 65
   257
176
     1
 75
     1
176
     1
175
     1
176
     1
 42
1.0
176
     1
 92
        0
176
     1
 66
   257
176
     1
 43
1.0
176
     1
 76
     1
176
     1
 77
     6
176
     1
 78
     2
176
     1
 67
     7
176
     1
 79
     5
176
     1
170
     0
176
     1
171
     0
176
     1
290
     0
176
     1
 93
       13
176
     1
 44
0.0
176
     1
173
     0
176
     1
  0
VISUALSTYLE
  5
234
102
{ACAD_REACTORS
330
231
102
}
102
{ACAD_XDICTIONARY
360
254
102
}
330
231
100
AcDbVisualStyle
  2
Gouraud
 70
     2
177
     2
291
     1
 71
     2
176
     1
 72
     2
176
     1
 73
     1
176
     1
 90
        2
176
     1
 40
0.6
176
     1
 41
30.0
176
     1
 62
     5
 63
     7
421
 16777215
176
     1
 74
     0
176
     1
 91
        0
176
     1
 64
     7
176
     1
 65
   257
176
     1
 75
     1
176
     1
175
     1
176
     1
 42
1.0
176
     1
 92
        0
176
     1
 66
     7
176
     1
 43
1.0
176
     1
 76
     1
176
     1
 77
     6
176
     1
 78
     2
176
     1
 67
     7
176
     1
 79
     5
176
     1
170
     0
176
     1
171
     0
176
     1
290
     0
176
     1
 93
       13
176
     1
 44
0.0
176
     1
173
     0
176
     1
  0
VISUALSTYLE
  5
235
102
{ACAD_REACTORS
330
231
102
}
102
{ACAD_XDICTIONARY
360
256
102
}
330
231
100
AcDbVisualStyle
  2
GouraudWithEdges
 70
     3
177
     2
291
     1
 71
     2
176
     1
 72
     2
176
     1
 73
     1
176
     1
 90
        2
176
     1
 40
0.6
176
     1
 41
30.0
176
     1
 62
     5
 63
     7
421
 16777215
176
     1
 74
     1
176
     1
 91
        0
176
     1
 64
     7
176
     1
 65
   257
176
     1
 75
     1
176
     1
175
     1
176
     1
 42
1.0
176
     1
 92
        0
176
     1
 66
   257
176
     1
 43
1.0
176
     1
 76
     1
176
     1
 77
     6
176
     1
 78
     2
176
     1
 67
     7
176
     1
 79
     5
176
     1
170
     0
176
     1
171
     0
176
     1
290
     0
176
     1
 93
       13
176
     1
 44
0.0
176
     1
173
     0
176
     1
  0
VISUALSTYLE
  5
238
102
{ACAD_REACTORS
330
231
102
}
102
{ACAD_XDICTIONARY
360
25C
102
}
330
231
100
AcDbVisualStyle
  2
Hidden
 70
     6
177
     2
291
     0
 71
     1
176
     1
 72
     2
176
     1
 73
     2
176
     1
 90
        0
176
     1
 40
0.6
176
     1
 41
30.0
176
     1
 62
     5
 63
     7
421
 16777215
176
     1
 74
     2
176
     1
 91
        2
176
     1
 64
     7
176
     1
 65
   257
176
     1
 75
     2
176
     1
175
     1
176
     1
 42
40.0
176
     1
 92
        0
176
     1
 66
   257
176
     1
 43
1.0
176
     1
 76
     1
176
     1
 77
     6
176
     1
 78
     2
176
     1
 67
     7
176
     1
 79
     3
176
     1
170
     0
176
     1
171
     0
176
     1
290
     0
176
     1
 93
        1
176
     1
 44
0.0
176
     1
173
     0
176
     1
  0
VISUALSTYLE
  5
242
102
{ACAD_REACTORS
330
231
102
}
102
{ACAD_XDICTIONARY
360
270
102
}
330
231
100
AcDbVisualStyle
  2
JitterOff
 70
    20
177
     2
291
     1
 71
     2
176
     0
 72
     2
176
     0
 73
     0
176
     0
 90
        0
176
     0
 40
0.6
176
     0
 41
30.0
176
     0
 62
     5
 63
     7
421
 16777215
176
     0
 74
     1
176
     0
 91
        4
176
     0
 64
     7
176
     0
 65
   257
176
     0
 75
     1
176
     0
175
     1
176
     0
 42
1.0
176
     0
 92
       10
176
     2
 66
     7
176
     0
 43
1.0
176
     0
 76
     1
176
     0
 77
     6
176
     0
 78
     2
176
     0
 67
     7
176
     0
 79
     5
176
     0
170
     0
176
     0
171
     0
176
     0
290
     0
176
     0
 93
        1
176
     0
 44
0.0
176
     0
173
     0
176
     0
  0
VISUALSTYLE
  5
23F
102
{ACAD_REACTORS
330
231
102
}
102
{ACAD_XDICTIONARY
360
26A
102
}
330
231
100
AcDbVisualStyle
  2
Linepattern
 70
    14
177
     2
291
     1
 71
     2
176
     1
 72
     2
176
     1
 73
     0
176
     1
 90
        0
176
     1
 40
0.6
176
     1
 41
30.0
176
     1
 62
     5
 63
     7
421
 16777215
176
     1
 74
     1
176
     1
 91
        4
176
     1
 64
     7
176
     1
 65
   257
176
     1
 75
     7
176
     1
175
     7
176
     1
 42
1.0
176
     1
 92
        8
176
     1
 66
     7
176
     1
 43
1.0
176
     1
 76
     1
176
     1
 77
     6
176
     1
 78
     2
176
     1
 67
     7
176
     1
 79
     5
176
     1
170
     0
176
     1
171
     0
176
     1
290
     0
176
     1
 93
        1
176
     1
 44
0.0
176
     1
173
     0
176
     1
  0
VISUALSTYLE
  5
243
102
{ACAD_REACTORS
330
231
102
}
102
{ACAD_XDICTIONARY
360
272
102
}
330
231
100
AcDbVisualStyle
  2
OverhangOff
 70
    21
177
     2
291
     1
 71
     2
176
     0
 72
     2
176
     0
 73
     0
176
     0
 90
        0
176
     0
 40
0.6
176
     0
 41
30.0
176
     0
 62
     5
 63
     7
421
 16777215
176
     0
 74
     1
176
     0
 91
        4
176
     0
 64
     7
176
     0
 65
   257
176
     0
 75
     1
176
     0
175
     1
176
     0
 42
1.0
176
     0
 92
        9
176
     2
 66
     7
176
     0
 43
1.0
176
     0
 76
     1
176
     0
 77
     6
176
     0
 78
     2
176
     0
 67
     7
176
     0
 79
     5
176
     0
170
     0
176
     0
171
     0
176
     0
290
     0
176
     0
 93
        1
176
     0
 44
0.0
176
     0
173
     0
176
     0
  0
VISUALSTYLE
  5
23A
102
{ACAD_REACTORS
330
231
102
}
102
{ACAD_XDICTIONARY
360
260
102
}
330
231
100
AcDbVisualStyle
  2
Realistic
 70
     8
177
     2
291
     0
 71
     2
176
     1
 72
     3
176
     1
 73
     0
176
     1
 90
        2
176
     1
 40
0.6
176
     1
 41
30.0
176
     1
 62
     5
 63
     7
421
 16777215
176
     1
 74
     0
176
     1
 91
        0
176
     1
 64
     7
176
     1
 65
   257
176
     1
 75
     1
176
     1
175
     1
176
     1
 42
1.0
176
     1
 92
        8
176
     1
 66
   257
176
     1
 43
1.0
176
     1
 76
     1
176
     1
 77
     6
176
     1
 78
     2
176
     1
 67
     7
176
     1
 79
     3
176
     1
170
     0
176
     1
171
     0
176
     1
290
     0
176
     1
 93
       13
176
     1
 44
0.0
176
     1
173
     0
176
     1
  0
VISUALSTYLE
  5
249
102
{ACAD_REACTORS
330
231
102
}
102
{ACAD_XDICTIONARY
360
27E
102
}
330
231
100
AcDbVisualStyle
  2
Shaded
 70
    27
177
     2
291
     0
 71
     2
176
     1
 72
     2
176
     1
 73
     1
176
     1
 90
        2
176
     1
 40
0.6
176
     1
 41
30.0
176
     1
 62
     5
 63
     7
421
 16777215
176
     1
 74
     0
176
     1
 91
        4
176
     1
 64
     7
176
     1
 65
   257
176
     1
 75
     1
176
     1
175
     1
176
     1
 42
1.0
176
     1
 92
        8
176
     1
 66
   257
176
     1
 43
1.0
176
     1
 76
     1
176
     1
 77
     6
176
     1
 78
     2
176
     1
 67
     8
425
  7895160
176
     1
 79
     3
176
     1
170
     0
176
     1
171
     0
176
     1
290
     0
176
     1
 93
        5
176
     1
 44
0.0
176
     1
173
     0
176
     1
  0
VISUALSTYLE
  5
248
102
{ACAD_REACTORS
330
231
102
}
102
{ACAD_XDICTIONARY
360
27C
102
}
330
231
100
AcDbVisualStyle
  2
Shaded with edges
 70
    26
177
     2
291
     0
 71
     2
176
     1
 72
     2
176
     1
 73
     1
176
     1
 90
        2
176
     1
 40
0.6
176
     1
 41
30.0
176
     1
 62
     5
 63
     7
421
 16777215
176
     1
 74
     1
176
     1
 91
       10
176
     1
 64
     7
176
     1
 65
   257
176
     1
 75
     2
176
     1
175
     1
176
     1
 42
1.0
176
     1
 92
        8
176
     1
 66
   257
176
     1
 43
1.0
176
     1
 76
     1
176
     1
 77
     6
176
     1
 78
     2
176
     1
 67
     7
176
     1
 79
     3
176
     1
170
     0
176
     1
171
     0
176
     1
290
     0
176
     1
 93
        5
176
     1
 44
0.0
176
     1
173
     0
176
     1
  0
VISUALSTYLE
  5
245
102
{ACAD_REACTORS
330
231
102
}
102
{ACAD_XDICTIONARY
360
276
102
}
330
231
100
AcDbVisualStyle
  2
Shades of Gray
 70
    23
177
     2
291
     0
 71
     2
176
     1
 72
     2
176
     1
 73
     3
176
     1
 90
        0
176
     1
 40
0.6
176
     1
 41
30.0
176
     1
 62
     5
 63
     7
421
 16777215
176
     1
 74
     2
176
     1
 91
        2
176
     1
 64
     7
176
     1
 65
     7
176
     1
 75
     1
176
     1
175
     1
176
     1
 42
40.0
176
     1
 92
        8
176
     1
 66
     7
176
     1
 43
1.0
176
     1
 76
     1
176
     1
 77
     6
176
     1
 78
     2
176
     1
 67
     7
176
     1
 79
     3
176
     1
170
     0
176
     1
171
     0
176
     1
290
     0
176
     1
 93
        1
176
     1
 44
0.0
176
     1
173
     0
176
     1
  0
VISUALSTYLE
  5
246
102
{ACAD_REACTORS
330
231
102
}
102
{ACAD_XDICTIONARY
360
278
102
}
330
231
100
AcDbVisualStyle
  2
Sketchy
 70
    24
177
     2
291
     0
 71
     1
176
     1
 72
     2
176
     1
 73
     2
176
     1
 90
        0
176
     1
 40
0.6
176
     1
 41
30.0
176
     1
 62
     5
 63
     7
421
 16777215
176
     1
 74
     2
176
     1
 91
        2
176
     1
 64
     7
176
     1
 65
     7
176
     1
 75
     1
176
     1
175
     1
176
     1
 42
40.0
176
     1
 92
       11
176
     1
 66
     7
176
     1
 43
1.0
176
     1
 76
     1
176
     1
 77
     6
176
     1
 78
     2
176
     1
 67
     7
176
     1
 79
     6
176
     1
170
     0
176
     1
171
     0
176
     1
290
     0
176
     1
 93
        1
176
     1
 44
0.0
176
     1
173
     0
176
     1
  0
VISUALSTYLE
  5
23E
102
{ACAD_REACTORS
330
231
102
}
102
{ACAD_XDICTIONARY
360
268
102
}
330
231
100
AcDbVisualStyle
  2
Thicken
 70
    13
177
     2
291
     1
 71
     2
176
     1
 72
     2
176
     1
 73
     0
176
     1
 90
        0
176
     1
 40
0.6
176
     1
 41
30.0
176
     1
 62
     5
 63
     7
421
 16777215
176
     1
 74
     1
176
     1
 91
        4
176
     1
 64
     7
176
     1
 65
   257
176
     1
 75
     1
176
     1
175
     1
176
     1
 42
1.0
176
     1
 92
       12
176
     1
 66
     7
176
     1
 43
1.0
176
     1
 76
     1
176
     1
 77
     6
176
     1
 78
     2
176
     1
 67
     7
176
     1
 79
     5
176
     1
170
     0
176
     1
171
     0
176
     1
290
     0
176
     1
 93
        1
176
     1
 44
0.0
176
     1
173
     0
176
     1
  0
VISUALSTYLE
  5
237
102
{ACAD_REACTORS
330
231
102
}
102
{ACAD_XDICTIONARY
360
25A
102
}
330
231
100
AcDbVisualStyle
  2
Wireframe
 70
     5
177
     2
291
     0
 71
     0
176
     1
 72
     2
176
     1
 73
     0
176
     1
 90
        0
176
     1
 40
0.6
176
     1
 41
30.0
176
     1
 62
     5
 63
     7
421
 16777215
176
     1
 74
     1
176
     1
 91
        4
176
     1
 64
     7
176
     1
 65
   257
176
     1
 75
     1
176
     1
175
     1
176
     1
 42
1.0
176
     1
 92
        0
176
     1
 66
   257
176
     1
 43
1.0
176
     1
 76
     1
176
     1
 77
     6
176
     1
 78
     2
176
     1
 67
     7
176
     1
 79
     3
176
     1
170
     0
176
     1
171
     0
176
     1
290
     0
176
     1
 93
        1
176
     1
 44
0.0
176
     1
173
     0
176
     1
  0
VISUALSTYLE
  5
247
102
{ACAD_REACTORS
330
231
102
}
102
{ACAD_XDICTIONARY
360
27A
102
}
330
231
100
AcDbVisualStyle
  2
X-Ray
 70
    25
177
     2
291
     0
 71
     2
176
     1
 72
     2
176
     1
 73
     1
176
     1
 90
        1
176
     1
 40
0.5
176
     1
 41
30.0
176
     1
 62
     5
 63
     7
421
 16777215
176
     1
 74
     1
176
     1
 91
        0
176
     1
 64
     7
176
     1
 65
   257
176
     1
 75
     1
176
     1
175
     1
176
     1
 42
1.0
176
     1
 92
        8
176
     1
 66
     7
176
     1
 43
1.0
176
     1
 76
     1
176
     1
 77
     6
176
     1
 78
     2
176
     1
 67
     7
176
     1
 79
     3
176
     1
170
     0
176
     1
171
     0
176
     1
290
     0
176
     1
 93
       13
176
     1
 44
0.0
176
     1
173
     0
176
     1
  0
DICTIONARYVAR
  5
24F
102
{ACAD_REACTORS
330
24E
102
}
330
24E
100
DictionaryVariables
280
     0
  1
1:1
  0
DICTIONARYVAR
  5
282
102
{ACAD_REACTORS
330
24E
102
}
330
24E
100
DictionaryVariables
280
     0
  1
0
  0
DICTIONARY
  5
258
330
236
100
AcDbDictionary
280
     1
281
     1
  3
ACAD_XREC_ROUNDTRIP
360
259
  0
DICTIONARY
  5
25E
330
239
100
AcDbDictionary
280
     1
281
     1
  3
ACAD_XREC_ROUNDTRIP
360
25F
  0
DICTIONARY
  5
266
330
23D
100
AcDbDictionary
280
     1
281
     1
  3
ACAD_XREC_ROUNDTRIP
360
267
  0
DICTIONARY
  5
26E
330
241
100
AcDbDictionary
280
     1
281
     1
  3
ACAD_XREC_ROUNDTRIP
360
26F
  0
DICTIONARY
  5
262
330
23B
100
AcDbDictionary
280
     1
281
     1
  3
ACAD_XREC_ROUNDTRIP
360
263
  0
DICTIONARY
  5
264
330
23C
100
AcDbDictionary
280
     1
281
     1
  3
ACAD_XREC_ROUNDTRIP
360
265
  0
DICTIONARY
  5
274
330
244
100
AcDbDictionary
280
     1
281
     1
  3
ACAD_XREC_ROUNDTRIP
360
275
  0
DICTIONARY
  5
26C
330
240
100
AcDbDictionary
280
     1
281
     1
  3
ACAD_XREC_ROUNDTRIP
360
26D
  0
DICTIONARY
  5
250
330
232
100
AcDbDictionary
280
     1
281
     1
  3
ACAD_XREC_ROUNDTRIP
360
251
  0
DICTIONARY
  5
252
330
233
100
AcDbDictionary
280
     1
281
     1
  3
ACAD_XREC_ROUNDTRIP
360
253
  0
DICTIONARY
  5
254
330
234
100
AcDbDictionary
280
     1
281
     1
  3
ACAD_XREC_ROUNDTRIP
360
255
  0
DICTIONARY
  5
256
330
235
100
AcDbDictionary
280
     1
281
     1
  3
ACAD_XREC_ROUNDTRIP
360
257
  0
DICTIONARY
  5
25C
330
238
100
AcDbDictionary
280
     1
281
     1
  3
ACAD_XREC_ROUNDTRIP
360
25D
  0
DICTIONARY
  5
270
330
242
100
AcDbDictionary
280
     1
281
     1
  3
ACAD_XREC_ROUNDTRIP
360
271
  0
DICTIONARY
  5
26A
330
23F
100
AcDbDictionary
280
     1
281
     1
  3
ACAD_XREC_ROUNDTRIP
360
26B
  0
DICTIONARY
  5
272
330
243
100
AcDbDictionary
280
     1
281
     1
  3
ACAD_XREC_ROUNDTRIP
360
273
  0
DICTIONARY
  5
260
330
23A
100
AcDbDictionary
280
     1
281
     1
  3
ACAD_XREC_ROUNDTRIP
360
261
  0
DICTIONARY
  5
27E
330
249
100
AcDbDictionary
280
     1
281
     1
  3
ACAD_XREC_ROUNDTRIP
360
27F
  0
DICTIONARY
  5
27C
330
248
100
AcDbDictionary
280
     1
281
     1
  3
ACAD_XREC_ROUNDTRIP
360
27D
  0
DICTIONARY
  5
276
330
245
100
AcDbDictionary
280
     1
281
     1
  3
ACAD_XREC_ROUNDTRIP
360
277
  0
DICTIONARY
  5
278
330
246
100
AcDbDictionary
280
     1
281
     1
  3
ACAD_XREC_ROUNDTRIP
360
279
  0
DICTIONARY
  5
268
330
23E
100
AcDbDictionary
280
     1
281
     1
  3
ACAD_XREC_ROUNDTRIP
360
269
  0
DICTIONARY
  5
25A
330
237
100
AcDbDictionary
280
     1
281
     1
  3
ACAD_XREC_ROUNDTRIP
360
25B
  0
DICTIONARY
  5
27A
330
247
100
AcDbDictionary
280
     1
281
     1
  3
ACAD_XREC_ROUNDTRIP
360
27B
  0
XRECORD
  5
259
102
{ACAD_REACTORS
330
258
102
}
330
258
100
AcDbXrecord
280
     1
102
RTVSPost2010Prop28
280
     1
102
RTVSPost2010PropOp28
 70
     1
102
RTVSPost2010Prop29
280
     1
102
RTVSPost2010PropOp29
 70
     1
102
RTVSPost2010Prop30
280
     0
102
RTVSPost2010PropOp30
 70
     1
102
RTVSPost2010Prop31
280
     0
102
RTVSPost2010PropOp31
 70
     1
102
RTVSPost2010Prop32
280
     0
102
RTVSPost2010PropOp32
 70
     1
102
RTVSPost2010Prop33
280
     0
102
RTVSPost2010PropOp33
 70
     1
102
RTVSPost2010Prop34
280
     0
102
RTVSPost2010PropOp34
 70
     1
102
RTVSPost2010Prop35
280
     0
102
RTVSPost2010PropOp35
 70
     1
102
RTVSPost2010Prop36
280
     0
102
RTVSPost2010PropOp36
 70
     1
102
RTVSPost2010Prop37
 90
       50
102
RTVSPost2010PropOp37
 70
     1
102
RTVSPost2010Prop38
140
0.0
102
RTVSPost2010PropOp38
 70
     1
102
RTVSPost2010Prop39
140
1.0
102
RTVSPost2010PropOp39
 70
     1
102
RTVSPost2010Prop40
 90
        0
102
RTVSPost2010PropOp40
 70
     1
102
RTVSPost2010Prop41ColorIndex
 90
       18
102
RTVSPost2010Prop41ColorRGB
 90
        0
102
RTVSPost2010PropOp41
 70
     1
102
RTVSPost2010Prop42
 90
       50
102
RTVSPost2010PropOp42
 70
     1
102
RTVSPost2010Prop43
 90
        3
102
RTVSPost2010PropOp43
 70
     1
102
RTVSPost2010Prop44ColorIndex
 90
        5
102
RTVSPost2010Prop44ColorRGB
 90
      255
102
RTVSPost2010PropOp44
 70
     1
102
RTVSPost2010Prop45
280
     0
102
RTVSPost2010PropOp45
 70
     1
102
RTVSPost2010Prop46
 90
       50
102
RTVSPost2010PropOp46
 70
     1
102
RTVSPost2010Prop47
 90
       50
102
RTVSPost2010PropOp47
 70
     1
102
RTVSPost2010Prop48
 90
       50
102
RTVSPost2010PropOp48
 70
     1
102
RTVSPost2010Prop49
280
     0
102
RTVSPost2010PropOp49
 70
     1
102
RTVSPost2010Prop50
 90
       50
102
RTVSPost2010PropOp50
 70
     1
102
RTVSPost2010Prop51ColorIndex
 90
      256
102
RTVSPost2010Prop51ColorRGB
 90
-16777216
102
RTVSPost2010PropOp51
 70
     0
102
RTVSPost2010Prop52
140
1.0
102
RTVSPost2010PropOp52
 70
     0
102
RTVSPost2010Prop53
 90
        2
102
RTVSPost2010PropOp53
 70
     1
102
RTVSPost2010Prop54
  1
strokes_ogs.tif
102
RTVSPost2010PropOp54
 70
     1
102
RTVSPost2010Prop55
280
     0
102
RTVSPost2010PropOp55
 70
     1
102
RTVSPost2010Prop56
140
1.0
102
RTVSPost2010PropOp56
 70
     1
102
RTVSPost2010Prop57
140
1.0
102
RTVSPost2010PropOp57
 70
     1
  0
XRECORD
  5
25F
102
{ACAD_REACTORS
330
25E
102
}
330
25E
100
AcDbXrecord
280
     1
102
RTVSPost2010Prop28
280
     0
102
RTVSPost2010PropOp28
 70
     1
102
RTVSPost2010Prop29
280
     1
102
RTVSPost2010PropOp29
 70
     1
102
RTVSPost2010Prop30
280
     1
102
RTVSPost2010PropOp30
 70
     1
102
RTVSPost2010Prop31
280
     0
102
RTVSPost2010PropOp31
 70
     1
102
RTVSPost2010Prop32
280
     0
102
RTVSPost2010PropOp32
 70
     1
102
RTVSPost2010Prop33
280
     0
102
RTVSPost2010PropOp33
 70
     1
102
RTVSPost2010Prop34
280
     0
102
RTVSPost2010PropOp34
 70
     1
102
RTVSPost2010Prop35
280
     0
102
RTVSPost2010PropOp35
 70
     1
102
RTVSPost2010Prop36
280
     0
102
RTVSPost2010PropOp36
 70
     1
102
RTVSPost2010Prop37
 90
       50
102
RTVSPost2010PropOp37
 70
     1
102
RTVSPost2010Prop38
140
0.0
102
RTVSPost2010PropOp38
 70
     1
102
RTVSPost2010Prop39
140
1.0
102
RTVSPost2010PropOp39
 70
     1
102
RTVSPost2010Prop40
 90
        0
102
RTVSPost2010PropOp40
 70
     1
102
RTVSPost2010Prop41ColorIndex
 90
       18
102
RTVSPost2010Prop41ColorRGB
 90
        0
102
RTVSPost2010PropOp41
 70
     1
102
RTVSPost2010Prop42
 90
       50
102
RTVSPost2010PropOp42
 70
     1
102
RTVSPost2010Prop43
 90
        3
102
RTVSPost2010PropOp43
 70
     1
102
RTVSPost2010Prop44ColorIndex
 90
        5
102
RTVSPost2010Prop44ColorRGB
 90
      255
102
RTVSPost2010PropOp44
 70
     1
102
RTVSPost2010Prop45
280
     0
102
RTVSPost2010PropOp45
 70
     1
102
RTVSPost2010Prop46
 90
       50
102
RTVSPost2010PropOp46
 70
     1
102
RTVSPost2010Prop47
 90
       50
102
RTVSPost2010PropOp47
 70
     1
102
RTVSPost2010Prop48
 90
       50
102
RTVSPost2010PropOp48
 70
     1
102
RTVSPost2010Prop49
280
     0
102
RTVSPost2010PropOp49
 70
     1
102
RTVSPost2010Prop50
 90
       50
102
RTVSPost2010PropOp50
 70
     1
102
RTVSPost2010Prop51ColorIndex
 90
      256
102
RTVSPost2010Prop51ColorRGB
 90
-16777216
102
RTVSPost2010PropOp51
 70
     0
102
RTVSPost2010Prop52
140
1.0
102
RTVSPost2010PropOp52
 70
     0
102
RTVSPost2010Prop53
 90
        2
102
RTVSPost2010PropOp53
 70
     1
102
RTVSPost2010Prop54
  1
strokes_ogs.tif
102
RTVSPost2010PropOp54
 70
     1
102
RTVSPost2010Prop55
280
     0
102
RTVSPost2010PropOp55
 70
     1
102
RTVSPost2010Prop56
140
1.0
102
RTVSPost2010PropOp56
 70
     1
102
RTVSPost2010Prop57
140
1.0
102
RTVSPost2010PropOp57
 70
     1
  0
XRECORD
  5
267
102
{ACAD_REACTORS
330
266
102
}
330
266
100
AcDbXrecord
280
     1
102
RTVSPost2010Prop28
280
     0
102
RTVSPost2010PropOp28
 70
     1
102
RTVSPost2010Prop29
280
     1
102
RTVSPost2010PropOp29
 70
     1
102
RTVSPost2010Prop30
280
     1
102
RTVSPost2010PropOp30
 70
     1
102
RTVSPost2010Prop31
280
     0
102
RTVSPost2010PropOp31
 70
     1
102
RTVSPost2010Prop32
280
     0
102
RTVSPost2010PropOp32
 70
     1
102
RTVSPost2010Prop33
280
     0
102
RTVSPost2010PropOp33
 70
     1
102
RTVSPost2010Prop34
280
     0
102
RTVSPost2010PropOp34
 70
     1
102
RTVSPost2010Prop35
280
     0
102
RTVSPost2010PropOp35
 70
     1
102
RTVSPost2010Prop36
280
     0
102
RTVSPost2010PropOp36
 70
     1
102
RTVSPost2010Prop37
 90
       50
102
RTVSPost2010PropOp37
 70
     1
102
RTVSPost2010Prop38
140
0.0
102
RTVSPost2010PropOp38
 70
     1
102
RTVSPost2010Prop39
140
1.0
102
RTVSPost2010PropOp39
 70
     1
102
RTVSPost2010Prop40
 90
        0
102
RTVSPost2010PropOp40
 70
     1
102
RTVSPost2010Prop41ColorIndex
 90
       18
102
RTVSPost2010Prop41ColorRGB
 90
        0
102
RTVSPost2010PropOp41
 70
     1
102
RTVSPost2010Prop42
 90
       50
102
RTVSPost2010PropOp42
 70
     1
102
RTVSPost2010Prop43
 90
        3
102
RTVSPost2010PropOp43
 70
     1
102
RTVSPost2010Prop44ColorIndex
 90
        5
102
RTVSPost2010Prop44ColorRGB
 90
      255
102
RTVSPost2010PropOp44
 70
     1
102
RTVSPost2010Prop45
280
     0
102
RTVSPost2010PropOp45
 70
     1
102
RTVSPost2010Prop46
 90
       50
102
RTVSPost2010PropOp46
 70
     1
102
RTVSPost2010Prop47
 90
       50
102
RTVSPost2010PropOp47
 70
     1
102
RTVSPost2010Prop48
 90
       50
102
RTVSPost2010PropOp48
 70
     1
102
RTVSPost2010Prop49
280
     0
102
RTVSPost2010PropOp49
 70
     1
102
RTVSPost2010Prop50
 90
       50
102
RTVSPost2010PropOp50
 70
     1
102
RTVSPost2010Prop51ColorIndex
 90
      256
102
RTVSPost2010Prop51ColorRGB
 90
-16777216
102
RTVSPost2010PropOp51
 70
     0
102
RTVSPost2010Prop52
140
1.0
102
RTVSPost2010PropOp52
 70
     0
102
RTVSPost2010Prop53
 90
        2
102
RTVSPost2010PropOp53
 70
     1
102
RTVSPost2010Prop54
  1
strokes_ogs.tif
102
RTVSPost2010PropOp54
 70
     1
102
RTVSPost2010Prop55
280
     0
102
RTVSPost2010PropOp55
 70
     1
102
RTVSPost2010Prop56
140
1.0
102
RTVSPost2010PropOp56
 70
     1
102
RTVSPost2010Prop57
140
1.0
102
RTVSPost2010PropOp57
 70
     1
  0
XRECORD
  5
26F
102
{ACAD_REACTORS
330
26E
102
}
330
26E
100
AcDbXrecord
280
     1
102
RTVSPost2010Prop28
280
     0
102
RTVSPost2010PropOp28
 70
     1
102
RTVSPost2010Prop29
280
     1
102
RTVSPost2010PropOp29
 70
     1
102
RTVSPost2010Prop30
280
     1
102
RTVSPost2010PropOp30
 70
     1
102
RTVSPost2010Prop31
280
     0
102
RTVSPost2010PropOp31
 70
     1
102
RTVSPost2010Prop32
280
     0
102
RTVSPost2010PropOp32
 70
     1
102
RTVSPost2010Prop33
280
     0
102
RTVSPost2010PropOp33
 70
     1
102
RTVSPost2010Prop34
280
     0
102
RTVSPost2010PropOp34
 70
     1
102
RTVSPost2010Prop35
280
     0
102
RTVSPost2010PropOp35
 70
     1
102
RTVSPost2010Prop36
280
     0
102
RTVSPost2010PropOp36
 70
     1
102
RTVSPost2010Prop37
 90
       50
102
RTVSPost2010PropOp37
 70
     1
102
RTVSPost2010Prop38
140
0.0
102
RTVSPost2010PropOp38
 70
     1
102
RTVSPost2010Prop39
140
1.0
102
RTVSPost2010PropOp39
 70
     1
102
RTVSPost2010Prop40
 90
        0
102
RTVSPost2010PropOp40
 70
     1
102
RTVSPost2010Prop41ColorIndex
 90
       18
102
RTVSPost2010Prop41ColorRGB
 90
        0
102
RTVSPost2010PropOp41
 70
     1
102
RTVSPost2010Prop42
 90
       50
102
RTVSPost2010PropOp42
 70
     1
102
RTVSPost2010Prop43
 90
        3
102
RTVSPost2010PropOp43
 70
     1
102
RTVSPost2010Prop44ColorIndex
 90
        5
102
RTVSPost2010Prop44ColorRGB
 90
      255
102
RTVSPost2010PropOp44
 70
     1
102
RTVSPost2010Prop45
280
     0
102
RTVSPost2010PropOp45
 70
     1
102
RTVSPost2010Prop46
 90
       50
102
RTVSPost2010PropOp46
 70
     1
102
RTVSPost2010Prop47
 90
       50
102
RTVSPost2010PropOp47
 70
     1
102
RTVSPost2010Prop48
 90
       50
102
RTVSPost2010PropOp48
 70
     1
102
RTVSPost2010Prop49
280
     0
102
RTVSPost2010PropOp49
 70
     1
102
RTVSPost2010Prop50
 90
       50
102
RTVSPost2010PropOp50
 70
     1
102
RTVSPost2010Prop51ColorIndex
 90
      256
102
RTVSPost2010Prop51ColorRGB
 90
-16777216
102
RTVSPost2010PropOp51
 70
     0
102
RTVSPost2010Prop52
140
1.0
102
RTVSPost2010PropOp52
 70
     0
102
RTVSPost2010Prop53
 90
        2
102
RTVSPost2010PropOp53
 70
     1
102
RTVSPost2010Prop54
  1
strokes_ogs.tif
102
RTVSPost2010PropOp54
 70
     1
102
RTVSPost2010Prop55
280
     0
102
RTVSPost2010PropOp55
 70
     1
102
RTVSPost2010Prop56
140
1.0
102
RTVSPost2010PropOp56
 70
     1
102
RTVSPost2010Prop57
140
1.0
102
RTVSPost2010PropOp57
 70
     1
  0
XRECORD
  5
263
102
{ACAD_REACTORS
330
262
102
}
330
262
100
AcDbXrecord
280
     1
102
RTVSPost2010Prop28
280
     0
102
RTVSPost2010PropOp28
 70
     1
102
RTVSPost2010Prop29
280
     1
102
RTVSPost2010PropOp29
 70
     1
102
RTVSPost2010Prop30
280
     1
102
RTVSPost2010PropOp30
 70
     1
102
RTVSPost2010Prop31
280
     0
102
RTVSPost2010PropOp31
 70
     1
102
RTVSPost2010Prop32
280
     0
102
RTVSPost2010PropOp32
 70
     1
102
RTVSPost2010Prop33
280
     0
102
RTVSPost2010PropOp33
 70
     1
102
RTVSPost2010Prop34
280
     0
102
RTVSPost2010PropOp34
 70
     1
102
RTVSPost2010Prop35
280
     0
102
RTVSPost2010PropOp35
 70
     1
102
RTVSPost2010Prop36
280
     0
102
RTVSPost2010PropOp36
 70
     1
102
RTVSPost2010Prop37
 90
       50
102
RTVSPost2010PropOp37
 70
     1
102
RTVSPost2010Prop38
140
0.0
102
RTVSPost2010PropOp38
 70
     1
102
RTVSPost2010Prop39
140
1.0
102
RTVSPost2010PropOp39
 70
     1
102
RTVSPost2010Prop40
 90
        0
102
RTVSPost2010PropOp40
 70
     1
102
RTVSPost2010Prop41ColorIndex
 90
       18
102
RTVSPost2010Prop41ColorRGB
 90
        0
102
RTVSPost2010PropOp41
 70
     1
102
RTVSPost2010Prop42
 90
       50
102
RTVSPost2010PropOp42
 70
     1
102
RTVSPost2010Prop43
 90
        3
102
RTVSPost2010PropOp43
 70
     1
102
RTVSPost2010Prop44ColorIndex
 90
        5
102
RTVSPost2010Prop44ColorRGB
 90
      255
102
RTVSPost2010PropOp44
 70
     1
102
RTVSPost2010Prop45
280
     0
102
RTVSPost2010PropOp45
 70
     1
102
RTVSPost2010Prop46
 90
       50
102
RTVSPost2010PropOp46
 70
     1
102
RTVSPost2010Prop47
 90
       50
102
RTVSPost2010PropOp47
 70
     1
102
RTVSPost2010Prop48
 90
       50
102
RTVSPost2010PropOp48
 70
     1
102
RTVSPost2010Prop49
280
     0
102
RTVSPost2010PropOp49
 70
     1
102
RTVSPost2010Prop50
 90
       50
102
RTVSPost2010PropOp50
 70
     1
102
RTVSPost2010Prop51ColorIndex
 90
      256
102
RTVSPost2010Prop51ColorRGB
 90
-16777216
102
RTVSPost2010PropOp51
 70
     0
102
RTVSPost2010Prop52
140
1.0
102
RTVSPost2010PropOp52
 70
     0
102
RTVSPost2010Prop53
 90
        2
102
RTVSPost2010PropOp53
 70
     1
102
RTVSPost2010Prop54
  1
strokes_ogs.tif
102
RTVSPost2010PropOp54
 70
     1
102
RTVSPost2010Prop55
280
     0
102
RTVSPost2010PropOp55
 70
     1
102
RTVSPost2010Prop56
140
1.0
102
RTVSPost2010PropOp56
 70
     1
102
RTVSPost2010Prop57
140
1.0
102
RTVSPost2010PropOp57
 70
     1
  0
XRECORD
  5
265
102
{ACAD_REACTORS
330
264
102
}
330
264
100
AcDbXrecord
280
     1
102
RTVSPost2010Prop28
280
     0
102
RTVSPost2010PropOp28
 70
     1
102
RTVSPost2010Prop29
280
     1
102
RTVSPost2010PropOp29
 70
     1
102
RTVSPost2010Prop30
280
     1
102
RTVSPost2010PropOp30
 70
     1
102
RTVSPost2010Prop31
280
     0
102
RTVSPost2010PropOp31
 70
     1
102
RTVSPost2010Prop32
280
     0
102
RTVSPost2010PropOp32
 70
     1
102
RTVSPost2010Prop33
280
     0
102
RTVSPost2010PropOp33
 70
     1
102
RTVSPost2010Prop34
280
     0
102
RTVSPost2010PropOp34
 70
     1
102
RTVSPost2010Prop35
280
     0
102
RTVSPost2010PropOp35
 70
     1
102
RTVSPost2010Prop36
280
     0
102
RTVSPost2010PropOp36
 70
     1
102
RTVSPost2010Prop37
 90
       50
102
RTVSPost2010PropOp37
 70
     1
102
RTVSPost2010Prop38
140
0.0
102
RTVSPost2010PropOp38
 70
     1
102
RTVSPost2010Prop39
140
1.0
102
RTVSPost2010PropOp39
 70
     1
102
RTVSPost2010Prop40
 90
        0
102
RTVSPost2010PropOp40
 70
     1
102
RTVSPost2010Prop41ColorIndex
 90
       18
102
RTVSPost2010Prop41ColorRGB
 90
        0
102
RTVSPost2010PropOp41
 70
     1
102
RTVSPost2010Prop42
 90
       50
102
RTVSPost2010PropOp42
 70
     1
102
RTVSPost2010Prop43
 90
        3
102
RTVSPost2010PropOp43
 70
     1
102
RTVSPost2010Prop44ColorIndex
 90
        5
102
RTVSPost2010Prop44ColorRGB
 90
      255
102
RTVSPost2010PropOp44
 70
     1
102
RTVSPost2010Prop45
280
     0
102
RTVSPost2010PropOp45
 70
     1
102
RTVSPost2010Prop46
 90
       50
102
RTVSPost2010PropOp46
 70
     1
102
RTVSPost2010Prop47
 90
       50
102
RTVSPost2010PropOp47
 70
     1
102
RTVSPost2010Prop48
 90
       50
102
RTVSPost2010PropOp48
 70
     1
102
RTVSPost2010Prop49
280
     0
102
RTVSPost2010PropOp49
 70
     1
102
RTVSPost2010Prop50
 90
       50
102
RTVSPost2010PropOp50
 70
     1
102
RTVSPost2010Prop51ColorIndex
 90
      256
102
RTVSPost2010Prop51ColorRGB
 90
-16777216
102
RTVSPost2010PropOp51
 70
     0
102
RTVSPost2010Prop52
140
1.0
102
RTVSPost2010PropOp52
 70
     0
102
RTVSPost2010Prop53
 90
        2
102
RTVSPost2010PropOp53
 70
     1
102
RTVSPost2010Prop54
  1
strokes_ogs.tif
102
RTVSPost2010PropOp54
 70
     1
102
RTVSPost2010Prop55
280
     0
102
RTVSPost2010PropOp55
 70
     1
102
RTVSPost2010Prop56
140
1.0
102
RTVSPost2010PropOp56
 70
     1
102
RTVSPost2010Prop57
140
1.0
102
RTVSPost2010PropOp57
 70
     1
  0
XRECORD
  5
275
102
{ACAD_REACTORS
330
274
102
}
330
274
100
AcDbXrecord
280
     1
102
RTVSPost2010Prop28
280
     0
102
RTVSPost2010PropOp28
 70
     0
102
RTVSPost2010Prop29
280
     1
102
RTVSPost2010PropOp29
 70
     0
102
RTVSPost2010Prop30
280
     1
102
RTVSPost2010PropOp30
 70
     0
102
RTVSPost2010Prop31
280
     0
102
RTVSPost2010PropOp31
 70
     0
102
RTVSPost2010Prop32
280
     0
102
RTVSPost2010PropOp32
 70
     0
102
RTVSPost2010Prop33
280
     0
102
RTVSPost2010PropOp33
 70
     0
102
RTVSPost2010Prop34
280
     0
102
RTVSPost2010PropOp34
 70
     0
102
RTVSPost2010Prop35
280
     0
102
RTVSPost2010PropOp35
 70
     0
102
RTVSPost2010Prop36
280
     0
102
RTVSPost2010PropOp36
 70
     0
102
RTVSPost2010Prop37
 90
       50
102
RTVSPost2010PropOp37
 70
     0
102
RTVSPost2010Prop38
140
0.0
102
RTVSPost2010PropOp38
 70
     0
102
RTVSPost2010Prop39
140
1.0
102
RTVSPost2010PropOp39
 70
     0
102
RTVSPost2010Prop40
 90
        0
102
RTVSPost2010PropOp40
 70
     0
102
RTVSPost2010Prop41ColorIndex
 90
       18
102
RTVSPost2010Prop41ColorRGB
 90
        0
102
RTVSPost2010PropOp41
 70
     0
102
RTVSPost2010Prop42
 90
       50
102
RTVSPost2010PropOp42
 70
     0
102
RTVSPost2010Prop43
 90
        3
102
RTVSPost2010PropOp43
 70
     0
102
RTVSPost2010Prop44ColorIndex
 90
        5
102
RTVSPost2010Prop44ColorRGB
 90
      255
102
RTVSPost2010PropOp44
 70
     0
102
RTVSPost2010Prop45
280
     0
102
RTVSPost2010PropOp45
 70
     0
102
RTVSPost2010Prop46
 90
       50
102
RTVSPost2010PropOp46
 70
     0
102
RTVSPost2010Prop47
 90
       50
102
RTVSPost2010PropOp47
 70
     0
102
RTVSPost2010Prop48
 90
       50
102
RTVSPost2010PropOp48
 70
     0
102
RTVSPost2010Prop49
280
     0
102
RTVSPost2010PropOp49
 70
     0
102
RTVSPost2010Prop50
 90
       50
102
RTVSPost2010PropOp50
 70
     0
102
RTVSPost2010Prop51ColorIndex
 90
      256
102
RTVSPost2010Prop51ColorRGB
 90
-16777216
102
RTVSPost2010PropOp51
 70
     0
102
RTVSPost2010Prop52
140
1.0
102
RTVSPost2010PropOp52
 70
     0
102
RTVSPost2010Prop53
 90
        2
102
RTVSPost2010PropOp53
 70
     0
102
RTVSPost2010Prop54
  1
strokes_ogs.tif
102
RTVSPost2010PropOp54
 70
     0
102
RTVSPost2010Prop55
280
     0
102
RTVSPost2010PropOp55
 70
     0
102
RTVSPost2010Prop56
140
1.0
102
RTVSPost2010PropOp56
 70
     0
102
RTVSPost2010Prop57
140
1.0
102
RTVSPost2010PropOp57
 70
     0
  0
XRECORD
  5
26D
102
{ACAD_REACTORS
330
26C
102
}
330
26C
100
AcDbXrecord
280
     1
102
RTVSPost2010Prop28
280
     0
102
RTVSPost2010PropOp28
 70
     1
102
RTVSPost2010Prop29
280
     1
102
RTVSPost2010PropOp29
 70
     1
102
RTVSPost2010Prop30
280
     1
102
RTVSPost2010PropOp30
 70
     1
102
RTVSPost2010Prop31
280
     0
102
RTVSPost2010PropOp31
 70
     1
102
RTVSPost2010Prop32
280
     0
102
RTVSPost2010PropOp32
 70
     1
102
RTVSPost2010Prop33
280
     0
102
RTVSPost2010PropOp33
 70
     1
102
RTVSPost2010Prop34
280
     0
102
RTVSPost2010PropOp34
 70
     1
102
RTVSPost2010Prop35
280
     0
102
RTVSPost2010PropOp35
 70
     1
102
RTVSPost2010Prop36
280
     0
102
RTVSPost2010PropOp36
 70
     1
102
RTVSPost2010Prop37
 90
       50
102
RTVSPost2010PropOp37
 70
     1
102
RTVSPost2010Prop38
140
0.0
102
RTVSPost2010PropOp38
 70
     1
102
RTVSPost2010Prop39
140
1.0
102
RTVSPost2010PropOp39
 70
     1
102
RTVSPost2010Prop40
 90
        0
102
RTVSPost2010PropOp40
 70
     1
102
RTVSPost2010Prop41ColorIndex
 90
       18
102
RTVSPost2010Prop41ColorRGB
 90
        0
102
RTVSPost2010PropOp41
 70
     1
102
RTVSPost2010Prop42
 90
       50
102
RTVSPost2010PropOp42
 70
     1
102
RTVSPost2010Prop43
 90
        3
102
RTVSPost2010PropOp43
 70
     1
102
RTVSPost2010Prop44ColorIndex
 90
        5
102
RTVSPost2010Prop44ColorRGB
 90
      255
102
RTVSPost2010PropOp44
 70
     1
102
RTVSPost2010Prop45
280
     0
102
RTVSPost2010PropOp45
 70
     1
102
RTVSPost2010Prop46
 90
       50
102
RTVSPost2010PropOp46
 70
     1
102
RTVSPost2010Prop47
 90
       50
102
RTVSPost2010PropOp47
 70
     1
102
RTVSPost2010Prop48
 90
       50
102
RTVSPost2010PropOp48
 70
     1
102
RTVSPost2010Prop49
280
     0
102
RTVSPost2010PropOp49
 70
     1
102
RTVSPost2010Prop50
 90
       50
102
RTVSPost2010PropOp50
 70
     1
102
RTVSPost2010Prop51ColorIndex
 90
      256
102
RTVSPost2010Prop51ColorRGB
 90
-16777216
102
RTVSPost2010PropOp51
 70
     0
102
RTVSPost2010Prop52
140
1.0
102
RTVSPost2010PropOp52
 70
     0
102
RTVSPost2010Prop53
 90
        2
102
RTVSPost2010PropOp53
 70
     1
102
RTVSPost2010Prop54
  1
strokes_ogs.tif
102
RTVSPost2010PropOp54
 70
     1
102
RTVSPost2010Prop55
280
     0
102
RTVSPost2010PropOp55
 70
     1
102
RTVSPost2010Prop56
140
1.0
102
RTVSPost2010PropOp56
 70
     1
102
RTVSPost2010Prop57
140
1.0
102
RTVSPost2010PropOp57
 70
     1
  0
XRECORD
  5
251
102
{ACAD_REACTORS
330
250
102
}
330
250
100
AcDbXrecord
280
     1
102
RTVSPost2010Prop28
280
     0
102
RTVSPost2010PropOp28
 70
     1
102
RTVSPost2010Prop29
280
     1
102
RTVSPost2010PropOp29
 70
     1
102
RTVSPost2010Prop30
280
     1
102
RTVSPost2010PropOp30
 70
     1
102
RTVSPost2010Prop31
280
     0
102
RTVSPost2010PropOp31
 70
     1
102
RTVSPost2010Prop32
280
     0
102
RTVSPost2010PropOp32
 70
     1
102
RTVSPost2010Prop33
280
     0
102
RTVSPost2010PropOp33
 70
     1
102
RTVSPost2010Prop34
280
     0
102
RTVSPost2010PropOp34
 70
     1
102
RTVSPost2010Prop35
280
     0
102
RTVSPost2010PropOp35
 70
     1
102
RTVSPost2010Prop36
280
     0
102
RTVSPost2010PropOp36
 70
     1
102
RTVSPost2010Prop37
 90
       50
102
RTVSPost2010PropOp37
 70
     1
102
RTVSPost2010Prop38
140
0.0
102
RTVSPost2010PropOp38
 70
     1
102
RTVSPost2010Prop39
140
1.0
102
RTVSPost2010PropOp39
 70
     1
102
RTVSPost2010Prop40
 90
        0
102
RTVSPost2010PropOp40
 70
     1
102
RTVSPost2010Prop41ColorIndex
 90
       18
102
RTVSPost2010Prop41ColorRGB
 90
        0
102
RTVSPost2010PropOp41
 70
     1
102
RTVSPost2010Prop42
 90
       50
102
RTVSPost2010PropOp42
 70
     1
102
RTVSPost2010Prop43
 90
        3
102
RTVSPost2010PropOp43
 70
     1
102
RTVSPost2010Prop44ColorIndex
 90
        5
102
RTVSPost2010Prop44ColorRGB
 90
      255
102
RTVSPost2010PropOp44
 70
     1
102
RTVSPost2010Prop45
280
     0
102
RTVSPost2010PropOp45
 70
     1
102
RTVSPost2010Prop46
 90
       50
102
RTVSPost2010PropOp46
 70
     1
102
RTVSPost2010Prop47
 90
       50
102
RTVSPost2010PropOp47
 70
     1
102
RTVSPost2010Prop48
 90
       50
102
RTVSPost2010PropOp48
 70
     1
102
RTVSPost2010Prop49
280
     0
102
RTVSPost2010PropOp49
 70
     1
102
RTVSPost2010Prop50
 90
       50
102
RTVSPost2010PropOp50
 70
     1
102
RTVSPost2010Prop51ColorIndex
 90
      256
102
RTVSPost2010Prop51ColorRGB
 90
-16777216
102
RTVSPost2010PropOp51
 70
     0
102
RTVSPost2010Prop52
140
1.0
102
RTVSPost2010PropOp52
 70
     0
102
RTVSPost2010Prop53
 90
        2
102
RTVSPost2010PropOp53
 70
     1
102
RTVSPost2010Prop54
  1
strokes_ogs.tif
102
RTVSPost2010PropOp54
 70
     1
102
RTVSPost2010Prop55
280
     0
102
RTVSPost2010PropOp55
 70
     1
102
RTVSPost2010Prop56
140
1.0
102
RTVSPost2010PropOp56
 70
     1
102
RTVSPost2010Prop57
140
1.0
102
RTVSPost2010PropOp57
 70
     1
  0
XRECORD
  5
253
102
{ACAD_REACTORS
330
252
102
}
330
252
100
AcDbXrecord
280
     1
102
RTVSPost2010Prop28
280
     0
102
RTVSPost2010PropOp28
 70
     1
102
RTVSPost2010Prop29
280
     1
102
RTVSPost2010PropOp29
 70
     1
102
RTVSPost2010Prop30
280
     1
102
RTVSPost2010PropOp30
 70
     1
102
RTVSPost2010Prop31
280
     0
102
RTVSPost2010PropOp31
 70
     1
102
RTVSPost2010Prop32
280
     0
102
RTVSPost2010PropOp32
 70
     1
102
RTVSPost2010Prop33
280
     0
102
RTVSPost2010PropOp33
 70
     1
102
RTVSPost2010Prop34
280
     0
102
RTVSPost2010PropOp34
 70
     1
102
RTVSPost2010Prop35
280
     0
102
RTVSPost2010PropOp35
 70
     1
102
RTVSPost2010Prop36
280
     0
102
RTVSPost2010PropOp36
 70
     1
102
RTVSPost2010Prop37
 90
       50
102
RTVSPost2010PropOp37
 70
     1
102
RTVSPost2010Prop38
140
0.0
102
RTVSPost2010PropOp38
 70
     1
102
RTVSPost2010Prop39
140
1.0
102
RTVSPost2010PropOp39
 70
     1
102
RTVSPost2010Prop40
 90
        0
102
RTVSPost2010PropOp40
 70
     1
102
RTVSPost2010Prop41ColorIndex
 90
       18
102
RTVSPost2010Prop41ColorRGB
 90
        0
102
RTVSPost2010PropOp41
 70
     1
102
RTVSPost2010Prop42
 90
       50
102
RTVSPost2010PropOp42
 70
     1
102
RTVSPost2010Prop43
 90
        3
102
RTVSPost2010PropOp43
 70
     1
102
RTVSPost2010Prop44ColorIndex
 90
        5
102
RTVSPost2010Prop44ColorRGB
 90
      255
102
RTVSPost2010PropOp44
 70
     1
102
RTVSPost2010Prop45
280
     0
102
RTVSPost2010PropOp45
 70
     1
102
RTVSPost2010Prop46
 90
       50
102
RTVSPost2010PropOp46
 70
     1
102
RTVSPost2010Prop47
 90
       50
102
RTVSPost2010PropOp47
 70
     1
102
RTVSPost2010Prop48
 90
       50
102
RTVSPost2010PropOp48
 70
     1
102
RTVSPost2010Prop49
280
     0
102
RTVSPost2010PropOp49
 70
     1
102
RTVSPost2010Prop50
 90
       50
102
RTVSPost2010PropOp50
 70
     1
102
RTVSPost2010Prop51ColorIndex
 90
      256
102
RTVSPost2010Prop51ColorRGB
 90
-16777216
102
RTVSPost2010PropOp51
 70
     0
102
RTVSPost2010Prop52
140
1.0
102
RTVSPost2010PropOp52
 70
     0
102
RTVSPost2010Prop53
 90
        2
102
RTVSPost2010PropOp53
 70
     1
102
RTVSPost2010Prop54
  1
strokes_ogs.tif
102
RTVSPost2010PropOp54
 70
     1
102
RTVSPost2010Prop55
280
     0
102
RTVSPost2010PropOp55
 70
     1
102
RTVSPost2010Prop56
140
1.0
102
RTVSPost2010PropOp56
 70
     1
102
RTVSPost2010Prop57
140
1.0
102
RTVSPost2010PropOp57
 70
     1
  0
XRECORD
  5
255
102
{ACAD_REACTORS
330
254
102
}
330
254
100
AcDbXrecord
280
     1
102
RTVSPost2010Prop28
280
     0
102
RTVSPost2010PropOp28
 70
     1
102
RTVSPost2010Prop29
280
     1
102
RTVSPost2010PropOp29
 70
     1
102
RTVSPost2010Prop30
280
     1
102
RTVSPost2010PropOp30
 70
     1
102
RTVSPost2010Prop31
280
     0
102
RTVSPost2010PropOp31
 70
     1
102
RTVSPost2010Prop32
280
     0
102
RTVSPost2010PropOp32
 70
     1
102
RTVSPost2010Prop33
280
     0
102
RTVSPost2010PropOp33
 70
     1
102
RTVSPost2010Prop34
280
     0
102
RTVSPost2010PropOp34
 70
     1
102
RTVSPost2010Prop35
280
     0
102
RTVSPost2010PropOp35
 70
     1
102
RTVSPost2010Prop36
280
     0
102
RTVSPost2010PropOp36
 70
     1
102
RTVSPost2010Prop37
 90
       50
102
RTVSPost2010PropOp37
 70
     1
102
RTVSPost2010Prop38
140
0.0
102
RTVSPost2010PropOp38
 70
     1
102
RTVSPost2010Prop39
140
1.0
102
RTVSPost2010PropOp39
 70
     1
102
RTVSPost2010Prop40
 90
        0
102
RTVSPost2010PropOp40
 70
     1
102
RTVSPost2010Prop41ColorIndex
 90
       18
102
RTVSPost2010Prop41ColorRGB
 90
        0
102
RTVSPost2010PropOp41
 70
     1
102
RTVSPost2010Prop42
 90
       50
102
RTVSPost2010PropOp42
 70
     1
102
RTVSPost2010Prop43
 90
        3
102
RTVSPost2010PropOp43
 70
     1
102
RTVSPost2010Prop44ColorIndex
 90
        5
102
RTVSPost2010Prop44ColorRGB
 90
      255
102
RTVSPost2010PropOp44
 70
     1
102
RTVSPost2010Prop45
280
     0
102
RTVSPost2010PropOp45
 70
     1
102
RTVSPost2010Prop46
 90
       50
102
RTVSPost2010PropOp46
 70
     1
102
RTVSPost2010Prop47
 90
       50
102
RTVSPost2010PropOp47
 70
     1
102
RTVSPost2010Prop48
 90
       50
102
RTVSPost2010PropOp48
 70
     1
102
RTVSPost2010Prop49
280
     0
102
RTVSPost2010PropOp49
 70
     1
102
RTVSPost2010Prop50
 90
       50
102
RTVSPost2010PropOp50
 70
     1
102
RTVSPost2010Prop51ColorIndex
 90
      256
102
RTVSPost2010Prop51ColorRGB
 90
-16777216
102
RTVSPost2010PropOp51
 70
     0
102
RTVSPost2010Prop52
140
1.0
102
RTVSPost2010PropOp52
 70
     0
102
RTVSPost2010Prop53
 90
        2
102
RTVSPost2010PropOp53
 70
     1
102
RTVSPost2010Prop54
  1
strokes_ogs.tif
102
RTVSPost2010PropOp54
 70
     1
102
RTVSPost2010Prop55
280
     0
102
RTVSPost2010PropOp55
 70
     1
102
RTVSPost2010Prop56
140
1.0
102
RTVSPost2010PropOp56
 70
     1
102
RTVSPost2010Prop57
140
1.0
102
RTVSPost2010PropOp57
 70
     1
  0
XRECORD
  5
257
102
{ACAD_REACTORS
330
256
102
}
330
256
100
AcDbXrecord
280
     1
102
RTVSPost2010Prop28
280
     0
102
RTVSPost2010PropOp28
 70
     1
102
RTVSPost2010Prop29
280
     1
102
RTVSPost2010PropOp29
 70
     1
102
RTVSPost2010Prop30
280
     1
102
RTVSPost2010PropOp30
 70
     1
102
RTVSPost2010Prop31
280
     0
102
RTVSPost2010PropOp31
 70
     1
102
RTVSPost2010Prop32
280
     0
102
RTVSPost2010PropOp32
 70
     1
102
RTVSPost2010Prop33
280
     0
102
RTVSPost2010PropOp33
 70
     1
102
RTVSPost2010Prop34
280
     0
102
RTVSPost2010PropOp34
 70
     1
102
RTVSPost2010Prop35
280
     0
102
RTVSPost2010PropOp35
 70
     1
102
RTVSPost2010Prop36
280
     0
102
RTVSPost2010PropOp36
 70
     1
102
RTVSPost2010Prop37
 90
       50
102
RTVSPost2010PropOp37
 70
     1
102
RTVSPost2010Prop38
140
0.0
102
RTVSPost2010PropOp38
 70
     1
102
RTVSPost2010Prop39
140
1.0
102
RTVSPost2010PropOp39
 70
     1
102
RTVSPost2010Prop40
 90
        0
102
RTVSPost2010PropOp40
 70
     1
102
RTVSPost2010Prop41ColorIndex
 90
       18
102
RTVSPost2010Prop41ColorRGB
 90
        0
102
RTVSPost2010PropOp41
 70
     1
102
RTVSPost2010Prop42
 90
       50
102
RTVSPost2010PropOp42
 70
     1
102
RTVSPost2010Prop43
 90
        3
102
RTVSPost2010PropOp43
 70
     1
102
RTVSPost2010Prop44ColorIndex
 90
        5
102
RTVSPost2010Prop44ColorRGB
 90
      255
102
RTVSPost2010PropOp44
 70
     1
102
RTVSPost2010Prop45
280
     0
102
RTVSPost2010PropOp45
 70
     1
102
RTVSPost2010Prop46
 90
       50
102
RTVSPost2010PropOp46
 70
     1
102
RTVSPost2010Prop47
 90
       50
102
RTVSPost2010PropOp47
 70
     1
102
RTVSPost2010Prop48
 90
       50
102
RTVSPost2010PropOp48
 70
     1
102
RTVSPost2010Prop49
280
     0
102
RTVSPost2010PropOp49
 70
     1
102
RTVSPost2010Prop50
 90
       50
102
RTVSPost2010PropOp50
 70
     1
102
RTVSPost2010Prop51ColorIndex
 90
      256
102
RTVSPost2010Prop51ColorRGB
 90
-16777216
102
RTVSPost2010PropOp51
 70
     0
102
RTVSPost2010Prop52
140
1.0
102
RTVSPost2010PropOp52
 70
     0
102
RTVSPost2010Prop53
 90
        2
102
RTVSPost2010PropOp53
 70
     1
102
RTVSPost2010Prop54
  1
strokes_ogs.tif
102
RTVSPost2010PropOp54
 70
     1
102
RTVSPost2010Prop55
280
     0
102
RTVSPost2010PropOp55
 70
     1
102
RTVSPost2010Prop56
140
1.0
102
RTVSPost2010PropOp56
 70
     1
102
RTVSPost2010Prop57
140
1.0
102
RTVSPost2010PropOp57
 70
     1
  0
XRECORD
  5
25D
102
{ACAD_REACTORS
330
25C
102
}
330
25C
100
AcDbXrecord
280
     1
102
RTVSPost2010Prop28
280
     0
102
RTVSPost2010PropOp28
 70
     1
102
RTVSPost2010Prop29
280
     1
102
RTVSPost2010PropOp29
 70
     1
102
RTVSPost2010Prop30
280
     1
102
RTVSPost2010PropOp30
 70
     1
102
RTVSPost2010Prop31
280
     0
102
RTVSPost2010PropOp31
 70
     1
102
RTVSPost2010Prop32
280
     0
102
RTVSPost2010PropOp32
 70
     1
102
RTVSPost2010Prop33
280
     0
102
RTVSPost2010PropOp33
 70
     1
102
RTVSPost2010Prop34
280
     0
102
RTVSPost2010PropOp34
 70
     1
102
RTVSPost2010Prop35
280
     0
102
RTVSPost2010PropOp35
 70
     1
102
RTVSPost2010Prop36
280
     0
102
RTVSPost2010PropOp36
 70
     1
102
RTVSPost2010Prop37
 90
       50
102
RTVSPost2010PropOp37
 70
     1
102
RTVSPost2010Prop38
140
0.0
102
RTVSPost2010PropOp38
 70
     1
102
RTVSPost2010Prop39
140
1.0
102
RTVSPost2010PropOp39
 70
     1
102
RTVSPost2010Prop40
 90
        0
102
RTVSPost2010PropOp40
 70
     1
102
RTVSPost2010Prop41ColorIndex
 90
       18
102
RTVSPost2010Prop41ColorRGB
 90
        0
102
RTVSPost2010PropOp41
 70
     1
102
RTVSPost2010Prop42
 90
       50
102
RTVSPost2010PropOp42
 70
     1
102
RTVSPost2010Prop43
 90
        3
102
RTVSPost2010PropOp43
 70
     1
102
RTVSPost2010Prop44ColorIndex
 90
        5
102
RTVSPost2010Prop44ColorRGB
 90
      255
102
RTVSPost2010PropOp44
 70
     1
102
RTVSPost2010Prop45
280
     0
102
RTVSPost2010PropOp45
 70
     1
102
RTVSPost2010Prop46
 90
       50
102
RTVSPost2010PropOp46
 70
     1
102
RTVSPost2010Prop47
 90
       50
102
RTVSPost2010PropOp47
 70
     1
102
RTVSPost2010Prop48
 90
       50
102
RTVSPost2010PropOp48
 70
     1
102
RTVSPost2010Prop49
280
     0
102
RTVSPost2010PropOp49
 70
     1
102
RTVSPost2010Prop50
 90
       50
102
RTVSPost2010PropOp50
 70
     1
102
RTVSPost2010Prop51ColorIndex
 90
      256
102
RTVSPost2010Prop51ColorRGB
 90
-16777216
102
RTVSPost2010PropOp51
 70
     0
102
RTVSPost2010Prop52
140
1.0
102
RTVSPost2010PropOp52
 70
     0
102
RTVSPost2010Prop53
 90
        2
102
RTVSPost2010PropOp53
 70
     1
102
RTVSPost2010Prop54
  1
strokes_ogs.tif
102
RTVSPost2010PropOp54
 70
     1
102
RTVSPost2010Prop55
280
     0
102
RTVSPost2010PropOp55
 70
     1
102
RTVSPost2010Prop56
140
1.0
102
RTVSPost2010PropOp56
 70
     1
102
RTVSPost2010Prop57
140
1.0
102
RTVSPost2010PropOp57
 70
     1
  0
XRECORD
  5
271
102
{ACAD_REACTORS
330
270
102
}
330
270
100
AcDbXrecord
280
     1
102
RTVSPost2010Prop28
280
     0
102
RTVSPost2010PropOp28
 70
     0
102
RTVSPost2010Prop29
280
     1
102
RTVSPost2010PropOp29
 70
     0
102
RTVSPost2010Prop30
280
     1
102
RTVSPost2010PropOp30
 70
     0
102
RTVSPost2010Prop31
280
     0
102
RTVSPost2010PropOp31
 70
     0
102
RTVSPost2010Prop32
280
     0
102
RTVSPost2010PropOp32
 70
     0
102
RTVSPost2010Prop33
280
     0
102
RTVSPost2010PropOp33
 70
     0
102
RTVSPost2010Prop34
280
     0
102
RTVSPost2010PropOp34
 70
     0
102
RTVSPost2010Prop35
280
     0
102
RTVSPost2010PropOp35
 70
     0
102
RTVSPost2010Prop36
280
     0
102
RTVSPost2010PropOp36
 70
     0
102
RTVSPost2010Prop37
 90
       50
102
RTVSPost2010PropOp37
 70
     0
102
RTVSPost2010Prop38
140
0.0
102
RTVSPost2010PropOp38
 70
     0
102
RTVSPost2010Prop39
140
1.0
102
RTVSPost2010PropOp39
 70
     0
102
RTVSPost2010Prop40
 90
        0
102
RTVSPost2010PropOp40
 70
     0
102
RTVSPost2010Prop41ColorIndex
 90
       18
102
RTVSPost2010Prop41ColorRGB
 90
        0
102
RTVSPost2010PropOp41
 70
     0
102
RTVSPost2010Prop42
 90
       50
102
RTVSPost2010PropOp42
 70
     0
102
RTVSPost2010Prop43
 90
        3
102
RTVSPost2010PropOp43
 70
     0
102
RTVSPost2010Prop44ColorIndex
 90
        5
102
RTVSPost2010Prop44ColorRGB
 90
      255
102
RTVSPost2010PropOp44
 70
     0
102
RTVSPost2010Prop45
280
     0
102
RTVSPost2010PropOp45
 70
     0
102
RTVSPost2010Prop46
 90
       50
102
RTVSPost2010PropOp46
 70
     0
102
RTVSPost2010Prop47
 90
       50
102
RTVSPost2010PropOp47
 70
     0
102
RTVSPost2010Prop48
 90
       50
102
RTVSPost2010PropOp48
 70
     0
102
RTVSPost2010Prop49
280
     0
102
RTVSPost2010PropOp49
 70
     0
102
RTVSPost2010Prop50
 90
       50
102
RTVSPost2010PropOp50
 70
     0
102
RTVSPost2010Prop51ColorIndex
 90
      256
102
RTVSPost2010Prop51ColorRGB
 90
-16777216
102
RTVSPost2010PropOp51
 70
     0
102
RTVSPost2010Prop52
140
1.0
102
RTVSPost2010PropOp52
 70
     0
102
RTVSPost2010Prop53
 90
        2
102
RTVSPost2010PropOp53
 70
     0
102
RTVSPost2010Prop54
  1
strokes_ogs.tif
102
RTVSPost2010PropOp54
 70
     0
102
RTVSPost2010Prop55
280
     0
102
RTVSPost2010PropOp55
 70
     0
102
RTVSPost2010Prop56
140
1.0
102
RTVSPost2010PropOp56
 70
     0
102
RTVSPost2010Prop57
140
1.0
102
RTVSPost2010PropOp57
 70
     0
  0
XRECORD
  5
26B
102
{ACAD_REACTORS
330
26A
102
}
330
26A
100
AcDbXrecord
280
     1
102
RTVSPost2010Prop28
280
     0
102
RTVSPost2010PropOp28
 70
     1
102
RTVSPost2010Prop29
280
     1
102
RTVSPost2010PropOp29
 70
     1
102
RTVSPost2010Prop30
280
     1
102
RTVSPost2010PropOp30
 70
     1
102
RTVSPost2010Prop31
280
     0
102
RTVSPost2010PropOp31
 70
     1
102
RTVSPost2010Prop32
280
     0
102
RTVSPost2010PropOp32
 70
     1
102
RTVSPost2010Prop33
280
     0
102
RTVSPost2010PropOp33
 70
     1
102
RTVSPost2010Prop34
280
     0
102
RTVSPost2010PropOp34
 70
     1
102
RTVSPost2010Prop35
280
     0
102
RTVSPost2010PropOp35
 70
     1
102
RTVSPost2010Prop36
280
     0
102
RTVSPost2010PropOp36
 70
     1
102
RTVSPost2010Prop37
 90
       50
102
RTVSPost2010PropOp37
 70
     1
102
RTVSPost2010Prop38
140
0.0
102
RTVSPost2010PropOp38
 70
     1
102
RTVSPost2010Prop39
140
1.0
102
RTVSPost2010PropOp39
 70
     1
102
RTVSPost2010Prop40
 90
        0
102
RTVSPost2010PropOp40
 70
     1
102
RTVSPost2010Prop41ColorIndex
 90
       18
102
RTVSPost2010Prop41ColorRGB
 90
        0
102
RTVSPost2010PropOp41
 70
     1
102
RTVSPost2010Prop42
 90
       50
102
RTVSPost2010PropOp42
 70
     1
102
RTVSPost2010Prop43
 90
        3
102
RTVSPost2010PropOp43
 70
     1
102
RTVSPost2010Prop44ColorIndex
 90
        5
102
RTVSPost2010Prop44ColorRGB
 90
      255
102
RTVSPost2010PropOp44
 70
     1
102
RTVSPost2010Prop45
280
     0
102
RTVSPost2010PropOp45
 70
     1
102
RTVSPost2010Prop46
 90
       50
102
RTVSPost2010PropOp46
 70
     1
102
RTVSPost2010Prop47
 90
       50
102
RTVSPost2010PropOp47
 70
     1
102
RTVSPost2010Prop48
 90
       50
102
RTVSPost2010PropOp48
 70
     1
102
RTVSPost2010Prop49
280
     0
102
RTVSPost2010PropOp49
 70
     1
102
RTVSPost2010Prop50
 90
       50
102
RTVSPost2010PropOp50
 70
     1
102
RTVSPost2010Prop51ColorIndex
 90
      256
102
RTVSPost2010Prop51ColorRGB
 90
-16777216
102
RTVSPost2010PropOp51
 70
     0
102
RTVSPost2010Prop52
140
1.0
102
RTVSPost2010PropOp52
 70
     0
102
RTVSPost2010Prop53
 90
        2
102
RTVSPost2010PropOp53
 70
     1
102
RTVSPost2010Prop54
  1
strokes_ogs.tif
102
RTVSPost2010PropOp54
 70
     1
102
RTVSPost2010Prop55
280
     0
102
RTVSPost2010PropOp55
 70
     1
102
RTVSPost2010Prop56
140
1.0
102
RTVSPost2010PropOp56
 70
     1
102
RTVSPost2010Prop57
140
1.0
102
RTVSPost2010PropOp57
 70
     1
  0
XRECORD
  5
273
102
{ACAD_REACTORS
330
272
102
}
330
272
100
AcDbXrecord
280
     1
102
RTVSPost2010Prop28
280
     0
102
RTVSPost2010PropOp28
 70
     0
102
RTVSPost2010Prop29
280
     1
102
RTVSPost2010PropOp29
 70
     0
102
RTVSPost2010Prop30
280
     1
102
RTVSPost2010PropOp30
 70
     0
102
RTVSPost2010Prop31
280
     0
102
RTVSPost2010PropOp31
 70
     0
102
RTVSPost2010Prop32
280
     0
102
RTVSPost2010PropOp32
 70
     0
102
RTVSPost2010Prop33
280
     0
102
RTVSPost2010PropOp33
 70
     0
102
RTVSPost2010Prop34
280
     0
102
RTVSPost2010PropOp34
 70
     0
102
RTVSPost2010Prop35
280
     0
102
RTVSPost2010PropOp35
 70
     0
102
RTVSPost2010Prop36
280
     0
102
RTVSPost2010PropOp36
 70
     0
102
RTVSPost2010Prop37
 90
       50
102
RTVSPost2010PropOp37
 70
     0
102
RTVSPost2010Prop38
140
0.0
102
RTVSPost2010PropOp38
 70
     0
102
RTVSPost2010Prop39
140
1.0
102
RTVSPost2010PropOp39
 70
     0
102
RTVSPost2010Prop40
 90
        0
102
RTVSPost2010PropOp40
 70
     0
102
RTVSPost2010Prop41ColorIndex
 90
       18
102
RTVSPost2010Prop41ColorRGB
 90
        0
102
RTVSPost2010PropOp41
 70
     0
102
RTVSPost2010Prop42
 90
       50
102
RTVSPost2010PropOp42
 70
     0
102
RTVSPost2010Prop43
 90
        3
102
RTVSPost2010PropOp43
 70
     0
102
RTVSPost2010Prop44ColorIndex
 90
        5
102
RTVSPost2010Prop44ColorRGB
 90
      255
102
RTVSPost2010PropOp44
 70
     0
102
RTVSPost2010Prop45
280
     0
102
RTVSPost2010PropOp45
 70
     0
102
RTVSPost2010Prop46
 90
       50
102
RTVSPost2010PropOp46
 70
     0
102
RTVSPost2010Prop47
 90
       50
102
RTVSPost2010PropOp47
 70
     0
102
RTVSPost2010Prop48
 90
       50
102
RTVSPost2010PropOp48
 70
     0
102
RTVSPost2010Prop49
280
     0
102
RTVSPost2010PropOp49
 70
     0
102
RTVSPost2010Prop50
 90
       50
102
RTVSPost2010PropOp50
 70
     0
102
RTVSPost2010Prop51ColorIndex
 90
      256
102
RTVSPost2010Prop51ColorRGB
 90
-16777216
102
RTVSPost2010PropOp51
 70
     0
102
RTVSPost2010Prop52
140
1.0
102
RTVSPost2010PropOp52
 70
     0
102
RTVSPost2010Prop53
 90
        2
102
RTVSPost2010PropOp53
 70
     0
102
RTVSPost2010Prop54
  1
strokes_ogs.tif
102
RTVSPost2010PropOp54
 70
     0
102
RTVSPost2010Prop55
280
     0
102
RTVSPost2010PropOp55
 70
     0
102
RTVSPost2010Prop56
140
1.0
102
RTVSPost2010PropOp56
 70
     0
102
RTVSPost2010Prop57
140
1.0
102
RTVSPost2010PropOp57
 70
     0
  0
XRECORD
  5
261
102
{ACAD_REACTORS
330
260
102
}
330
260
100
AcDbXrecord
280
     1
102
RTVSPost2010Prop28
280
     0
102
RTVSPost2010PropOp28
 70
     1
102
RTVSPost2010Prop29
280
     1
102
RTVSPost2010PropOp29
 70
     1
102
RTVSPost2010Prop30
280
     1
102
RTVSPost2010PropOp30
 70
     1
102
RTVSPost2010Prop31
280
     0
102
RTVSPost2010PropOp31
 70
     1
102
RTVSPost2010Prop32
280
     0
102
RTVSPost2010PropOp32
 70
     1
102
RTVSPost2010Prop33
280
     0
102
RTVSPost2010PropOp33
 70
     1
102
RTVSPost2010Prop34
280
     0
102
RTVSPost2010PropOp34
 70
     1
102
RTVSPost2010Prop35
280
     0
102
RTVSPost2010PropOp35
 70
     1
102
RTVSPost2010Prop36
280
     0
102
RTVSPost2010PropOp36
 70
     1
102
RTVSPost2010Prop37
 90
       50
102
RTVSPost2010PropOp37
 70
     1
102
RTVSPost2010Prop38
140
0.0
102
RTVSPost2010PropOp38
 70
     1
102
RTVSPost2010Prop39
140
1.0
102
RTVSPost2010PropOp39
 70
     1
102
RTVSPost2010Prop40
 90
        0
102
RTVSPost2010PropOp40
 70
     1
102
RTVSPost2010Prop41ColorIndex
 90
       18
102
RTVSPost2010Prop41ColorRGB
 90
        0
102
RTVSPost2010PropOp41
 70
     1
102
RTVSPost2010Prop42
 90
       50
102
RTVSPost2010PropOp42
 70
     1
102
RTVSPost2010Prop43
 90
        3
102
RTVSPost2010PropOp43
 70
     1
102
RTVSPost2010Prop44ColorIndex
 90
        5
102
RTVSPost2010Prop44ColorRGB
 90
      255
102
RTVSPost2010PropOp44
 70
     1
102
RTVSPost2010Prop45
280
     0
102
RTVSPost2010PropOp45
 70
     1
102
RTVSPost2010Prop46
 90
       50
102
RTVSPost2010PropOp46
 70
     1
102
RTVSPost2010Prop47
 90
       50
102
RTVSPost2010PropOp47
 70
     1
102
RTVSPost2010Prop48
 90
       50
102
RTVSPost2010PropOp48
 70
     1
102
RTVSPost2010Prop49
280
     0
102
RTVSPost2010PropOp49
 70
     1
102
RTVSPost2010Prop50
 90
       50
102
RTVSPost2010PropOp50
 70
     1
102
RTVSPost2010Prop51ColorIndex
 90
      256
102
RTVSPost2010Prop51ColorRGB
 90
-16777216
102
RTVSPost2010PropOp51
 70
     0
102
RTVSPost2010Prop52
140
1.0
102
RTVSPost2010PropOp52
 70
     0
102
RTVSPost2010Prop53
 90
        2
102
RTVSPost2010PropOp53
 70
     1
102
RTVSPost2010Prop54
  1
strokes_ogs.tif
102
RTVSPost2010PropOp54
 70
     1
102
RTVSPost2010Prop55
280
     0
102
RTVSPost2010PropOp55
 70
     1
102
RTVSPost2010Prop56
140
1.0
102
RTVSPost2010PropOp56
 70
     1
102
RTVSPost2010Prop57
140
1.0
102
RTVSPost2010PropOp57
 70
     1
  0
XRECORD
  5
27F
102
{ACAD_REACTORS
330
27E
102
}
330
27E
100
AcDbXrecord
280
     1
102
RTVSPost2010Prop28
280
     0
102
RTVSPost2010PropOp28
 70
     1
102
RTVSPost2010Prop29
280
     1
102
RTVSPost2010PropOp29
 70
     1
102
RTVSPost2010Prop30
280
     1
102
RTVSPost2010PropOp30
 70
     1
102
RTVSPost2010Prop31
280
     0
102
RTVSPost2010PropOp31
 70
     1
102
RTVSPost2010Prop32
280
     0
102
RTVSPost2010PropOp32
 70
     1
102
RTVSPost2010Prop33
280
     0
102
RTVSPost2010PropOp33
 70
     1
102
RTVSPost2010Prop34
280
     0
102
RTVSPost2010PropOp34
 70
     1
102
RTVSPost2010Prop35
280
     0
102
RTVSPost2010PropOp35
 70
     1
102
RTVSPost2010Prop36
280
     0
102
RTVSPost2010PropOp36
 70
     1
102
RTVSPost2010Prop37
 90
       50
102
RTVSPost2010PropOp37
 70
     1
102
RTVSPost2010Prop38
140
0.0
102
RTVSPost2010PropOp38
 70
     1
102
RTVSPost2010Prop39
140
1.0
102
RTVSPost2010PropOp39
 70
     1
102
RTVSPost2010Prop40
 90
        0
102
RTVSPost2010PropOp40
 70
     1
102
RTVSPost2010Prop41ColorIndex
 90
       18
102
RTVSPost2010Prop41ColorRGB
 90
        0
102
RTVSPost2010PropOp41
 70
     1
102
RTVSPost2010Prop42
 90
       50
102
RTVSPost2010PropOp42
 70
     1
102
RTVSPost2010Prop43
 90
        3
102
RTVSPost2010PropOp43
 70
     1
102
RTVSPost2010Prop44ColorIndex
 90
        5
102
RTVSPost2010Prop44ColorRGB
 90
      255
102
RTVSPost2010PropOp44
 70
     1
102
RTVSPost2010Prop45
280
     0
102
RTVSPost2010PropOp45
 70
     1
102
RTVSPost2010Prop46
 90
       50
102
RTVSPost2010PropOp46
 70
     1
102
RTVSPost2010Prop47
 90
       50
102
RTVSPost2010PropOp47
 70
     1
102
RTVSPost2010Prop48
 90
       50
102
RTVSPost2010PropOp48
 70
     1
102
RTVSPost2010Prop49
280
     0
102
RTVSPost2010PropOp49
 70
     1
102
RTVSPost2010Prop50
 90
       50
102
RTVSPost2010PropOp50
 70
     1
102
RTVSPost2010Prop51ColorIndex
 90
      256
102
RTVSPost2010Prop51ColorRGB
 90
-16777216
102
RTVSPost2010PropOp51
 70
     0
102
RTVSPost2010Prop52
140
1.0
102
RTVSPost2010PropOp52
 70
     0
102
RTVSPost2010Prop53
 90
        2
102
RTVSPost2010PropOp53
 70
     1
102
RTVSPost2010Prop54
  1
strokes_ogs.tif
102
RTVSPost2010PropOp54
 70
     1
102
RTVSPost2010Prop55
280
     0
102
RTVSPost2010PropOp55
 70
     1
102
RTVSPost2010Prop56
140
1.0
102
RTVSPost2010PropOp56
 70
     1
102
RTVSPost2010Prop57
140
1.0
102
RTVSPost2010PropOp57
 70
     1
  0
XRECORD
  5
27D
102
{ACAD_REACTORS
330
27C
102
}
330
27C
100
AcDbXrecord
280
     1
102
RTVSPost2010Prop28
280
     0
102
RTVSPost2010PropOp28
 70
     1
102
RTVSPost2010Prop29
280
     1
102
RTVSPost2010PropOp29
 70
     1
102
RTVSPost2010Prop30
280
     1
102
RTVSPost2010PropOp30
 70
     1
102
RTVSPost2010Prop31
280
     0
102
RTVSPost2010PropOp31
 70
     1
102
RTVSPost2010Prop32
280
     0
102
RTVSPost2010PropOp32
 70
     1
102
RTVSPost2010Prop33
280
     0
102
RTVSPost2010PropOp33
 70
     1
102
RTVSPost2010Prop34
280
     0
102
RTVSPost2010PropOp34
 70
     1
102
RTVSPost2010Prop35
280
     0
102
RTVSPost2010PropOp35
 70
     1
102
RTVSPost2010Prop36
280
     0
102
RTVSPost2010PropOp36
 70
     1
102
RTVSPost2010Prop37
 90
       50
102
RTVSPost2010PropOp37
 70
     1
102
RTVSPost2010Prop38
140
0.0
102
RTVSPost2010PropOp38
 70
     1
102
RTVSPost2010Prop39
140
1.0
102
RTVSPost2010PropOp39
 70
     1
102
RTVSPost2010Prop40
 90
        0
102
RTVSPost2010PropOp40
 70
     1
102
RTVSPost2010Prop41ColorIndex
 90
       18
102
RTVSPost2010Prop41ColorRGB
 90
        0
102
RTVSPost2010PropOp41
 70
     1
102
RTVSPost2010Prop42
 90
       50
102
RTVSPost2010PropOp42
 70
     1
102
RTVSPost2010Prop43
 90
        3
102
RTVSPost2010PropOp43
 70
     1
102
RTVSPost2010Prop44ColorIndex
 90
        5
102
RTVSPost2010Prop44ColorRGB
 90
      255
102
RTVSPost2010PropOp44
 70
     1
102
RTVSPost2010Prop45
280
     0
102
RTVSPost2010PropOp45
 70
     1
102
RTVSPost2010Prop46
 90
       50
102
RTVSPost2010PropOp46
 70
     1
102
RTVSPost2010Prop47
 90
       50
102
RTVSPost2010PropOp47
 70
     1
102
RTVSPost2010Prop48
 90
       50
102
RTVSPost2010PropOp48
 70
     1
102
RTVSPost2010Prop49
280
     0
102
RTVSPost2010PropOp49
 70
     1
102
RTVSPost2010Prop50
 90
       50
102
RTVSPost2010PropOp50
 70
     1
102
RTVSPost2010Prop51ColorIndex
 90
      256
102
RTVSPost2010Prop51ColorRGB
 90
-16777216
102
RTVSPost2010PropOp51
 70
     0
102
RTVSPost2010Prop52
140
1.0
102
RTVSPost2010PropOp52
 70
     0
102
RTVSPost2010Prop53
 90
        2
102
RTVSPost2010PropOp53
 70
     1
102
RTVSPost2010Prop54
  1
strokes_ogs.tif
102
RTVSPost2010PropOp54
 70
     1
102
RTVSPost2010Prop55
280
     0
102
RTVSPost2010PropOp55
 70
     1
102
RTVSPost2010Prop56
140
1.0
102
RTVSPost2010PropOp56
 70
     1
102
RTVSPost2010Prop57
140
1.0
102
RTVSPost2010PropOp57
 70
     1
  0
XRECORD
  5
277
102
{ACAD_REACTORS
330
276
102
}
330
276
100
AcDbXrecord
280
     1
102
RTVSPost2010Prop28
280
     0
102
RTVSPost2010PropOp28
 70
     1
102
RTVSPost2010Prop29
280
     1
102
RTVSPost2010PropOp29
 70
     1
102
RTVSPost2010Prop30
280
     1
102
RTVSPost2010PropOp30
 70
     1
102
RTVSPost2010Prop31
280
     0
102
RTVSPost2010PropOp31
 70
     1
102
RTVSPost2010Prop32
280
     0
102
RTVSPost2010PropOp32
 70
     1
102
RTVSPost2010Prop33
280
     0
102
RTVSPost2010PropOp33
 70
     1
102
RTVSPost2010Prop34
280
     0
102
RTVSPost2010PropOp34
 70
     1
102
RTVSPost2010Prop35
280
     0
102
RTVSPost2010PropOp35
 70
     1
102
RTVSPost2010Prop36
280
     0
102
RTVSPost2010PropOp36
 70
     1
102
RTVSPost2010Prop37
 90
       50
102
RTVSPost2010PropOp37
 70
     1
102
RTVSPost2010Prop38
140
0.0
102
RTVSPost2010PropOp38
 70
     1
102
RTVSPost2010Prop39
140
1.0
102
RTVSPost2010PropOp39
 70
     1
102
RTVSPost2010Prop40
 90
        0
102
RTVSPost2010PropOp40
 70
     1
102
RTVSPost2010Prop41ColorIndex
 90
       18
102
RTVSPost2010Prop41ColorRGB
 90
        0
102
RTVSPost2010PropOp41
 70
     1
102
RTVSPost2010Prop42
 90
       50
102
RTVSPost2010PropOp42
 70
     1
102
RTVSPost2010Prop43
 90
        3
102
RTVSPost2010PropOp43
 70
     1
102
RTVSPost2010Prop44ColorIndex
 90
        5
102
RTVSPost2010Prop44ColorRGB
 90
      255
102
RTVSPost2010PropOp44
 70
     1
102
RTVSPost2010Prop45
280
     0
102
RTVSPost2010PropOp45
 70
     1
102
RTVSPost2010Prop46
 90
       50
102
RTVSPost2010PropOp46
 70
     1
102
RTVSPost2010Prop47
 90
       50
102
RTVSPost2010PropOp47
 70
     1
102
RTVSPost2010Prop48
 90
       50
102
RTVSPost2010PropOp48
 70
     1
102
RTVSPost2010Prop49
280
     0
102
RTVSPost2010PropOp49
 70
     1
102
RTVSPost2010Prop50
 90
       50
102
RTVSPost2010PropOp50
 70
     1
102
RTVSPost2010Prop51ColorIndex
 90
      256
102
RTVSPost2010Prop51ColorRGB
 90
-16777216
102
RTVSPost2010PropOp51
 70
     0
102
RTVSPost2010Prop52
140
1.0
102
RTVSPost2010PropOp52
 70
     0
102
RTVSPost2010Prop53
 90
        2
102
RTVSPost2010PropOp53
 70
     1
102
RTVSPost2010Prop54
  1
strokes_ogs.tif
102
RTVSPost2010PropOp54
 70
     1
102
RTVSPost2010Prop55
280
     0
102
RTVSPost2010PropOp55
 70
     1
102
RTVSPost2010Prop56
140
1.0
102
RTVSPost2010PropOp56
 70
     1
102
RTVSPost2010Prop57
140
1.0
102
RTVSPost2010PropOp57
 70
     1
  0
XRECORD
  5
279
102
{ACAD_REACTORS
330
278
102
}
330
278
100
AcDbXrecord
280
     1
102
RTVSPost2010Prop28
280
     0
102
RTVSPost2010PropOp28
 70
     1
102
RTVSPost2010Prop29
280
     1
102
RTVSPost2010PropOp29
 70
     1
102
RTVSPost2010Prop30
280
     1
102
RTVSPost2010PropOp30
 70
     1
102
RTVSPost2010Prop31
280
     0
102
RTVSPost2010PropOp31
 70
     1
102
RTVSPost2010Prop32
280
     0
102
RTVSPost2010PropOp32
 70
     1
102
RTVSPost2010Prop33
280
     0
102
RTVSPost2010PropOp33
 70
     1
102
RTVSPost2010Prop34
280
     0
102
RTVSPost2010PropOp34
 70
     1
102
RTVSPost2010Prop35
280
     0
102
RTVSPost2010PropOp35
 70
     1
102
RTVSPost2010Prop36
280
     0
102
RTVSPost2010PropOp36
 70
     1
102
RTVSPost2010Prop37
 90
       50
102
RTVSPost2010PropOp37
 70
     1
102
RTVSPost2010Prop38
140
0.0
102
RTVSPost2010PropOp38
 70
     1
102
RTVSPost2010Prop39
140
1.0
102
RTVSPost2010PropOp39
 70
     1
102
RTVSPost2010Prop40
 90
        0
102
RTVSPost2010PropOp40
 70
     1
102
RTVSPost2010Prop41ColorIndex
 90
       18
102
RTVSPost2010Prop41ColorRGB
 90
        0
102
RTVSPost2010PropOp41
 70
     1
102
RTVSPost2010Prop42
 90
       50
102
RTVSPost2010PropOp42
 70
     1
102
RTVSPost2010Prop43
 90
        3
102
RTVSPost2010PropOp43
 70
     1
102
RTVSPost2010Prop44ColorIndex
 90
        5
102
RTVSPost2010Prop44ColorRGB
 90
      255
102
RTVSPost2010PropOp44
 70
     1
102
RTVSPost2010Prop45
280
     0
102
RTVSPost2010PropOp45
 70
     1
102
RTVSPost2010Prop46
 90
       50
102
RTVSPost2010PropOp46
 70
     1
102
RTVSPost2010Prop47
 90
       50
102
RTVSPost2010PropOp47
 70
     1
102
RTVSPost2010Prop48
 90
       50
102
RTVSPost2010PropOp48
 70
     1
102
RTVSPost2010Prop49
280
     0
102
RTVSPost2010PropOp49
 70
     1
102
RTVSPost2010Prop50
 90
       50
102
RTVSPost2010PropOp50
 70
     1
102
RTVSPost2010Prop51ColorIndex
 90
      256
102
RTVSPost2010Prop51ColorRGB
 90
-16777216
102
RTVSPost2010PropOp51
 70
     0
102
RTVSPost2010Prop52
140
1.0
102
RTVSPost2010PropOp52
 70
     0
102
RTVSPost2010Prop53
 90
        2
102
RTVSPost2010PropOp53
 70
     1
102
RTVSPost2010Prop54
  1
strokes_ogs.tif
102
RTVSPost2010PropOp54
 70
     1
102
RTVSPost2010Prop55
280
     0
102
RTVSPost2010PropOp55
 70
     1
102
RTVSPost2010Prop56
140
1.0
102
RTVSPost2010PropOp56
 70
     1
102
RTVSPost2010Prop57
140
1.0
102
RTVSPost2010PropOp57
 70
     1
  0
XRECORD
  5
269
102
{ACAD_REACTORS
330
268
102
}
330
268
100
AcDbXrecord
280
     1
102
RTVSPost2010Prop28
280
     0
102
RTVSPost2010PropOp28
 70
     1
102
RTVSPost2010Prop29
280
     1
102
RTVSPost2010PropOp29
 70
     1
102
RTVSPost2010Prop30
280
     1
102
RTVSPost2010PropOp30
 70
     1
102
RTVSPost2010Prop31
280
     0
102
RTVSPost2010PropOp31
 70
     1
102
RTVSPost2010Prop32
280
     0
102
RTVSPost2010PropOp32
 70
     1
102
RTVSPost2010Prop33
280
     0
102
RTVSPost2010PropOp33
 70
     1
102
RTVSPost2010Prop34
280
     0
102
RTVSPost2010PropOp34
 70
     1
102
RTVSPost2010Prop35
280
     0
102
RTVSPost2010PropOp35
 70
     1
102
RTVSPost2010Prop36
280
     0
102
RTVSPost2010PropOp36
 70
     1
102
RTVSPost2010Prop37
 90
       50
102
RTVSPost2010PropOp37
 70
     1
102
RTVSPost2010Prop38
140
0.0
102
RTVSPost2010PropOp38
 70
     1
102
RTVSPost2010Prop39
140
1.0
102
RTVSPost2010PropOp39
 70
     1
102
RTVSPost2010Prop40
 90
        0
102
RTVSPost2010PropOp40
 70
     1
102
RTVSPost2010Prop41ColorIndex
 90
       18
102
RTVSPost2010Prop41ColorRGB
 90
        0
102
RTVSPost2010PropOp41
 70
     1
102
RTVSPost2010Prop42
 90
       50
102
RTVSPost2010PropOp42
 70
     1
102
RTVSPost2010Prop43
 90
        3
102
RTVSPost2010PropOp43
 70
     1
102
RTVSPost2010Prop44ColorIndex
 90
        5
102
RTVSPost2010Prop44ColorRGB
 90
      255
102
RTVSPost2010PropOp44
 70
     1
102
RTVSPost2010Prop45
280
     0
102
RTVSPost2010PropOp45
 70
     1
102
RTVSPost2010Prop46
 90
       50
102
RTVSPost2010PropOp46
 70
     1
102
RTVSPost2010Prop47
 90
       50
102
RTVSPost2010PropOp47
 70
     1
102
RTVSPost2010Prop48
 90
       50
102
RTVSPost2010PropOp48
 70
     1
102
RTVSPost2010Prop49
280
     0
102
RTVSPost2010PropOp49
 70
     1
102
RTVSPost2010Prop50
 90
       50
102
RTVSPost2010PropOp50
 70
     1
102
RTVSPost2010Prop51ColorIndex
 90
      256
102
RTVSPost2010Prop51ColorRGB
 90
-16777216
102
RTVSPost2010PropOp51
 70
     0
102
RTVSPost2010Prop52
140
1.0
102
RTVSPost2010PropOp52
 70
     0
102
RTVSPost2010Prop53
 90
        2
102
RTVSPost2010PropOp53
 70
     1
102
RTVSPost2010Prop54
  1
strokes_ogs.tif
102
RTVSPost2010PropOp54
 70
     1
102
RTVSPost2010Prop55
280
     0
102
RTVSPost2010PropOp55
 70
     1
102
RTVSPost2010Prop56
140
1.0
102
RTVSPost2010PropOp56
 70
     1
102
RTVSPost2010Prop57
140
1.0
102
RTVSPost2010PropOp57
 70
     1
  0
XRECORD
  5
25B
102
{ACAD_REACTORS
330
25A
102
}
330
25A
100
AcDbXrecord
280
     1
102
RTVSPost2010Prop28
280
     0
102
RTVSPost2010PropOp28
 70
     1
102
RTVSPost2010Prop29
280
     1
102
RTVSPost2010PropOp29
 70
     1
102
RTVSPost2010Prop30
280
     1
102
RTVSPost2010PropOp30
 70
     1
102
RTVSPost2010Prop31
280
     0
102
RTVSPost2010PropOp31
 70
     1
102
RTVSPost2010Prop32
280
     0
102
RTVSPost2010PropOp32
 70
     1
102
RTVSPost2010Prop33
280
     0
102
RTVSPost2010PropOp33
 70
     1
102
RTVSPost2010Prop34
280
     0
102
RTVSPost2010PropOp34
 70
     1
102
RTVSPost2010Prop35
280
     0
102
RTVSPost2010PropOp35
 70
     1
102
RTVSPost2010Prop36
280
     0
102
RTVSPost2010PropOp36
 70
     1
102
RTVSPost2010Prop37
 90
       50
102
RTVSPost2010PropOp37
 70
     1
102
RTVSPost2010Prop38
140
0.0
102
RTVSPost2010PropOp38
 70
     1
102
RTVSPost2010Prop39
140
1.0
102
RTVSPost2010PropOp39
 70
     1
102
RTVSPost2010Prop40
 90
        0
102
RTVSPost2010PropOp40
 70
     1
102
RTVSPost2010Prop41ColorIndex
 90
       18
102
RTVSPost2010Prop41ColorRGB
 90
        0
102
RTVSPost2010PropOp41
 70
     1
102
RTVSPost2010Prop42
 90
       50
102
RTVSPost2010PropOp42
 70
     1
102
RTVSPost2010Prop43
 90
        3
102
RTVSPost2010PropOp43
 70
     1
102
RTVSPost2010Prop44ColorIndex
 90
        5
102
RTVSPost2010Prop44ColorRGB
 90
      255
102
RTVSPost2010PropOp44
 70
     1
102
RTVSPost2010Prop45
280
     0
102
RTVSPost2010PropOp45
 70
     1
102
RTVSPost2010Prop46
 90
       50
102
RTVSPost2010PropOp46
 70
     1
102
RTVSPost2010Prop47
 90
       50
102
RTVSPost2010PropOp47
 70
     1
102
RTVSPost2010Prop48
 90
       50
102
RTVSPost2010PropOp48
 70
     1
102
RTVSPost2010Prop49
280
     0
102
RTVSPost2010PropOp49
 70
     1
102
RTVSPost2010Prop50
 90
       50
102
RTVSPost2010PropOp50
 70
     1
102
RTVSPost2010Prop51ColorIndex
 90
      256
102
RTVSPost2010Prop51ColorRGB
 90
-16777216
102
RTVSPost2010PropOp51
 70
     0
102
RTVSPost2010Prop52
140
1.0
102
RTVSPost2010PropOp52
 70
     0
102
RTVSPost2010Prop53
 90
        2
102
RTVSPost2010PropOp53
 70
     1
102
RTVSPost2010Prop54
  1
strokes_ogs.tif
102
RTVSPost2010PropOp54
 70
     1
102
RTVSPost2010Prop55
280
     0
102
RTVSPost2010PropOp55
 70
     1
102
RTVSPost2010Prop56
140
1.0
102
RTVSPost2010PropOp56
 70
     1
102
RTVSPost2010Prop57
140
1.0
102
RTVSPost2010PropOp57
 70
     1
  0
XRECORD
  5
27B
102
{ACAD_REACTORS
330
27A
102
}
330
27A
100
AcDbXrecord
280
     1
102
RTVSPost2010Prop28
280
     0
102
RTVSPost2010PropOp28
 70
     1
102
RTVSPost2010Prop29
280
     1
102
RTVSPost2010PropOp29
 70
     1
102
RTVSPost2010Prop30
280
     1
102
RTVSPost2010PropOp30
 70
     1
102
RTVSPost2010Prop31
280
     0
102
RTVSPost2010PropOp31
 70
     1
102
RTVSPost2010Prop32
280
     0
102
RTVSPost2010PropOp32
 70
     1
102
RTVSPost2010Prop33
280
     0
102
RTVSPost2010PropOp33
 70
     1
102
RTVSPost2010Prop34
280
     0
102
RTVSPost2010PropOp34
 70
     1
102
RTVSPost2010Prop35
280
     0
102
RTVSPost2010PropOp35
 70
     1
102
RTVSPost2010Prop36
280
     0
102
RTVSPost2010PropOp36
 70
     1
102
RTVSPost2010Prop37
 90
       50
102
RTVSPost2010PropOp37
 70
     1
102
RTVSPost2010Prop38
140
0.0
102
RTVSPost2010PropOp38
 70
     1
102
RTVSPost2010Prop39
140
1.0
102
RTVSPost2010PropOp39
 70
     1
102
RTVSPost2010Prop40
 90
        0
102
RTVSPost2010PropOp40
 70
     1
102
RTVSPost2010Prop41ColorIndex
 90
       18
102
RTVSPost2010Prop41ColorRGB
 90
        0
102
RTVSPost2010PropOp41
 70
     1
102
RTVSPost2010Prop42
 90
       50
102
RTVSPost2010PropOp42
 70
     1
102
RTVSPost2010Prop43
 90
        3
102
RTVSPost2010PropOp43
 70
     1
102
RTVSPost2010Prop44ColorIndex
 90
        5
102
RTVSPost2010Prop44ColorRGB
 90
      255
102
RTVSPost2010PropOp44
 70
     1
102
RTVSPost2010Prop45
280
     0
102
RTVSPost2010PropOp45
 70
     1
102
RTVSPost2010Prop46
 90
       50
102
RTVSPost2010PropOp46
 70
     1
102
RTVSPost2010Prop47
 90
       50
102
RTVSPost2010PropOp47
 70
     1
102
RTVSPost2010Prop48
 90
       50
102
RTVSPost2010PropOp48
 70
     1
102
RTVSPost2010Prop49
280
     0
102
RTVSPost2010PropOp49
 70
     1
102
RTVSPost2010Prop50
 90
       50
102
RTVSPost2010PropOp50
 70
     1
102
RTVSPost2010Prop51ColorIndex
 90
      256
102
RTVSPost2010Prop51ColorRGB
 90
-16777216
102
RTVSPost2010PropOp51
 70
     0
102
RTVSPost2010Prop52
140
1.0
102
RTVSPost2010PropOp52
 70
     0
102
RTVSPost2010Prop53
 90
        2
102
RTVSPost2010PropOp53
 70
     1
102
RTVSPost2010Prop54
  1
strokes_ogs.tif
102
RTVSPost2010PropOp54
 70
     1
102
RTVSPost2010Prop55
280
     0
102
RTVSPost2010PropOp55
 70
     1
102
RTVSPost2010Prop56
140
1.0
102
RTVSPost2010PropOp56
 70
     1
102
RTVSPost2010Prop57
140
1.0
102
RTVSPost2010PropOp57
 70
     1
  0
ENDSEC
  0
EOF
